0
SECTION
2
HEADER
9
$ACADVER
1
AC1009
9
$DWGCODEPAGE
3
ANSI_932
9
$EXTMIN
10
0.000
20
0.000
30
0.0
9
$EXTMAX
10
2378.000
20
1682.000
30
0.0
9
$LTSCALE
40
2.000
9
$PDMODE
70
0
9
$PDSIZE
40
40.0
0
ENDSEC
0
SECTION
2
TABLES
0
TABLE
2
LTYPE
70
9
0
LTYPE
5
1f4
2
CONTINUOUS
70
64
3
SolidLine
72
65
73
0
40
0.0
0
LTYPE
5
1f5
2
DOT
70
64
3
--  --  --  --  --  --  --  --     
72
65
73
2
40
3.000
49
1.000
49
-2.000
0
LTYPE
5
1f6
2
DASHED
70
64
3
----    ----    ----    ----    
72
65
73
2
40
5.000
49
2.000
49
-3.000
0
LTYPE
5
1f7
2
DASHED2
70
64
3
------  ------  ------  ------ 
72
65
73
2
40
10.000
49
4.000
49
-6.000
0
LTYPE
5
1f8
2
CENTER
70
64
3
----- - ----- - ----- - ----- - 
72
65
73
4
40
10.000
49
6.000
49
-3.000
49
1.000
49
-3.000
0
LTYPE
5
1f9
2
CENTER2
70
64
3
----------  --  ----------  -- 
72
65
73
4
40
17.000
49
12.000
49
-5.000
49
2.000
49
-5.000
0
LTYPE
5
1fa
2
PHANTOM
70
64
3
--- - - --- - - --- - - --- - -
72
65
73
6
40
13.000
49
5.000
49
-3.000
49
1.000
49
-3.000
49
1.000
49
-3.000
0
LTYPE
5
1fb
2
PHANTOM2
70
64
3
--------  -  -  --------  -  -
72
65
73
6
40
20.000
49
6.000
49
-5.000
49
2.000
49
-5.000
49
2.000
49
-5.000
0
LTYPE
5
1fc
2
HIDDEN
70
64
3
-   -   -   -   -   -   -   -   
72
65
73
2
40
3.000
49
0.500
49
-2.500
0
ENDTAB
0
TABLE
2
STYLE
70
1
0
STYLE
5
1fd
100
AcDbSymbolTableRecord
100
AcDbTextStyleTableRecord
2
STANDARD
70
0
40
0.0
41
1.0
50
0.0
71
0
42
0.0
3
txt.shx
4
extfont.shx
0
STYLE
5
1fe
100
AcDbSymbolTableRecord
100
AcDbTextStyleTableRecord
2
TATEGAKI
70
4
40
0.0
41
1.0
50
0.0
71
0
42
0.0
3
txt.shx
4
extfont.shx
0
STYLE
5
1ff
100
AcDbSymbolTableRecord
100
AcDbTextStyleTableRecord
2
DIM
70
0
40
0.0
41
0.75
50
0.0
71
0
42
0.0
3
txt.shx
4
extfont.shx
0
STYLE
5
200
100
AcDbSymbolTableRecord
100
AcDbTextStyleTableRecord
2
_Gothic__
70
0
40
0.0
41
1.0
50
0.0
71
0
42
0.0
3
MS Gothic
4

0
STYLE
5
201
100
AcDbSymbolTableRecord
100
AcDbTextStyleTableRecord
2
_TateGothic_
70
4
40
0.0
41
1.0
50
0.0
71
0
42
0.0
3
@MS Gothic
4

0
ENDTAB
0
TABLE
2
LAYER
5
403
100
AcDbSymbolTable
70
10
0
LAYER
5
404
100
AcDbSymbolTableRecord
100
AcDbLayerTableRecord
2
0-0
70
0
62
7
6
CONTINUOUS
0
LAYER
5
405
100
AcDbSymbolTableRecord
100
AcDbLayerTableRecord
2
F-F_J_ADD
70
0
62
-7
6
CONTINUOUS
0
ENDTAB
0
ENDSEC
0
SECTION
2
ENTITIES
0
LINE
5
406
100
AcDbEntity
8
0-0
6
CONTINUOUS
62
7
100
AcDbLine
10
795.210000000000
20
862.290000000000
30
0.0
11
794.520000000000
21
862.690000000000
31
0.0
0
LINE
5
407
100
AcDbEntity
8
0-0
6
CONTINUOUS
62
7
100
AcDbLine
10
795.210000000000
20
862.290000000000
30
0.0
11
795.210000000000
21
862.290000000000
31
0.0
0
LINE
5
408
100
AcDbEntity
8
0-0
6
CONTINUOUS
62
7
100
AcDbLine
10
809.750000000000
20
887.440000000000
30
0.0
11
795.210000000000
21
862.290000000000
31
0.0
0
LINE
5
409
100
AcDbEntity
8
0-0
6
CONTINUOUS
62
7
100
AcDbLine
10
794.520000000000
20
862.690000000000
30
0.0
11
809.060000000000
21
887.840000000000
31
0.0
0
LINE
5
40a
100
AcDbEntity
8
0-0
6
CONTINUOUS
62
7
100
AcDbLine
10
857.900000000000
20
887.940000000000
30
0.0
11
810.610000000000
21
887.940000000000
31
0.0
0
LINE
5
40b
100
AcDbEntity
8
0-0
6
CONTINUOUS
62
7
100
AcDbLine
10
810.610000000000
20
888.740000000000
30
0.0
11
857.900000000000
21
888.740000000000
31
0.0
0
LINE
5
40c
100
AcDbEntity
8
0-0
6
CONTINUOUS
62
7
100
AcDbLine
10
958.190000000000
20
717.040000000000
30
0.0
11
859.460000000000
21
887.840000000000
31
0.0
0
LINE
5
40d
100
AcDbEntity
8
0-0
6
CONTINUOUS
62
7
100
AcDbLine
10
858.770000000000
20
887.440000000000
30
0.0
11
957.500000000000
21
716.640000000000
31
0.0
0
LINE
5
40e
100
AcDbEntity
8
0-0
6
CONTINUOUS
62
7
100
AcDbLine
10
1008.360000000000
20
716.540000000000
30
0.0
11
959.060000000000
21
716.540000000000
31
0.0
0
LINE
5
40f
100
AcDbEntity
8
0-0
6
CONTINUOUS
62
7
100
AcDbLine
10
959.060000000000
20
715.740000000000
30
0.0
11
1008.360000000000
21
715.740000000000
31
0.0
0
LINE
5
410
100
AcDbEntity
8
0-0
6
CONTINUOUS
62
7
100
AcDbLine
10
1109.110000000000
20
888.240000000000
30
0.0
11
1009.920000000000
21
716.640000000000
31
0.0
0
LINE
5
411
100
AcDbEntity
8
0-0
6
CONTINUOUS
62
7
100
AcDbLine
10
1009.230000000000
20
717.040000000000
30
0.0
11
1108.420000000000
21
888.640000000000
31
0.0
0
LINE
5
412
100
AcDbEntity
8
0-0
6
CONTINUOUS
62
7
100
AcDbLine
10
1158.410000000000
20
888.740000000000
30
0.0
11
1109.980000000000
21
888.740000000000
31
0.0
0
LINE
5
413
100
AcDbEntity
8
0-0
6
CONTINUOUS
62
7
100
AcDbLine
10
1109.980000000000
20
889.540000000000
30
0.0
11
1158.410000000000
21
889.540000000000
31
0.0
0
LINE
5
414
100
AcDbEntity
8
0-0
6
CONTINUOUS
62
7
100
AcDbLine
10
1176.090000000000
20
864.690000000000
30
0.0
11
1159.900000000000
21
888.750000000000
31
0.0
0
LINE
5
415
100
AcDbEntity
8
0-0
6
CONTINUOUS
62
7
100
AcDbLine
10
1175.340000000000
20
864.370000000000
30
0.0
11
1159.240000000000
21
888.300000000000
31
0.0
0
LINE
5
416
100
AcDbEntity
8
0-0
6
CONTINUOUS
62
7
100
AcDbLine
10
1175.340000000000
20
864.370000000000
30
0.0
11
1175.340000000000
21
859.690000000000
31
0.0
0
LINE
5
417
100
AcDbEntity
8
0-0
6
CONTINUOUS
62
7
100
AcDbLine
10
1175.340000000000
20
859.690000000000
30
0.0
11
1176.090000000000
21
859.690000000000
31
0.0
0
LINE
5
418
100
AcDbEntity
8
0-0
6
CONTINUOUS
62
7
100
AcDbLine
10
1176.090000000000
20
864.690000000000
30
0.0
11
1176.090000000000
21
859.690000000000
31
0.0
0
LINE
5
419
100
AcDbEntity
8
0-0
6
CONTINUOUS
62
4
100
AcDbLine
10
1200.980000000000
20
881.440000000000
30
0.0
11
1184.230000000000
21
906.330000000000
31
0.0
0
LINE
5
41a
100
AcDbEntity
8
0-0
6
CONTINUOUS
62
4
100
AcDbLine
10
1171.790000000000
20
897.950000000000
30
0.0
11
1184.230000000000
21
906.330000000000
31
0.0
0
LINE
5
41b
100
AcDbEntity
8
0-0
6
CONTINUOUS
62
4
100
AcDbLine
10
1188.530000000000
20
873.060000000000
30
0.0
11
1200.980000000000
21
881.440000000000
31
0.0
0
LINE
5
41c
100
AcDbEntity
8
0-0
6
CONTINUOUS
62
4
100
AcDbLine
10
1206.090000000000
20
864.690000000000
30
0.0
11
1206.090000000000
21
859.690000000000
31
0.0
0
LINE
5
41d
100
AcDbEntity
8
0-0
6
CONTINUOUS
62
4
100
AcDbLine
10
1191.090000000000
20
864.690000000000
30
0.0
11
1206.090000000000
21
864.690000000000
31
0.0
0
LINE
5
41e
100
AcDbEntity
8
0-0
6
CONTINUOUS
62
4
100
AcDbLine
10
1191.090000000000
20
859.690000000000
30
0.0
11
1206.090000000000
21
859.690000000000
31
0.0
0
LINE
5
41f
100
AcDbEntity
8
0-0
6
CONTINUOUS
62
4
100
AcDbLine
10
808.940000000000
20
919.150000000000
30
0.0
11
858.940000000000
21
919.150000000000
31
0.0
0
LINE
5
420
100
AcDbEntity
8
0-0
6
CONTINUOUS
62
4
100
AcDbLine
10
808.940000000000
20
904.150000000000
30
0.0
11
808.940000000000
21
919.150000000000
31
0.0
0
LINE
5
421
100
AcDbEntity
8
0-0
6
CONTINUOUS
62
4
100
AcDbLine
10
858.940000000000
20
904.150000000000
30
0.0
11
858.940000000000
21
919.150000000000
31
0.0
0
LINE
5
422
100
AcDbEntity
8
0-0
6
CONTINUOUS
62
4
100
AcDbLine
10
1108.940000000000
20
904.150000000000
30
0.0
11
1108.940000000000
21
919.150000000000
31
0.0
0
LINE
5
423
100
AcDbEntity
8
0-0
6
CONTINUOUS
62
4
100
AcDbLine
10
1108.940000000000
20
919.150000000000
30
0.0
11
1158.940000000000
21
919.150000000000
31
0.0
0
LINE
5
424
100
AcDbEntity
8
0-0
6
CONTINUOUS
62
4
100
AcDbLine
10
1158.940000000000
20
904.150000000000
30
0.0
11
1158.940000000000
21
919.150000000000
31
0.0
0
LINE
5
425
100
AcDbEntity
8
0-0
6
CONTINUOUS
62
4
100
AcDbLine
10
833.940000000000
20
949.150000000000
30
0.0
11
1133.940000000000
21
949.150000000000
31
0.0
0
LINE
5
426
100
AcDbEntity
8
0-0
6
CONTINUOUS
62
4
100
AcDbLine
10
958.940000000000
20
686.130000000000
30
0.0
11
1008.940000000000
21
686.130000000000
31
0.0
0
LINE
5
427
100
AcDbEntity
8
0-0
6
CONTINUOUS
62
4
100
AcDbLine
10
958.940000000000
20
701.130000000000
30
0.0
11
958.940000000000
21
686.130000000000
31
0.0
0
LINE
5
428
100
AcDbEntity
8
0-0
6
CONTINUOUS
62
4
100
AcDbLine
10
1008.940000000000
20
701.130000000000
30
0.0
11
1008.940000000000
21
686.130000000000
31
0.0
0
LINE
5
429
100
AcDbEntity
8
0-0
6
CONTINUOUS
62
4
100
AcDbLine
10
983.940000000000
20
889.540000000000
30
0.0
11
1029.910000000000
21
889.540000000000
31
0.0
0
LINE
5
42a
100
AcDbEntity
8
0-0
6
CONTINUOUS
62
4
100
AcDbLine
10
983.940000000000
20
829.210000000000
30
0.0
11
983.940000000000
21
889.540000000000
31
0.0
0
LINE
5
42b
100
AcDbEntity
8
0-0
6
CONTINUOUS
62
4
100
AcDbLine
10
983.940000000000
20
716.540000000000
30
0.0
11
983.940000000000
21
802.560000000000
31
0.0
0
LINE
5
42c
100
AcDbEntity
8
0-0
6
CENTER2
62
4
100
AcDbLine
10
833.940000000000
20
865.260000000000
30
0.0
11
833.940000000000
21
915.600000000000
31
0.0
0
LINE
5
42d
100
AcDbEntity
8
0-0
6
CENTER2
62
4
100
AcDbLine
10
833.940000000000
20
939.380000000000
30
0.0
11
833.940000000000
21
949.150000000000
31
0.0
0
LINE
5
42e
100
AcDbEntity
8
0-0
6
CENTER2
62
4
100
AcDbLine
10
1133.940000000000
20
865.260000000000
30
0.0
11
1133.940000000000
21
915.600000000000
31
0.0
0
LINE
5
42f
100
AcDbEntity
8
0-0
6
CENTER2
62
4
100
AcDbLine
10
1133.940000000000
20
939.380000000000
30
0.0
11
1133.940000000000
21
949.150000000000
31
0.0
0
LINE
5
430
100
AcDbEntity
8
0-0
6
CONTINUOUS
62
2
100
AcDbLine
10
54.760000000000
20
23.630000000000
30
0.0
11
54.760000000000
21
1143.640000000000
31
0.0
0
LINE
5
431
100
AcDbEntity
8
0-0
6
CONTINUOUS
62
2
100
AcDbLine
10
1284.760000000000
20
82.890000000000
30
0.0
11
1284.760000000000
21
23.630000000000
31
0.0
0
LINE
5
432
100
AcDbEntity
8
0-0
6
CONTINUOUS
62
2
100
AcDbLine
10
1214.540000000000
20
82.890000000000
30
0.0
11
1214.540000000000
21
23.630000000000
31
0.0
0
LINE
5
433
100
AcDbEntity
8
0-0
6
CONTINUOUS
62
2
100
AcDbLine
10
1537.120000000000
20
23.630000000000
30
0.0
11
1537.120000000000
21
82.890000000000
31
0.0
0
LINE
5
434
100
AcDbEntity
8
0-0
6
CONTINUOUS
62
2
100
AcDbLine
10
806.890000000000
20
82.890000000000
30
0.0
11
806.890000000000
21
23.630000000000
31
0.0
0
LINE
5
435
100
AcDbEntity
8
0-0
6
CONTINUOUS
62
2
100
AcDbLine
10
1009.740000000000
20
82.890000000000
30
0.0
11
1009.740000000000
21
23.630000000000
31
0.0
0
LINE
5
436
100
AcDbEntity
8
0-0
6
CONTINUOUS
62
2
100
AcDbLine
10
806.890000000000
20
63.140000000000
30
0.0
11
369.760000000000
21
63.140000000000
31
0.0
0
LINE
5
437
100
AcDbEntity
8
0-0
6
CONTINUOUS
62
2
100
AcDbLine
10
806.890000000000
20
43.390000000000
30
0.0
11
369.760000000000
21
43.390000000000
31
0.0
0
LINE
5
438
100
AcDbEntity
8
0-0
6
CONTINUOUS
62
2
100
AcDbLine
10
806.890000000000
20
33.510000000000
30
0.0
11
369.760000000000
21
33.510000000000
31
0.0
0
LINE
5
439
100
AcDbEntity
8
0-0
6
CONTINUOUS
62
2
100
AcDbLine
10
806.890000000000
20
73.020000000000
30
0.0
11
369.760000000000
21
73.020000000000
31
0.0
0
LINE
5
43a
100
AcDbEntity
8
0-0
6
CONTINUOUS
62
2
100
AcDbLine
10
422.420000000000
20
82.890000000000
30
0.0
11
422.420000000000
21
23.630000000000
31
0.0
0
LINE
5
43b
100
AcDbEntity
8
0-0
6
CONTINUOUS
62
2
100
AcDbLine
10
369.760000000000
20
82.890000000000
30
0.0
11
369.760000000000
21
23.630000000000
31
0.0
0
LINE
5
43c
100
AcDbEntity
8
0-0
6
CONTINUOUS
62
2
100
AcDbLine
10
1631.650000000000
20
23.630000000000
30
0.0
11
1631.650000000000
21
1143.640000000000
31
0.0
0
LINE
5
43d
100
AcDbEntity
8
0-0
6
CONTINUOUS
62
2
100
AcDbLine
10
54.760000000000
20
1143.640000000000
30
0.0
11
1631.650000000000
21
1143.640000000000
31
0.0
0
LINE
5
43e
100
AcDbEntity
8
0-0
6
CONTINUOUS
62
2
100
AcDbLine
10
54.760000000000
20
23.630000000000
30
0.0
11
1631.650000000000
21
23.630000000000
31
0.0
0
LINE
5
43f
100
AcDbEntity
8
0-0
6
CONTINUOUS
62
2
100
AcDbLine
10
1631.650000000000
20
82.890000000000
30
0.0
11
54.760000000000
21
82.890000000000
31
0.0
0
LINE
5
440
100
AcDbEntity
8
0-0
6
CONTINUOUS
62
2
100
AcDbLine
10
369.760000000000
20
53.260000000000
30
0.0
11
1631.650000000000
21
53.260000000000
31
0.0
0
LINE
5
441
100
AcDbEntity
8
0-0
6
CONTINUOUS
62
3
100
AcDbLine
10
80.840000000000
20
58.090000000000
30
0.0
11
80.840000000000
21
74.090000000000
31
0.0
0
LINE
5
442
100
AcDbEntity
8
0-0
6
CONTINUOUS
62
3
100
AcDbLine
10
80.840000000000
20
74.090000000000
30
0.0
11
96.840000000000
21
74.090000000000
31
0.0
0
LINE
5
443
100
AcDbEntity
8
0-0
6
CONTINUOUS
62
3
100
AcDbLine
10
96.840000000000
20
74.090000000000
30
0.0
11
96.840000000000
21
58.090000000000
31
0.0
0
LINE
5
444
100
AcDbEntity
8
0-0
6
CONTINUOUS
62
3
100
AcDbLine
10
96.840000000000
20
58.090000000000
30
0.0
11
80.840000000000
21
58.090000000000
31
0.0
0
LINE
5
445
100
AcDbEntity
8
0-0
6
CONTINUOUS
62
3
100
AcDbLine
10
82.440000000000
20
60.260000000000
30
0.0
11
82.440000000000
21
72.490000000000
31
0.0
0
LINE
5
446
100
AcDbEntity
8
0-0
6
CONTINUOUS
62
3
100
AcDbLine
10
95.240000000000
20
59.690000000000
30
0.0
11
83.000000000000
21
59.690000000000
31
0.0
0
LINE
5
447
100
AcDbEntity
8
0-0
6
CONTINUOUS
62
3
100
AcDbLine
10
82.440000000000
20
72.490000000000
30
0.0
11
94.670000000000
21
72.490000000000
31
0.0
0
LINE
5
448
100
AcDbEntity
8
0-0
6
CONTINUOUS
62
3
100
AcDbLine
10
94.670000000000
20
72.490000000000
30
0.0
11
82.440000000000
21
60.260000000000
31
0.0
0
LINE
5
449
100
AcDbEntity
8
0-0
6
CONTINUOUS
62
3
100
AcDbLine
10
95.240000000000
20
71.930000000000
30
0.0
11
83.000000000000
21
59.690000000000
31
0.0
0
LINE
5
44a
100
AcDbEntity
8
0-0
6
CONTINUOUS
62
3
100
AcDbLine
10
95.240000000000
20
71.930000000000
30
0.0
11
95.240000000000
21
59.690000000000
31
0.0
0
LINE
5
44b
100
AcDbEntity
8
0-0
6
CONTINUOUS
62
4
100
AcDbLine
10
80.840000000000
20
73.930000000000
30
0.0
11
96.840000000000
21
73.930000000000
31
0.0
0
LINE
5
44c
100
AcDbEntity
8
0-0
6
CONTINUOUS
62
4
100
AcDbLine
10
80.840000000000
20
73.610000000000
30
0.0
11
96.840000000000
21
73.610000000000
31
0.0
0
LINE
5
44d
100
AcDbEntity
8
0-0
6
CONTINUOUS
62
4
100
AcDbLine
10
80.840000000000
20
73.290000000000
30
0.0
11
96.840000000000
21
73.290000000000
31
0.0
0
LINE
5
44e
100
AcDbEntity
8
0-0
6
CONTINUOUS
62
4
100
AcDbLine
10
80.840000000000
20
72.970000000000
30
0.0
11
96.840000000000
21
72.970000000000
31
0.0
0
LINE
5
44f
100
AcDbEntity
8
0-0
6
CONTINUOUS
62
4
100
AcDbLine
10
80.840000000000
20
72.650000000000
30
0.0
11
96.840000000000
21
72.650000000000
31
0.0
0
LINE
5
450
100
AcDbEntity
8
0-0
6
CONTINUOUS
62
4
100
AcDbLine
10
80.840000000000
20
59.530000000000
30
0.0
11
96.840000000000
21
59.530000000000
31
0.0
0
LINE
5
451
100
AcDbEntity
8
0-0
6
CONTINUOUS
62
4
100
AcDbLine
10
80.840000000000
20
59.210000000000
30
0.0
11
96.840000000000
21
59.210000000000
31
0.0
0
LINE
5
452
100
AcDbEntity
8
0-0
6
CONTINUOUS
62
4
100
AcDbLine
10
80.840000000000
20
58.890000000000
30
0.0
11
96.840000000000
21
58.890000000000
31
0.0
0
LINE
5
453
100
AcDbEntity
8
0-0
6
CONTINUOUS
62
4
100
AcDbLine
10
80.840000000000
20
58.570000000000
30
0.0
11
96.840000000000
21
58.570000000000
31
0.0
0
LINE
5
454
100
AcDbEntity
8
0-0
6
CONTINUOUS
62
4
100
AcDbLine
10
80.840000000000
20
58.250000000000
30
0.0
11
96.840000000000
21
58.250000000000
31
0.0
0
LINE
5
455
100
AcDbEntity
8
0-0
6
CONTINUOUS
62
4
100
AcDbLine
10
80.840000000000
20
60.490000000000
30
0.0
11
82.440000000000
21
60.490000000000
31
0.0
0
LINE
5
456
100
AcDbEntity
8
0-0
6
CONTINUOUS
62
4
100
AcDbLine
10
80.840000000000
20
60.810000000000
30
0.0
11
82.440000000000
21
60.810000000000
31
0.0
0
LINE
5
457
100
AcDbEntity
8
0-0
6
CONTINUOUS
62
4
100
AcDbLine
10
80.840000000000
20
61.130000000000
30
0.0
11
82.440000000000
21
61.130000000000
31
0.0
0
LINE
5
458
100
AcDbEntity
8
0-0
6
CONTINUOUS
62
4
100
AcDbLine
10
80.840000000000
20
61.450000000000
30
0.0
11
82.440000000000
21
61.450000000000
31
0.0
0
LINE
5
459
100
AcDbEntity
8
0-0
6
CONTINUOUS
62
4
100
AcDbLine
10
80.840000000000
20
61.770000000000
30
0.0
11
82.440000000000
21
61.770000000000
31
0.0
0
LINE
5
45a
100
AcDbEntity
8
0-0
6
CONTINUOUS
62
4
100
AcDbLine
10
80.840000000000
20
62.090000000000
30
0.0
11
82.440000000000
21
62.090000000000
31
0.0
0
LINE
5
45b
100
AcDbEntity
8
0-0
6
CONTINUOUS
62
4
100
AcDbLine
10
80.840000000000
20
62.410000000000
30
0.0
11
82.440000000000
21
62.410000000000
31
0.0
0
LINE
5
45c
100
AcDbEntity
8
0-0
6
CONTINUOUS
62
4
100
AcDbLine
10
80.840000000000
20
62.730000000000
30
0.0
11
82.440000000000
21
62.730000000000
31
0.0
0
LINE
5
45d
100
AcDbEntity
8
0-0
6
CONTINUOUS
62
4
100
AcDbLine
10
80.840000000000
20
63.050000000000
30
0.0
11
82.440000000000
21
63.050000000000
31
0.0
0
LINE
5
45e
100
AcDbEntity
8
0-0
6
CONTINUOUS
62
4
100
AcDbLine
10
80.840000000000
20
63.370000000000
30
0.0
11
82.440000000000
21
63.370000000000
31
0.0
0
LINE
5
45f
100
AcDbEntity
8
0-0
6
CONTINUOUS
62
4
100
AcDbLine
10
80.840000000000
20
63.690000000000
30
0.0
11
82.440000000000
21
63.690000000000
31
0.0
0
LINE
5
460
100
AcDbEntity
8
0-0
6
CONTINUOUS
62
4
100
AcDbLine
10
80.840000000000
20
64.010000000000
30
0.0
11
82.440000000000
21
64.010000000000
31
0.0
0
LINE
5
461
100
AcDbEntity
8
0-0
6
CONTINUOUS
62
4
100
AcDbLine
10
80.840000000000
20
64.330000000000
30
0.0
11
82.440000000000
21
64.330000000000
31
0.0
0
LINE
5
462
100
AcDbEntity
8
0-0
6
CONTINUOUS
62
4
100
AcDbLine
10
80.840000000000
20
64.650000000000
30
0.0
11
82.440000000000
21
64.650000000000
31
0.0
0
LINE
5
463
100
AcDbEntity
8
0-0
6
CONTINUOUS
62
4
100
AcDbLine
10
80.840000000000
20
64.970000000000
30
0.0
11
82.440000000000
21
64.970000000000
31
0.0
0
LINE
5
464
100
AcDbEntity
8
0-0
6
CONTINUOUS
62
4
100
AcDbLine
10
80.840000000000
20
65.290000000000
30
0.0
11
82.440000000000
21
65.290000000000
31
0.0
0
LINE
5
465
100
AcDbEntity
8
0-0
6
CONTINUOUS
62
4
100
AcDbLine
10
80.840000000000
20
65.610000000000
30
0.0
11
82.440000000000
21
65.610000000000
31
0.0
0
LINE
5
466
100
AcDbEntity
8
0-0
6
CONTINUOUS
62
4
100
AcDbLine
10
80.840000000000
20
65.930000000000
30
0.0
11
82.440000000000
21
65.930000000000
31
0.0
0
LINE
5
467
100
AcDbEntity
8
0-0
6
CONTINUOUS
62
4
100
AcDbLine
10
80.840000000000
20
66.250000000000
30
0.0
11
82.440000000000
21
66.250000000000
31
0.0
0
LINE
5
468
100
AcDbEntity
8
0-0
6
CONTINUOUS
62
4
100
AcDbLine
10
80.840000000000
20
66.570000000000
30
0.0
11
82.440000000000
21
66.570000000000
31
0.0
0
LINE
5
469
100
AcDbEntity
8
0-0
6
CONTINUOUS
62
4
100
AcDbLine
10
80.840000000000
20
66.890000000000
30
0.0
11
82.440000000000
21
66.890000000000
31
0.0
0
LINE
5
46a
100
AcDbEntity
8
0-0
6
CONTINUOUS
62
4
100
AcDbLine
10
80.840000000000
20
67.210000000000
30
0.0
11
82.440000000000
21
67.210000000000
31
0.0
0
LINE
5
46b
100
AcDbEntity
8
0-0
6
CONTINUOUS
62
4
100
AcDbLine
10
80.840000000000
20
67.530000000000
30
0.0
11
82.440000000000
21
67.530000000000
31
0.0
0
LINE
5
46c
100
AcDbEntity
8
0-0
6
CONTINUOUS
62
4
100
AcDbLine
10
80.840000000000
20
67.850000000000
30
0.0
11
82.440000000000
21
67.850000000000
31
0.0
0
LINE
5
46d
100
AcDbEntity
8
0-0
6
CONTINUOUS
62
4
100
AcDbLine
10
80.840000000000
20
68.810000000000
30
0.0
11
82.440000000000
21
68.810000000000
31
0.0
0
LINE
5
46e
100
AcDbEntity
8
0-0
6
CONTINUOUS
62
4
100
AcDbLine
10
80.840000000000
20
69.770000000000
30
0.0
11
82.440000000000
21
69.770000000000
31
0.0
0
LINE
5
46f
100
AcDbEntity
8
0-0
6
CONTINUOUS
62
4
100
AcDbLine
10
80.840000000000
20
70.090000000000
30
0.0
11
82.440000000000
21
70.090000000000
31
0.0
0
LINE
5
470
100
AcDbEntity
8
0-0
6
CONTINUOUS
62
4
100
AcDbLine
10
80.840000000000
20
70.410000000000
30
0.0
11
82.440000000000
21
70.410000000000
31
0.0
0
LINE
5
471
100
AcDbEntity
8
0-0
6
CONTINUOUS
62
4
100
AcDbLine
10
80.840000000000
20
70.730000000000
30
0.0
11
82.440000000000
21
70.730000000000
31
0.0
0
LINE
5
472
100
AcDbEntity
8
0-0
6
CONTINUOUS
62
4
100
AcDbLine
10
80.840000000000
20
72.330000000000
30
0.0
11
82.440000000000
21
72.330000000000
31
0.0
0
LINE
5
473
100
AcDbEntity
8
0-0
6
CONTINUOUS
62
4
100
AcDbLine
10
80.840000000000
20
72.010000000000
30
0.0
11
82.440000000000
21
72.010000000000
31
0.0
0
LINE
5
474
100
AcDbEntity
8
0-0
6
CONTINUOUS
62
4
100
AcDbLine
10
80.840000000000
20
71.690000000000
30
0.0
11
82.440000000000
21
71.690000000000
31
0.0
0
LINE
5
475
100
AcDbEntity
8
0-0
6
CONTINUOUS
62
4
100
AcDbLine
10
80.840000000000
20
71.370000000000
30
0.0
11
82.440000000000
21
71.370000000000
31
0.0
0
LINE
5
476
100
AcDbEntity
8
0-0
6
CONTINUOUS
62
4
100
AcDbLine
10
80.840000000000
20
71.050000000000
30
0.0
11
82.440000000000
21
71.050000000000
31
0.0
0
LINE
5
477
100
AcDbEntity
8
0-0
6
CONTINUOUS
62
4
100
AcDbLine
10
80.840000000000
20
69.130000000000
30
0.0
11
82.440000000000
21
69.130000000000
31
0.0
0
LINE
5
478
100
AcDbEntity
8
0-0
6
CONTINUOUS
62
4
100
AcDbLine
10
80.840000000000
20
69.450000000000
30
0.0
11
82.440000000000
21
69.450000000000
31
0.0
0
LINE
5
479
100
AcDbEntity
8
0-0
6
CONTINUOUS
62
4
100
AcDbLine
10
80.840000000000
20
68.490000000000
30
0.0
11
82.440000000000
21
68.490000000000
31
0.0
0
LINE
5
47a
100
AcDbEntity
8
0-0
6
CONTINUOUS
62
4
100
AcDbLine
10
80.840000000000
20
68.170000000000
30
0.0
11
82.440000000000
21
68.170000000000
31
0.0
0
LINE
5
47b
100
AcDbEntity
8
0-0
6
CONTINUOUS
62
4
100
AcDbLine
10
82.990000000000
20
60.810000000000
30
0.0
11
84.120000000000
21
60.810000000000
31
0.0
0
LINE
5
47c
100
AcDbEntity
8
0-0
6
CONTINUOUS
62
4
100
AcDbLine
10
82.670000000000
20
60.490000000000
30
0.0
11
83.800000000000
21
60.490000000000
31
0.0
0
LINE
5
47d
100
AcDbEntity
8
0-0
6
CONTINUOUS
62
4
100
AcDbLine
10
80.840000000000
20
60.170000000000
30
0.0
11
83.480000000000
21
60.170000000000
31
0.0
0
LINE
5
47e
100
AcDbEntity
8
0-0
6
CONTINUOUS
62
4
100
AcDbLine
10
80.840000000000
20
59.850000000000
30
0.0
11
83.160000000000
21
59.850000000000
31
0.0
0
LINE
5
47f
100
AcDbEntity
8
0-0
6
CONTINUOUS
62
4
100
AcDbLine
10
84.910000000000
20
62.730000000000
30
0.0
11
86.040000000000
21
62.730000000000
31
0.0
0
LINE
5
480
100
AcDbEntity
8
0-0
6
CONTINUOUS
62
4
100
AcDbLine
10
84.590000000000
20
62.410000000000
30
0.0
11
85.720000000000
21
62.410000000000
31
0.0
0
LINE
5
481
100
AcDbEntity
8
0-0
6
CONTINUOUS
62
4
100
AcDbLine
10
84.270000000000
20
62.090000000000
30
0.0
11
85.400000000000
21
62.090000000000
31
0.0
0
LINE
5
482
100
AcDbEntity
8
0-0
6
CONTINUOUS
62
4
100
AcDbLine
10
83.950000000000
20
61.770000000000
30
0.0
11
85.080000000000
21
61.770000000000
31
0.0
0
LINE
5
483
100
AcDbEntity
8
0-0
6
CONTINUOUS
62
4
100
AcDbLine
10
83.630000000000
20
61.450000000000
30
0.0
11
84.760000000000
21
61.450000000000
31
0.0
0
LINE
5
484
100
AcDbEntity
8
0-0
6
CONTINUOUS
62
4
100
AcDbLine
10
83.310000000000
20
61.130000000000
30
0.0
11
84.440000000000
21
61.130000000000
31
0.0
0
LINE
5
485
100
AcDbEntity
8
0-0
6
CONTINUOUS
62
4
100
AcDbLine
10
82.440000000000
20
72.490000000000
30
0.0
11
82.440000000000
21
72.810000000000
31
0.0
0
LINE
5
486
100
AcDbEntity
8
0-0
6
CONTINUOUS
62
4
100
AcDbLine
10
95.240000000000
20
60.490000000000
30
0.0
11
96.840000000000
21
60.490000000000
31
0.0
0
LINE
5
487
100
AcDbEntity
8
0-0
6
CONTINUOUS
62
4
100
AcDbLine
10
95.240000000000
20
60.810000000000
30
0.0
11
96.840000000000
21
60.810000000000
31
0.0
0
LINE
5
488
100
AcDbEntity
8
0-0
6
CONTINUOUS
62
4
100
AcDbLine
10
95.240000000000
20
61.130000000000
30
0.0
11
96.840000000000
21
61.130000000000
31
0.0
0
LINE
5
489
100
AcDbEntity
8
0-0
6
CONTINUOUS
62
4
100
AcDbLine
10
95.240000000000
20
61.450000000000
30
0.0
11
96.840000000000
21
61.450000000000
31
0.0
0
LINE
5
48a
100
AcDbEntity
8
0-0
6
CONTINUOUS
62
4
100
AcDbLine
10
95.240000000000
20
61.770000000000
30
0.0
11
96.840000000000
21
61.770000000000
31
0.0
0
LINE
5
48b
100
AcDbEntity
8
0-0
6
CONTINUOUS
62
4
100
AcDbLine
10
95.240000000000
20
62.090000000000
30
0.0
11
96.840000000000
21
62.090000000000
31
0.0
0
LINE
5
48c
100
AcDbEntity
8
0-0
6
CONTINUOUS
62
4
100
AcDbLine
10
95.240000000000
20
62.410000000000
30
0.0
11
96.840000000000
21
62.410000000000
31
0.0
0
LINE
5
48d
100
AcDbEntity
8
0-0
6
CONTINUOUS
62
4
100
AcDbLine
10
95.240000000000
20
62.730000000000
30
0.0
11
96.840000000000
21
62.730000000000
31
0.0
0
LINE
5
48e
100
AcDbEntity
8
0-0
6
CONTINUOUS
62
4
100
AcDbLine
10
95.240000000000
20
63.050000000000
30
0.0
11
96.840000000000
21
63.050000000000
31
0.0
0
LINE
5
48f
100
AcDbEntity
8
0-0
6
CONTINUOUS
62
4
100
AcDbLine
10
95.240000000000
20
63.370000000000
30
0.0
11
96.840000000000
21
63.370000000000
31
0.0
0
LINE
5
490
100
AcDbEntity
8
0-0
6
CONTINUOUS
62
4
100
AcDbLine
10
95.240000000000
20
63.690000000000
30
0.0
11
96.840000000000
21
63.690000000000
31
0.0
0
LINE
5
491
100
AcDbEntity
8
0-0
6
CONTINUOUS
62
4
100
AcDbLine
10
95.240000000000
20
64.010000000000
30
0.0
11
96.840000000000
21
64.010000000000
31
0.0
0
LINE
5
492
100
AcDbEntity
8
0-0
6
CONTINUOUS
62
4
100
AcDbLine
10
95.240000000000
20
64.330000000000
30
0.0
11
96.840000000000
21
64.330000000000
31
0.0
0
LINE
5
493
100
AcDbEntity
8
0-0
6
CONTINUOUS
62
4
100
AcDbLine
10
95.240000000000
20
64.970000000000
30
0.0
11
96.840000000000
21
64.970000000000
31
0.0
0
LINE
5
494
100
AcDbEntity
8
0-0
6
CONTINUOUS
62
4
100
AcDbLine
10
95.240000000000
20
65.290000000000
30
0.0
11
96.840000000000
21
65.290000000000
31
0.0
0
LINE
5
495
100
AcDbEntity
8
0-0
6
CONTINUOUS
62
4
100
AcDbLine
10
95.240000000000
20
65.610000000000
30
0.0
11
96.840000000000
21
65.610000000000
31
0.0
0
LINE
5
496
100
AcDbEntity
8
0-0
6
CONTINUOUS
62
4
100
AcDbLine
10
95.240000000000
20
65.930000000000
30
0.0
11
96.840000000000
21
65.930000000000
31
0.0
0
LINE
5
497
100
AcDbEntity
8
0-0
6
CONTINUOUS
62
4
100
AcDbLine
10
95.240000000000
20
66.250000000000
30
0.0
11
96.840000000000
21
66.250000000000
31
0.0
0
LINE
5
498
100
AcDbEntity
8
0-0
6
CONTINUOUS
62
4
100
AcDbLine
10
95.240000000000
20
66.570000000000
30
0.0
11
96.840000000000
21
66.570000000000
31
0.0
0
LINE
5
499
100
AcDbEntity
8
0-0
6
CONTINUOUS
62
4
100
AcDbLine
10
95.240000000000
20
66.890000000000
30
0.0
11
96.840000000000
21
66.890000000000
31
0.0
0
LINE
5
49a
100
AcDbEntity
8
0-0
6
CONTINUOUS
62
4
100
AcDbLine
10
95.240000000000
20
67.210000000000
30
0.0
11
96.840000000000
21
67.210000000000
31
0.0
0
LINE
5
49b
100
AcDbEntity
8
0-0
6
CONTINUOUS
62
4
100
AcDbLine
10
95.240000000000
20
67.530000000000
30
0.0
11
96.840000000000
21
67.530000000000
31
0.0
0
LINE
5
49c
100
AcDbEntity
8
0-0
6
CONTINUOUS
62
4
100
AcDbLine
10
95.240000000000
20
67.850000000000
30
0.0
11
96.840000000000
21
67.850000000000
31
0.0
0
LINE
5
49d
100
AcDbEntity
8
0-0
6
CONTINUOUS
62
4
100
AcDbLine
10
95.240000000000
20
68.810000000000
30
0.0
11
96.840000000000
21
68.810000000000
31
0.0
0
LINE
5
49e
100
AcDbEntity
8
0-0
6
CONTINUOUS
62
4
100
AcDbLine
10
95.240000000000
20
69.770000000000
30
0.0
11
96.840000000000
21
69.770000000000
31
0.0
0
LINE
5
49f
100
AcDbEntity
8
0-0
6
CONTINUOUS
62
4
100
AcDbLine
10
95.240000000000
20
70.090000000000
30
0.0
11
96.840000000000
21
70.090000000000
31
0.0
0
LINE
5
4a0
100
AcDbEntity
8
0-0
6
CONTINUOUS
62
4
100
AcDbLine
10
95.240000000000
20
70.410000000000
30
0.0
11
96.840000000000
21
70.410000000000
31
0.0
0
LINE
5
4a1
100
AcDbEntity
8
0-0
6
CONTINUOUS
62
4
100
AcDbLine
10
95.240000000000
20
70.730000000000
30
0.0
11
96.840000000000
21
70.730000000000
31
0.0
0
LINE
5
4a2
100
AcDbEntity
8
0-0
6
CONTINUOUS
62
4
100
AcDbLine
10
95.240000000000
20
71.690000000000
30
0.0
11
96.840000000000
21
71.690000000000
31
0.0
0
LINE
5
4a3
100
AcDbEntity
8
0-0
6
CONTINUOUS
62
4
100
AcDbLine
10
95.240000000000
20
71.370000000000
30
0.0
11
96.840000000000
21
71.370000000000
31
0.0
0
LINE
5
4a4
100
AcDbEntity
8
0-0
6
CONTINUOUS
62
4
100
AcDbLine
10
95.240000000000
20
71.050000000000
30
0.0
11
96.840000000000
21
71.050000000000
31
0.0
0
LINE
5
4a5
100
AcDbEntity
8
0-0
6
CONTINUOUS
62
4
100
AcDbLine
10
95.240000000000
20
69.130000000000
30
0.0
11
96.840000000000
21
69.130000000000
31
0.0
0
LINE
5
4a6
100
AcDbEntity
8
0-0
6
CONTINUOUS
62
4
100
AcDbLine
10
95.240000000000
20
69.450000000000
30
0.0
11
96.840000000000
21
69.450000000000
31
0.0
0
LINE
5
4a7
100
AcDbEntity
8
0-0
6
CONTINUOUS
62
4
100
AcDbLine
10
95.240000000000
20
68.490000000000
30
0.0
11
96.840000000000
21
68.490000000000
31
0.0
0
LINE
5
4a8
100
AcDbEntity
8
0-0
6
CONTINUOUS
62
4
100
AcDbLine
10
95.240000000000
20
68.170000000000
30
0.0
11
96.840000000000
21
68.170000000000
31
0.0
0
LINE
5
4a9
100
AcDbEntity
8
0-0
6
CONTINUOUS
62
4
100
AcDbLine
10
95.240000000000
20
59.850000000000
30
0.0
11
96.840000000000
21
59.850000000000
31
0.0
0
LINE
5
4aa
100
AcDbEntity
8
0-0
6
CONTINUOUS
62
4
100
AcDbLine
10
95.240000000000
20
60.170000000000
30
0.0
11
96.840000000000
21
60.170000000000
31
0.0
0
LINE
5
4ab
100
AcDbEntity
8
0-0
6
CONTINUOUS
62
4
100
AcDbLine
10
94.510000000000
20
72.330000000000
30
0.0
11
96.840000000000
21
72.330000000000
31
0.0
0
LINE
5
4ac
100
AcDbEntity
8
0-0
6
CONTINUOUS
62
4
100
AcDbLine
10
94.190000000000
20
72.010000000000
30
0.0
11
96.840000000000
21
72.010000000000
31
0.0
0
LINE
5
4ad
100
AcDbEntity
8
0-0
6
CONTINUOUS
62
4
100
AcDbLine
10
86.190000000000
20
64.010000000000
30
0.0
11
87.320000000000
21
64.010000000000
31
0.0
0
LINE
5
4ae
100
AcDbEntity
8
0-0
6
CONTINUOUS
62
4
100
AcDbLine
10
85.870000000000
20
63.690000000000
30
0.0
11
87.000000000000
21
63.690000000000
31
0.0
0
LINE
5
4af
100
AcDbEntity
8
0-0
6
CONTINUOUS
62
4
100
AcDbLine
10
85.550000000000
20
63.370000000000
30
0.0
11
86.690000000000
21
63.370000000000
31
0.0
0
LINE
5
4b0
100
AcDbEntity
8
0-0
6
CONTINUOUS
62
4
100
AcDbLine
10
85.230000000000
20
63.050000000000
30
0.0
11
86.360000000000
21
63.050000000000
31
0.0
0
LINE
5
4b1
100
AcDbEntity
8
0-0
6
CONTINUOUS
62
4
100
AcDbLine
10
87.470000000000
20
65.290000000000
30
0.0
11
88.600000000000
21
65.290000000000
31
0.0
0
LINE
5
4b2
100
AcDbEntity
8
0-0
6
CONTINUOUS
62
4
100
AcDbLine
10
87.150000000000
20
64.970000000000
30
0.0
11
88.290000000000
21
64.970000000000
31
0.0
0
LINE
5
4b3
100
AcDbEntity
8
0-0
6
CONTINUOUS
62
4
100
AcDbLine
10
86.830000000000
20
64.650000000000
30
0.0
11
87.960000000000
21
64.650000000000
31
0.0
0
LINE
5
4b4
100
AcDbEntity
8
0-0
6
CONTINUOUS
62
4
100
AcDbLine
10
86.510000000000
20
64.330000000000
30
0.0
11
87.640000000000
21
64.330000000000
31
0.0
0
LINE
5
4b5
100
AcDbEntity
8
0-0
6
CONTINUOUS
62
4
100
AcDbLine
10
88.750000000000
20
66.570000000000
30
0.0
11
89.880000000000
21
66.570000000000
31
0.0
0
LINE
5
4b6
100
AcDbEntity
8
0-0
6
CONTINUOUS
62
4
100
AcDbLine
10
88.430000000000
20
66.250000000000
30
0.0
11
89.560000000000
21
66.250000000000
31
0.0
0
LINE
5
4b7
100
AcDbEntity
8
0-0
6
CONTINUOUS
62
4
100
AcDbLine
10
88.110000000000
20
65.930000000000
30
0.0
11
89.240000000000
21
65.930000000000
31
0.0
0
LINE
5
4b8
100
AcDbEntity
8
0-0
6
CONTINUOUS
62
4
100
AcDbLine
10
87.790000000000
20
65.610000000000
30
0.0
11
88.920000000000
21
65.610000000000
31
0.0
0
LINE
5
4b9
100
AcDbEntity
8
0-0
6
CONTINUOUS
62
4
100
AcDbLine
10
90.030000000000
20
67.850000000000
30
0.0
11
91.160000000000
21
67.850000000000
31
0.0
0
LINE
5
4ba
100
AcDbEntity
8
0-0
6
CONTINUOUS
62
4
100
AcDbLine
10
89.710000000000
20
67.530000000000
30
0.0
11
90.840000000000
21
67.530000000000
31
0.0
0
LINE
5
4bb
100
AcDbEntity
8
0-0
6
CONTINUOUS
62
4
100
AcDbLine
10
89.390000000000
20
67.210000000000
30
0.0
11
90.520000000000
21
67.210000000000
31
0.0
0
LINE
5
4bc
100
AcDbEntity
8
0-0
6
CONTINUOUS
62
4
100
AcDbLine
10
89.070000000000
20
66.890000000000
30
0.0
11
90.200000000000
21
66.890000000000
31
0.0
0
LINE
5
4bd
100
AcDbEntity
8
0-0
6
CONTINUOUS
62
4
100
AcDbLine
10
91.310000000000
20
69.130000000000
30
0.0
11
92.440000000000
21
69.130000000000
31
0.0
0
LINE
5
4be
100
AcDbEntity
8
0-0
6
CONTINUOUS
62
4
100
AcDbLine
10
90.990000000000
20
68.810000000000
30
0.0
11
92.120000000000
21
68.810000000000
31
0.0
0
LINE
5
4bf
100
AcDbEntity
8
0-0
6
CONTINUOUS
62
4
100
AcDbLine
10
90.670000000000
20
68.490000000000
30
0.0
11
91.800000000000
21
68.490000000000
31
0.0
0
LINE
5
4c0
100
AcDbEntity
8
0-0
6
CONTINUOUS
62
4
100
AcDbLine
10
90.350000000000
20
68.170000000000
30
0.0
11
91.480000000000
21
68.170000000000
31
0.0
0
LINE
5
4c1
100
AcDbEntity
8
0-0
6
CONTINUOUS
62
4
100
AcDbLine
10
92.590000000000
20
70.410000000000
30
0.0
11
93.720000000000
21
70.410000000000
31
0.0
0
LINE
5
4c2
100
AcDbEntity
8
0-0
6
CONTINUOUS
62
4
100
AcDbLine
10
92.270000000000
20
70.090000000000
30
0.0
11
93.400000000000
21
70.090000000000
31
0.0
0
LINE
5
4c3
100
AcDbEntity
8
0-0
6
CONTINUOUS
62
4
100
AcDbLine
10
91.950000000000
20
69.770000000000
30
0.0
11
93.080000000000
21
69.770000000000
31
0.0
0
LINE
5
4c4
100
AcDbEntity
8
0-0
6
CONTINUOUS
62
4
100
AcDbLine
10
91.630000000000
20
69.450000000000
30
0.0
11
92.760000000000
21
69.450000000000
31
0.0
0
LINE
5
4c5
100
AcDbEntity
8
0-0
6
CONTINUOUS
62
4
100
AcDbLine
10
93.870000000000
20
71.690000000000
30
0.0
11
95.000000000000
21
71.690000000000
31
0.0
0
LINE
5
4c6
100
AcDbEntity
8
0-0
6
CONTINUOUS
62
4
100
AcDbLine
10
93.550000000000
20
71.370000000000
30
0.0
11
94.680000000000
21
71.370000000000
31
0.0
0
LINE
5
4c7
100
AcDbEntity
8
0-0
6
CONTINUOUS
62
4
100
AcDbLine
10
93.230000000000
20
71.050000000000
30
0.0
11
94.360000000000
21
71.050000000000
31
0.0
0
LINE
5
4c8
100
AcDbEntity
8
0-0
6
CONTINUOUS
62
4
100
AcDbLine
10
92.910000000000
20
70.730000000000
30
0.0
11
94.040000000000
21
70.730000000000
31
0.0
0
LINE
5
4c9
100
AcDbEntity
8
0-0
6
CONTINUOUS
62
4
100
AcDbLine
10
95.240000000000
20
64.650000000000
30
0.0
11
96.840000000000
21
64.650000000000
31
0.0
0
LINE
5
4ca
100
AcDbEntity
8
0-0
6
CONTINUOUS
62
4
100
AcDbLine
10
768.550000000000
20
877.710000000000
30
0.0
11
783.560000000000
21
903.680000000000
31
0.0
0
LINE
5
4cb
100
AcDbEntity
8
0-0
6
CONTINUOUS
62
4
100
AcDbLine
10
796.550000000000
20
896.170000000000
30
0.0
11
783.560000000000
21
903.680000000000
31
0.0
0
LINE
5
4cc
100
AcDbEntity
8
0-0
6
CONTINUOUS
62
4
100
AcDbLine
10
781.530000000000
20
870.200000000000
30
0.0
11
768.550000000000
21
877.710000000000
31
0.0
0
LINE
5
4cd
100
AcDbEntity
8
0-0
6
CONTINUOUS
62
7
100
AcDbLine
10
795.210000000000
20
449.700000000000
30
0.0
11
794.520000000000
21
450.100000000000
31
0.0
0
LINE
5
4ce
100
AcDbEntity
8
0-0
6
CONTINUOUS
62
7
100
AcDbLine
10
809.750000000000
20
474.850000000000
30
0.0
11
795.210000000000
21
449.700000000000
31
0.0
0
LINE
5
4cf
100
AcDbEntity
8
0-0
6
CONTINUOUS
62
7
100
AcDbLine
10
794.520000000000
20
450.100000000000
30
0.0
11
809.060000000000
21
475.250000000000
31
0.0
0
LINE
5
4d0
100
AcDbEntity
8
0-0
6
CONTINUOUS
62
7
100
AcDbLine
10
857.900000000000
20
475.350000000000
30
0.0
11
810.610000000000
21
475.350000000000
31
0.0
0
LINE
5
4d1
100
AcDbEntity
8
0-0
6
CONTINUOUS
62
7
100
AcDbLine
10
958.190000000000
20
304.450000000000
30
0.0
11
859.460000000000
21
475.250000000000
31
0.0
0
LINE
5
4d2
100
AcDbEntity
8
0-0
6
CONTINUOUS
62
7
100
AcDbLine
10
858.770000000000
20
474.850000000000
30
0.0
11
957.500000000000
21
304.050000000000
31
0.0
0
LINE
5
4d3
100
AcDbEntity
8
0-0
6
CONTINUOUS
62
7
100
AcDbLine
10
1008.360000000000
20
303.950000000000
30
0.0
11
959.060000000000
21
303.950000000000
31
0.0
0
LINE
5
4d4
100
AcDbEntity
8
0-0
6
CONTINUOUS
62
7
100
AcDbLine
10
959.060000000000
20
303.150000000000
30
0.0
11
1008.360000000000
21
303.150000000000
31
0.0
0
LINE
5
4d5
100
AcDbEntity
8
0-0
6
CONTINUOUS
62
7
100
AcDbLine
10
1109.110000000000
20
475.650000000000
30
0.0
11
1009.920000000000
21
304.050000000000
31
0.0
0
LINE
5
4d6
100
AcDbEntity
8
0-0
6
CONTINUOUS
62
7
100
AcDbLine
10
1009.230000000000
20
304.450000000000
30
0.0
11
1108.420000000000
21
476.050000000000
31
0.0
0
LINE
5
4d7
100
AcDbEntity
8
0-0
6
CONTINUOUS
62
7
100
AcDbLine
10
1109.980000000000
20
476.950000000000
30
0.0
11
1158.410000000000
21
476.950000000000
31
0.0
0
LINE
5
4d8
100
AcDbEntity
8
0-0
6
CONTINUOUS
62
7
100
AcDbLine
10
1176.460000000000
20
446.650000000000
30
0.0
11
1177.240000000000
21
446.820000000000
31
0.0
0
LINE
5
4d9
100
AcDbEntity
8
0-0
6
CONTINUOUS
62
7
100
AcDbLine
10
1175.230000000000
20
451.940000000000
30
0.0
11
1159.240000000000
21
475.710000000000
31
0.0
0
LINE
5
4da
100
AcDbEntity
8
0-0
6
CONTINUOUS
62
7
100
AcDbLine
10
1175.380000000000
20
451.590000000000
30
0.0
11
1176.460000000000
21
446.650000000000
31
0.0
0
LINE
5
4db
100
AcDbEntity
8
0-0
6
CONTINUOUS
62
7
100
AcDbLine
10
1177.240000000000
20
446.820000000000
30
0.0
11
1176.160000000000
21
451.760000000000
31
0.0
0
LINE
5
4dc
100
AcDbEntity
8
0-0
6
CONTINUOUS
62
7
100
AcDbLine
10
1175.900000000000
20
452.380000000000
30
0.0
11
1159.900000000000
21
476.150000000000
31
0.0
0
LINE
5
4dd
100
AcDbEntity
8
0-0
6
CONTINUOUS
62
7
100
AcDbLine
10
1095.210000000000
20
449.700000000000
30
0.0
11
1094.520000000000
21
450.100000000000
31
0.0
0
LINE
5
4de
100
AcDbEntity
8
0-0
6
CONTINUOUS
62
7
100
AcDbLine
10
1109.750000000000
20
474.850000000000
30
0.0
11
1095.210000000000
21
449.700000000000
31
0.0
0
LINE
5
4df
100
AcDbEntity
8
0-0
6
CONTINUOUS
62
7
100
AcDbLine
10
1094.520000000000
20
450.100000000000
30
0.0
11
1109.060000000000
21
475.250000000000
31
0.0
0
LINE
5
4e0
100
AcDbEntity
8
0-0
6
CONTINUOUS
62
7
100
AcDbLine
10
1157.900000000000
20
475.350000000000
30
0.0
11
1110.610000000000
21
475.350000000000
31
0.0
0
LINE
5
4e1
100
AcDbEntity
8
0-0
6
CONTINUOUS
62
7
100
AcDbLine
10
809.980000000000
20
476.950000000000
30
0.0
11
858.410000000000
21
476.950000000000
31
0.0
0
LINE
5
4e2
100
AcDbEntity
8
0-0
6
CONTINUOUS
62
7
100
AcDbLine
10
876.460000000000
20
446.650000000000
30
0.0
11
877.240000000000
21
446.820000000000
31
0.0
0
LINE
5
4e3
100
AcDbEntity
8
0-0
6
CONTINUOUS
62
7
100
AcDbLine
10
875.230000000000
20
451.940000000000
30
0.0
11
859.240000000000
21
475.710000000000
31
0.0
0
LINE
5
4e4
100
AcDbEntity
8
0-0
6
CONTINUOUS
62
7
100
AcDbLine
10
875.380000000000
20
451.590000000000
30
0.0
11
876.460000000000
21
446.650000000000
31
0.0
0
LINE
5
4e5
100
AcDbEntity
8
0-0
6
CONTINUOUS
62
7
100
AcDbLine
10
877.240000000000
20
446.820000000000
30
0.0
11
876.160000000000
21
451.760000000000
31
0.0
0
LINE
5
4e6
100
AcDbEntity
8
0-0
6
CONTINUOUS
62
7
100
AcDbLine
10
875.900000000000
20
452.380000000000
30
0.0
11
859.900000000000
21
476.150000000000
31
0.0
0
LINE
5
4e7
100
AcDbEntity
8
0-0
6
DOT
62
7
100
AcDbLine
10
413.180000000000
20
472.250000000000
30
0.0
11
416.180000000000
21
469.250000000000
31
0.0
0
LINE
5
4e8
100
AcDbEntity
8
0-0
6
DOT
62
7
100
AcDbLine
10
416.180000000000
20
469.250000000000
30
0.0
11
431.170000000000
21
469.250000000000
31
0.0
0
LINE
5
4e9
100
AcDbEntity
8
0-0
6
DOT
62
7
100
AcDbLine
10
431.170000000000
20
469.250000000000
30
0.0
11
434.170000000000
21
472.250000000000
31
0.0
0
LINE
5
4ea
100
AcDbEntity
8
0-0
6
CONTINUOUS
62
7
100
AcDbLine
10
481.170000000000
20
477.750000000000
30
0.0
11
366.170000000000
21
477.750000000000
31
0.0
0
LINE
5
4eb
100
AcDbEntity
8
0-0
6
CONTINUOUS
62
7
100
AcDbLine
10
481.170000000000
20
476.950000000000
30
0.0
11
366.170000000000
21
476.950000000000
31
0.0
0
LINE
5
4ec
100
AcDbEntity
8
0-0
6
CONTINUOUS
62
7
100
AcDbLine
10
481.170000000000
20
304.750000000000
30
0.0
11
366.170000000000
21
304.750000000000
31
0.0
0
LINE
5
4ed
100
AcDbEntity
8
0-0
6
CONTINUOUS
62
7
100
AcDbLine
10
481.170000000000
20
303.950000000000
30
0.0
11
366.170000000000
21
303.950000000000
31
0.0
0
LINE
5
4ee
100
AcDbEntity
8
0-0
6
CONTINUOUS
62
7
100
AcDbLine
10
361.170000000000
20
304.750000000000
30
0.0
11
353.670000000000
21
304.750000000000
31
0.0
0
LINE
5
4ef
100
AcDbEntity
8
0-0
6
CONTINUOUS
62
7
100
AcDbLine
10
443.670000000000
20
341.140000000000
30
0.0
11
445.820000000000
21
349.140000000000
31
0.0
0
LINE
5
4f0
100
AcDbEntity
8
0-0
6
CONTINUOUS
62
7
100
AcDbLine
10
443.670000000000
20
341.140000000000
30
0.0
11
449.530000000000
21
347.000000000000
31
0.0
0
LINE
5
4f1
100
AcDbEntity
8
0-0
6
CONTINUOUS
62
3
100
AcDbLine
10
378.670000000000
20
286.770000000000
30
0.0
11
412.920000000000
21
286.770000000000
31
0.0
0
LINE
5
4f2
100
AcDbEntity
8
0-0
6
CONTINUOUS
62
3
100
AcDbLine
10
420.920000000000
20
207.270000000000
30
0.0
11
420.920000000000
21
278.770000000000
31
0.0
0
LINE
5
4f3
100
AcDbEntity
8
0-0
6
CONTINUOUS
62
3
100
AcDbLine
10
468.670000000000
20
294.770000000000
30
0.0
11
468.670000000000
21
286.770000000000
31
0.0
0
LINE
5
4f4
100
AcDbEntity
8
0-0
6
CONTINUOUS
62
3
100
AcDbLine
10
468.670000000000
20
286.770000000000
30
0.0
11
434.420000000000
21
286.770000000000
31
0.0
0
LINE
5
4f5
100
AcDbEntity
8
0-0
6
CONTINUOUS
62
3
100
AcDbLine
10
426.420000000000
20
207.270000000000
30
0.0
11
426.420000000000
21
278.770000000000
31
0.0
0
LINE
5
4f6
100
AcDbEntity
8
0-0
6
CONTINUOUS
62
3
100
AcDbLine
10
468.670000000000
20
294.770000000000
30
0.0
11
378.670000000000
21
294.770000000000
31
0.0
0
LINE
5
4f7
100
AcDbEntity
8
0-0
6
CONTINUOUS
62
3
100
AcDbLine
10
378.670000000000
20
294.770000000000
30
0.0
11
378.670000000000
21
286.770000000000
31
0.0
0
LINE
5
4f8
100
AcDbEntity
8
0-0
6
CONTINUOUS
62
7
100
AcDbLine
10
428.230000000000
20
495.050000000000
30
0.0
11
430.370000000000
21
503.050000000000
31
0.0
0
LINE
5
4f9
100
AcDbEntity
8
0-0
6
CONTINUOUS
62
7
100
AcDbLine
10
428.230000000000
20
495.050000000000
30
0.0
11
434.080000000000
21
500.910000000000
31
0.0
0
LINE
5
4fa
100
AcDbEntity
8
0-0
6
CONTINUOUS
62
7
100
AcDbLine
10
428.230000000000
20
495.050000000000
30
0.0
11
477.600000000000
21
580.560000000000
31
0.0
0
LINE
5
4fb
100
AcDbEntity
8
0-0
6
CONTINUOUS
62
7
100
AcDbLine
10
477.600000000000
20
580.560000000000
30
0.0
11
482.600000000000
21
580.560000000000
31
0.0
0
LINE
5
4fc
100
AcDbEntity
8
0-0
6
CONTINUOUS
62
7
100
AcDbLine
10
482.600000000000
20
560.560000000000
30
0.0
11
466.050000000000
21
560.560000000000
31
0.0
0
LINE
5
4fd
100
AcDbEntity
8
0-0
6
CONTINUOUS
62
7
100
AcDbLine
10
482.600000000000
20
540.560000000000
30
0.0
11
454.510000000000
21
540.560000000000
31
0.0
0
LINE
5
4fe
100
AcDbEntity
8
0-0
6
CONTINUOUS
62
7
100
AcDbLine
10
482.600000000000
20
520.560000000000
30
0.0
11
442.960000000000
21
520.560000000000
31
0.0
0
LINE
5
4ff
100
AcDbEntity
8
0-0
6
CONTINUOUS
62
7
100
AcDbLine
10
440.610000000000
20
481.380000000000
30
0.0
11
441.220000000000
21
483.070000000000
31
0.0
0
LINE
5
500
100
AcDbEntity
8
0-0
6
CONTINUOUS
62
7
100
AcDbLine
10
441.220000000000
20
483.070000000000
30
0.0
11
406.130000000000
21
483.070000000000
31
0.0
0
LINE
5
501
100
AcDbEntity
8
0-0
6
CONTINUOUS
62
7
100
AcDbLine
10
406.130000000000
20
483.070000000000
30
0.0
11
406.740000000000
21
481.380000000000
31
0.0
0
LINE
5
502
100
AcDbEntity
8
0-0
6
CONTINUOUS
62
7
100
AcDbLine
10
406.130000000000
20
483.070000000000
30
0.0
11
409.280000000000
21
484.400000000000
31
0.0
0
LINE
5
503
100
AcDbEntity
8
0-0
6
CONTINUOUS
62
7
100
AcDbLine
10
409.280000000000
20
484.400000000000
30
0.0
11
438.070000000000
21
484.400000000000
31
0.0
0
LINE
5
504
100
AcDbEntity
8
0-0
6
CONTINUOUS
62
7
100
AcDbLine
10
438.070000000000
20
484.400000000000
30
0.0
11
441.220000000000
21
483.070000000000
31
0.0
0
LINE
5
505
100
AcDbEntity
8
0-0
6
CONTINUOUS
62
7
100
AcDbLine
10
409.280000000000
20
484.400000000000
30
0.0
11
413.390000000000
21
487.190000000000
31
0.0
0
LINE
5
506
100
AcDbEntity
8
0-0
6
CONTINUOUS
62
7
100
AcDbLine
10
413.390000000000
20
487.190000000000
30
0.0
11
433.960000000000
21
487.190000000000
31
0.0
0
LINE
5
507
100
AcDbEntity
8
0-0
6
CONTINUOUS
62
7
100
AcDbLine
10
433.960000000000
20
487.190000000000
30
0.0
11
438.070000000000
21
484.400000000000
31
0.0
0
LINE
5
508
100
AcDbEntity
8
0-0
6
CONTINUOUS
62
7
100
AcDbLine
10
419.140000000000
20
495.050000000000
30
0.0
11
419.140000000000
21
504.820000000000
31
0.0
0
LINE
5
509
100
AcDbEntity
8
0-0
6
CONTINUOUS
62
7
100
AcDbLine
10
417.610000000000
20
495.050000000000
30
0.0
11
429.730000000000
21
495.050000000000
31
0.0
0
LINE
5
50a
100
AcDbEntity
8
0-0
6
CONTINUOUS
62
7
100
AcDbLine
10
415.810000000000
20
487.190000000000
30
0.0
11
415.810000000000
21
494.570000000000
31
0.0
0
LINE
5
50b
100
AcDbEntity
8
0-0
6
CONTINUOUS
62
7
100
AcDbLine
10
415.810000000000
20
494.570000000000
30
0.0
11
419.420000000000
21
494.570000000000
31
0.0
0
LINE
5
50c
100
AcDbEntity
8
0-0
6
CONTINUOUS
62
7
100
AcDbLine
10
419.420000000000
20
494.570000000000
30
0.0
11
427.930000000000
21
494.570000000000
31
0.0
0
LINE
5
50d
100
AcDbEntity
8
0-0
6
CONTINUOUS
62
7
100
AcDbLine
10
427.930000000000
20
494.570000000000
30
0.0
11
431.540000000000
21
494.570000000000
31
0.0
0
LINE
5
50e
100
AcDbEntity
8
0-0
6
CONTINUOUS
62
7
100
AcDbLine
10
431.540000000000
20
494.570000000000
30
0.0
11
431.540000000000
21
487.190000000000
31
0.0
0
LINE
5
50f
100
AcDbEntity
8
0-0
6
CONTINUOUS
62
7
100
AcDbLine
10
419.420000000000
20
494.570000000000
30
0.0
11
419.420000000000
21
487.190000000000
31
0.0
0
LINE
5
510
100
AcDbEntity
8
0-0
6
CONTINUOUS
62
7
100
AcDbLine
10
423.670000000000
20
507.990000000000
30
0.0
11
419.140000000000
21
504.820000000000
31
0.0
0
LINE
5
511
100
AcDbEntity
8
0-0
6
CONTINUOUS
62
7
100
AcDbLine
10
428.210000000000
20
495.050000000000
30
0.0
11
428.210000000000
21
504.820000000000
31
0.0
0
LINE
5
512
100
AcDbEntity
8
0-0
6
CONTINUOUS
62
7
100
AcDbLine
10
427.930000000000
20
487.190000000000
30
0.0
11
427.930000000000
21
494.570000000000
31
0.0
0
LINE
5
513
100
AcDbEntity
8
0-0
6
CONTINUOUS
62
7
100
AcDbLine
10
423.670000000000
20
507.990000000000
30
0.0
11
428.210000000000
21
504.820000000000
31
0.0
0
LINE
5
514
100
AcDbEntity
8
0-0
6
CONTINUOUS
62
7
100
AcDbLine
10
406.740000000000
20
481.380000000000
30
0.0
11
440.610000000000
21
481.380000000000
31
0.0
0
LINE
5
515
100
AcDbEntity
8
0-0
6
CONTINUOUS
62
7
100
AcDbLine
10
440.770000000000
20
479.100000000000
30
0.0
11
438.490000000000
21
481.380000000000
31
0.0
0
LINE
5
516
100
AcDbEntity
8
0-0
6
CONTINUOUS
62
7
100
AcDbLine
10
436.980000000000
20
477.750000000000
30
0.0
11
433.350000000000
21
481.380000000000
31
0.0
0
LINE
5
517
100
AcDbEntity
8
0-0
6
CONTINUOUS
62
7
100
AcDbLine
10
436.030000000000
20
477.750000000000
30
0.0
11
439.660000000000
21
481.380000000000
31
0.0
0
LINE
5
518
100
AcDbEntity
8
0-0
6
CONTINUOUS
62
7
100
AcDbLine
10
416.450000000000
20
477.750000000000
30
0.0
11
412.820000000000
21
481.380000000000
31
0.0
0
LINE
5
519
100
AcDbEntity
8
0-0
6
CONTINUOUS
62
7
100
AcDbLine
10
410.370000000000
20
477.750000000000
30
0.0
11
414.000000000000
21
481.380000000000
31
0.0
0
LINE
5
51a
100
AcDbEntity
8
0-0
6
CONTINUOUS
62
7
100
AcDbLine
10
421.580000000000
20
477.750000000000
30
0.0
11
417.960000000000
21
481.380000000000
31
0.0
0
LINE
5
51b
100
AcDbEntity
8
0-0
6
CONTINUOUS
62
7
100
AcDbLine
10
420.630000000000
20
477.750000000000
30
0.0
11
424.260000000000
21
481.380000000000
31
0.0
0
LINE
5
51c
100
AcDbEntity
8
0-0
6
CONTINUOUS
62
7
100
AcDbLine
10
415.500000000000
20
477.750000000000
30
0.0
11
419.130000000000
21
481.380000000000
31
0.0
0
LINE
5
51d
100
AcDbEntity
8
0-0
6
CONTINUOUS
62
7
100
AcDbLine
10
411.320000000000
20
477.750000000000
30
0.0
11
407.690000000000
21
481.380000000000
31
0.0
0
LINE
5
51e
100
AcDbEntity
8
0-0
6
CONTINUOUS
62
7
100
AcDbLine
10
406.580000000000
20
479.100000000000
30
0.0
11
408.860000000000
21
481.380000000000
31
0.0
0
LINE
5
51f
100
AcDbEntity
8
0-0
6
CONTINUOUS
62
7
100
AcDbLine
10
426.720000000000
20
477.750000000000
30
0.0
11
423.090000000000
21
481.380000000000
31
0.0
0
LINE
5
520
100
AcDbEntity
8
0-0
6
CONTINUOUS
62
7
100
AcDbLine
10
425.760000000000
20
477.750000000000
30
0.0
11
429.390000000000
21
481.380000000000
31
0.0
0
LINE
5
521
100
AcDbEntity
8
0-0
6
CONTINUOUS
62
7
100
AcDbLine
10
431.850000000000
20
477.750000000000
30
0.0
11
428.220000000000
21
481.380000000000
31
0.0
0
LINE
5
522
100
AcDbEntity
8
0-0
6
CONTINUOUS
62
7
100
AcDbLine
10
430.900000000000
20
477.750000000000
30
0.0
11
434.530000000000
21
481.380000000000
31
0.0
0
LINE
5
523
100
AcDbEntity
8
0-0
6
CONTINUOUS
62
7
100
AcDbLine
10
440.610000000000
20
477.750000000000
30
0.0
11
406.740000000000
21
477.750000000000
31
0.0
0
LINE
5
524
100
AcDbEntity
8
0-0
6
CONTINUOUS
62
7
100
AcDbLine
10
418.840000000000
20
477.750000000000
30
0.0
11
418.840000000000
21
475.450000000000
31
0.0
0
LINE
5
525
100
AcDbEntity
8
0-0
6
CONTINUOUS
62
7
100
AcDbLine
10
428.510000000000
20
477.750000000000
30
0.0
11
428.510000000000
21
475.450000000000
31
0.0
0
LINE
5
526
100
AcDbEntity
8
0-0
6
CONTINUOUS
62
7
100
AcDbLine
10
353.670000000000
20
294.770000000000
30
0.0
11
353.670000000000
21
304.750000000000
31
0.0
0
LINE
5
527
100
AcDbEntity
8
0-0
6
CONTINUOUS
62
7
100
AcDbLine
10
361.170000000000
20
294.770000000000
30
0.0
11
353.670000000000
21
294.770000000000
31
0.0
0
LINE
5
528
100
AcDbEntity
8
0-0
6
CONTINUOUS
62
3
100
AcDbLine
10
443.670000000000
20
297.970000000000
30
0.0
11
403.670000000000
21
297.970000000000
31
0.0
0
LINE
5
529
100
AcDbEntity
8
0-0
6
CONTINUOUS
62
7
100
AcDbLine
10
403.670000000000
20
335.530000000000
30
0.0
11
443.670000000000
21
335.530000000000
31
0.0
0
LINE
5
52a
100
AcDbEntity
8
0-0
6
DOT
62
3
100
AcDbLine
10
443.670000000000
20
472.250000000000
30
0.0
11
403.670000000000
21
472.250000000000
31
0.0
0
LINE
5
52b
100
AcDbEntity
8
0-0
6
CONTINUOUS
62
3
100
AcDbLine
10
443.670000000000
20
475.450000000000
30
0.0
11
403.670000000000
21
475.450000000000
31
0.0
0
LINE
5
52c
100
AcDbEntity
8
0-0
6
CONTINUOUS
62
7
100
AcDbLine
10
443.670000000000
20
341.140000000000
30
0.0
11
468.360000000000
21
383.900000000000
31
0.0
0
LINE
5
52d
100
AcDbEntity
8
0-0
6
CONTINUOUS
62
7
100
AcDbLine
10
361.170000000000
20
477.750000000000
30
0.0
11
353.670000000000
21
477.750000000000
31
0.0
0
LINE
5
52e
100
AcDbEntity
8
0-0
6
CONTINUOUS
62
7
100
AcDbLine
10
353.670000000000
20
304.750000000000
30
0.0
11
353.670000000000
21
477.750000000000
31
0.0
0
LINE
5
52f
100
AcDbEntity
8
0-0
6
CONTINUOUS
62
3
100
AcDbLine
10
403.670000000000
20
294.770000000000
30
0.0
11
403.670000000000
21
475.450000000000
31
0.0
0
LINE
5
530
100
AcDbEntity
8
0-0
6
CONTINUOUS
62
3
100
AcDbLine
10
443.670000000000
20
294.770000000000
30
0.0
11
443.670000000000
21
475.450000000000
31
0.0
0
LINE
5
531
100
AcDbEntity
8
0-0
6
CONTINUOUS
62
3
100
AcDbLine
10
733.940000000000
20
286.770000000000
30
0.0
11
1233.940000000000
21
286.770000000000
31
0.0
0
LINE
5
532
100
AcDbEntity
8
0-0
6
CONTINUOUS
62
7
100
AcDbLine
10
1233.940000000000
20
346.400000000000
30
0.0
11
1159.460000000000
21
475.250000000000
31
0.0
0
LINE
5
533
100
AcDbEntity
8
0-0
6
CONTINUOUS
62
7
100
AcDbLine
10
1158.770000000000
20
474.850000000000
30
0.0
11
1233.940000000000
21
344.800000000000
31
0.0
0
LINE
5
534
100
AcDbEntity
8
0-0
6
CONTINUOUS
62
7
100
AcDbLine
10
733.940000000000
20
347.200000000000
30
0.0
11
808.420000000000
21
476.050000000000
31
0.0
0
LINE
5
535
100
AcDbEntity
8
0-0
6
CONTINUOUS
62
7
100
AcDbLine
10
809.110000000000
20
475.650000000000
30
0.0
11
733.940000000000
21
345.600000000000
31
0.0
0
LINE
5
536
100
AcDbEntity
8
0-0
6
CONTINUOUS
62
7
100
AcDbLine
10
823.440000000000
20
471.450000000000
30
0.0
11
826.440000000000
21
468.450000000000
31
0.0
0
LINE
5
537
100
AcDbEntity
8
0-0
6
CONTINUOUS
62
7
100
AcDbLine
10
826.440000000000
20
468.450000000000
30
0.0
11
841.440000000000
21
468.450000000000
31
0.0
0
LINE
5
538
100
AcDbEntity
8
0-0
6
CONTINUOUS
62
7
100
AcDbLine
10
841.440000000000
20
468.450000000000
30
0.0
11
844.440000000000
21
471.450000000000
31
0.0
0
LINE
5
539
100
AcDbEntity
8
0-0
6
CONTINUOUS
62
7
100
AcDbLine
10
850.880000000000
20
480.580000000000
30
0.0
11
851.480000000000
21
482.270000000000
31
0.0
0
LINE
5
53a
100
AcDbEntity
8
0-0
6
CONTINUOUS
62
7
100
AcDbLine
10
851.480000000000
20
482.270000000000
30
0.0
11
816.400000000000
21
482.270000000000
31
0.0
0
LINE
5
53b
100
AcDbEntity
8
0-0
6
CONTINUOUS
62
7
100
AcDbLine
10
816.400000000000
20
482.270000000000
30
0.0
11
817.000000000000
21
480.580000000000
31
0.0
0
LINE
5
53c
100
AcDbEntity
8
0-0
6
CONTINUOUS
62
7
100
AcDbLine
10
816.400000000000
20
482.270000000000
30
0.0
11
819.540000000000
21
483.600000000000
31
0.0
0
LINE
5
53d
100
AcDbEntity
8
0-0
6
CONTINUOUS
62
7
100
AcDbLine
10
819.540000000000
20
483.600000000000
30
0.0
11
848.340000000000
21
483.600000000000
31
0.0
0
LINE
5
53e
100
AcDbEntity
8
0-0
6
CONTINUOUS
62
7
100
AcDbLine
10
848.340000000000
20
483.600000000000
30
0.0
11
851.480000000000
21
482.270000000000
31
0.0
0
LINE
5
53f
100
AcDbEntity
8
0-0
6
CONTINUOUS
62
7
100
AcDbLine
10
819.540000000000
20
483.600000000000
30
0.0
11
823.660000000000
21
486.390000000000
31
0.0
0
LINE
5
540
100
AcDbEntity
8
0-0
6
CONTINUOUS
62
7
100
AcDbLine
10
823.660000000000
20
486.390000000000
30
0.0
11
844.220000000000
21
486.390000000000
31
0.0
0
LINE
5
541
100
AcDbEntity
8
0-0
6
CONTINUOUS
62
7
100
AcDbLine
10
844.220000000000
20
486.390000000000
30
0.0
11
848.340000000000
21
483.600000000000
31
0.0
0
LINE
5
542
100
AcDbEntity
8
0-0
6
CONTINUOUS
62
7
100
AcDbLine
10
829.400000000000
20
494.250000000000
30
0.0
11
829.400000000000
21
504.020000000000
31
0.0
0
LINE
5
543
100
AcDbEntity
8
0-0
6
CONTINUOUS
62
7
100
AcDbLine
10
827.880000000000
20
494.250000000000
30
0.0
11
840.000000000000
21
494.250000000000
31
0.0
0
LINE
5
544
100
AcDbEntity
8
0-0
6
CONTINUOUS
62
7
100
AcDbLine
10
826.080000000000
20
486.390000000000
30
0.0
11
826.080000000000
21
493.770000000000
31
0.0
0
LINE
5
545
100
AcDbEntity
8
0-0
6
CONTINUOUS
62
7
100
AcDbLine
10
826.080000000000
20
493.770000000000
30
0.0
11
829.690000000000
21
493.770000000000
31
0.0
0
LINE
5
546
100
AcDbEntity
8
0-0
6
CONTINUOUS
62
7
100
AcDbLine
10
829.690000000000
20
493.770000000000
30
0.0
11
838.200000000000
21
493.770000000000
31
0.0
0
LINE
5
547
100
AcDbEntity
8
0-0
6
CONTINUOUS
62
7
100
AcDbLine
10
838.200000000000
20
493.770000000000
30
0.0
11
841.800000000000
21
493.770000000000
31
0.0
0
LINE
5
548
100
AcDbEntity
8
0-0
6
CONTINUOUS
62
7
100
AcDbLine
10
841.800000000000
20
493.770000000000
30
0.0
11
841.800000000000
21
486.390000000000
31
0.0
0
LINE
5
549
100
AcDbEntity
8
0-0
6
CONTINUOUS
62
7
100
AcDbLine
10
829.690000000000
20
493.770000000000
30
0.0
11
829.690000000000
21
486.390000000000
31
0.0
0
LINE
5
54a
100
AcDbEntity
8
0-0
6
CONTINUOUS
62
7
100
AcDbLine
10
833.940000000000
20
507.190000000000
30
0.0
11
829.400000000000
21
504.020000000000
31
0.0
0
LINE
5
54b
100
AcDbEntity
8
0-0
6
CONTINUOUS
62
7
100
AcDbLine
10
838.480000000000
20
494.250000000000
30
0.0
11
838.480000000000
21
504.020000000000
31
0.0
0
LINE
5
54c
100
AcDbEntity
8
0-0
6
CONTINUOUS
62
7
100
AcDbLine
10
838.200000000000
20
486.390000000000
30
0.0
11
838.200000000000
21
493.770000000000
31
0.0
0
LINE
5
54d
100
AcDbEntity
8
0-0
6
CONTINUOUS
62
7
100
AcDbLine
10
833.940000000000
20
507.190000000000
30
0.0
11
838.480000000000
21
504.020000000000
31
0.0
0
LINE
5
54e
100
AcDbEntity
8
0-0
6
CONTINUOUS
62
7
100
AcDbLine
10
817.000000000000
20
480.580000000000
30
0.0
11
850.880000000000
21
480.580000000000
31
0.0
0
LINE
5
54f
100
AcDbEntity
8
0-0
6
CONTINUOUS
62
7
100
AcDbLine
10
851.030000000000
20
478.300000000000
30
0.0
11
848.750000000000
21
480.580000000000
31
0.0
0
LINE
5
550
100
AcDbEntity
8
0-0
6
CONTINUOUS
62
7
100
AcDbLine
10
847.250000000000
20
476.950000000000
30
0.0
11
843.620000000000
21
480.580000000000
31
0.0
0
LINE
5
551
100
AcDbEntity
8
0-0
6
CONTINUOUS
62
7
100
AcDbLine
10
846.300000000000
20
476.950000000000
30
0.0
11
849.930000000000
21
480.580000000000
31
0.0
0
LINE
5
552
100
AcDbEntity
8
0-0
6
CONTINUOUS
62
7
100
AcDbLine
10
826.720000000000
20
476.950000000000
30
0.0
11
823.090000000000
21
480.580000000000
31
0.0
0
LINE
5
553
100
AcDbEntity
8
0-0
6
CONTINUOUS
62
7
100
AcDbLine
10
820.630000000000
20
476.950000000000
30
0.0
11
824.260000000000
21
480.580000000000
31
0.0
0
LINE
5
554
100
AcDbEntity
8
0-0
6
CONTINUOUS
62
7
100
AcDbLine
10
831.850000000000
20
476.950000000000
30
0.0
11
828.220000000000
21
480.580000000000
31
0.0
0
LINE
5
555
100
AcDbEntity
8
0-0
6
CONTINUOUS
62
7
100
AcDbLine
10
830.900000000000
20
476.950000000000
30
0.0
11
834.530000000000
21
480.580000000000
31
0.0
0
LINE
5
556
100
AcDbEntity
8
0-0
6
CONTINUOUS
62
7
100
AcDbLine
10
825.770000000000
20
476.950000000000
30
0.0
11
829.400000000000
21
480.580000000000
31
0.0
0
LINE
5
557
100
AcDbEntity
8
0-0
6
CONTINUOUS
62
7
100
AcDbLine
10
821.590000000000
20
476.950000000000
30
0.0
11
817.960000000000
21
480.580000000000
31
0.0
0
LINE
5
558
100
AcDbEntity
8
0-0
6
CONTINUOUS
62
7
100
AcDbLine
10
816.850000000000
20
478.300000000000
30
0.0
11
819.130000000000
21
480.580000000000
31
0.0
0
LINE
5
559
100
AcDbEntity
8
0-0
6
CONTINUOUS
62
7
100
AcDbLine
10
836.980000000000
20
476.950000000000
30
0.0
11
833.350000000000
21
480.580000000000
31
0.0
0
LINE
5
55a
100
AcDbEntity
8
0-0
6
CONTINUOUS
62
7
100
AcDbLine
10
836.030000000000
20
476.950000000000
30
0.0
11
839.660000000000
21
480.580000000000
31
0.0
0
LINE
5
55b
100
AcDbEntity
8
0-0
6
CONTINUOUS
62
7
100
AcDbLine
10
842.120000000000
20
476.950000000000
30
0.0
11
838.490000000000
21
480.580000000000
31
0.0
0
LINE
5
55c
100
AcDbEntity
8
0-0
6
CONTINUOUS
62
7
100
AcDbLine
10
841.160000000000
20
476.950000000000
30
0.0
11
844.790000000000
21
480.580000000000
31
0.0
0
LINE
5
55d
100
AcDbEntity
8
0-0
6
CONTINUOUS
62
7
100
AcDbLine
10
829.100000000000
20
476.950000000000
30
0.0
11
829.100000000000
21
474.650000000000
31
0.0
0
LINE
5
55e
100
AcDbEntity
8
0-0
6
CONTINUOUS
62
7
100
AcDbLine
10
838.780000000000
20
476.950000000000
30
0.0
11
838.780000000000
21
474.650000000000
31
0.0
0
LINE
5
55f
100
AcDbEntity
8
0-0
6
CONTINUOUS
62
3
100
AcDbLine
10
1011.030000000000
20
294.770000000000
30
0.0
11
956.390000000000
21
294.770000000000
31
0.0
0
LINE
5
560
100
AcDbEntity
8
0-0
6
CONTINUOUS
62
3
100
AcDbLine
10
956.390000000000
20
297.970000000000
30
0.0
11
1011.030000000000
21
297.970000000000
31
0.0
0
LINE
5
561
100
AcDbEntity
8
0-0
6
CONTINUOUS
62
3
100
AcDbLine
10
733.940000000000
20
294.770000000000
30
0.0
11
1233.940000000000
21
294.770000000000
31
0.0
0
LINE
5
562
100
AcDbEntity
8
0-0
6
CONTINUOUS
62
3
100
AcDbLine
10
855.190000000000
20
473.050000000000
30
0.0
11
956.390000000000
21
297.970000000000
31
0.0
0
LINE
5
563
100
AcDbEntity
8
0-0
6
CONTINUOUS
62
3
100
AcDbLine
10
953.620000000000
20
296.370000000000
30
0.0
11
852.420000000000
21
471.450000000000
31
0.0
0
LINE
5
564
100
AcDbEntity
8
0-0
6
CONTINUOUS
62
3
100
AcDbLine
10
815.000000000000
20
474.650000000000
30
0.0
11
852.420000000000
21
474.650000000000
31
0.0
0
LINE
5
565
100
AcDbEntity
8
0-0
6
CONTINUOUS
62
3
100
AcDbLine
10
852.420000000000
20
471.450000000000
30
0.0
11
815.000000000000
21
471.450000000000
31
0.0
0
LINE
5
566
100
AcDbEntity
8
0-0
6
CONTINUOUS
62
7
100
AcDbLine
10
1123.440000000000
20
471.450000000000
30
0.0
11
1126.440000000000
21
468.450000000000
31
0.0
0
LINE
5
567
100
AcDbEntity
8
0-0
6
CONTINUOUS
62
7
100
AcDbLine
10
1126.440000000000
20
468.450000000000
30
0.0
11
1141.440000000000
21
468.450000000000
31
0.0
0
LINE
5
568
100
AcDbEntity
8
0-0
6
CONTINUOUS
62
7
100
AcDbLine
10
1141.440000000000
20
468.450000000000
30
0.0
11
1144.440000000000
21
471.450000000000
31
0.0
0
LINE
5
569
100
AcDbEntity
8
0-0
6
CONTINUOUS
62
7
100
AcDbLine
10
1150.880000000000
20
480.580000000000
30
0.0
11
1151.480000000000
21
482.270000000000
31
0.0
0
LINE
5
56a
100
AcDbEntity
8
0-0
6
CONTINUOUS
62
7
100
AcDbLine
10
1151.480000000000
20
482.270000000000
30
0.0
11
1116.400000000000
21
482.270000000000
31
0.0
0
LINE
5
56b
100
AcDbEntity
8
0-0
6
CONTINUOUS
62
7
100
AcDbLine
10
1116.400000000000
20
482.270000000000
30
0.0
11
1117.000000000000
21
480.580000000000
31
0.0
0
LINE
5
56c
100
AcDbEntity
8
0-0
6
CONTINUOUS
62
7
100
AcDbLine
10
1116.400000000000
20
482.270000000000
30
0.0
11
1119.540000000000
21
483.600000000000
31
0.0
0
LINE
5
56d
100
AcDbEntity
8
0-0
6
CONTINUOUS
62
7
100
AcDbLine
10
1119.540000000000
20
483.600000000000
30
0.0
11
1148.340000000000
21
483.600000000000
31
0.0
0
LINE
5
56e
100
AcDbEntity
8
0-0
6
CONTINUOUS
62
7
100
AcDbLine
10
1148.340000000000
20
483.600000000000
30
0.0
11
1151.480000000000
21
482.270000000000
31
0.0
0
LINE
5
56f
100
AcDbEntity
8
0-0
6
CONTINUOUS
62
7
100
AcDbLine
10
1119.540000000000
20
483.600000000000
30
0.0
11
1123.660000000000
21
486.390000000000
31
0.0
0
LINE
5
570
100
AcDbEntity
8
0-0
6
CONTINUOUS
62
7
100
AcDbLine
10
1123.660000000000
20
486.390000000000
30
0.0
11
1144.220000000000
21
486.390000000000
31
0.0
0
LINE
5
571
100
AcDbEntity
8
0-0
6
CONTINUOUS
62
7
100
AcDbLine
10
1144.220000000000
20
486.390000000000
30
0.0
11
1148.340000000000
21
483.600000000000
31
0.0
0
LINE
5
572
100
AcDbEntity
8
0-0
6
CONTINUOUS
62
7
100
AcDbLine
10
1129.400000000000
20
494.250000000000
30
0.0
11
1129.400000000000
21
504.020000000000
31
0.0
0
LINE
5
573
100
AcDbEntity
8
0-0
6
CONTINUOUS
62
7
100
AcDbLine
10
1127.880000000000
20
494.250000000000
30
0.0
11
1140.000000000000
21
494.250000000000
31
0.0
0
LINE
5
574
100
AcDbEntity
8
0-0
6
CONTINUOUS
62
7
100
AcDbLine
10
1126.080000000000
20
486.390000000000
30
0.0
11
1126.080000000000
21
493.770000000000
31
0.0
0
LINE
5
575
100
AcDbEntity
8
0-0
6
CONTINUOUS
62
7
100
AcDbLine
10
1126.080000000000
20
493.770000000000
30
0.0
11
1129.690000000000
21
493.770000000000
31
0.0
0
LINE
5
576
100
AcDbEntity
8
0-0
6
CONTINUOUS
62
7
100
AcDbLine
10
1129.690000000000
20
493.770000000000
30
0.0
11
1138.200000000000
21
493.770000000000
31
0.0
0
LINE
5
577
100
AcDbEntity
8
0-0
6
CONTINUOUS
62
7
100
AcDbLine
10
1138.200000000000
20
493.770000000000
30
0.0
11
1141.800000000000
21
493.770000000000
31
0.0
0
LINE
5
578
100
AcDbEntity
8
0-0
6
CONTINUOUS
62
7
100
AcDbLine
10
1141.800000000000
20
493.770000000000
30
0.0
11
1141.800000000000
21
486.390000000000
31
0.0
0
LINE
5
579
100
AcDbEntity
8
0-0
6
CONTINUOUS
62
7
100
AcDbLine
10
1129.690000000000
20
493.770000000000
30
0.0
11
1129.690000000000
21
486.390000000000
31
0.0
0
LINE
5
57a
100
AcDbEntity
8
0-0
6
CONTINUOUS
62
7
100
AcDbLine
10
1133.940000000000
20
507.190000000000
30
0.0
11
1129.400000000000
21
504.020000000000
31
0.0
0
LINE
5
57b
100
AcDbEntity
8
0-0
6
CONTINUOUS
62
7
100
AcDbLine
10
1138.480000000000
20
494.250000000000
30
0.0
11
1138.480000000000
21
504.020000000000
31
0.0
0
LINE
5
57c
100
AcDbEntity
8
0-0
6
CONTINUOUS
62
7
100
AcDbLine
10
1138.200000000000
20
486.390000000000
30
0.0
11
1138.200000000000
21
493.770000000000
31
0.0
0
LINE
5
57d
100
AcDbEntity
8
0-0
6
CONTINUOUS
62
7
100
AcDbLine
10
1133.940000000000
20
507.190000000000
30
0.0
11
1138.480000000000
21
504.020000000000
31
0.0
0
LINE
5
57e
100
AcDbEntity
8
0-0
6
CONTINUOUS
62
7
100
AcDbLine
10
1117.000000000000
20
480.580000000000
30
0.0
11
1150.880000000000
21
480.580000000000
31
0.0
0
LINE
5
57f
100
AcDbEntity
8
0-0
6
CONTINUOUS
62
7
100
AcDbLine
10
1151.030000000000
20
478.300000000000
30
0.0
11
1148.750000000000
21
480.580000000000
31
0.0
0
LINE
5
580
100
AcDbEntity
8
0-0
6
CONTINUOUS
62
7
100
AcDbLine
10
1147.250000000000
20
476.950000000000
30
0.0
11
1143.620000000000
21
480.580000000000
31
0.0
0
LINE
5
581
100
AcDbEntity
8
0-0
6
CONTINUOUS
62
7
100
AcDbLine
10
1146.300000000000
20
476.950000000000
30
0.0
11
1149.930000000000
21
480.580000000000
31
0.0
0
LINE
5
582
100
AcDbEntity
8
0-0
6
CONTINUOUS
62
7
100
AcDbLine
10
1126.720000000000
20
476.950000000000
30
0.0
11
1123.090000000000
21
480.580000000000
31
0.0
0
LINE
5
583
100
AcDbEntity
8
0-0
6
CONTINUOUS
62
7
100
AcDbLine
10
1120.630000000000
20
476.950000000000
30
0.0
11
1124.260000000000
21
480.580000000000
31
0.0
0
LINE
5
584
100
AcDbEntity
8
0-0
6
CONTINUOUS
62
7
100
AcDbLine
10
1131.850000000000
20
476.950000000000
30
0.0
11
1128.220000000000
21
480.580000000000
31
0.0
0
LINE
5
585
100
AcDbEntity
8
0-0
6
CONTINUOUS
62
7
100
AcDbLine
10
1130.900000000000
20
476.950000000000
30
0.0
11
1134.530000000000
21
480.580000000000
31
0.0
0
LINE
5
586
100
AcDbEntity
8
0-0
6
CONTINUOUS
62
7
100
AcDbLine
10
1125.770000000000
20
476.950000000000
30
0.0
11
1129.400000000000
21
480.580000000000
31
0.0
0
LINE
5
587
100
AcDbEntity
8
0-0
6
CONTINUOUS
62
7
100
AcDbLine
10
1121.590000000000
20
476.950000000000
30
0.0
11
1117.960000000000
21
480.580000000000
31
0.0
0
LINE
5
588
100
AcDbEntity
8
0-0
6
CONTINUOUS
62
7
100
AcDbLine
10
1116.850000000000
20
478.300000000000
30
0.0
11
1119.130000000000
21
480.580000000000
31
0.0
0
LINE
5
589
100
AcDbEntity
8
0-0
6
CONTINUOUS
62
7
100
AcDbLine
10
1136.980000000000
20
476.950000000000
30
0.0
11
1133.350000000000
21
480.580000000000
31
0.0
0
LINE
5
58a
100
AcDbEntity
8
0-0
6
CONTINUOUS
62
7
100
AcDbLine
10
1136.030000000000
20
476.950000000000
30
0.0
11
1139.660000000000
21
480.580000000000
31
0.0
0
LINE
5
58b
100
AcDbEntity
8
0-0
6
CONTINUOUS
62
7
100
AcDbLine
10
1142.120000000000
20
476.950000000000
30
0.0
11
1138.490000000000
21
480.580000000000
31
0.0
0
LINE
5
58c
100
AcDbEntity
8
0-0
6
CONTINUOUS
62
7
100
AcDbLine
10
1141.160000000000
20
476.950000000000
30
0.0
11
1144.790000000000
21
480.580000000000
31
0.0
0
LINE
5
58d
100
AcDbEntity
8
0-0
6
CONTINUOUS
62
7
100
AcDbLine
10
1129.100000000000
20
476.950000000000
30
0.0
11
1129.100000000000
21
474.650000000000
31
0.0
0
LINE
5
58e
100
AcDbEntity
8
0-0
6
CONTINUOUS
62
7
100
AcDbLine
10
1138.780000000000
20
476.950000000000
30
0.0
11
1138.780000000000
21
474.650000000000
31
0.0
0
LINE
5
58f
100
AcDbEntity
8
0-0
6
CONTINUOUS
62
3
100
AcDbLine
10
1152.420000000000
20
471.450000000000
30
0.0
11
1115.000000000000
21
471.450000000000
31
0.0
0
LINE
5
590
100
AcDbEntity
8
0-0
6
CONTINUOUS
62
3
100
AcDbLine
10
1013.800000000000
20
296.370000000000
30
0.0
11
1115.000000000000
21
471.450000000000
31
0.0
0
LINE
5
591
100
AcDbEntity
8
0-0
6
CONTINUOUS
62
3
100
AcDbLine
10
1115.000000000000
20
474.650000000000
30
0.0
11
1152.420000000000
21
474.650000000000
31
0.0
0
LINE
5
592
100
AcDbEntity
8
0-0
6
CONTINUOUS
62
3
100
AcDbLine
10
1112.230000000000
20
473.050000000000
30
0.0
11
1011.030000000000
21
297.970000000000
31
0.0
0
LINE
5
593
100
AcDbEntity
8
0-0
6
CONTINUOUS
62
3
100
AcDbLine
10
1155.190000000000
20
473.050000000000
30
0.0
11
1233.940000000000
21
336.810000000000
31
0.0
0
LINE
5
594
100
AcDbEntity
8
0-0
6
CONTINUOUS
62
3
100
AcDbLine
10
1233.940000000000
20
330.410000000000
30
0.0
11
1152.420000000000
21
471.450000000000
31
0.0
0
LINE
5
595
100
AcDbEntity
8
0-0
6
CONTINUOUS
62
3
100
AcDbLine
10
812.230000000000
20
473.050000000000
30
0.0
11
733.940000000000
21
337.610000000000
31
0.0
0
LINE
5
596
100
AcDbEntity
8
0-0
6
CONTINUOUS
62
3
100
AcDbLine
10
815.000000000000
20
471.450000000000
30
0.0
11
733.940000000000
21
331.210000000000
31
0.0
0
LINE
5
597
100
AcDbEntity
8
0-0
6
CONTINUOUS
62
7
100
AcDbLine
10
983.710000000000
20
294.770000000000
30
0.0
11
985.850000000000
21
286.770000000000
31
0.0
0
LINE
5
598
100
AcDbEntity
8
0-0
6
CONTINUOUS
62
7
100
AcDbLine
10
983.710000000000
20
294.770000000000
30
0.0
11
989.570000000000
21
288.910000000000
31
0.0
0
LINE
5
599
100
AcDbEntity
8
0-0
6
CONTINUOUS
62
7
100
AcDbLine
10
983.710000000000
20
294.770000000000
30
0.0
11
996.700000000000
21
272.270000000000
31
0.0
0
LINE
5
59a
100
AcDbEntity
8
0-0
6
CONTINUOUS
62
4
100
AcDbLine
10
968.710000000000
20
294.770000000000
30
0.0
11
968.710000000000
21
297.970000000000
31
0.0
0
LINE
5
59b
100
AcDbEntity
8
0-0
6
CONTINUOUS
62
4
100
AcDbLine
10
969.710000000000
20
294.770000000000
30
0.0
11
969.710000000000
21
297.970000000000
31
0.0
0
LINE
5
59c
100
AcDbEntity
8
0-0
6
CONTINUOUS
62
4
100
AcDbLine
10
970.710000000000
20
294.770000000000
30
0.0
11
970.710000000000
21
297.970000000000
31
0.0
0
LINE
5
59d
100
AcDbEntity
8
0-0
6
CONTINUOUS
62
4
100
AcDbLine
10
971.710000000000
20
294.770000000000
30
0.0
11
971.710000000000
21
297.970000000000
31
0.0
0
LINE
5
59e
100
AcDbEntity
8
0-0
6
CONTINUOUS
62
4
100
AcDbLine
10
972.710000000000
20
294.770000000000
30
0.0
11
972.710000000000
21
297.970000000000
31
0.0
0
LINE
5
59f
100
AcDbEntity
8
0-0
6
CONTINUOUS
62
4
100
AcDbLine
10
973.710000000000
20
294.770000000000
30
0.0
11
973.710000000000
21
297.970000000000
31
0.0
0
LINE
5
5a0
100
AcDbEntity
8
0-0
6
CONTINUOUS
62
4
100
AcDbLine
10
974.710000000000
20
294.770000000000
30
0.0
11
974.710000000000
21
297.970000000000
31
0.0
0
LINE
5
5a1
100
AcDbEntity
8
0-0
6
CONTINUOUS
62
4
100
AcDbLine
10
975.710000000000
20
294.770000000000
30
0.0
11
975.710000000000
21
297.970000000000
31
0.0
0
LINE
5
5a2
100
AcDbEntity
8
0-0
6
CONTINUOUS
62
4
100
AcDbLine
10
976.710000000000
20
294.770000000000
30
0.0
11
976.710000000000
21
297.970000000000
31
0.0
0
LINE
5
5a3
100
AcDbEntity
8
0-0
6
CONTINUOUS
62
4
100
AcDbLine
10
977.710000000000
20
294.770000000000
30
0.0
11
977.710000000000
21
297.970000000000
31
0.0
0
LINE
5
5a4
100
AcDbEntity
8
0-0
6
CONTINUOUS
62
4
100
AcDbLine
10
978.710000000000
20
294.770000000000
30
0.0
11
978.710000000000
21
297.970000000000
31
0.0
0
LINE
5
5a5
100
AcDbEntity
8
0-0
6
CONTINUOUS
62
4
100
AcDbLine
10
979.710000000000
20
294.770000000000
30
0.0
11
979.710000000000
21
297.970000000000
31
0.0
0
LINE
5
5a6
100
AcDbEntity
8
0-0
6
CONTINUOUS
62
4
100
AcDbLine
10
980.710000000000
20
294.770000000000
30
0.0
11
980.710000000000
21
297.970000000000
31
0.0
0
LINE
5
5a7
100
AcDbEntity
8
0-0
6
CONTINUOUS
62
4
100
AcDbLine
10
981.710000000000
20
294.770000000000
30
0.0
11
981.710000000000
21
297.970000000000
31
0.0
0
LINE
5
5a8
100
AcDbEntity
8
0-0
6
CONTINUOUS
62
4
100
AcDbLine
10
982.710000000000
20
294.770000000000
30
0.0
11
982.710000000000
21
297.970000000000
31
0.0
0
LINE
5
5a9
100
AcDbEntity
8
0-0
6
CONTINUOUS
62
4
100
AcDbLine
10
984.710000000000
20
294.770000000000
30
0.0
11
984.710000000000
21
297.970000000000
31
0.0
0
LINE
5
5aa
100
AcDbEntity
8
0-0
6
CONTINUOUS
62
4
100
AcDbLine
10
985.710000000000
20
294.770000000000
30
0.0
11
985.710000000000
21
297.970000000000
31
0.0
0
LINE
5
5ab
100
AcDbEntity
8
0-0
6
CONTINUOUS
62
4
100
AcDbLine
10
986.710000000000
20
294.770000000000
30
0.0
11
986.710000000000
21
297.970000000000
31
0.0
0
LINE
5
5ac
100
AcDbEntity
8
0-0
6
CONTINUOUS
62
4
100
AcDbLine
10
987.710000000000
20
294.770000000000
30
0.0
11
987.710000000000
21
297.970000000000
31
0.0
0
LINE
5
5ad
100
AcDbEntity
8
0-0
6
CONTINUOUS
62
4
100
AcDbLine
10
989.710000000000
20
294.770000000000
30
0.0
11
989.710000000000
21
297.970000000000
31
0.0
0
LINE
5
5ae
100
AcDbEntity
8
0-0
6
CONTINUOUS
62
4
100
AcDbLine
10
988.710000000000
20
294.770000000000
30
0.0
11
988.710000000000
21
297.970000000000
31
0.0
0
LINE
5
5af
100
AcDbEntity
8
0-0
6
CONTINUOUS
62
4
100
AcDbLine
10
990.710000000000
20
294.770000000000
30
0.0
11
990.710000000000
21
297.970000000000
31
0.0
0
LINE
5
5b0
100
AcDbEntity
8
0-0
6
CONTINUOUS
62
4
100
AcDbLine
10
991.710000000000
20
294.770000000000
30
0.0
11
991.710000000000
21
297.970000000000
31
0.0
0
LINE
5
5b1
100
AcDbEntity
8
0-0
6
CONTINUOUS
62
4
100
AcDbLine
10
992.710000000000
20
294.770000000000
30
0.0
11
992.710000000000
21
297.970000000000
31
0.0
0
LINE
5
5b2
100
AcDbEntity
8
0-0
6
CONTINUOUS
62
4
100
AcDbLine
10
993.710000000000
20
294.770000000000
30
0.0
11
993.710000000000
21
297.970000000000
31
0.0
0
LINE
5
5b3
100
AcDbEntity
8
0-0
6
CONTINUOUS
62
4
100
AcDbLine
10
994.710000000000
20
294.770000000000
30
0.0
11
994.710000000000
21
297.970000000000
31
0.0
0
LINE
5
5b4
100
AcDbEntity
8
0-0
6
CONTINUOUS
62
4
100
AcDbLine
10
995.710000000000
20
294.770000000000
30
0.0
11
995.710000000000
21
297.970000000000
31
0.0
0
LINE
5
5b5
100
AcDbEntity
8
0-0
6
CONTINUOUS
62
4
100
AcDbLine
10
996.710000000000
20
294.770000000000
30
0.0
11
996.710000000000
21
297.970000000000
31
0.0
0
LINE
5
5b6
100
AcDbEntity
8
0-0
6
CONTINUOUS
62
4
100
AcDbLine
10
997.710000000000
20
294.770000000000
30
0.0
11
997.710000000000
21
297.970000000000
31
0.0
0
LINE
5
5b7
100
AcDbEntity
8
0-0
6
CONTINUOUS
62
4
100
AcDbLine
10
998.710000000000
20
294.770000000000
30
0.0
11
998.710000000000
21
297.970000000000
31
0.0
0
LINE
5
5b8
100
AcDbEntity
8
0-0
6
CONTINUOUS
62
4
100
AcDbLine
10
983.710000000000
20
294.770000000000
30
0.0
11
983.710000000000
21
297.970000000000
31
0.0
0
LINE
5
5b9
100
AcDbEntity
8
0-0
6
CONTINUOUS
62
7
100
AcDbLine
10
983.710000000000
20
476.950000000000
30
0.0
11
1029.680000000000
21
476.950000000000
31
0.0
0
LINE
5
5ba
100
AcDbEntity
8
0-0
6
CONTINUOUS
62
7
100
AcDbLine
10
983.710000000000
20
416.620000000000
30
0.0
11
983.710000000000
21
476.950000000000
31
0.0
0
LINE
5
5bb
100
AcDbEntity
8
0-0
6
CONTINUOUS
62
7
100
AcDbLine
10
983.710000000000
20
303.950000000000
30
0.0
11
983.710000000000
21
389.960000000000
31
0.0
0
LINE
5
5bc
100
AcDbEntity
8
0-0
6
CENTER2
62
7
100
AcDbLine
10
833.940000000000
20
482.910000000000
30
0.0
11
833.940000000000
21
533.250000000000
31
0.0
0
LINE
5
5bd
100
AcDbEntity
8
0-0
6
CENTER2
62
7
100
AcDbLine
10
833.940000000000
20
557.030000000000
30
0.0
11
833.940000000000
21
566.800000000000
31
0.0
0
LINE
5
5be
100
AcDbEntity
8
0-0
6
CONTINUOUS
62
7
100
AcDbLine
10
808.940000000000
20
521.800000000000
30
0.0
11
808.940000000000
21
536.800000000000
31
0.0
0
LINE
5
5bf
100
AcDbEntity
8
0-0
6
CONTINUOUS
62
7
100
AcDbLine
10
808.940000000000
20
536.800000000000
30
0.0
11
858.940000000000
21
536.800000000000
31
0.0
0
LINE
5
5c0
100
AcDbEntity
8
0-0
6
CONTINUOUS
62
7
100
AcDbLine
10
858.940000000000
20
521.800000000000
30
0.0
11
858.940000000000
21
536.800000000000
31
0.0
0
LINE
5
5c1
100
AcDbEntity
8
0-0
6
CONTINUOUS
62
7
100
AcDbLine
10
833.940000000000
20
566.800000000000
30
0.0
11
1133.940000000000
21
566.800000000000
31
0.0
0
LINE
5
5c2
100
AcDbEntity
8
0-0
6
CENTER2
62
7
100
AcDbLine
10
1133.940000000000
20
482.910000000000
30
0.0
11
1133.940000000000
21
533.250000000000
31
0.0
0
LINE
5
5c3
100
AcDbEntity
8
0-0
6
CENTER2
62
7
100
AcDbLine
10
1133.940000000000
20
557.030000000000
30
0.0
11
1133.940000000000
21
566.800000000000
31
0.0
0
LINE
5
5c4
100
AcDbEntity
8
0-0
6
CONTINUOUS
62
7
100
AcDbLine
10
1108.940000000000
20
521.800000000000
30
0.0
11
1108.940000000000
21
536.800000000000
31
0.0
0
LINE
5
5c5
100
AcDbEntity
8
0-0
6
CONTINUOUS
62
7
100
AcDbLine
10
1108.940000000000
20
536.800000000000
30
0.0
11
1158.940000000000
21
536.800000000000
31
0.0
0
LINE
5
5c6
100
AcDbEntity
8
0-0
6
CONTINUOUS
62
7
100
AcDbLine
10
1158.940000000000
20
521.800000000000
30
0.0
11
1158.940000000000
21
536.800000000000
31
0.0
0
LINE
5
5c7
100
AcDbEntity
8
0-0
6
CONTINUOUS
62
4
100
AcDbLine
10
1233.300000000000
20
337.910000000000
30
0.0
11
1233.940000000000
21
338.550000000000
31
0.0
0
LINE
5
5c8
100
AcDbEntity
8
0-0
6
CONTINUOUS
62
4
100
AcDbLine
10
1231.230000000000
20
341.500000000000
30
0.0
11
1233.940000000000
21
344.210000000000
31
0.0
0
LINE
5
5c9
100
AcDbEntity
8
0-0
6
CONTINUOUS
62
4
100
AcDbLine
10
1229.160000000000
20
345.080000000000
30
0.0
11
1232.090000000000
21
348.010000000000
31
0.0
0
LINE
5
5ca
100
AcDbEntity
8
0-0
6
CONTINUOUS
62
4
100
AcDbLine
10
1227.090000000000
20
348.670000000000
30
0.0
11
1230.010000000000
21
351.590000000000
31
0.0
0
LINE
5
5cb
100
AcDbEntity
8
0-0
6
CONTINUOUS
62
4
100
AcDbLine
10
1225.010000000000
20
352.250000000000
30
0.0
11
1227.940000000000
21
355.180000000000
31
0.0
0
LINE
5
5cc
100
AcDbEntity
8
0-0
6
CONTINUOUS
62
4
100
AcDbLine
10
1222.940000000000
20
355.840000000000
30
0.0
11
1225.870000000000
21
358.760000000000
31
0.0
0
LINE
5
5cd
100
AcDbEntity
8
0-0
6
CONTINUOUS
62
4
100
AcDbLine
10
1220.870000000000
20
359.420000000000
30
0.0
11
1223.800000000000
21
362.350000000000
31
0.0
0
LINE
5
5ce
100
AcDbEntity
8
0-0
6
CONTINUOUS
62
4
100
AcDbLine
10
1218.800000000000
20
363.010000000000
30
0.0
11
1221.730000000000
21
365.930000000000
31
0.0
0
LINE
5
5cf
100
AcDbEntity
8
0-0
6
CONTINUOUS
62
4
100
AcDbLine
10
1216.730000000000
20
366.590000000000
30
0.0
11
1219.650000000000
21
369.520000000000
31
0.0
0
LINE
5
5d0
100
AcDbEntity
8
0-0
6
CONTINUOUS
62
4
100
AcDbLine
10
1214.650000000000
20
370.170000000000
30
0.0
11
1217.580000000000
21
373.100000000000
31
0.0
0
LINE
5
5d1
100
AcDbEntity
8
0-0
6
CONTINUOUS
62
4
100
AcDbLine
10
1212.580000000000
20
373.760000000000
30
0.0
11
1215.510000000000
21
376.690000000000
31
0.0
0
LINE
5
5d2
100
AcDbEntity
8
0-0
6
CONTINUOUS
62
4
100
AcDbLine
10
1210.510000000000
20
377.340000000000
30
0.0
11
1213.440000000000
21
380.270000000000
31
0.0
0
LINE
5
5d3
100
AcDbEntity
8
0-0
6
CONTINUOUS
62
4
100
AcDbLine
10
1208.440000000000
20
380.930000000000
30
0.0
11
1211.370000000000
21
383.860000000000
31
0.0
0
LINE
5
5d4
100
AcDbEntity
8
0-0
6
CONTINUOUS
62
4
100
AcDbLine
10
1206.370000000000
20
384.510000000000
30
0.0
11
1209.290000000000
21
387.440000000000
31
0.0
0
LINE
5
5d5
100
AcDbEntity
8
0-0
6
CONTINUOUS
62
4
100
AcDbLine
10
1204.290000000000
20
388.100000000000
30
0.0
11
1207.220000000000
21
391.030000000000
31
0.0
0
LINE
5
5d6
100
AcDbEntity
8
0-0
6
CONTINUOUS
62
4
100
AcDbLine
10
1202.220000000000
20
391.680000000000
30
0.0
11
1205.150000000000
21
394.610000000000
31
0.0
0
LINE
5
5d7
100
AcDbEntity
8
0-0
6
CONTINUOUS
62
4
100
AcDbLine
10
1200.150000000000
20
395.270000000000
30
0.0
11
1203.080000000000
21
398.200000000000
31
0.0
0
LINE
5
5d8
100
AcDbEntity
8
0-0
6
CONTINUOUS
62
4
100
AcDbLine
10
1198.080000000000
20
398.850000000000
30
0.0
11
1201.000000000000
21
401.780000000000
31
0.0
0
LINE
5
5d9
100
AcDbEntity
8
0-0
6
CONTINUOUS
62
4
100
AcDbLine
10
1196.000000000000
20
402.440000000000
30
0.0
11
1198.930000000000
21
405.370000000000
31
0.0
0
LINE
5
5da
100
AcDbEntity
8
0-0
6
CONTINUOUS
62
4
100
AcDbLine
10
1193.930000000000
20
406.020000000000
30
0.0
11
1196.860000000000
21
408.950000000000
31
0.0
0
LINE
5
5db
100
AcDbEntity
8
0-0
6
CONTINUOUS
62
4
100
AcDbLine
10
1191.860000000000
20
409.610000000000
30
0.0
11
1194.790000000000
21
412.540000000000
31
0.0
0
LINE
5
5dc
100
AcDbEntity
8
0-0
6
CONTINUOUS
62
4
100
AcDbLine
10
1189.790000000000
20
413.190000000000
30
0.0
11
1192.720000000000
21
416.120000000000
31
0.0
0
LINE
5
5dd
100
AcDbEntity
8
0-0
6
CONTINUOUS
62
4
100
AcDbLine
10
1187.720000000000
20
416.780000000000
30
0.0
11
1190.640000000000
21
419.700000000000
31
0.0
0
LINE
5
5de
100
AcDbEntity
8
0-0
6
CONTINUOUS
62
4
100
AcDbLine
10
1185.640000000000
20
420.360000000000
30
0.0
11
1188.570000000000
21
423.290000000000
31
0.0
0
LINE
5
5df
100
AcDbEntity
8
0-0
6
CONTINUOUS
62
4
100
AcDbLine
10
1183.570000000000
20
423.950000000000
30
0.0
11
1186.500000000000
21
426.870000000000
31
0.0
0
LINE
5
5e0
100
AcDbEntity
8
0-0
6
CONTINUOUS
62
4
100
AcDbLine
10
1181.500000000000
20
427.530000000000
30
0.0
11
1184.430000000000
21
430.460000000000
31
0.0
0
LINE
5
5e1
100
AcDbEntity
8
0-0
6
CONTINUOUS
62
4
100
AcDbLine
10
1179.430000000000
20
431.120000000000
30
0.0
11
1182.360000000000
21
434.040000000000
31
0.0
0
LINE
5
5e2
100
AcDbEntity
8
0-0
6
CONTINUOUS
62
4
100
AcDbLine
10
1177.360000000000
20
434.700000000000
30
0.0
11
1180.280000000000
21
437.630000000000
31
0.0
0
LINE
5
5e3
100
AcDbEntity
8
0-0
6
CONTINUOUS
62
4
100
AcDbLine
10
1175.280000000000
20
438.290000000000
30
0.0
11
1178.210000000000
21
441.210000000000
31
0.0
0
LINE
5
5e4
100
AcDbEntity
8
0-0
6
CONTINUOUS
62
4
100
AcDbLine
10
1173.210000000000
20
441.870000000000
30
0.0
11
1176.140000000000
21
444.800000000000
31
0.0
0
LINE
5
5e5
100
AcDbEntity
8
0-0
6
CONTINUOUS
62
4
100
AcDbLine
10
1171.140000000000
20
445.450000000000
30
0.0
11
1174.070000000000
21
448.380000000000
31
0.0
0
LINE
5
5e6
100
AcDbEntity
8
0-0
6
CONTINUOUS
62
4
100
AcDbLine
10
1169.070000000000
20
449.040000000000
30
0.0
11
1172.000000000000
21
451.970000000000
31
0.0
0
LINE
5
5e7
100
AcDbEntity
8
0-0
6
CONTINUOUS
62
4
100
AcDbLine
10
1167.000000000000
20
452.620000000000
30
0.0
11
1169.920000000000
21
455.550000000000
31
0.0
0
LINE
5
5e8
100
AcDbEntity
8
0-0
6
CONTINUOUS
62
4
100
AcDbLine
10
1006.680000000000
20
297.970000000000
30
0.0
11
1016.980000000000
21
308.270000000000
31
0.0
0
LINE
5
5e9
100
AcDbEntity
8
0-0
6
CONTINUOUS
62
4
100
AcDbLine
10
1164.920000000000
20
456.210000000000
30
0.0
11
1167.850000000000
21
459.140000000000
31
0.0
0
LINE
5
5ea
100
AcDbEntity
8
0-0
6
CONTINUOUS
62
4
100
AcDbLine
10
1001.030000000000
20
297.970000000000
30
0.0
11
1006.210000000000
21
303.150000000000
31
0.0
0
LINE
5
5eb
100
AcDbEntity
8
0-0
6
CONTINUOUS
62
4
100
AcDbLine
10
1013.780000000000
20
310.720000000000
30
0.0
11
1024.730000000000
21
321.670000000000
31
0.0
0
LINE
5
5ec
100
AcDbEntity
8
0-0
6
CONTINUOUS
62
4
100
AcDbLine
10
1162.850000000000
20
459.790000000000
30
0.0
11
1165.780000000000
21
462.720000000000
31
0.0
0
LINE
5
5ed
100
AcDbEntity
8
0-0
6
CONTINUOUS
62
4
100
AcDbLine
10
995.370000000000
20
297.970000000000
30
0.0
11
1000.550000000000
21
303.150000000000
31
0.0
0
LINE
5
5ee
100
AcDbEntity
8
0-0
6
CONTINUOUS
62
4
100
AcDbLine
10
1021.530000000000
20
324.130000000000
30
0.0
11
1032.480000000000
21
335.080000000000
31
0.0
0
LINE
5
5ef
100
AcDbEntity
8
0-0
6
CONTINUOUS
62
4
100
AcDbLine
10
1160.780000000000
20
463.380000000000
30
0.0
11
1163.710000000000
21
466.310000000000
31
0.0
0
LINE
5
5f0
100
AcDbEntity
8
0-0
6
CONTINUOUS
62
4
100
AcDbLine
10
989.710000000000
20
297.970000000000
30
0.0
11
994.890000000000
21
303.150000000000
31
0.0
0
LINE
5
5f1
100
AcDbEntity
8
0-0
6
CONTINUOUS
62
4
100
AcDbLine
10
1029.280000000000
20
337.530000000000
30
0.0
11
1040.230000000000
21
348.480000000000
31
0.0
0
LINE
5
5f2
100
AcDbEntity
8
0-0
6
CONTINUOUS
62
4
100
AcDbLine
10
1158.710000000000
20
466.960000000000
30
0.0
11
1161.630000000000
21
469.890000000000
31
0.0
0
LINE
5
5f3
100
AcDbEntity
8
0-0
6
CONTINUOUS
62
4
100
AcDbLine
10
984.060000000000
20
297.970000000000
30
0.0
11
989.240000000000
21
303.150000000000
31
0.0
0
LINE
5
5f4
100
AcDbEntity
8
0-0
6
CONTINUOUS
62
4
100
AcDbLine
10
1037.030000000000
20
350.940000000000
30
0.0
11
1047.980000000000
21
361.890000000000
31
0.0
0
LINE
5
5f5
100
AcDbEntity
8
0-0
6
CONTINUOUS
62
4
100
AcDbLine
10
1156.630000000000
20
470.550000000000
30
0.0
11
1159.560000000000
21
473.480000000000
31
0.0
0
LINE
5
5f6
100
AcDbEntity
8
0-0
6
CONTINUOUS
62
4
100
AcDbLine
10
978.400000000000
20
297.970000000000
30
0.0
11
983.580000000000
21
303.150000000000
31
0.0
0
LINE
5
5f7
100
AcDbEntity
8
0-0
6
CONTINUOUS
62
4
100
AcDbLine
10
1044.780000000000
20
364.350000000000
30
0.0
11
1055.730000000000
21
375.300000000000
31
0.0
0
LINE
5
5f8
100
AcDbEntity
8
0-0
6
CONTINUOUS
62
4
100
AcDbLine
10
1154.400000000000
20
473.970000000000
30
0.0
11
1155.780000000000
21
475.350000000000
31
0.0
0
LINE
5
5f9
100
AcDbEntity
8
0-0
6
CONTINUOUS
62
4
100
AcDbLine
10
972.740000000000
20
297.970000000000
30
0.0
11
977.920000000000
21
303.150000000000
31
0.0
0
LINE
5
5fa
100
AcDbEntity
8
0-0
6
CONTINUOUS
62
4
100
AcDbLine
10
1052.520000000000
20
377.750000000000
30
0.0
11
1063.470000000000
21
388.700000000000
31
0.0
0
LINE
5
5fb
100
AcDbEntity
8
0-0
6
CONTINUOUS
62
4
100
AcDbLine
10
1149.420000000000
20
474.650000000000
30
0.0
11
1150.120000000000
21
475.350000000000
31
0.0
0
LINE
5
5fc
100
AcDbEntity
8
0-0
6
CONTINUOUS
62
4
100
AcDbLine
10
967.080000000000
20
297.970000000000
30
0.0
11
972.270000000000
21
303.150000000000
31
0.0
0
LINE
5
5fd
100
AcDbEntity
8
0-0
6
CONTINUOUS
62
4
100
AcDbLine
10
1060.270000000000
20
391.160000000000
30
0.0
11
1071.220000000000
21
402.110000000000
31
0.0
0
LINE
5
5fe
100
AcDbEntity
8
0-0
6
CONTINUOUS
62
4
100
AcDbLine
10
1143.770000000000
20
474.650000000000
30
0.0
11
1144.470000000000
21
475.350000000000
31
0.0
0
LINE
5
5ff
100
AcDbEntity
8
0-0
6
CONTINUOUS
62
4
100
AcDbLine
10
961.430000000000
20
297.970000000000
30
0.0
11
966.610000000000
21
303.150000000000
31
0.0
0
LINE
5
600
100
AcDbEntity
8
0-0
6
CONTINUOUS
62
4
100
AcDbLine
10
1068.020000000000
20
404.560000000000
30
0.0
11
1078.970000000000
21
415.510000000000
31
0.0
0
LINE
5
601
100
AcDbEntity
8
0-0
6
CONTINUOUS
62
4
100
AcDbLine
10
1138.110000000000
20
474.650000000000
30
0.0
11
1138.810000000000
21
475.350000000000
31
0.0
0
LINE
5
602
100
AcDbEntity
8
0-0
6
CONTINUOUS
62
4
100
AcDbLine
10
956.160000000000
20
298.360000000000
30
0.0
11
960.950000000000
21
303.150000000000
31
0.0
0
LINE
5
603
100
AcDbEntity
8
0-0
6
CONTINUOUS
62
4
100
AcDbLine
10
1075.770000000000
20
417.970000000000
30
0.0
11
1086.720000000000
21
428.920000000000
31
0.0
0
LINE
5
604
100
AcDbEntity
8
0-0
6
CONTINUOUS
62
4
100
AcDbLine
10
1132.450000000000
20
474.650000000000
30
0.0
11
1133.150000000000
21
475.350000000000
31
0.0
0
LINE
5
605
100
AcDbEntity
8
0-0
6
CONTINUOUS
62
4
100
AcDbLine
10
954.090000000000
20
301.950000000000
30
0.0
11
957.020000000000
21
304.870000000000
31
0.0
0
LINE
5
606
100
AcDbEntity
8
0-0
6
CONTINUOUS
62
4
100
AcDbLine
10
1083.520000000000
20
431.380000000000
30
0.0
11
1094.470000000000
21
442.320000000000
31
0.0
0
LINE
5
607
100
AcDbEntity
8
0-0
6
CONTINUOUS
62
4
100
AcDbLine
10
1126.800000000000
20
474.650000000000
30
0.0
11
1127.500000000000
21
475.350000000000
31
0.0
0
LINE
5
608
100
AcDbEntity
8
0-0
6
CONTINUOUS
62
4
100
AcDbLine
10
952.020000000000
20
305.530000000000
30
0.0
11
954.950000000000
21
308.460000000000
31
0.0
0
LINE
5
609
100
AcDbEntity
8
0-0
6
CONTINUOUS
62
4
100
AcDbLine
10
1091.270000000000
20
444.780000000000
30
0.0
11
1102.220000000000
21
455.730000000000
31
0.0
0
LINE
5
60a
100
AcDbEntity
8
0-0
6
CONTINUOUS
62
4
100
AcDbLine
10
1121.140000000000
20
474.650000000000
30
0.0
11
1121.840000000000
21
475.350000000000
31
0.0
0
LINE
5
60b
100
AcDbEntity
8
0-0
6
CONTINUOUS
62
4
100
AcDbLine
10
949.950000000000
20
309.120000000000
30
0.0
11
952.880000000000
21
312.040000000000
31
0.0
0
LINE
5
60c
100
AcDbEntity
8
0-0
6
CONTINUOUS
62
4
100
AcDbLine
10
1101.620000000000
20
460.790000000000
30
0.0
11
1109.970000000000
21
469.140000000000
31
0.0
0
LINE
5
60d
100
AcDbEntity
8
0-0
6
CONTINUOUS
62
4
100
AcDbLine
10
1115.480000000000
20
474.650000000000
30
0.0
11
1116.180000000000
21
475.350000000000
31
0.0
0
LINE
5
60e
100
AcDbEntity
8
0-0
6
CONTINUOUS
62
4
100
AcDbLine
10
947.880000000000
20
312.700000000000
30
0.0
11
950.800000000000
21
315.630000000000
31
0.0
0
LINE
5
60f
100
AcDbEntity
8
0-0
6
CONTINUOUS
62
4
100
AcDbLine
10
1109.370000000000
20
474.190000000000
30
0.0
11
1110.520000000000
21
475.350000000000
31
0.0
0
LINE
5
610
100
AcDbEntity
8
0-0
6
CONTINUOUS
62
4
100
AcDbLine
10
945.800000000000
20
316.290000000000
30
0.0
11
948.730000000000
21
319.210000000000
31
0.0
0
LINE
5
611
100
AcDbEntity
8
0-0
6
CONTINUOUS
62
4
100
AcDbLine
10
943.730000000000
20
319.870000000000
30
0.0
11
946.660000000000
21
322.800000000000
31
0.0
0
LINE
5
612
100
AcDbEntity
8
0-0
6
CONTINUOUS
62
4
100
AcDbLine
10
941.660000000000
20
323.460000000000
30
0.0
11
944.590000000000
21
326.380000000000
31
0.0
0
LINE
5
613
100
AcDbEntity
8
0-0
6
CONTINUOUS
62
4
100
AcDbLine
10
939.590000000000
20
327.040000000000
30
0.0
11
942.520000000000
21
329.970000000000
31
0.0
0
LINE
5
614
100
AcDbEntity
8
0-0
6
CONTINUOUS
62
4
100
AcDbLine
10
937.520000000000
20
330.620000000000
30
0.0
11
940.440000000000
21
333.550000000000
31
0.0
0
LINE
5
615
100
AcDbEntity
8
0-0
6
CONTINUOUS
62
4
100
AcDbLine
10
935.440000000000
20
334.210000000000
30
0.0
11
938.370000000000
21
337.140000000000
31
0.0
0
LINE
5
616
100
AcDbEntity
8
0-0
6
CONTINUOUS
62
4
100
AcDbLine
10
933.370000000000
20
337.790000000000
30
0.0
11
936.300000000000
21
340.720000000000
31
0.0
0
LINE
5
617
100
AcDbEntity
8
0-0
6
CONTINUOUS
62
4
100
AcDbLine
10
931.300000000000
20
341.380000000000
30
0.0
11
934.230000000000
21
344.310000000000
31
0.0
0
LINE
5
618
100
AcDbEntity
8
0-0
6
CONTINUOUS
62
4
100
AcDbLine
10
929.230000000000
20
344.960000000000
30
0.0
11
932.150000000000
21
347.890000000000
31
0.0
0
LINE
5
619
100
AcDbEntity
8
0-0
6
CONTINUOUS
62
4
100
AcDbLine
10
927.150000000000
20
348.550000000000
30
0.0
11
930.080000000000
21
351.480000000000
31
0.0
0
LINE
5
61a
100
AcDbEntity
8
0-0
6
CONTINUOUS
62
4
100
AcDbLine
10
925.080000000000
20
352.130000000000
30
0.0
11
928.010000000000
21
355.060000000000
31
0.0
0
LINE
5
61b
100
AcDbEntity
8
0-0
6
CONTINUOUS
62
4
100
AcDbLine
10
923.010000000000
20
355.720000000000
30
0.0
11
925.940000000000
21
358.650000000000
31
0.0
0
LINE
5
61c
100
AcDbEntity
8
0-0
6
CONTINUOUS
62
4
100
AcDbLine
10
920.940000000000
20
359.300000000000
30
0.0
11
923.870000000000
21
362.230000000000
31
0.0
0
LINE
5
61d
100
AcDbEntity
8
0-0
6
CONTINUOUS
62
4
100
AcDbLine
10
918.870000000000
20
362.890000000000
30
0.0
11
921.790000000000
21
365.820000000000
31
0.0
0
LINE
5
61e
100
AcDbEntity
8
0-0
6
CONTINUOUS
62
4
100
AcDbLine
10
916.790000000000
20
366.470000000000
30
0.0
11
919.720000000000
21
369.400000000000
31
0.0
0
LINE
5
61f
100
AcDbEntity
8
0-0
6
CONTINUOUS
62
4
100
AcDbLine
10
914.720000000000
20
370.060000000000
30
0.0
11
917.650000000000
21
372.980000000000
31
0.0
0
LINE
5
620
100
AcDbEntity
8
0-0
6
CONTINUOUS
62
4
100
AcDbLine
10
912.650000000000
20
373.640000000000
30
0.0
11
915.580000000000
21
376.570000000000
31
0.0
0
LINE
5
621
100
AcDbEntity
8
0-0
6
CONTINUOUS
62
4
100
AcDbLine
10
910.580000000000
20
377.230000000000
30
0.0
11
913.510000000000
21
380.150000000000
31
0.0
0
LINE
5
622
100
AcDbEntity
8
0-0
6
CONTINUOUS
62
4
100
AcDbLine
10
908.510000000000
20
380.810000000000
30
0.0
11
911.430000000000
21
383.740000000000
31
0.0
0
LINE
5
623
100
AcDbEntity
8
0-0
6
CONTINUOUS
62
4
100
AcDbLine
10
906.430000000000
20
384.400000000000
30
0.0
11
909.360000000000
21
387.320000000000
31
0.0
0
LINE
5
624
100
AcDbEntity
8
0-0
6
CONTINUOUS
62
4
100
AcDbLine
10
904.360000000000
20
387.980000000000
30
0.0
11
907.290000000000
21
390.910000000000
31
0.0
0
LINE
5
625
100
AcDbEntity
8
0-0
6
CONTINUOUS
62
4
100
AcDbLine
10
902.290000000000
20
391.560000000000
30
0.0
11
905.220000000000
21
394.490000000000
31
0.0
0
LINE
5
626
100
AcDbEntity
8
0-0
6
CONTINUOUS
62
4
100
AcDbLine
10
900.220000000000
20
395.150000000000
30
0.0
11
903.150000000000
21
398.080000000000
31
0.0
0
LINE
5
627
100
AcDbEntity
8
0-0
6
CONTINUOUS
62
4
100
AcDbLine
10
898.150000000000
20
398.730000000000
30
0.0
11
901.070000000000
21
401.660000000000
31
0.0
0
LINE
5
628
100
AcDbEntity
8
0-0
6
CONTINUOUS
62
4
100
AcDbLine
10
896.070000000000
20
402.320000000000
30
0.0
11
899.000000000000
21
405.250000000000
31
0.0
0
LINE
5
629
100
AcDbEntity
8
0-0
6
CONTINUOUS
62
4
100
AcDbLine
10
894.000000000000
20
405.900000000000
30
0.0
11
896.930000000000
21
408.830000000000
31
0.0
0
LINE
5
62a
100
AcDbEntity
8
0-0
6
CONTINUOUS
62
4
100
AcDbLine
10
891.930000000000
20
409.490000000000
30
0.0
11
894.860000000000
21
412.420000000000
31
0.0
0
LINE
5
62b
100
AcDbEntity
8
0-0
6
CONTINUOUS
62
4
100
AcDbLine
10
889.860000000000
20
413.070000000000
30
0.0
11
892.780000000000
21
416.000000000000
31
0.0
0
LINE
5
62c
100
AcDbEntity
8
0-0
6
CONTINUOUS
62
4
100
AcDbLine
10
887.780000000000
20
416.660000000000
30
0.0
11
890.710000000000
21
419.590000000000
31
0.0
0
LINE
5
62d
100
AcDbEntity
8
0-0
6
CONTINUOUS
62
4
100
AcDbLine
10
885.710000000000
20
420.240000000000
30
0.0
11
888.640000000000
21
423.170000000000
31
0.0
0
LINE
5
62e
100
AcDbEntity
8
0-0
6
CONTINUOUS
62
4
100
AcDbLine
10
883.640000000000
20
423.830000000000
30
0.0
11
886.570000000000
21
426.760000000000
31
0.0
0
LINE
5
62f
100
AcDbEntity
8
0-0
6
CONTINUOUS
62
4
100
AcDbLine
10
881.570000000000
20
427.410000000000
30
0.0
11
884.500000000000
21
430.340000000000
31
0.0
0
LINE
5
630
100
AcDbEntity
8
0-0
6
CONTINUOUS
62
4
100
AcDbLine
10
879.500000000000
20
431.000000000000
30
0.0
11
882.420000000000
21
433.930000000000
31
0.0
0
LINE
5
631
100
AcDbEntity
8
0-0
6
CONTINUOUS
62
4
100
AcDbLine
10
877.420000000000
20
434.580000000000
30
0.0
11
880.350000000000
21
437.510000000000
31
0.0
0
LINE
5
632
100
AcDbEntity
8
0-0
6
CONTINUOUS
62
4
100
AcDbLine
10
875.350000000000
20
438.170000000000
30
0.0
11
878.280000000000
21
441.090000000000
31
0.0
0
LINE
5
633
100
AcDbEntity
8
0-0
6
CONTINUOUS
62
4
100
AcDbLine
10
873.280000000000
20
441.750000000000
30
0.0
11
876.210000000000
21
444.680000000000
31
0.0
0
LINE
5
634
100
AcDbEntity
8
0-0
6
CONTINUOUS
62
4
100
AcDbLine
10
871.210000000000
20
445.340000000000
30
0.0
11
874.140000000000
21
448.260000000000
31
0.0
0
LINE
5
635
100
AcDbEntity
8
0-0
6
CONTINUOUS
62
4
100
AcDbLine
10
869.140000000000
20
448.920000000000
30
0.0
11
872.060000000000
21
451.850000000000
31
0.0
0
LINE
5
636
100
AcDbEntity
8
0-0
6
CONTINUOUS
62
4
100
AcDbLine
10
867.060000000000
20
452.510000000000
30
0.0
11
869.990000000000
21
455.430000000000
31
0.0
0
LINE
5
637
100
AcDbEntity
8
0-0
6
CONTINUOUS
62
4
100
AcDbLine
10
864.990000000000
20
456.090000000000
30
0.0
11
867.920000000000
21
459.020000000000
31
0.0
0
LINE
5
638
100
AcDbEntity
8
0-0
6
CONTINUOUS
62
4
100
AcDbLine
10
862.920000000000
20
459.680000000000
30
0.0
11
865.850000000000
21
462.600000000000
31
0.0
0
LINE
5
639
100
AcDbEntity
8
0-0
6
CONTINUOUS
62
4
100
AcDbLine
10
860.850000000000
20
463.260000000000
30
0.0
11
863.780000000000
21
466.190000000000
31
0.0
0
LINE
5
63a
100
AcDbEntity
8
0-0
6
CONTINUOUS
62
4
100
AcDbLine
10
733.940000000000
20
342.010000000000
30
0.0
11
739.970000000000
21
348.040000000000
31
0.0
0
LINE
5
63b
100
AcDbEntity
8
0-0
6
CONTINUOUS
62
4
100
AcDbLine
10
858.780000000000
20
466.840000000000
30
0.0
11
861.700000000000
21
469.770000000000
31
0.0
0
LINE
5
63c
100
AcDbEntity
8
0-0
6
CONTINUOUS
62
4
100
AcDbLine
10
736.770000000000
20
350.500000000000
30
0.0
11
747.720000000000
21
361.450000000000
31
0.0
0
LINE
5
63d
100
AcDbEntity
8
0-0
6
CONTINUOUS
62
4
100
AcDbLine
10
856.700000000000
20
470.430000000000
30
0.0
11
859.630000000000
21
473.360000000000
31
0.0
0
LINE
5
63e
100
AcDbEntity
8
0-0
6
CONTINUOUS
62
4
100
AcDbLine
10
744.520000000000
20
363.900000000000
30
0.0
11
755.470000000000
21
374.850000000000
31
0.0
0
LINE
5
63f
100
AcDbEntity
8
0-0
6
CONTINUOUS
62
4
100
AcDbLine
10
854.500000000000
20
473.880000000000
30
0.0
11
855.970000000000
21
475.350000000000
31
0.0
0
LINE
5
640
100
AcDbEntity
8
0-0
6
CONTINUOUS
62
4
100
AcDbLine
10
752.270000000000
20
377.310000000000
30
0.0
11
763.220000000000
21
388.260000000000
31
0.0
0
LINE
5
641
100
AcDbEntity
8
0-0
6
CONTINUOUS
62
4
100
AcDbLine
10
849.610000000000
20
474.650000000000
30
0.0
11
850.310000000000
21
475.350000000000
31
0.0
0
LINE
5
642
100
AcDbEntity
8
0-0
6
CONTINUOUS
62
4
100
AcDbLine
10
760.020000000000
20
390.710000000000
30
0.0
11
770.970000000000
21
401.660000000000
31
0.0
0
LINE
5
643
100
AcDbEntity
8
0-0
6
CONTINUOUS
62
4
100
AcDbLine
10
843.950000000000
20
474.650000000000
30
0.0
11
844.650000000000
21
475.350000000000
31
0.0
0
LINE
5
644
100
AcDbEntity
8
0-0
6
CONTINUOUS
62
4
100
AcDbLine
10
767.770000000000
20
404.120000000000
30
0.0
11
778.720000000000
21
415.070000000000
31
0.0
0
LINE
5
645
100
AcDbEntity
8
0-0
6
CONTINUOUS
62
4
100
AcDbLine
10
838.300000000000
20
474.650000000000
30
0.0
11
839.000000000000
21
475.350000000000
31
0.0
0
LINE
5
646
100
AcDbEntity
8
0-0
6
CONTINUOUS
62
4
100
AcDbLine
10
775.520000000000
20
417.530000000000
30
0.0
11
786.470000000000
21
428.480000000000
31
0.0
0
LINE
5
647
100
AcDbEntity
8
0-0
6
CONTINUOUS
62
4
100
AcDbLine
10
832.640000000000
20
474.650000000000
30
0.0
11
833.340000000000
21
475.350000000000
31
0.0
0
LINE
5
648
100
AcDbEntity
8
0-0
6
CONTINUOUS
62
4
100
AcDbLine
10
783.260000000000
20
430.930000000000
30
0.0
11
794.210000000000
21
441.880000000000
31
0.0
0
LINE
5
649
100
AcDbEntity
8
0-0
6
CONTINUOUS
62
4
100
AcDbLine
10
826.980000000000
20
474.650000000000
30
0.0
11
827.680000000000
21
475.350000000000
31
0.0
0
LINE
5
64a
100
AcDbEntity
8
0-0
6
CONTINUOUS
62
4
100
AcDbLine
10
791.010000000000
20
444.340000000000
30
0.0
11
801.960000000000
21
455.290000000000
31
0.0
0
LINE
5
64b
100
AcDbEntity
8
0-0
6
CONTINUOUS
62
4
100
AcDbLine
10
821.330000000000
20
474.650000000000
30
0.0
11
822.030000000000
21
475.350000000000
31
0.0
0
LINE
5
64c
100
AcDbEntity
8
0-0
6
CONTINUOUS
62
4
100
AcDbLine
10
801.360000000000
20
460.340000000000
30
0.0
11
809.710000000000
21
468.690000000000
31
0.0
0
LINE
5
64d
100
AcDbEntity
8
0-0
6
CONTINUOUS
62
4
100
AcDbLine
10
815.670000000000
20
474.650000000000
30
0.0
11
816.370000000000
21
475.350000000000
31
0.0
0
LINE
5
64e
100
AcDbEntity
8
0-0
6
CONTINUOUS
62
4
100
AcDbLine
10
809.110000000000
20
473.750000000000
30
0.0
11
810.710000000000
21
475.350000000000
31
0.0
0
LINE
5
64f
100
AcDbEntity
8
0-0
6
CONTINUOUS
62
4
100
AcDbLine
10
733.940000000000
20
339.660000000000
30
0.0
11
734.690000000000
21
338.910000000000
31
0.0
0
LINE
5
650
100
AcDbEntity
8
0-0
6
CONTINUOUS
62
4
100
AcDbLine
10
733.940000000000
20
345.310000000000
30
0.0
11
736.760000000000
21
342.490000000000
31
0.0
0
LINE
5
651
100
AcDbEntity
8
0-0
6
CONTINUOUS
62
4
100
AcDbLine
10
735.910000000000
20
349.000000000000
30
0.0
11
738.830000000000
21
346.080000000000
31
0.0
0
LINE
5
652
100
AcDbEntity
8
0-0
6
CONTINUOUS
62
4
100
AcDbLine
10
737.980000000000
20
352.590000000000
30
0.0
11
740.910000000000
21
349.660000000000
31
0.0
0
LINE
5
653
100
AcDbEntity
8
0-0
6
CONTINUOUS
62
4
100
AcDbLine
10
740.050000000000
20
356.170000000000
30
0.0
11
742.980000000000
21
353.240000000000
31
0.0
0
LINE
5
654
100
AcDbEntity
8
0-0
6
CONTINUOUS
62
4
100
AcDbLine
10
742.120000000000
20
359.760000000000
30
0.0
11
745.050000000000
21
356.830000000000
31
0.0
0
LINE
5
655
100
AcDbEntity
8
0-0
6
CONTINUOUS
62
4
100
AcDbLine
10
744.200000000000
20
363.340000000000
30
0.0
11
747.120000000000
21
360.410000000000
31
0.0
0
LINE
5
656
100
AcDbEntity
8
0-0
6
CONTINUOUS
62
4
100
AcDbLine
10
746.270000000000
20
366.930000000000
30
0.0
11
749.200000000000
21
364.000000000000
31
0.0
0
LINE
5
657
100
AcDbEntity
8
0-0
6
CONTINUOUS
62
4
100
AcDbLine
10
748.340000000000
20
370.510000000000
30
0.0
11
751.270000000000
21
367.580000000000
31
0.0
0
LINE
5
658
100
AcDbEntity
8
0-0
6
CONTINUOUS
62
4
100
AcDbLine
10
750.410000000000
20
374.100000000000
30
0.0
11
753.340000000000
21
371.170000000000
31
0.0
0
LINE
5
659
100
AcDbEntity
8
0-0
6
CONTINUOUS
62
4
100
AcDbLine
10
752.480000000000
20
377.680000000000
30
0.0
11
755.410000000000
21
374.750000000000
31
0.0
0
LINE
5
65a
100
AcDbEntity
8
0-0
6
CONTINUOUS
62
4
100
AcDbLine
10
754.560000000000
20
381.270000000000
30
0.0
11
757.480000000000
21
378.340000000000
31
0.0
0
LINE
5
65b
100
AcDbEntity
8
0-0
6
CONTINUOUS
62
4
100
AcDbLine
10
756.630000000000
20
384.850000000000
30
0.0
11
759.560000000000
21
381.920000000000
31
0.0
0
LINE
5
65c
100
AcDbEntity
8
0-0
6
CONTINUOUS
62
4
100
AcDbLine
10
758.700000000000
20
388.440000000000
30
0.0
11
761.630000000000
21
385.510000000000
31
0.0
0
LINE
5
65d
100
AcDbEntity
8
0-0
6
CONTINUOUS
62
4
100
AcDbLine
10
760.770000000000
20
392.020000000000
30
0.0
11
763.700000000000
21
389.090000000000
31
0.0
0
LINE
5
65e
100
AcDbEntity
8
0-0
6
CONTINUOUS
62
4
100
AcDbLine
10
762.840000000000
20
395.610000000000
30
0.0
11
765.770000000000
21
392.680000000000
31
0.0
0
LINE
5
65f
100
AcDbEntity
8
0-0
6
CONTINUOUS
62
4
100
AcDbLine
10
764.920000000000
20
399.190000000000
30
0.0
11
767.840000000000
21
396.260000000000
31
0.0
0
LINE
5
660
100
AcDbEntity
8
0-0
6
CONTINUOUS
62
4
100
AcDbLine
10
766.990000000000
20
402.770000000000
30
0.0
11
769.920000000000
21
399.850000000000
31
0.0
0
LINE
5
661
100
AcDbEntity
8
0-0
6
CONTINUOUS
62
4
100
AcDbLine
10
769.060000000000
20
406.360000000000
30
0.0
11
771.990000000000
21
403.430000000000
31
0.0
0
LINE
5
662
100
AcDbEntity
8
0-0
6
CONTINUOUS
62
4
100
AcDbLine
10
771.130000000000
20
409.940000000000
30
0.0
11
774.060000000000
21
407.020000000000
31
0.0
0
LINE
5
663
100
AcDbEntity
8
0-0
6
CONTINUOUS
62
4
100
AcDbLine
10
773.210000000000
20
413.530000000000
30
0.0
11
776.130000000000
21
410.600000000000
31
0.0
0
LINE
5
664
100
AcDbEntity
8
0-0
6
CONTINUOUS
62
4
100
AcDbLine
10
775.280000000000
20
417.110000000000
30
0.0
11
778.210000000000
21
414.190000000000
31
0.0
0
LINE
5
665
100
AcDbEntity
8
0-0
6
CONTINUOUS
62
4
100
AcDbLine
10
777.350000000000
20
420.700000000000
30
0.0
11
780.280000000000
21
417.770000000000
31
0.0
0
LINE
5
666
100
AcDbEntity
8
0-0
6
CONTINUOUS
62
4
100
AcDbLine
10
779.420000000000
20
424.280000000000
30
0.0
11
782.350000000000
21
421.360000000000
31
0.0
0
LINE
5
667
100
AcDbEntity
8
0-0
6
CONTINUOUS
62
4
100
AcDbLine
10
781.490000000000
20
427.870000000000
30
0.0
11
784.420000000000
21
424.940000000000
31
0.0
0
LINE
5
668
100
AcDbEntity
8
0-0
6
CONTINUOUS
62
4
100
AcDbLine
10
783.570000000000
20
431.450000000000
30
0.0
11
786.490000000000
21
428.520000000000
31
0.0
0
LINE
5
669
100
AcDbEntity
8
0-0
6
CONTINUOUS
62
4
100
AcDbLine
10
785.640000000000
20
435.040000000000
30
0.0
11
788.570000000000
21
432.110000000000
31
0.0
0
LINE
5
66a
100
AcDbEntity
8
0-0
6
CONTINUOUS
62
4
100
AcDbLine
10
787.710000000000
20
438.620000000000
30
0.0
11
790.640000000000
21
435.690000000000
31
0.0
0
LINE
5
66b
100
AcDbEntity
8
0-0
6
CONTINUOUS
62
4
100
AcDbLine
10
789.780000000000
20
442.210000000000
30
0.0
11
792.710000000000
21
439.280000000000
31
0.0
0
LINE
5
66c
100
AcDbEntity
8
0-0
6
CONTINUOUS
62
4
100
AcDbLine
10
791.850000000000
20
445.790000000000
30
0.0
11
794.780000000000
21
442.860000000000
31
0.0
0
LINE
5
66d
100
AcDbEntity
8
0-0
6
CONTINUOUS
62
4
100
AcDbLine
10
793.930000000000
20
449.380000000000
30
0.0
11
796.850000000000
21
446.450000000000
31
0.0
0
LINE
5
66e
100
AcDbEntity
8
0-0
6
CONTINUOUS
62
4
100
AcDbLine
10
796.690000000000
20
452.270000000000
30
0.0
11
798.930000000000
21
450.030000000000
31
0.0
0
LINE
5
66f
100
AcDbEntity
8
0-0
6
CONTINUOUS
62
4
100
AcDbLine
10
798.770000000000
20
455.850000000000
30
0.0
11
801.000000000000
21
453.620000000000
31
0.0
0
LINE
5
670
100
AcDbEntity
8
0-0
6
CONTINUOUS
62
4
100
AcDbLine
10
956.040000000000
20
298.580000000000
30
0.0
11
956.650000000000
21
297.970000000000
31
0.0
0
LINE
5
671
100
AcDbEntity
8
0-0
6
CONTINUOUS
62
4
100
AcDbLine
10
800.840000000000
20
459.440000000000
30
0.0
11
803.070000000000
21
457.200000000000
31
0.0
0
LINE
5
672
100
AcDbEntity
8
0-0
6
CONTINUOUS
62
4
100
AcDbLine
10
948.290000000000
20
311.980000000000
30
0.0
11
962.300000000000
21
297.970000000000
31
0.0
0
LINE
5
673
100
AcDbEntity
8
0-0
6
CONTINUOUS
62
4
100
AcDbLine
10
802.910000000000
20
463.020000000000
30
0.0
11
805.140000000000
21
460.790000000000
31
0.0
0
LINE
5
674
100
AcDbEntity
8
0-0
6
CONTINUOUS
62
4
100
AcDbLine
10
940.540000000000
20
325.390000000000
30
0.0
11
951.490000000000
21
314.440000000000
31
0.0
0
LINE
5
675
100
AcDbEntity
8
0-0
6
CONTINUOUS
62
4
100
AcDbLine
10
962.780000000000
20
303.150000000000
30
0.0
11
967.960000000000
21
297.970000000000
31
0.0
0
LINE
5
676
100
AcDbEntity
8
0-0
6
CONTINUOUS
62
4
100
AcDbLine
10
804.980000000000
20
466.600000000000
30
0.0
11
807.210000000000
21
464.370000000000
31
0.0
0
LINE
5
677
100
AcDbEntity
8
0-0
6
CONTINUOUS
62
4
100
AcDbLine
10
932.790000000000
20
338.790000000000
30
0.0
11
943.740000000000
21
327.840000000000
31
0.0
0
LINE
5
678
100
AcDbEntity
8
0-0
6
CONTINUOUS
62
4
100
AcDbLine
10
968.440000000000
20
303.150000000000
30
0.0
11
973.620000000000
21
297.970000000000
31
0.0
0
LINE
5
679
100
AcDbEntity
8
0-0
6
CONTINUOUS
62
4
100
AcDbLine
10
807.050000000000
20
470.190000000000
30
0.0
11
809.290000000000
21
467.960000000000
31
0.0
0
LINE
5
67a
100
AcDbEntity
8
0-0
6
CONTINUOUS
62
4
100
AcDbLine
10
925.040000000000
20
352.200000000000
30
0.0
11
935.990000000000
21
341.250000000000
31
0.0
0
LINE
5
67b
100
AcDbEntity
8
0-0
6
CONTINUOUS
62
4
100
AcDbLine
10
974.090000000000
20
303.150000000000
30
0.0
11
979.280000000000
21
297.970000000000
31
0.0
0
LINE
5
67c
100
AcDbEntity
8
0-0
6
CONTINUOUS
62
4
100
AcDbLine
10
809.130000000000
20
473.770000000000
30
0.0
11
811.360000000000
21
471.540000000000
31
0.0
0
LINE
5
67d
100
AcDbEntity
8
0-0
6
CONTINUOUS
62
4
100
AcDbLine
10
917.290000000000
20
365.610000000000
30
0.0
11
928.240000000000
21
354.660000000000
31
0.0
0
LINE
5
67e
100
AcDbEntity
8
0-0
6
CONTINUOUS
62
4
100
AcDbLine
10
979.750000000000
20
303.150000000000
30
0.0
11
984.930000000000
21
297.970000000000
31
0.0
0
LINE
5
67f
100
AcDbEntity
8
0-0
6
CONTINUOUS
62
4
100
AcDbLine
10
813.210000000000
20
475.350000000000
30
0.0
11
814.050000000000
21
474.510000000000
31
0.0
0
LINE
5
680
100
AcDbEntity
8
0-0
6
CONTINUOUS
62
4
100
AcDbLine
10
909.550000000000
20
379.010000000000
30
0.0
11
920.490000000000
21
368.060000000000
31
0.0
0
LINE
5
681
100
AcDbEntity
8
0-0
6
CONTINUOUS
62
4
100
AcDbLine
10
985.410000000000
20
303.150000000000
30
0.0
11
990.590000000000
21
297.970000000000
31
0.0
0
LINE
5
682
100
AcDbEntity
8
0-0
6
CONTINUOUS
62
4
100
AcDbLine
10
818.860000000000
20
475.350000000000
30
0.0
11
819.560000000000
21
474.650000000000
31
0.0
0
LINE
5
683
100
AcDbEntity
8
0-0
6
CONTINUOUS
62
4
100
AcDbLine
10
901.800000000000
20
392.420000000000
30
0.0
11
912.750000000000
21
381.470000000000
31
0.0
0
LINE
5
684
100
AcDbEntity
8
0-0
6
CONTINUOUS
62
4
100
AcDbLine
10
991.060000000000
20
303.150000000000
30
0.0
11
996.250000000000
21
297.970000000000
31
0.0
0
LINE
5
685
100
AcDbEntity
8
0-0
6
CONTINUOUS
62
4
100
AcDbLine
10
824.520000000000
20
475.350000000000
30
0.0
11
825.220000000000
21
474.650000000000
31
0.0
0
LINE
5
686
100
AcDbEntity
8
0-0
6
CONTINUOUS
62
4
100
AcDbLine
10
894.050000000000
20
405.820000000000
30
0.0
11
905.000000000000
21
394.880000000000
31
0.0
0
LINE
5
687
100
AcDbEntity
8
0-0
6
CONTINUOUS
62
4
100
AcDbLine
10
996.720000000000
20
303.150000000000
30
0.0
11
1001.900000000000
21
297.970000000000
31
0.0
0
LINE
5
688
100
AcDbEntity
8
0-0
6
CONTINUOUS
62
4
100
AcDbLine
10
830.180000000000
20
475.350000000000
30
0.0
11
830.880000000000
21
474.650000000000
31
0.0
0
LINE
5
689
100
AcDbEntity
8
0-0
6
CONTINUOUS
62
4
100
AcDbLine
10
886.300000000000
20
419.230000000000
30
0.0
11
897.250000000000
21
408.280000000000
31
0.0
0
LINE
5
68a
100
AcDbEntity
8
0-0
6
CONTINUOUS
62
4
100
AcDbLine
10
1002.380000000000
20
303.150000000000
30
0.0
11
1007.560000000000
21
297.970000000000
31
0.0
0
LINE
5
68b
100
AcDbEntity
8
0-0
6
CONTINUOUS
62
4
100
AcDbLine
10
835.840000000000
20
475.350000000000
30
0.0
11
836.540000000000
21
474.650000000000
31
0.0
0
LINE
5
68c
100
AcDbEntity
8
0-0
6
CONTINUOUS
62
4
100
AcDbLine
10
878.550000000000
20
432.640000000000
30
0.0
11
889.500000000000
21
421.690000000000
31
0.0
0
LINE
5
68d
100
AcDbEntity
8
0-0
6
CONTINUOUS
62
4
100
AcDbLine
10
1008.040000000000
20
303.150000000000
30
0.0
11
1011.830000000000
21
299.360000000000
31
0.0
0
LINE
5
68e
100
AcDbEntity
8
0-0
6
CONTINUOUS
62
4
100
AcDbLine
10
841.490000000000
20
475.350000000000
30
0.0
11
842.190000000000
21
474.650000000000
31
0.0
0
LINE
5
68f
100
AcDbEntity
8
0-0
6
CONTINUOUS
62
4
100
AcDbLine
10
870.800000000000
20
446.040000000000
30
0.0
11
881.750000000000
21
435.090000000000
31
0.0
0
LINE
5
690
100
AcDbEntity
8
0-0
6
CONTINUOUS
62
4
100
AcDbLine
10
1010.970000000000
20
305.870000000000
30
0.0
11
1013.900000000000
21
302.940000000000
31
0.0
0
LINE
5
691
100
AcDbEntity
8
0-0
6
CONTINUOUS
62
4
100
AcDbLine
10
847.150000000000
20
475.350000000000
30
0.0
11
847.850000000000
21
474.650000000000
31
0.0
0
LINE
5
692
100
AcDbEntity
8
0-0
6
CONTINUOUS
62
4
100
AcDbLine
10
863.050000000000
20
459.450000000000
30
0.0
11
874.000000000000
21
448.500000000000
31
0.0
0
LINE
5
693
100
AcDbEntity
8
0-0
6
CONTINUOUS
62
4
100
AcDbLine
10
1013.050000000000
20
309.450000000000
30
0.0
11
1015.970000000000
21
306.530000000000
31
0.0
0
LINE
5
694
100
AcDbEntity
8
0-0
6
CONTINUOUS
62
4
100
AcDbLine
10
852.810000000000
20
475.350000000000
30
0.0
11
853.840000000000
21
474.320000000000
31
0.0
0
LINE
5
695
100
AcDbEntity
8
0-0
6
CONTINUOUS
62
4
100
AcDbLine
10
855.300000000000
20
472.850000000000
30
0.0
11
866.250000000000
21
461.910000000000
31
0.0
0
LINE
5
696
100
AcDbEntity
8
0-0
6
CONTINUOUS
62
4
100
AcDbLine
10
1015.120000000000
20
313.040000000000
30
0.0
11
1018.050000000000
21
310.110000000000
31
0.0
0
LINE
5
697
100
AcDbEntity
8
0-0
6
CONTINUOUS
62
4
100
AcDbLine
10
1017.190000000000
20
316.620000000000
30
0.0
11
1020.120000000000
21
313.690000000000
31
0.0
0
LINE
5
698
100
AcDbEntity
8
0-0
6
CONTINUOUS
62
4
100
AcDbLine
10
1019.260000000000
20
320.210000000000
30
0.0
11
1022.190000000000
21
317.280000000000
31
0.0
0
LINE
5
699
100
AcDbEntity
8
0-0
6
CONTINUOUS
62
4
100
AcDbLine
10
1021.330000000000
20
323.790000000000
30
0.0
11
1024.260000000000
21
320.860000000000
31
0.0
0
LINE
5
69a
100
AcDbEntity
8
0-0
6
CONTINUOUS
62
4
100
AcDbLine
10
1023.410000000000
20
327.380000000000
30
0.0
11
1026.330000000000
21
324.450000000000
31
0.0
0
LINE
5
69b
100
AcDbEntity
8
0-0
6
CONTINUOUS
62
4
100
AcDbLine
10
1025.480000000000
20
330.960000000000
30
0.0
11
1028.410000000000
21
328.030000000000
31
0.0
0
LINE
5
69c
100
AcDbEntity
8
0-0
6
CONTINUOUS
62
4
100
AcDbLine
10
1027.550000000000
20
334.550000000000
30
0.0
11
1030.480000000000
21
331.620000000000
31
0.0
0
LINE
5
69d
100
AcDbEntity
8
0-0
6
CONTINUOUS
62
4
100
AcDbLine
10
1029.620000000000
20
338.130000000000
30
0.0
11
1032.550000000000
21
335.200000000000
31
0.0
0
LINE
5
69e
100
AcDbEntity
8
0-0
6
CONTINUOUS
62
4
100
AcDbLine
10
1031.690000000000
20
341.720000000000
30
0.0
11
1034.620000000000
21
338.790000000000
31
0.0
0
LINE
5
69f
100
AcDbEntity
8
0-0
6
CONTINUOUS
62
4
100
AcDbLine
10
1033.770000000000
20
345.300000000000
30
0.0
11
1036.690000000000
21
342.370000000000
31
0.0
0
LINE
5
6a0
100
AcDbEntity
8
0-0
6
CONTINUOUS
62
4
100
AcDbLine
10
1035.840000000000
20
348.890000000000
30
0.0
11
1038.770000000000
21
345.960000000000
31
0.0
0
LINE
5
6a1
100
AcDbEntity
8
0-0
6
CONTINUOUS
62
4
100
AcDbLine
10
1037.910000000000
20
352.470000000000
30
0.0
11
1040.840000000000
21
349.540000000000
31
0.0
0
LINE
5
6a2
100
AcDbEntity
8
0-0
6
CONTINUOUS
62
4
100
AcDbLine
10
1039.980000000000
20
356.050000000000
30
0.0
11
1042.910000000000
21
353.130000000000
31
0.0
0
LINE
5
6a3
100
AcDbEntity
8
0-0
6
CONTINUOUS
62
4
100
AcDbLine
10
1042.060000000000
20
359.640000000000
30
0.0
11
1044.980000000000
21
356.710000000000
31
0.0
0
LINE
5
6a4
100
AcDbEntity
8
0-0
6
CONTINUOUS
62
4
100
AcDbLine
10
1044.130000000000
20
363.220000000000
30
0.0
11
1047.060000000000
21
360.300000000000
31
0.0
0
LINE
5
6a5
100
AcDbEntity
8
0-0
6
CONTINUOUS
62
4
100
AcDbLine
10
1046.200000000000
20
366.810000000000
30
0.0
11
1049.130000000000
21
363.880000000000
31
0.0
0
LINE
5
6a6
100
AcDbEntity
8
0-0
6
CONTINUOUS
62
4
100
AcDbLine
10
1048.270000000000
20
370.390000000000
30
0.0
11
1051.200000000000
21
367.470000000000
31
0.0
0
LINE
5
6a7
100
AcDbEntity
8
0-0
6
CONTINUOUS
62
4
100
AcDbLine
10
1050.340000000000
20
373.980000000000
30
0.0
11
1053.270000000000
21
371.050000000000
31
0.0
0
LINE
5
6a8
100
AcDbEntity
8
0-0
6
CONTINUOUS
62
4
100
AcDbLine
10
1052.420000000000
20
377.560000000000
30
0.0
11
1055.340000000000
21
374.640000000000
31
0.0
0
LINE
5
6a9
100
AcDbEntity
8
0-0
6
CONTINUOUS
62
4
100
AcDbLine
10
1054.490000000000
20
381.150000000000
30
0.0
11
1057.420000000000
21
378.220000000000
31
0.0
0
LINE
5
6aa
100
AcDbEntity
8
0-0
6
CONTINUOUS
62
4
100
AcDbLine
10
1056.560000000000
20
384.730000000000
30
0.0
11
1059.490000000000
21
381.810000000000
31
0.0
0
LINE
5
6ab
100
AcDbEntity
8
0-0
6
CONTINUOUS
62
4
100
AcDbLine
10
1058.630000000000
20
388.320000000000
30
0.0
11
1061.560000000000
21
385.390000000000
31
0.0
0
LINE
5
6ac
100
AcDbEntity
8
0-0
6
CONTINUOUS
62
4
100
AcDbLine
10
1060.700000000000
20
391.900000000000
30
0.0
11
1063.630000000000
21
388.970000000000
31
0.0
0
LINE
5
6ad
100
AcDbEntity
8
0-0
6
CONTINUOUS
62
4
100
AcDbLine
10
1062.780000000000
20
395.490000000000
30
0.0
11
1065.700000000000
21
392.560000000000
31
0.0
0
LINE
5
6ae
100
AcDbEntity
8
0-0
6
CONTINUOUS
62
4
100
AcDbLine
10
1064.850000000000
20
399.070000000000
30
0.0
11
1067.780000000000
21
396.140000000000
31
0.0
0
LINE
5
6af
100
AcDbEntity
8
0-0
6
CONTINUOUS
62
4
100
AcDbLine
10
1066.920000000000
20
402.660000000000
30
0.0
11
1069.850000000000
21
399.730000000000
31
0.0
0
LINE
5
6b0
100
AcDbEntity
8
0-0
6
CONTINUOUS
62
4
100
AcDbLine
10
1068.990000000000
20
406.240000000000
30
0.0
11
1071.920000000000
21
403.310000000000
31
0.0
0
LINE
5
6b1
100
AcDbEntity
8
0-0
6
CONTINUOUS
62
4
100
AcDbLine
10
1071.070000000000
20
409.830000000000
30
0.0
11
1073.990000000000
21
406.900000000000
31
0.0
0
LINE
5
6b2
100
AcDbEntity
8
0-0
6
CONTINUOUS
62
4
100
AcDbLine
10
1073.140000000000
20
413.410000000000
30
0.0
11
1076.070000000000
21
410.480000000000
31
0.0
0
LINE
5
6b3
100
AcDbEntity
8
0-0
6
CONTINUOUS
62
4
100
AcDbLine
10
1075.210000000000
20
417.000000000000
30
0.0
11
1078.140000000000
21
414.070000000000
31
0.0
0
LINE
5
6b4
100
AcDbEntity
8
0-0
6
CONTINUOUS
62
4
100
AcDbLine
10
1077.280000000000
20
420.580000000000
30
0.0
11
1080.210000000000
21
417.650000000000
31
0.0
0
LINE
5
6b5
100
AcDbEntity
8
0-0
6
CONTINUOUS
62
4
100
AcDbLine
10
1079.350000000000
20
424.170000000000
30
0.0
11
1082.280000000000
21
421.240000000000
31
0.0
0
LINE
5
6b6
100
AcDbEntity
8
0-0
6
CONTINUOUS
62
4
100
AcDbLine
10
1081.430000000000
20
427.750000000000
30
0.0
11
1084.350000000000
21
424.820000000000
31
0.0
0
LINE
5
6b7
100
AcDbEntity
8
0-0
6
CONTINUOUS
62
4
100
AcDbLine
10
1083.500000000000
20
431.340000000000
30
0.0
11
1086.430000000000
21
428.410000000000
31
0.0
0
LINE
5
6b8
100
AcDbEntity
8
0-0
6
CONTINUOUS
62
4
100
AcDbLine
10
1085.570000000000
20
434.920000000000
30
0.0
11
1088.500000000000
21
431.990000000000
31
0.0
0
LINE
5
6b9
100
AcDbEntity
8
0-0
6
CONTINUOUS
62
4
100
AcDbLine
10
1087.640000000000
20
438.500000000000
30
0.0
11
1090.570000000000
21
435.580000000000
31
0.0
0
LINE
5
6ba
100
AcDbEntity
8
0-0
6
CONTINUOUS
62
4
100
AcDbLine
10
1089.710000000000
20
442.090000000000
30
0.0
11
1092.640000000000
21
439.160000000000
31
0.0
0
LINE
5
6bb
100
AcDbEntity
8
0-0
6
CONTINUOUS
62
4
100
AcDbLine
10
1091.790000000000
20
445.670000000000
30
0.0
11
1094.710000000000
21
442.750000000000
31
0.0
0
LINE
5
6bc
100
AcDbEntity
8
0-0
6
CONTINUOUS
62
4
100
AcDbLine
10
1093.860000000000
20
449.260000000000
30
0.0
11
1096.790000000000
21
446.330000000000
31
0.0
0
LINE
5
6bd
100
AcDbEntity
8
0-0
6
CONTINUOUS
62
4
100
AcDbLine
10
1096.630000000000
20
452.150000000000
30
0.0
11
1098.860000000000
21
449.920000000000
31
0.0
0
LINE
5
6be
100
AcDbEntity
8
0-0
6
CONTINUOUS
62
4
100
AcDbLine
10
1098.700000000000
20
455.730000000000
30
0.0
11
1100.930000000000
21
453.500000000000
31
0.0
0
LINE
5
6bf
100
AcDbEntity
8
0-0
6
CONTINUOUS
62
4
100
AcDbLine
10
1100.770000000000
20
459.320000000000
30
0.0
11
1103.000000000000
21
457.090000000000
31
0.0
0
LINE
5
6c0
100
AcDbEntity
8
0-0
6
CONTINUOUS
62
4
100
AcDbLine
10
1102.840000000000
20
462.900000000000
30
0.0
11
1105.070000000000
21
460.670000000000
31
0.0
0
LINE
5
6c1
100
AcDbEntity
8
0-0
6
CONTINUOUS
62
4
100
AcDbLine
10
1104.910000000000
20
466.490000000000
30
0.0
11
1107.150000000000
21
464.260000000000
31
0.0
0
LINE
5
6c2
100
AcDbEntity
8
0-0
6
CONTINUOUS
62
4
100
AcDbLine
10
1233.050000000000
20
338.350000000000
30
0.0
11
1233.940000000000
21
337.460000000000
31
0.0
0
LINE
5
6c3
100
AcDbEntity
8
0-0
6
CONTINUOUS
62
4
100
AcDbLine
10
1106.990000000000
20
470.070000000000
30
0.0
11
1109.220000000000
21
467.840000000000
31
0.0
0
LINE
5
6c4
100
AcDbEntity
8
0-0
6
CONTINUOUS
62
4
100
AcDbLine
10
1225.300000000000
20
351.760000000000
30
0.0
11
1233.940000000000
21
343.120000000000
31
0.0
0
LINE
5
6c5
100
AcDbEntity
8
0-0
6
CONTINUOUS
62
4
100
AcDbLine
10
1109.060000000000
20
473.660000000000
30
0.0
11
1111.290000000000
21
471.420000000000
31
0.0
0
LINE
5
6c6
100
AcDbEntity
8
0-0
6
CONTINUOUS
62
4
100
AcDbLine
10
1217.550000000000
20
365.170000000000
30
0.0
11
1228.500000000000
21
354.220000000000
31
0.0
0
LINE
5
6c7
100
AcDbEntity
8
0-0
6
CONTINUOUS
62
4
100
AcDbLine
10
1113.020000000000
20
475.350000000000
30
0.0
11
1113.910000000000
21
474.460000000000
31
0.0
0
LINE
5
6c8
100
AcDbEntity
8
0-0
6
CONTINUOUS
62
4
100
AcDbLine
10
1209.800000000000
20
378.570000000000
30
0.0
11
1220.750000000000
21
367.620000000000
31
0.0
0
LINE
5
6c9
100
AcDbEntity
8
0-0
6
CONTINUOUS
62
4
100
AcDbLine
10
1118.680000000000
20
475.350000000000
30
0.0
11
1119.380000000000
21
474.650000000000
31
0.0
0
LINE
5
6ca
100
AcDbEntity
8
0-0
6
CONTINUOUS
62
4
100
AcDbLine
10
1202.050000000000
20
391.980000000000
30
0.0
11
1213.000000000000
21
381.030000000000
31
0.0
0
LINE
5
6cb
100
AcDbEntity
8
0-0
6
CONTINUOUS
62
4
100
AcDbLine
10
1124.340000000000
20
475.350000000000
30
0.0
11
1125.040000000000
21
474.650000000000
31
0.0
0
LINE
5
6cc
100
AcDbEntity
8
0-0
6
CONTINUOUS
62
4
100
AcDbLine
10
1194.300000000000
20
405.390000000000
30
0.0
11
1205.250000000000
21
394.440000000000
31
0.0
0
LINE
5
6cd
100
AcDbEntity
8
0-0
6
CONTINUOUS
62
4
100
AcDbLine
10
1129.990000000000
20
475.350000000000
30
0.0
11
1130.690000000000
21
474.650000000000
31
0.0
0
LINE
5
6ce
100
AcDbEntity
8
0-0
6
CONTINUOUS
62
4
100
AcDbLine
10
1186.550000000000
20
418.790000000000
30
0.0
11
1197.500000000000
21
407.840000000000
31
0.0
0
LINE
5
6cf
100
AcDbEntity
8
0-0
6
CONTINUOUS
62
4
100
AcDbLine
10
1135.650000000000
20
475.350000000000
30
0.0
11
1136.350000000000
21
474.650000000000
31
0.0
0
LINE
5
6d0
100
AcDbEntity
8
0-0
6
CONTINUOUS
62
4
100
AcDbLine
10
1178.800000000000
20
432.200000000000
30
0.0
11
1189.750000000000
21
421.250000000000
31
0.0
0
LINE
5
6d1
100
AcDbEntity
8
0-0
6
CONTINUOUS
62
4
100
AcDbLine
10
1141.310000000000
20
475.350000000000
30
0.0
11
1142.010000000000
21
474.650000000000
31
0.0
0
LINE
5
6d2
100
AcDbEntity
8
0-0
6
CONTINUOUS
62
4
100
AcDbLine
10
1171.050000000000
20
445.600000000000
30
0.0
11
1182.000000000000
21
434.650000000000
31
0.0
0
LINE
5
6d3
100
AcDbEntity
8
0-0
6
CONTINUOUS
62
4
100
AcDbLine
10
1146.960000000000
20
475.350000000000
30
0.0
11
1147.660000000000
21
474.650000000000
31
0.0
0
LINE
5
6d4
100
AcDbEntity
8
0-0
6
CONTINUOUS
62
4
100
AcDbLine
10
1163.300000000000
20
459.010000000000
30
0.0
11
1174.250000000000
21
448.060000000000
31
0.0
0
LINE
5
6d5
100
AcDbEntity
8
0-0
6
CONTINUOUS
62
4
100
AcDbLine
10
1152.620000000000
20
475.350000000000
30
0.0
11
1153.510000000000
21
474.460000000000
31
0.0
0
LINE
5
6d6
100
AcDbEntity
8
0-0
6
CONTINUOUS
62
4
100
AcDbLine
10
1155.560000000000
20
472.420000000000
30
0.0
11
1166.500000000000
21
461.470000000000
31
0.0
0
LINE
5
6d7
100
AcDbEntity
8
0-0
6
CONTINUOUS
62
4
100
AcDbLine
10
1158.430000000000
20
475.200000000000
30
0.0
11
1158.750000000000
21
474.870000000000
31
0.0
0
LINE
5
6d8
100
AcDbEntity
8
0-0
6
CONTINUOUS
62
7
100
AcDbLine
10
882.050000000000
20
436.040000000000
30
0.0
11
916.400000000000
21
495.530000000000
31
0.0
0
LINE
5
6d9
100
AcDbEntity
8
0-0
6
CONTINUOUS
62
7
100
AcDbLine
10
1051.190000000000
20
361.190000000000
30
0.0
11
1053.330000000000
21
353.190000000000
31
0.0
0
LINE
5
6da
100
AcDbEntity
8
0-0
6
CONTINUOUS
62
7
100
AcDbLine
10
1051.190000000000
20
361.190000000000
30
0.0
11
1057.050000000000
21
355.330000000000
31
0.0
0
LINE
5
6db
100
AcDbEntity
8
0-0
6
CONTINUOUS
62
7
100
AcDbLine
10
882.050000000000
20
436.040000000000
30
0.0
11
884.200000000000
21
444.040000000000
31
0.0
0
LINE
5
6dc
100
AcDbEntity
8
0-0
6
CONTINUOUS
62
7
100
AcDbLine
10
882.050000000000
20
436.040000000000
30
0.0
11
887.910000000000
21
441.890000000000
31
0.0
0
LINE
5
6dd
100
AcDbEntity
8
0-0
6
CONTINUOUS
62
7
100
AcDbLine
10
913.780000000000
20
374.770000000000
30
0.0
11
911.640000000000
21
366.770000000000
31
0.0
0
LINE
5
6de
100
AcDbEntity
8
0-0
6
CONTINUOUS
62
7
100
AcDbLine
10
913.780000000000
20
374.770000000000
30
0.0
11
907.930000000000
21
368.920000000000
31
0.0
0
LINE
5
6df
100
AcDbEntity
8
0-0
6
CONTINUOUS
62
7
100
AcDbLine
10
913.780000000000
20
374.770000000000
30
0.0
11
899.370000000000
21
349.800000000000
31
0.0
0
LINE
5
6e0
100
AcDbEntity
8
0-0
6
CONTINUOUS
62
7
100
AcDbLine
10
1051.190000000000
20
361.190000000000
30
0.0
11
1060.800000000000
21
344.550000000000
31
0.0
0
LINE
5
6e1
100
AcDbEntity
8
0-0
6
CONTINUOUS
62
7
100
AcDbLine
10
809.980000000000
20
476.150000000000
30
0.0
11
858.410000000000
21
476.150000000000
31
0.0
0
LINE
5
6e2
100
AcDbEntity
8
0-0
6
CONTINUOUS
62
7
100
AcDbLine
10
1109.980000000000
20
476.150000000000
30
0.0
11
1158.410000000000
21
476.150000000000
31
0.0
0
ARC
5
6e3
100
AcDbEntity
8
0-0
6
CONTINUOUS
62
7
100
AcDbCircle
10
810.610000000000
20
886.940000000000
30
0.0
40
0.999999973880
100
AcDbArc
50
90.000000000000
51
149.972015380859
0
ARC
5
6e4
100
AcDbEntity
8
0-0
6
CONTINUOUS
62
7
100
AcDbCircle
10
810.610000000000
20
886.940000000000
30
0.0
40
0.999999973880
100
AcDbArc
50
90.000000000000
51
149.972015380859
0
ARC
5
6e5
100
AcDbEntity
8
0-0
6
CONTINUOUS
62
7
100
AcDbCircle
10
810.610000000000
20
886.940000000000
30
0.0
40
1.800000103480
100
AcDbArc
50
90.000000000000
51
149.972015380859
0
ARC
5
6e6
100
AcDbEntity
8
0-0
6
CONTINUOUS
62
7
100
AcDbCircle
10
857.900000000000
20
886.940000000000
30
0.0
40
0.999999973880
100
AcDbArc
50
30.027984619141
51
90.000000000000
0
ARC
5
6e7
100
AcDbEntity
8
0-0
6
CONTINUOUS
62
7
100
AcDbCircle
10
857.900000000000
20
886.940000000000
30
0.0
40
1.800000103480
100
AcDbArc
50
30.027984619141
51
90.000000000000
0
ARC
5
6e8
100
AcDbEntity
8
0-0
6
CONTINUOUS
62
7
100
AcDbCircle
10
959.060000000000
20
717.540000000000
30
0.0
40
0.999999973880
100
AcDbArc
50
210.030441284180
51
270.000000000000
0
ARC
5
6e9
100
AcDbEntity
8
0-0
6
CONTINUOUS
62
7
100
AcDbCircle
10
959.060000000000
20
717.540000000000
30
0.0
40
1.800000103480
100
AcDbArc
50
210.030441284180
51
270.000000000000
0
ARC
5
6ea
100
AcDbEntity
8
0-0
6
CONTINUOUS
62
7
100
AcDbCircle
10
1008.360000000000
20
717.540000000000
30
0.0
40
0.999999973880
100
AcDbArc
50
270.000000000000
51
329.969558715820
0
ARC
5
6eb
100
AcDbEntity
8
0-0
6
CONTINUOUS
62
7
100
AcDbCircle
10
1008.360000000000
20
717.540000000000
30
0.0
40
1.800000103480
100
AcDbArc
50
270.000000000000
51
329.969558715820
0
ARC
5
6ec
100
AcDbEntity
8
0-0
6
CONTINUOUS
62
7
100
AcDbCircle
10
1109.980000000000
20
887.740000000000
30
0.0
40
0.999999973880
100
AcDbArc
50
90.000000000000
51
149.972015380859
0
ARC
5
6ed
100
AcDbEntity
8
0-0
6
CONTINUOUS
62
7
100
AcDbCircle
10
1109.980000000000
20
887.740000000000
30
0.0
40
1.800000103480
100
AcDbArc
50
90.000000000000
51
149.972015380859
0
ARC
5
6ee
100
AcDbEntity
8
0-0
6
CONTINUOUS
62
7
100
AcDbCircle
10
1158.410000000000
20
887.740000000000
30
0.0
40
0.999999973880
100
AcDbArc
50
33.932586669922
51
90.000000000000
0
ARC
5
6ef
100
AcDbEntity
8
0-0
6
CONTINUOUS
62
7
100
AcDbCircle
10
1158.410000000000
20
887.740000000000
30
0.0
40
1.800000103480
100
AcDbArc
50
33.932586669922
51
90.000000000000
0
CIRCLE
5
6f0
100
AcDbEntity
8
0-0
6
CONTINUOUS
62
3
100
AcDbCircle
10
88.840000000000
20
66.090000000000
30
0.0
40
11.313799070497
0
CIRCLE
5
6f1
100
AcDbEntity
8
0-0
6
CONTINUOUS
62
3
100
AcDbCircle
10
88.840000000000
20
66.090000000000
30
0.0
40
12.913800013770
0
CIRCLE
5
6f2
100
AcDbEntity
8
0-0
6
CONTINUOUS
62
4
100
AcDbCircle
10
88.840000000000
20
66.090000000000
30
0.0
40
11.473799821534
0
CIRCLE
5
6f3
100
AcDbEntity
8
0-0
6
CONTINUOUS
62
4
100
AcDbCircle
10
88.840000000000
20
66.090000000000
30
0.0
40
11.793800229092
0
CIRCLE
5
6f4
100
AcDbEntity
8
0-0
6
CONTINUOUS
62
4
100
AcDbCircle
10
88.840000000000
20
66.090000000000
30
0.0
40
12.113800636650
0
CIRCLE
5
6f5
100
AcDbEntity
8
0-0
6
CONTINUOUS
62
4
100
AcDbCircle
10
88.840000000000
20
66.090000000000
30
0.0
40
12.433799949691
0
CIRCLE
5
6f6
100
AcDbEntity
8
0-0
6
CONTINUOUS
62
4
100
AcDbCircle
10
88.840000000000
20
66.090000000000
30
0.0
40
12.753799262733
0
ARC
5
6f7
100
AcDbEntity
8
0-0
6
CONTINUOUS
62
7
100
AcDbCircle
10
810.610000000000
20
474.350000000000
30
0.0
40
0.999999973880
100
AcDbArc
50
90.000000000000
51
149.972015380859
0
ARC
5
6f8
100
AcDbEntity
8
0-0
6
CONTINUOUS
62
7
100
AcDbCircle
10
810.610000000000
20
474.350000000000
30
0.0
40
1.800000103480
100
AcDbArc
50
90.000000000000
51
149.972015380859
0
ARC
5
6f9
100
AcDbEntity
8
0-0
6
CONTINUOUS
62
7
100
AcDbCircle
10
857.900000000000
20
474.350000000000
30
0.0
40
0.999999973880
100
AcDbArc
50
30.027984619141
51
90.000000000000
0
ARC
5
6fa
100
AcDbEntity
8
0-0
6
CONTINUOUS
62
7
100
AcDbCircle
10
857.900000000000
20
474.350000000000
30
0.0
40
1.800000103480
100
AcDbArc
50
30.027984619141
51
90.000000000000
0
ARC
5
6fb
100
AcDbEntity
8
0-0
6
CONTINUOUS
62
7
100
AcDbCircle
10
959.060000000000
20
304.950000000000
30
0.0
40
0.999999973880
100
AcDbArc
50
210.030441284180
51
270.000000000000
0
ARC
5
6fc
100
AcDbEntity
8
0-0
6
CONTINUOUS
62
7
100
AcDbCircle
10
959.060000000000
20
304.950000000000
30
0.0
40
1.800000103480
100
AcDbArc
50
210.030441284180
51
270.000000000000
0
ARC
5
6fd
100
AcDbEntity
8
0-0
6
CONTINUOUS
62
7
100
AcDbCircle
10
1008.360000000000
20
304.950000000000
30
0.0
40
0.999999973880
100
AcDbArc
50
270.000000000000
51
329.969558715820
0
ARC
5
6fe
100
AcDbEntity
8
0-0
6
CONTINUOUS
62
7
100
AcDbCircle
10
1008.360000000000
20
304.950000000000
30
0.0
40
1.800000103480
100
AcDbArc
50
270.000000000000
51
329.969558715820
0
ARC
5
6ff
100
AcDbEntity
8
0-0
6
CONTINUOUS
62
7
100
AcDbCircle
10
1109.980000000000
20
475.150000000000
30
0.0
40
0.999999973880
100
AcDbArc
50
90.000000000000
51
149.972015380859
0
ARC
5
700
100
AcDbEntity
8
0-0
6
CONTINUOUS
62
7
100
AcDbCircle
10
1109.980000000000
20
475.150000000000
30
0.0
40
1.800000103480
100
AcDbArc
50
90.000000000000
51
149.972015380859
0
ARC
5
701
100
AcDbEntity
8
0-0
6
CONTINUOUS
62
7
100
AcDbCircle
10
1158.410000000000
20
475.150000000000
30
0.0
40
0.999999973880
100
AcDbArc
50
33.932586669922
51
90.000000000000
0
ARC
5
702
100
AcDbEntity
8
0-0
6
CONTINUOUS
62
7
100
AcDbCircle
10
1158.410000000000
20
475.150000000000
30
0.0
40
1.800000103480
100
AcDbArc
50
33.932586669922
51
90.000000000000
0
ARC
5
703
100
AcDbEntity
8
0-0
6
CONTINUOUS
62
7
100
AcDbCircle
10
1174.400000000000
20
451.380000000000
30
0.0
40
0.999999973880
100
AcDbArc
50
12.289260864258
51
33.935699462891
0
ARC
5
704
100
AcDbEntity
8
0-0
6
CONTINUOUS
62
7
100
AcDbCircle
10
1174.400000000000
20
451.380000000000
30
0.0
40
1.800000103480
100
AcDbArc
50
12.289260864258
51
33.935699462891
0
ARC
5
705
100
AcDbEntity
8
0-0
6
CONTINUOUS
62
7
100
AcDbCircle
10
1110.610000000000
20
474.350000000000
30
0.0
40
0.999999973880
100
AcDbArc
50
90.000000000000
51
149.972015380859
0
ARC
5
706
100
AcDbEntity
8
0-0
6
CONTINUOUS
62
7
100
AcDbCircle
10
1110.610000000000
20
474.350000000000
30
0.0
40
1.800000103480
100
AcDbArc
50
90.000000000000
51
149.972015380859
0
ARC
5
707
100
AcDbEntity
8
0-0
6
CONTINUOUS
62
7
100
AcDbCircle
10
1157.900000000000
20
474.350000000000
30
0.0
40
0.999999973880
100
AcDbArc
50
30.027984619141
51
90.000000000000
0
ARC
5
708
100
AcDbEntity
8
0-0
6
CONTINUOUS
62
7
100
AcDbCircle
10
1157.900000000000
20
474.350000000000
30
0.0
40
1.800000103480
100
AcDbArc
50
30.027984619141
51
90.000000000000
0
ARC
5
709
100
AcDbEntity
8
0-0
6
CONTINUOUS
62
7
100
AcDbCircle
10
809.980000000000
20
475.150000000000
30
0.0
40
0.999999973880
100
AcDbArc
50
90.000000000000
51
149.972015380859
0
ARC
5
70a
100
AcDbEntity
8
0-0
6
CONTINUOUS
62
7
100
AcDbCircle
10
809.980000000000
20
475.150000000000
30
0.0
40
1.800000103480
100
AcDbArc
50
90.000000000000
51
149.972015380859
0
ARC
5
70b
100
AcDbEntity
8
0-0
6
CONTINUOUS
62
7
100
AcDbCircle
10
858.410000000000
20
475.150000000000
30
0.0
40
0.999999973880
100
AcDbArc
50
33.932586669922
51
90.000000000000
0
ARC
5
70c
100
AcDbEntity
8
0-0
6
CONTINUOUS
62
7
100
AcDbCircle
10
858.410000000000
20
475.150000000000
30
0.0
40
1.800000103480
100
AcDbArc
50
33.932586669922
51
90.000000000000
0
ARC
5
70d
100
AcDbEntity
8
0-0
6
CONTINUOUS
62
7
100
AcDbCircle
10
874.400000000000
20
451.380000000000
30
0.0
40
0.999999973880
100
AcDbArc
50
12.289260864258
51
33.935699462891
0
ARC
5
70e
100
AcDbEntity
8
0-0
6
CONTINUOUS
62
7
100
AcDbCircle
10
874.400000000000
20
451.380000000000
30
0.0
40
1.800000103480
100
AcDbArc
50
12.289260864258
51
33.935699462891
0
ARC
5
70f
100
AcDbEntity
8
0-0
6
CONTINUOUS
62
7
100
AcDbCircle
10
857.900000000000
20
474.350000000000
30
0.0
40
0.999999973880
100
AcDbArc
50
30.027984619141
51
90.000000000000
0
ARC
5
710
100
AcDbEntity
8
0-0
6
CONTINUOUS
62
7
100
AcDbCircle
10
857.900000000000
20
474.350000000000
30
0.0
40
1.800000103480
100
AcDbArc
50
30.027984619141
51
90.000000000000
0
ARC
5
711
100
AcDbEntity
8
0-0
6
CONTINUOUS
62
3
100
AcDbCircle
10
412.920000000000
20
278.770000000000
30
0.0
40
7.999999791039
100
AcDbArc
50
359.999740600586
51
449.999740600586
0
ARC
5
712
100
AcDbEntity
8
0-0
6
CONTINUOUS
62
3
100
AcDbCircle
10
434.420000000000
20
278.770000000000
30
0.0
40
7.999999791039
100
AcDbArc
50
89.999740600586
51
179.999740600586
0
ARC
5
713
100
AcDbEntity
8
0-0
6
CONTINUOUS
62
7
100
AcDbCircle
10
430.900000000000
20
479.560000000000
30
0.0
40
9.882400680801
100
AcDbArc
50
349.419158935547
51
370.580917358398
0
ARC
5
714
100
AcDbEntity
8
0-0
6
CONTINUOUS
62
7
100
AcDbCircle
10
416.450000000000
20
479.560000000000
30
0.0
40
9.882400680801
100
AcDbArc
50
169.419158935547
51
190.580917358398
0
ARC
5
715
100
AcDbEntity
8
0-0
6
CONTINUOUS
62
7
100
AcDbCircle
10
841.160000000000
20
478.760000000000
30
0.0
40
9.882400680801
100
AcDbArc
50
349.419158935547
51
370.580917358398
0
ARC
5
716
100
AcDbEntity
8
0-0
6
CONTINUOUS
62
7
100
AcDbCircle
10
826.720000000000
20
478.760000000000
30
0.0
40
9.882400680801
100
AcDbArc
50
169.419158935547
51
190.580917358398
0
ARC
5
717
100
AcDbEntity
8
0-0
6
CONTINUOUS
62
3
100
AcDbCircle
10
956.390000000000
20
297.970000000000
30
0.0
40
3.199999971141
100
AcDbArc
50
210.029495239258
51
270.000000000000
0
ARC
5
718
100
AcDbEntity
8
0-0
6
CONTINUOUS
62
3
100
AcDbCircle
10
1011.030000000000
20
297.970000000000
30
0.0
40
3.199999971141
100
AcDbArc
50
270.000000000000
51
329.970504760742
0
ARC
5
719
100
AcDbEntity
8
0-0
6
CONTINUOUS
62
3
100
AcDbCircle
10
852.420000000000
20
471.450000000000
30
0.0
40
3.199999971141
100
AcDbArc
50
30.029098510742
51
90.000000000000
0
ARC
5
71a
100
AcDbEntity
8
0-0
6
CONTINUOUS
62
3
100
AcDbCircle
10
815.000000000000
20
471.450000000000
30
0.0
40
3.199999971141
100
AcDbArc
50
90.000000000000
51
149.970901489258
0
ARC
5
71b
100
AcDbEntity
8
0-0
6
CONTINUOUS
62
7
100
AcDbCircle
10
1141.160000000000
20
478.760000000000
30
0.0
40
9.882400680801
100
AcDbArc
50
349.419158935547
51
370.580917358398
0
ARC
5
71c
100
AcDbEntity
8
0-0
6
CONTINUOUS
62
7
100
AcDbCircle
10
1126.720000000000
20
478.760000000000
30
0.0
40
9.882400680801
100
AcDbArc
50
169.419158935547
51
190.580917358398
0
ARC
5
71d
100
AcDbEntity
8
0-0
6
CONTINUOUS
62
3
100
AcDbCircle
10
1152.420000000000
20
471.450000000000
30
0.0
40
3.199999971141
100
AcDbArc
50
30.029098510742
51
90.000000000000
0
ARC
5
71e
100
AcDbEntity
8
0-0
6
CONTINUOUS
62
3
100
AcDbCircle
10
1115.000000000000
20
471.450000000000
30
0.0
40
3.199999971141
100
AcDbArc
50
90.000000000000
51
149.970901489258
0
TEXT
5
71f
100
AcDbEntity
8
0-0
62
6
100
AcDbText
10
1125.441
20
922.153
30
0.0
40
15.600
1
50
41
1.125
50
0.000
100
AcDbText
0
TEXT
5
720
100
AcDbEntity
8
0-0
62
6
100
AcDbText
10
825.441
20
922.153
30
0.0
40
15.600
1
48
41
1.125
50
0.000
100
AcDbText
0
TEXT
5
721
100
AcDbEntity
8
0-0
62
5
100
AcDbText
10
970.941
20
952.153
30
0.0
40
19.500
1
300
41
1.100
50
0.000
100
AcDbText
0
TEXT
5
722
100
AcDbEntity
8
0-0
62
6
100
AcDbText
10
975.441
20
689.133
30
0.0
40
15.600
1
50
41
1.125
50
0.000
100
AcDbText
0
TEXT
5
723
100
AcDbEntity
8
0-0
62
6
100
AcDbText
10
970.857
20
806.833
30
0.0
40
15.600
1
173
41
1.125
50
0.000
100
AcDbText
0
TEXT
5
724
100
AcDbEntity
8
0-0
62
3
100
AcDbText
10
166.352
20
42.403
30
0.0
40
7.800
1
静岡県静岡市流通センター１６番
41
1.125
50
0.000
100
AcDbText
0
TEXT
5
725
100
AcDbEntity
8
0-0
62
3
100
AcDbText
10
166.356
20
27.570
30
0.0
40
7.800
1
電話（０５４）２６３－２２８０（代表）
41
1.125
50
0.000
100
AcDbText
0
TEXT
5
726
100
AcDbEntity
8
0-0
62
7
100
AcDbText
10
531.856
20
74.854
30
0.0
40
5.850
1
変　　　　　　更　　　　　　記　　　　　　事
41
1.167
50
0.000
100
AcDbText
0
TEXT
5
727
100
AcDbEntity
8
0-0
62
7
100
AcDbText
10
815.591
20
74.054
30
0.0
40
5.850
1
受領　　日附
41
1.167
50
0.000
100
AcDbText
0
TEXT
5
728
100
AcDbEntity
8
0-0
62
7
100
AcDbText
10
1013.808
20
44.622
30
0.0
40
5.850
1
施工者
41
1.167
50
0.000
100
AcDbText
0
TEXT
5
729
100
AcDbEntity
8
0-0
62
7
100
AcDbText
10
1013.808
20
74.252
30
0.0
40
5.850
1
設計者
41
1.167
50
0.000
100
AcDbText
0
TEXT
5
72a
100
AcDbEntity
8
0-0
62
7
100
AcDbText
10
1219.291
20
44.079
30
0.0
40
5.850
1
作図
41
1.167
50
0.000
100
AcDbText
0
TEXT
5
72b
100
AcDbEntity
8
0-0
62
7
100
AcDbText
10
1291.118
20
44.610
30
0.0
40
5.850
1
図面名
41
1.167
50
0.000
100
AcDbText
0
TEXT
5
72c
100
AcDbEntity
8
0-0
62
7
100
AcDbText
10
1219.291
20
73.709
30
0.0
40
5.850
1
日附
41
1.167
50
0.000
100
AcDbText
0
TEXT
5
72d
100
AcDbEntity
8
0-0
62
7
100
AcDbText
10
1291.118
20
74.239
30
0.0
40
5.850
1
工事件名
41
1.167
50
0.000
100
AcDbText
0
TEXT
5
72e
100
AcDbEntity
8
0-0
62
7
100
AcDbText
10
1241.427
20
73.457
30
0.0
40
5.850
1
年　月　日
41
1.167
50
0.000
100
AcDbText
0
TEXT
5
72f
100
AcDbEntity
8
0-0
62
7
100
AcDbText
10
1241.427
20
43.828
30
0.0
40
5.850
1
年　月　日
41
1.167
50
0.000
100
AcDbText
0
TEXT
5
730
100
AcDbEntity
8
0-0
62
7
100
AcDbText
10
1543.461
20
74.239
30
0.0
40
5.850
1
設計番号
41
1.167
50
0.000
100
AcDbText
0
TEXT
5
731
100
AcDbEntity
8
0-0
62
7
100
AcDbText
10
386.778
20
67.470
30
0.0
40
5.850
1
. 　.　 
41
1.167
50
0.000
100
AcDbText
0
TEXT
5
732
100
AcDbEntity
8
0-0
62
7
100
AcDbText
10
386.778
20
57.594
30
0.0
40
5.850
1
. 　.　 
41
1.167
50
0.000
100
AcDbText
0
TEXT
5
733
100
AcDbEntity
8
0-0
62
7
100
AcDbText
10
386.778
20
47.717
30
0.0
40
5.850
1
. 　.　 
41
1.167
50
0.000
100
AcDbText
0
TEXT
5
734
100
AcDbEntity
8
0-0
62
7
100
AcDbText
10
386.778
20
37.840
30
0.0
40
5.850
1
. 　.　 
41
1.167
50
0.000
100
AcDbText
0
TEXT
5
735
100
AcDbEntity
8
0-0
62
7
100
AcDbText
10
386.778
20
27.963
30
0.0
40
5.850
1
. 　.　 
41
1.167
50
0.000
100
AcDbText
0
TEXT
5
736
100
AcDbEntity
8
0-0
62
3
100
AcDbText
10
1034.071
20
61.176
30
0.0
40
7.800
1
　　　　　　　　　　
41
1.125
50
0.000
100
AcDbText
0
TEXT
5
737
100
AcDbEntity
8
0-0
62
3
100
AcDbText
10
1034.071
20
31.546
30
0.0
40
7.800
1
　　　　　　　　　　
41
1.125
50
0.000
100
AcDbText
0
TEXT
5
738
100
AcDbEntity
8
0-0
62
3
100
AcDbText
10
1317.534
20
62.723
30
0.0
40
7.800
1
　　　　　　　　　　　　　
41
1.125
50
0.000
100
AcDbText
0
TEXT
5
739
100
AcDbEntity
8
0-0
62
7
100
AcDbText
10
377.806
20
74.789
30
0.0
40
5.850
1
年　月　日
41
1.167
50
0.000
100
AcDbText
0
TEXT
5
73a
100
AcDbEntity
8
0-0
62
7
100
AcDbText
10
872.762
20
73.470
30
0.0
40
5.850
1
年　　月　　日
41
1.167
50
0.000
100
AcDbText
0
TEXT
5
73b
100
AcDbEntity
8
0-0
62
7
100
AcDbText
10
885.314
20
63.047
30
0.0
40
5.850
1
.　 　.
41
1.167
50
0.000
100
AcDbText
0
TEXT
5
73c
100
AcDbEntity
8
0-0
62
7
100
AcDbText
10
815.591
20
44.425
30
0.0
40
5.850
1
受領　　日附
41
1.167
50
0.000
100
AcDbText
0
TEXT
5
73d
100
AcDbEntity
8
0-0
62
7
100
AcDbText
10
872.762
20
43.840
30
0.0
40
5.850
1
年　　月　　日
41
1.167
50
0.000
100
AcDbText
0
TEXT
5
73e
100
AcDbEntity
8
0-0
62
7
100
AcDbText
10
885.314
20
33.418
30
0.0
40
5.850
1
.　 　.
41
1.167
50
0.000
100
AcDbText
0
TEXT
5
73f
100
AcDbEntity
8
0-0
62
7
100
AcDbText
10
1248.199
20
61.334
30
0.0
40
5.850
1
.　　.　
41
1.167
50
0.000
100
AcDbText
0
TEXT
5
740
100
AcDbEntity
8
0-0
62
6
100
AcDbText
10
114.146
20
58.763
30
0.0
40
15.600
1
小　池　弥　太　郎　商　店
41
1.125
50
0.000
100
AcDbText
0
TEXT
5
741
100
AcDbEntity
8
0-0
62
7
100
AcDbText
10
1543.461
20
44.610
30
0.0
40
5.850
1
縮　尺
41
1.167
50
0.000
100
AcDbText
0
TEXT
5
742
100
AcDbEntity
8
0-0
62
3
100
AcDbText
10
1566.700
20
40.449
30
0.0
40
7.800
1
Ａ１－１／２　
41
1.125
50
0.000
100
AcDbText
0
TEXT
5
743
100
AcDbEntity
8
0-0
62
3
100
AcDbText
10
1566.700
20
25.634
30
0.0
40
7.800
1
Ａ３－１／４　
41
1.125
50
0.000
100
AcDbText
0
TEXT
5
744
100
AcDbEntity
8
0-0
62
6
100
AcDbText
10
769.201
20
884.837
30
0.0
40
15.600
1
30
41
1.125
50
59.970
100
AcDbText
0
TEXT
5
745
100
AcDbEntity
8
0-0
62
6
100
AcDbText
10
1190.349
20
902.610
30
0.0
40
15.600
1
30
41
1.125
50
303.934
100
AcDbText
0
TEXT
5
746
100
AcDbEntity
8
0-0
62
6
100
AcDbText
10
1213.330
20
854.902
30
0.0
40
15.600
1
5
41
1.125
50
0.000
100
AcDbText
0
TEXT
5
747
100
AcDbEntity
8
0-0
62
6
100
AcDbText
10
468.363
20
383.898
30
0.0
40
13.650
1
タイトフレーム
41
1.143
50
0.000
100
AcDbText
0
TEXT
5
748
100
AcDbEntity
8
0-0
62
6
100
AcDbText
10
482.603
20
554.559
30
0.0
40
13.650
1
ナット
41
1.143
50
0.000
100
AcDbText
0
TEXT
5
749
100
AcDbEntity
8
0-0
62
6
100
AcDbText
10
482.603
20
514.559
30
0.0
40
13.650
1
ウールパッキン
41
1.143
50
0.000
100
AcDbText
0
TEXT
5
74a
100
AcDbEntity
8
0-0
62
6
100
AcDbText
10
416.424
20
338.533
30
0.0
40
13.650
1
40
41
1.143
50
0.000
100
AcDbText
0
TEXT
5
74b
100
AcDbEntity
8
0-0
62
6
100
AcDbText
10
350.674
20
292.510
30
0.0
40
13.650
1
10
41
1.143
50
90.000
100
AcDbText
0
TEXT
5
74c
100
AcDbEntity
8
0-0
62
6
100
AcDbText
10
482.603
20
574.559
30
0.0
40
13.650
1
剣先ボルト１０φ×３５ｍｍ
41
1.143
50
0.000
100
AcDbText
0
TEXT
5
74d
100
AcDbEntity
8
0-0
62
6
100
AcDbText
10
482.603
20
534.559
30
0.0
40
13.650
1
特殊座金３５φ×２．３ｍｍ
41
1.143
50
0.000
100
AcDbText
0
TEXT
5
74e
100
AcDbEntity
8
0-0
62
6
100
AcDbText
10
468.363
20
363.898
30
0.0
40
13.650
1
ｔ＝３．２ｍｍ×４０ｍｍ
41
1.143
50
0.000
100
AcDbText
0
TEXT
5
74f
100
AcDbEntity
8
0-0
62
6
100
AcDbText
10
350.674
20
378.250
30
0.0
40
15.600
1
173
41
1.125
50
90.000
100
AcDbText
0
TEXT
5
750
100
AcDbEntity
8
0-0
62
6
100
AcDbText
10
970.626
20
394.239
30
0.0
40
15.600
1
173
41
1.125
50
0.000
100
AcDbText
0
TEXT
5
751
100
AcDbEntity
8
0-0
62
6
100
AcDbText
10
825.441
20
539.804
30
0.0
40
15.600
1
50
41
1.125
50
0.000
100
AcDbText
0
TEXT
5
752
100
AcDbEntity
8
0-0
62
6
100
AcDbText
10
970.941
20
569.804
30
0.0
40
15.600
1
300
41
1.125
50
0.000
100
AcDbText
0
TEXT
5
753
100
AcDbEntity
8
0-0
62
6
100
AcDbText
10
1125.441
20
539.804
30
0.0
40
15.600
1
50
41
1.125
50
0.000
100
AcDbText
0
TEXT
5
754
100
AcDbEntity
8
0-0
62
6
100
AcDbText
10
1051.488
20
327.932
30
0.0
40
13.650
1
タイトフレーム
41
1.143
50
0.000
100
AcDbText
0
TEXT
5
755
100
AcDbEntity
8
0-0
62
6
100
AcDbText
10
1051.488
20
307.932
30
0.0
40
13.650
1
ｔ＝３．２ｍｍ×４０ｍｍ
41
1.143
50
0.000
100
AcDbText
0
TEXT
5
756
100
AcDbEntity
8
0-0
62
6
100
AcDbText
10
868.532
20
332.409
30
0.0
40
13.650
1
裏貼材
41
1.143
50
0.000
100
AcDbText
0
TEXT
5
757
100
AcDbEntity
8
0-0
62
6
100
AcDbText
10
901.904
20
501.086
30
0.0
40
13.650
1
ＫＲ Ｓ６０
41
1.143
50
0.000
100
AcDbText
0
TEXT
5
758
100
AcDbEntity
8
0-0
62
2
100
AcDbText
10
1548.445
20
59.689
30
0.0
40
9.750
1
KR-S60 - 01
41
1.100
50
0.000
100
AcDbText
0
TEXT
5
759
100
AcDbEntity
8
0-0
62
3
100
AcDbText
10
1317.534
20
33.093
30
0.0
40
7.800
1
コイケルーフ折板　ＫＲ Ｓ６０　断面図
41
1.125
50
0.000
100
AcDbText
0
TEXT
5
75a
100
AcDbEntity
8
0-0
62
6
100
AcDbText
10
979.422
20
252.578
30
0.0
40
13.650
1
溶接
41
1.143
50
0.000
100
AcDbText
0
TEXT
5
75b
100
AcDbEntity
8
0-0
62
7
100
AcDbText
10
1222.482
20
30.668
30
0.0
40
5.850
1
MA 2015-12-05
41
1.167
50
0.000
100
AcDbText
0
POINT
5
75c
100
AcDbEntity
8
0-0
62
3
100
AcDbPoint
10
1133.940000000000
20
889.540000000000
30
0.0
0
POINT
5
75d
100
AcDbEntity
8
0-0
62
3
100
AcDbPoint
10
1133.940000000000
20
889.540000000000
30
0.0
0
POINT
5
75e
100
AcDbEntity
8
0-0
62
3
100
AcDbPoint
10
808.940000000000
20
919.150000000000
30
0.0
0
POINT
5
75f
100
AcDbEntity
8
0-0
62
3
100
AcDbPoint
10
858.940000000000
20
919.150000000000
30
0.0
0
POINT
5
760
100
AcDbEntity
8
0-0
62
3
100
AcDbPoint
10
1108.940000000000
20
919.150000000000
30
0.0
0
POINT
5
761
100
AcDbEntity
8
0-0
62
3
100
AcDbPoint
10
1158.940000000000
20
919.150000000000
30
0.0
0
POINT
5
762
100
AcDbEntity
8
0-0
62
3
100
AcDbPoint
10
833.940000000000
20
949.150000000000
30
0.0
0
POINT
5
763
100
AcDbEntity
8
0-0
62
3
100
AcDbPoint
10
1133.940000000000
20
949.150000000000
30
0.0
0
POINT
5
764
100
AcDbEntity
8
0-0
62
3
100
AcDbPoint
10
958.940000000000
20
686.130000000000
30
0.0
0
POINT
5
765
100
AcDbEntity
8
0-0
62
3
100
AcDbPoint
10
1008.940000000000
20
686.130000000000
30
0.0
0
POINT
5
766
100
AcDbEntity
8
0-0
62
3
100
AcDbPoint
10
983.940000000000
20
889.540000000000
30
0.0
0
POINT
5
767
100
AcDbEntity
8
0-0
62
3
100
AcDbPoint
10
983.940000000000
20
716.540000000000
30
0.0
0
POINT
5
768
100
AcDbEntity
8
0-0
62
3
100
AcDbPoint
10
833.940000000000
20
889.540000000000
30
0.0
0
POINT
5
769
100
AcDbEntity
8
0-0
62
3
100
AcDbPoint
10
768.550000000000
20
877.710000000000
30
0.0
0
POINT
5
76a
100
AcDbEntity
8
0-0
62
3
100
AcDbPoint
10
783.560000000000
20
903.680000000000
30
0.0
0
POINT
5
76b
100
AcDbEntity
8
0-0
62
3
100
AcDbPoint
10
1184.230000000000
20
906.330000000000
30
0.0
0
POINT
5
76c
100
AcDbEntity
8
0-0
62
3
100
AcDbPoint
10
1200.980000000000
20
881.440000000000
30
0.0
0
POINT
5
76d
100
AcDbEntity
8
0-0
62
3
100
AcDbPoint
10
1206.090000000000
20
864.690000000000
30
0.0
0
POINT
5
76e
100
AcDbEntity
8
0-0
62
3
100
AcDbPoint
10
1206.090000000000
20
859.690000000000
30
0.0
0
POINT
5
76f
100
AcDbEntity
8
0-0
62
3
100
AcDbPoint
10
353.670000000000
20
294.770000000000
30
0.0
0
POINT
5
770
100
AcDbEntity
8
0-0
62
3
100
AcDbPoint
10
353.670000000000
20
304.750000000000
30
0.0
0
POINT
5
771
100
AcDbEntity
8
0-0
62
3
100
AcDbPoint
10
353.670000000000
20
477.750000000000
30
0.0
0
POINT
5
772
100
AcDbEntity
8
0-0
62
3
100
AcDbPoint
10
403.670000000000
20
335.530000000000
30
0.0
0
POINT
5
773
100
AcDbEntity
8
0-0
62
3
100
AcDbPoint
10
443.670000000000
20
335.530000000000
30
0.0
0
POINT
5
774
100
AcDbEntity
8
0-0
62
3
100
AcDbPoint
10
983.710000000000
20
476.950000000000
30
0.0
0
POINT
5
775
100
AcDbEntity
8
0-0
62
3
100
AcDbPoint
10
983.710000000000
20
303.950000000000
30
0.0
0
POINT
5
776
100
AcDbEntity
8
0-0
62
3
100
AcDbPoint
10
833.940000000000
20
566.800000000000
30
0.0
0
POINT
5
777
100
AcDbEntity
8
0-0
62
3
100
AcDbPoint
10
808.940000000000
20
536.800000000000
30
0.0
0
POINT
5
778
100
AcDbEntity
8
0-0
62
3
100
AcDbPoint
10
858.940000000000
20
536.800000000000
30
0.0
0
POINT
5
779
100
AcDbEntity
8
0-0
62
3
100
AcDbPoint
10
833.940000000000
20
566.800000000000
30
0.0
0
POINT
5
77a
100
AcDbEntity
8
0-0
62
3
100
AcDbPoint
10
1133.940000000000
20
566.800000000000
30
0.0
0
POINT
5
77b
100
AcDbEntity
8
0-0
62
3
100
AcDbPoint
10
1108.940000000000
20
536.800000000000
30
0.0
0
POINT
5
77c
100
AcDbEntity
8
0-0
62
3
100
AcDbPoint
10
1158.940000000000
20
536.800000000000
30
0.0
0
POINT
5
77d
100
AcDbEntity
8
0-0
62
3
100
AcDbPoint
10
54.760000000000
20
1143.640000000000
30
0.0
0
ENDSEC
0
EOF
