0
SECTION
2
HEADER
9
$ACADVER
1
AC1015
9
$ACADMAINTVER
 70
6
9
$DWGCODEPAGE
3
ANSI_932
9
$EXTMIN
10
0.000
20
0.000
30
0.0
9
$EXTMAX
10
1261.500
20
891.000
30
0.0
9
$LIMMIN
10
0.000
20
0.000
9
$LIMMAX
10
1261.500
20
891.000
9
$DIMSCALE
40
1.500000
9
$LTSCALE
40
2.000
9
$PDMODE
70
0
9
$PDSIZE
40
40.0
9
$HANDSEED
5
61e8a
9
$UNITMODE
70
0
9
$VISRETAIN
70
0
9
$PLINEGEN
70
0
9
$PSLTSCALE
70
1
9
$TREEDEPTH
70
3020
9
$CMLSTYLE
2
STANDARD
9
$CMLJUST
70
0
9
$CMLSCALE
40
1.0
9
$PROXYGRAPHICS
70
1
9
$MEASUREMENT
70
0
9
$CELWEIGHT
370
-1
9
$ENDCAPS
280
0
9
$JOINSTYLE
280
0
9
$LWDISPLAY
290
0
9
$INSUNITS
70
0
9
$HYPERLINKBASE
1

9
$STYLESHEET
1

9
$XEDIT
290
1
9
$CEPSNTYPE
380
0
9
$PSTYLEMODE
290
1
9
$FINGERPRINTGUID
2
{5F082321-0195-11D3-BDFB-0060B0CD5109}
9
$VERSIONGUID
2
{12943756-294D-11D3-98C2-0060B087942D}
9
$EXTNAMES
290
1
9
$PSVPSCALE
40
0.0
9
$OLESTARTUP
290
0
0
ENDSEC
0
SECTION
  2
CLASSES
0
ENDSEC
0
SECTION
2
TABLES
0
TABLE
2
VPORT
5
190
100
AcDbSymbolTable
70
2
0
VPORT
5
191
100
AcDbSymbolTableRecord
100
AcDbViewportTableRecord
2
*ACTIVE
70
0
10
0.0
20
0.0
11
1.0
21
1.0
12
630.750
22
445.500
13
0.0
23
0.0
14
1.0
24
1.0
15
0.0
25
0.0
16
0.0
26
0.0
36
1.0
17
0.0
27
0.0
37
0.0
40
914.130
41
2.0
42
50.0
43
0.0
44
0.0
50
0.0
51
0.0
71
0
72
1000
73
1
74
1
75
0
76
0
77
0
78
0
0
ENDTAB
0
TABLE
2
LTYPE
5
1f4
100
AcDbSymbolTable
70
9
0
LTYPE
5
1f5
100
AcDbSymbolTableRecord
100
AcDbLinetypeTableRecord
2
BYBLOCK
70
 64
3

72
 65
73
  0
40
0.0
0
LTYPE
5
1f6
100
AcDbSymbolTableRecord
100
AcDbLinetypeTableRecord
2
BYLAYER
70
 64
3

72
 65
73
  0
40
0.0
0
LTYPE
5
1f7
100
AcDbSymbolTableRecord
100
AcDbLinetypeTableRecord
2
CONTINUOUS
70
64
3
SolidLine
72
65
73
0
40
0.0
0
LTYPE
5
1f8
100
AcDbSymbolTableRecord
100
AcDbLinetypeTableRecord
2
DOT
70
64
3
--  --  --  --  --  --  --  --     
72
65
73
2
40
3.000
49
1.000
74
0
49
-2.000
74
0
0
LTYPE
5
1f9
100
AcDbSymbolTableRecord
100
AcDbLinetypeTableRecord
2
DASHED
70
64
3
----    ----    ----    ----    
72
65
73
2
40
5.000
49
2.000
74
0
49
-3.000
74
0
0
LTYPE
5
1fa
100
AcDbSymbolTableRecord
100
AcDbLinetypeTableRecord
2
DASHED2
70
64
3
------  ------  ------  ------ 
72
65
73
2
40
10.000
49
4.000
74
0
49
-6.000
74
0
0
LTYPE
5
1fb
100
AcDbSymbolTableRecord
100
AcDbLinetypeTableRecord
2
CENTER
70
64
3
----- - ----- - ----- - ----- - 
72
65
73
4
40
10.000
49
6.000
74
0
49
-3.000
74
0
49
1.000
74
0
49
-3.000
74
0
0
LTYPE
5
1fc
100
AcDbSymbolTableRecord
100
AcDbLinetypeTableRecord
2
CENTER2
70
64
3
----------  --  ----------  -- 
72
65
73
4
40
17.000
49
12.000
74
0
49
-5.000
74
0
49
2.000
74
0
49
-5.000
74
0
0
LTYPE
5
1fd
100
AcDbSymbolTableRecord
100
AcDbLinetypeTableRecord
2
PHANTOM
70
64
3
--- - - --- - - --- - - --- - -
72
65
73
6
40
13.000
49
5.000
74
0
49
-3.000
74
0
49
1.000
74
0
49
-3.000
74
0
49
1.000
74
0
49
-3.000
74
0
0
LTYPE
5
1fe
100
AcDbSymbolTableRecord
100
AcDbLinetypeTableRecord
2
PHANTOM2
70
64
3
--------  -  -  --------  -  -
72
65
73
6
40
20.000
49
6.000
74
0
49
-5.000
74
0
49
2.000
74
0
49
-5.000
74
0
49
2.000
74
0
49
-5.000
74
0
0
LTYPE
5
1ff
100
AcDbSymbolTableRecord
100
AcDbLinetypeTableRecord
2
HIDDEN
70
64
3
-   -   -   -   -   -   -   -   
72
65
73
2
40
3.000
49
0.500
74
0
49
-2.500
74
0
0
ENDTAB
0
TABLE
2
STYLE
5
200
100
AcDbSymbolTable
70
1
0
STYLE
5
201
100
AcDbSymbolTableRecord
100
AcDbTextStyleTableRecord
2
STANDARD
70
0
40
0.0
41
1.0
50
0.0
71
0
42
0.0
3
txt.shx
4
extfont.shx
0
STYLE
5
202
100
AcDbSymbolTableRecord
100
AcDbTextStyleTableRecord
2
TATEGAKI
70
4
40
0.0
41
1.0
50
0.0
71
0
42
0.0
3
txt.shx
4
extfont.shx
0
STYLE
5
203
100
AcDbSymbolTableRecord
100
AcDbTextStyleTableRecord
2
DIM
70
0
40
0.0
41
0.75
50
0.0
71
0
42
0.0
3
txt.shx
4
extfont.shx
0
STYLE
5
204
100
AcDbSymbolTableRecord
100
AcDbTextStyleTableRecord
2
_Gothic_
70
0
40
1.0
41
1.0
50
0.0
71
0
42
10.0
3

4

1001
ACAD
1000
MS Gothic
1071
32817
0
STYLE
5
205
100
AcDbSymbolTableRecord
100
AcDbTextStyleTableRecord
2
_TateGothic_
70
4
40
0.0
41
1.0
50
0.0
71
0
42
0.0
3
@MS Gothic
4

0
ENDTAB
0
TABLE
2
VIEW
5
206
100
AcDbSymbolTable
70
0
0
ENDTAB
0
TABLE
2
UCS
5
207
100
AcDbSymbolTable
70
0
0
ENDTAB
0
TABLE
2
APPID
5
208
100
AcDbSymbolTable
70
1
0
APPID
5
209
100
AcDbSymbolTableRecord
100
AcDbRegAppTableRecord
2
ACAD
70
0
0
ENDTAB
0
TABLE
2
DIMSTYLE
5
403
330
0
100
AcDbSymbolTable
70
1
100
AcDbDimStyleTable
71
0
0
DIMSTYLE
105
404
330
402
100
AcDbSymbolTableRecord
100
AcDbDimStyleTableRecord
2
JAC_DIM
70
0
41
3.000
42
0.000
44
0.0
73
0
74
0
77
1
78
8
79
2
140
0.000
170
0
171
2
172
0
173
0
174
0
175
0
176
0
177
0
178
0
270
2
271
0
272
0
273
2
274
2
340
201
275
0
280
0
281
0
282
0
283
0
284
0
285
0
286
0
287
3
288
0
0
ENDTAB
0
TABLE
2
BLOCK_RECORD
5
405
100
AcDbSymbolTable
70
0
0
BLOCK_RECORD
5
406
100
AcDbSymbolTableRecord
100
AcDbBlockTableRecord
2
*MODEL_SPACE
0
BLOCK_RECORD
5
407
100
AcDbSymbolTableRecord
100
AcDbBlockTableRecord
2
*PAPER_SPACE
0
BLOCK_RECORD
5
408
100
AcDbSymbolTableRecord
100
AcDbBlockTableRecord
2
_JACCONVERT_
0
ENDTAB
0
TABLE
2
LAYER
5
409
100
AcDbSymbolTable
70
10
0
LAYER
5
40a
100
AcDbSymbolTableRecord
100
AcDbLayerTableRecord
2
0
70
0
62
7
6
CONTINUOUS
370
-3
390
14
0
LAYER
5
40b
100
AcDbSymbolTableRecord
100
AcDbLayerTableRecord
2
0-000
70
0
62
7
6
CONTINUOUS
370
-3
390
14
0
LAYER
5
40c
100
AcDbSymbolTableRecord
100
AcDbLayerTableRecord
2
0-101
70
0
62
7
6
CONTINUOUS
370
-3
390
14
0
LAYER
5
40d
100
AcDbSymbolTableRecord
100
AcDbLayerTableRecord
2
0-202
70
0
62
7
6
CONTINUOUS
370
-3
390
14
0
LAYER
5
40e
100
AcDbSymbolTableRecord
100
AcDbLayerTableRecord
2
F-E_J_ADD
70
0
62
-7
6
CONTINUOUS
290
0
370
-3
390
14
0
LAYER
5
40f
100
AcDbSymbolTableRecord
100
AcDbLayerTableRecord
2
F-F
70
0
62
7
6
CONTINUOUS
370
-3
390
14
0
ENDTAB
0
ENDSEC
0
SECTION
2
BLOCKS
0
BLOCK
5
410
100
AcDbEntity
67
1
8
0
100
AcDbBlockBegin
2
*MODEL_SPACE
70
0
10
0.0
20
0.0
30
0.0
3
*MODEL_SPACE
1

0
ENDBLK
5
411
100
AcDbEntity
8
0
100
AcDbBlockEnd
0
BLOCK
5
412
100
AcDbEntity
67
1
8
0
100
AcDbBlockBegin
2
*PAPER_SPACE
70
0
10
0.0
20
0.0
30
0.0
3
*PAPER_SPACE
1

0
ENDBLK
5
413
100
AcDbEntity
67
1
8
0
100
AcDbBlockEnd
0
BLOCK
5
414
100
AcDbEntity
8
0
100
AcDbBlockBegin
2
_JACCONVERT_
70
2
10
0.0
20
0.0
30
0.0
3
_JACCONVERT_
1
_JACCONVERT_
0
ATTDEF
5
415
100
AcDbEntity
8
0
62
0
100
AcDbText
10
0.0
20
0.0
30
0.0
40
1.0
1
User:460950EB0890EC0964308A
100
AcDbAttributeDefinition
3

2
USER
70
8
0
ATTDEF
5
416
100
AcDbEntity
8
0
62
0
100
AcDbText
10
0.0
20
2.0
30
0.0
40
1.0
1
Date:15/05/26 15:43
100
AcDbAttributeDefinition
3

2
REVDATE
70
8
0
ATTDEF
5
417
100
AcDbEntity
8
0
62
0
100
AcDbText
10
0.0
20
4.0
30
0.0
40
1.0
1
File:KR455　断面図.dxf
100
AcDbAttributeDefinition
3

2
FNAME
70
8
0
ATTDEF
5
418
100
AcDbEntity
8
0
62
0
100
AcDbText
10
0.0
20
6.0
30
0.0
40
1.0
1
JacConvert Version3.09 copyright (c) 2001-2013 K.Nakahara
100
AcDbAttributeDefinition
3

2
VER
70
8
0
ENDBLK
5
419
100
AcDbEntity
67
1
8
0
100
AcDbBlockEnd
0
ENDSEC
0
SECTION
2
ENTITIES
0
LINE
5
41a
100
AcDbEntity
8
F-F
6
CONTINUOUS
62
2
100
AcDbLine
10
41.070000000000
20
17.730000000000
30
0.0
11
41.070000000000
21
857.730000000000
31
0.0
0
LINE
5
41b
100
AcDbEntity
8
F-F
6
CONTINUOUS
62
2
100
AcDbLine
10
963.570000000000
20
62.170000000000
30
0.0
11
963.570000000000
21
17.730000000000
31
0.0
0
LINE
5
41c
100
AcDbEntity
8
F-F
6
CONTINUOUS
62
2
100
AcDbLine
10
910.910000000000
20
62.170000000000
30
0.0
11
910.910000000000
21
17.730000000000
31
0.0
0
LINE
5
41d
100
AcDbEntity
8
F-F
6
CONTINUOUS
62
2
100
AcDbLine
10
1152.840000000000
20
17.730000000000
30
0.0
11
1152.840000000000
21
62.170000000000
31
0.0
0
LINE
5
41e
100
AcDbEntity
8
F-F
6
CONTINUOUS
62
2
100
AcDbLine
10
605.170000000000
20
62.170000000000
30
0.0
11
605.170000000000
21
17.730000000000
31
0.0
0
LINE
5
41f
100
AcDbEntity
8
F-F
6
CONTINUOUS
62
2
100
AcDbLine
10
757.310000000000
20
62.170000000000
30
0.0
11
757.310000000000
21
17.730000000000
31
0.0
0
LINE
5
420
100
AcDbEntity
8
F-F
6
CONTINUOUS
62
2
100
AcDbLine
10
605.170000000000
20
47.360000000000
30
0.0
11
277.320000000000
21
47.360000000000
31
0.0
0
LINE
5
421
100
AcDbEntity
8
F-F
6
CONTINUOUS
62
2
100
AcDbLine
10
605.170000000000
20
32.540000000000
30
0.0
11
277.320000000000
21
32.540000000000
31
0.0
0
LINE
5
422
100
AcDbEntity
8
F-F
6
CONTINUOUS
62
2
100
AcDbLine
10
605.170000000000
20
25.130000000000
30
0.0
11
277.320000000000
21
25.130000000000
31
0.0
0
LINE
5
423
100
AcDbEntity
8
F-F
6
CONTINUOUS
62
2
100
AcDbLine
10
605.170000000000
20
54.760000000000
30
0.0
11
277.320000000000
21
54.760000000000
31
0.0
0
LINE
5
424
100
AcDbEntity
8
F-F
6
CONTINUOUS
62
2
100
AcDbLine
10
316.820000000000
20
62.170000000000
30
0.0
11
316.820000000000
21
17.730000000000
31
0.0
0
LINE
5
425
100
AcDbEntity
8
F-F
6
CONTINUOUS
62
2
100
AcDbLine
10
277.320000000000
20
62.170000000000
30
0.0
11
277.320000000000
21
17.730000000000
31
0.0
0
LINE
5
426
100
AcDbEntity
8
F-F
6
CONTINUOUS
62
2
100
AcDbLine
10
1223.730000000000
20
17.730000000000
30
0.0
11
1223.730000000000
21
857.730000000000
31
0.0
0
LINE
5
427
100
AcDbEntity
8
F-F
6
CONTINUOUS
62
2
100
AcDbLine
10
41.070000000000
20
857.730000000000
30
0.0
11
1223.730000000000
21
857.730000000000
31
0.0
0
LINE
5
428
100
AcDbEntity
8
F-F
6
CONTINUOUS
62
2
100
AcDbLine
10
41.070000000000
20
17.730000000000
30
0.0
11
1223.730000000000
21
17.730000000000
31
0.0
0
LINE
5
429
100
AcDbEntity
8
F-F
6
CONTINUOUS
62
2
100
AcDbLine
10
1223.730000000000
20
62.170000000000
30
0.0
11
41.070000000000
21
62.170000000000
31
0.0
0
LINE
5
42a
100
AcDbEntity
8
F-F
6
CONTINUOUS
62
2
100
AcDbLine
10
277.320000000000
20
39.950000000000
30
0.0
11
1223.730000000000
21
39.950000000000
31
0.0
0
POLYLINE
5
42b
100
AcDbEntity
8
F-F
6
CONTINUOUS
62
  3
100
AcDb2dPolyline
66
1
10
0.0
20
0.0
30
0.0
70
0
0
VERTEX
5
42c
100
AcDbEntity
8
F-F
6
CONTINUOUS
62
  3
100
AcDbVertex
100
AcDb2dVertex
10
53.790000000000
20
44.320000000000
30
0.0
0
VERTEX
5
42d
100
AcDbEntity
8
F-F
6
CONTINUOUS
62
  3
100
AcDbVertex
100
AcDb2dVertex
10
53.790000000000
20
56.320000000000
30
0.0
0
VERTEX
5
42e
100
AcDbEntity
8
F-F
6
CONTINUOUS
62
  3
100
AcDbVertex
100
AcDb2dVertex
10
65.790000000000
20
56.320000000000
30
0.0
0
VERTEX
5
42f
100
AcDbEntity
8
F-F
6
CONTINUOUS
62
  3
100
AcDbVertex
100
AcDb2dVertex
10
65.790000000000
20
44.320000000000
30
0.0
0
VERTEX
5
430
100
AcDbEntity
8
F-F
6
CONTINUOUS
62
  3
100
AcDbVertex
100
AcDb2dVertex
10
53.790000000000
20
44.320000000000
30
0.0
0
SEQEND
5
431
100
AcDbEntity
8
F-F
0
LINE
5
432
100
AcDbEntity
8
F-F
6
CONTINUOUS
62
3
100
AcDbLine
10
54.990000000000
20
45.950000000000
30
0.0
11
54.990000000000
21
55.120000000000
31
0.0
0
LINE
5
433
100
AcDbEntity
8
F-F
6
CONTINUOUS
62
3
100
AcDbLine
10
64.590000000000
20
45.520000000000
30
0.0
11
55.410000000000
21
45.520000000000
31
0.0
0
POLYLINE
5
434
100
AcDbEntity
8
F-F
6
CONTINUOUS
62
  3
100
AcDb2dPolyline
66
1
10
0.0
20
0.0
30
0.0
70
0
0
VERTEX
5
435
100
AcDbEntity
8
F-F
6
CONTINUOUS
62
  3
100
AcDbVertex
100
AcDb2dVertex
10
54.990000000000
20
55.120000000000
30
0.0
0
VERTEX
5
436
100
AcDbEntity
8
F-F
6
CONTINUOUS
62
  3
100
AcDbVertex
100
AcDb2dVertex
10
64.160000000000
20
55.120000000000
30
0.0
0
VERTEX
5
437
100
AcDbEntity
8
F-F
6
CONTINUOUS
62
  3
100
AcDbVertex
100
AcDb2dVertex
10
54.990000000000
20
45.950000000000
30
0.0
0
SEQEND
5
438
100
AcDbEntity
8
F-F
0
LINE
5
439
100
AcDbEntity
8
F-F
6
CONTINUOUS
62
3
100
AcDbLine
10
64.590000000000
20
54.700000000000
30
0.0
11
55.410000000000
21
45.520000000000
31
0.0
0
LINE
5
43a
100
AcDbEntity
8
F-F
6
CONTINUOUS
62
3
100
AcDbLine
10
64.590000000000
20
54.700000000000
30
0.0
11
64.590000000000
21
45.520000000000
31
0.0
0
LINE
5
43b
100
AcDbEntity
8
F-F
6
CONTINUOUS
62
4
100
AcDbLine
10
53.790000000000
20
56.200000000000
30
0.0
11
65.790000000000
21
56.200000000000
31
0.0
0
LINE
5
43c
100
AcDbEntity
8
F-F
6
CONTINUOUS
62
4
100
AcDbLine
10
53.790000000000
20
55.960000000000
30
0.0
11
65.790000000000
21
55.960000000000
31
0.0
0
LINE
5
43d
100
AcDbEntity
8
F-F
6
CONTINUOUS
62
4
100
AcDbLine
10
53.790000000000
20
55.720000000000
30
0.0
11
65.790000000000
21
55.720000000000
31
0.0
0
LINE
5
43e
100
AcDbEntity
8
F-F
6
CONTINUOUS
62
4
100
AcDbLine
10
53.790000000000
20
55.480000000000
30
0.0
11
65.790000000000
21
55.480000000000
31
0.0
0
LINE
5
43f
100
AcDbEntity
8
F-F
6
CONTINUOUS
62
4
100
AcDbLine
10
53.790000000000
20
55.240000000000
30
0.0
11
65.790000000000
21
55.240000000000
31
0.0
0
LINE
5
440
100
AcDbEntity
8
F-F
6
CONTINUOUS
62
4
100
AcDbLine
10
53.790000000000
20
45.400000000000
30
0.0
11
65.790000000000
21
45.400000000000
31
0.0
0
LINE
5
441
100
AcDbEntity
8
F-F
6
CONTINUOUS
62
4
100
AcDbLine
10
53.790000000000
20
45.160000000000
30
0.0
11
65.790000000000
21
45.160000000000
31
0.0
0
LINE
5
442
100
AcDbEntity
8
F-F
6
CONTINUOUS
62
4
100
AcDbLine
10
53.790000000000
20
44.920000000000
30
0.0
11
65.790000000000
21
44.920000000000
31
0.0
0
LINE
5
443
100
AcDbEntity
8
F-F
6
CONTINUOUS
62
4
100
AcDbLine
10
53.790000000000
20
44.680000000000
30
0.0
11
65.790000000000
21
44.680000000000
31
0.0
0
LINE
5
444
100
AcDbEntity
8
F-F
6
CONTINUOUS
62
4
100
AcDbLine
10
53.790000000000
20
44.440000000000
30
0.0
11
65.790000000000
21
44.440000000000
31
0.0
0
LINE
5
445
100
AcDbEntity
8
F-F
6
CONTINUOUS
62
4
100
AcDbLine
10
53.790000000000
20
46.120000000000
30
0.0
11
54.990000000000
21
46.120000000000
31
0.0
0
LINE
5
446
100
AcDbEntity
8
F-F
6
CONTINUOUS
62
4
100
AcDbLine
10
53.790000000000
20
46.360000000000
30
0.0
11
54.990000000000
21
46.360000000000
31
0.0
0
LINE
5
447
100
AcDbEntity
8
F-F
6
CONTINUOUS
62
4
100
AcDbLine
10
53.790000000000
20
46.600000000000
30
0.0
11
54.990000000000
21
46.600000000000
31
0.0
0
LINE
5
448
100
AcDbEntity
8
F-F
6
CONTINUOUS
62
4
100
AcDbLine
10
53.790000000000
20
46.840000000000
30
0.0
11
54.990000000000
21
46.840000000000
31
0.0
0
LINE
5
449
100
AcDbEntity
8
F-F
6
CONTINUOUS
62
4
100
AcDbLine
10
53.790000000000
20
47.080000000000
30
0.0
11
54.990000000000
21
47.080000000000
31
0.0
0
LINE
5
44a
100
AcDbEntity
8
F-F
6
CONTINUOUS
62
4
100
AcDbLine
10
53.790000000000
20
47.320000000000
30
0.0
11
54.990000000000
21
47.320000000000
31
0.0
0
LINE
5
44b
100
AcDbEntity
8
F-F
6
CONTINUOUS
62
4
100
AcDbLine
10
53.790000000000
20
47.560000000000
30
0.0
11
54.990000000000
21
47.560000000000
31
0.0
0
LINE
5
44c
100
AcDbEntity
8
F-F
6
CONTINUOUS
62
4
100
AcDbLine
10
53.790000000000
20
47.800000000000
30
0.0
11
54.990000000000
21
47.800000000000
31
0.0
0
LINE
5
44d
100
AcDbEntity
8
F-F
6
CONTINUOUS
62
4
100
AcDbLine
10
53.790000000000
20
48.040000000000
30
0.0
11
54.990000000000
21
48.040000000000
31
0.0
0
LINE
5
44e
100
AcDbEntity
8
F-F
6
CONTINUOUS
62
4
100
AcDbLine
10
53.790000000000
20
48.280000000000
30
0.0
11
54.990000000000
21
48.280000000000
31
0.0
0
LINE
5
44f
100
AcDbEntity
8
F-F
6
CONTINUOUS
62
4
100
AcDbLine
10
53.790000000000
20
48.520000000000
30
0.0
11
54.990000000000
21
48.520000000000
31
0.0
0
LINE
5
450
100
AcDbEntity
8
F-F
6
CONTINUOUS
62
4
100
AcDbLine
10
53.790000000000
20
48.760000000000
30
0.0
11
54.990000000000
21
48.760000000000
31
0.0
0
LINE
5
451
100
AcDbEntity
8
F-F
6
CONTINUOUS
62
4
100
AcDbLine
10
53.790000000000
20
49.000000000000
30
0.0
11
54.990000000000
21
49.000000000000
31
0.0
0
LINE
5
452
100
AcDbEntity
8
F-F
6
CONTINUOUS
62
4
100
AcDbLine
10
53.790000000000
20
49.240000000000
30
0.0
11
54.990000000000
21
49.240000000000
31
0.0
0
LINE
5
453
100
AcDbEntity
8
F-F
6
CONTINUOUS
62
4
100
AcDbLine
10
53.790000000000
20
49.480000000000
30
0.0
11
54.990000000000
21
49.480000000000
31
0.0
0
LINE
5
454
100
AcDbEntity
8
F-F
6
CONTINUOUS
62
4
100
AcDbLine
10
53.790000000000
20
49.720000000000
30
0.0
11
54.990000000000
21
49.720000000000
31
0.0
0
LINE
5
455
100
AcDbEntity
8
F-F
6
CONTINUOUS
62
4
100
AcDbLine
10
53.790000000000
20
49.960000000000
30
0.0
11
54.990000000000
21
49.960000000000
31
0.0
0
LINE
5
456
100
AcDbEntity
8
F-F
6
CONTINUOUS
62
4
100
AcDbLine
10
53.790000000000
20
50.200000000000
30
0.0
11
54.990000000000
21
50.200000000000
31
0.0
0
LINE
5
457
100
AcDbEntity
8
F-F
6
CONTINUOUS
62
4
100
AcDbLine
10
53.790000000000
20
50.440000000000
30
0.0
11
54.990000000000
21
50.440000000000
31
0.0
0
LINE
5
458
100
AcDbEntity
8
F-F
6
CONTINUOUS
62
4
100
AcDbLine
10
53.790000000000
20
50.680000000000
30
0.0
11
54.990000000000
21
50.680000000000
31
0.0
0
LINE
5
459
100
AcDbEntity
8
F-F
6
CONTINUOUS
62
4
100
AcDbLine
10
53.790000000000
20
50.920000000000
30
0.0
11
54.990000000000
21
50.920000000000
31
0.0
0
LINE
5
45a
100
AcDbEntity
8
F-F
6
CONTINUOUS
62
4
100
AcDbLine
10
53.790000000000
20
51.160000000000
30
0.0
11
54.990000000000
21
51.160000000000
31
0.0
0
LINE
5
45b
100
AcDbEntity
8
F-F
6
CONTINUOUS
62
4
100
AcDbLine
10
53.790000000000
20
51.400000000000
30
0.0
11
54.990000000000
21
51.400000000000
31
0.0
0
LINE
5
45c
100
AcDbEntity
8
F-F
6
CONTINUOUS
62
4
100
AcDbLine
10
53.790000000000
20
51.640000000000
30
0.0
11
54.990000000000
21
51.640000000000
31
0.0
0
LINE
5
45d
100
AcDbEntity
8
F-F
6
CONTINUOUS
62
4
100
AcDbLine
10
53.790000000000
20
52.360000000000
30
0.0
11
54.990000000000
21
52.360000000000
31
0.0
0
LINE
5
45e
100
AcDbEntity
8
F-F
6
CONTINUOUS
62
4
100
AcDbLine
10
53.790000000000
20
53.080000000000
30
0.0
11
54.990000000000
21
53.080000000000
31
0.0
0
LINE
5
45f
100
AcDbEntity
8
F-F
6
CONTINUOUS
62
4
100
AcDbLine
10
53.790000000000
20
53.320000000000
30
0.0
11
54.990000000000
21
53.320000000000
31
0.0
0
LINE
5
460
100
AcDbEntity
8
F-F
6
CONTINUOUS
62
4
100
AcDbLine
10
53.790000000000
20
53.560000000000
30
0.0
11
54.990000000000
21
53.560000000000
31
0.0
0
LINE
5
461
100
AcDbEntity
8
F-F
6
CONTINUOUS
62
4
100
AcDbLine
10
53.790000000000
20
53.800000000000
30
0.0
11
54.990000000000
21
53.800000000000
31
0.0
0
LINE
5
462
100
AcDbEntity
8
F-F
6
CONTINUOUS
62
4
100
AcDbLine
10
53.790000000000
20
55.000000000000
30
0.0
11
54.990000000000
21
55.000000000000
31
0.0
0
LINE
5
463
100
AcDbEntity
8
F-F
6
CONTINUOUS
62
4
100
AcDbLine
10
53.790000000000
20
54.760000000000
30
0.0
11
54.990000000000
21
54.760000000000
31
0.0
0
LINE
5
464
100
AcDbEntity
8
F-F
6
CONTINUOUS
62
4
100
AcDbLine
10
53.790000000000
20
54.520000000000
30
0.0
11
54.990000000000
21
54.520000000000
31
0.0
0
LINE
5
465
100
AcDbEntity
8
F-F
6
CONTINUOUS
62
4
100
AcDbLine
10
53.790000000000
20
54.280000000000
30
0.0
11
54.990000000000
21
54.280000000000
31
0.0
0
LINE
5
466
100
AcDbEntity
8
F-F
6
CONTINUOUS
62
4
100
AcDbLine
10
53.790000000000
20
54.040000000000
30
0.0
11
54.990000000000
21
54.040000000000
31
0.0
0
LINE
5
467
100
AcDbEntity
8
F-F
6
CONTINUOUS
62
4
100
AcDbLine
10
53.790000000000
20
52.600000000000
30
0.0
11
54.990000000000
21
52.600000000000
31
0.0
0
LINE
5
468
100
AcDbEntity
8
F-F
6
CONTINUOUS
62
4
100
AcDbLine
10
53.790000000000
20
52.840000000000
30
0.0
11
54.990000000000
21
52.840000000000
31
0.0
0
LINE
5
469
100
AcDbEntity
8
F-F
6
CONTINUOUS
62
4
100
AcDbLine
10
53.790000000000
20
52.120000000000
30
0.0
11
54.990000000000
21
52.120000000000
31
0.0
0
LINE
5
46a
100
AcDbEntity
8
F-F
6
CONTINUOUS
62
4
100
AcDbLine
10
53.790000000000
20
51.880000000000
30
0.0
11
54.990000000000
21
51.880000000000
31
0.0
0
LINE
5
46b
100
AcDbEntity
8
F-F
6
CONTINUOUS
62
4
100
AcDbLine
10
55.400000000000
20
46.360000000000
30
0.0
11
56.250000000000
21
46.360000000000
31
0.0
0
LINE
5
46c
100
AcDbEntity
8
F-F
6
CONTINUOUS
62
4
100
AcDbLine
10
55.160000000000
20
46.120000000000
30
0.0
11
56.010000000000
21
46.120000000000
31
0.0
0
LINE
5
46d
100
AcDbEntity
8
F-F
6
CONTINUOUS
62
4
100
AcDbLine
10
53.790000000000
20
45.880000000000
30
0.0
11
55.770000000000
21
45.880000000000
31
0.0
0
LINE
5
46e
100
AcDbEntity
8
F-F
6
CONTINUOUS
62
4
100
AcDbLine
10
53.790000000000
20
45.640000000000
30
0.0
11
55.530000000000
21
45.640000000000
31
0.0
0
LINE
5
46f
100
AcDbEntity
8
F-F
6
CONTINUOUS
62
4
100
AcDbLine
10
56.840000000000
20
47.800000000000
30
0.0
11
57.690000000000
21
47.800000000000
31
0.0
0
LINE
5
470
100
AcDbEntity
8
F-F
6
CONTINUOUS
62
4
100
AcDbLine
10
56.600000000000
20
47.560000000000
30
0.0
11
57.450000000000
21
47.560000000000
31
0.0
0
LINE
5
471
100
AcDbEntity
8
F-F
6
CONTINUOUS
62
4
100
AcDbLine
10
56.360000000000
20
47.320000000000
30
0.0
11
57.210000000000
21
47.320000000000
31
0.0
0
LINE
5
472
100
AcDbEntity
8
F-F
6
CONTINUOUS
62
4
100
AcDbLine
10
56.120000000000
20
47.080000000000
30
0.0
11
56.970000000000
21
47.080000000000
31
0.0
0
LINE
5
473
100
AcDbEntity
8
F-F
6
CONTINUOUS
62
4
100
AcDbLine
10
55.880000000000
20
46.840000000000
30
0.0
11
56.730000000000
21
46.840000000000
31
0.0
0
LINE
5
474
100
AcDbEntity
8
F-F
6
CONTINUOUS
62
4
100
AcDbLine
10
55.640000000000
20
46.600000000000
30
0.0
11
56.490000000000
21
46.600000000000
31
0.0
0
LINE
5
475
100
AcDbEntity
8
F-F
6
CONTINUOUS
62
4
100
AcDbLine
10
54.990000000000
20
55.120000000000
30
0.0
11
54.990000000000
21
55.360000000000
31
0.0
0
LINE
5
476
100
AcDbEntity
8
F-F
6
CONTINUOUS
62
4
100
AcDbLine
10
64.590000000000
20
46.120000000000
30
0.0
11
65.790000000000
21
46.120000000000
31
0.0
0
LINE
5
477
100
AcDbEntity
8
F-F
6
CONTINUOUS
62
4
100
AcDbLine
10
64.590000000000
20
46.360000000000
30
0.0
11
65.790000000000
21
46.360000000000
31
0.0
0
LINE
5
478
100
AcDbEntity
8
F-F
6
CONTINUOUS
62
4
100
AcDbLine
10
64.590000000000
20
46.600000000000
30
0.0
11
65.790000000000
21
46.600000000000
31
0.0
0
LINE
5
479
100
AcDbEntity
8
F-F
6
CONTINUOUS
62
4
100
AcDbLine
10
64.590000000000
20
46.840000000000
30
0.0
11
65.790000000000
21
46.840000000000
31
0.0
0
LINE
5
47a
100
AcDbEntity
8
F-F
6
CONTINUOUS
62
4
100
AcDbLine
10
64.590000000000
20
47.080000000000
30
0.0
11
65.790000000000
21
47.080000000000
31
0.0
0
LINE
5
47b
100
AcDbEntity
8
F-F
6
CONTINUOUS
62
4
100
AcDbLine
10
64.590000000000
20
47.320000000000
30
0.0
11
65.790000000000
21
47.320000000000
31
0.0
0
LINE
5
47c
100
AcDbEntity
8
F-F
6
CONTINUOUS
62
4
100
AcDbLine
10
64.590000000000
20
47.560000000000
30
0.0
11
65.790000000000
21
47.560000000000
31
0.0
0
LINE
5
47d
100
AcDbEntity
8
F-F
6
CONTINUOUS
62
4
100
AcDbLine
10
64.590000000000
20
47.800000000000
30
0.0
11
65.790000000000
21
47.800000000000
31
0.0
0
LINE
5
47e
100
AcDbEntity
8
F-F
6
CONTINUOUS
62
4
100
AcDbLine
10
64.590000000000
20
48.040000000000
30
0.0
11
65.790000000000
21
48.040000000000
31
0.0
0
LINE
5
47f
100
AcDbEntity
8
F-F
6
CONTINUOUS
62
4
100
AcDbLine
10
64.590000000000
20
48.280000000000
30
0.0
11
65.790000000000
21
48.280000000000
31
0.0
0
LINE
5
480
100
AcDbEntity
8
F-F
6
CONTINUOUS
62
4
100
AcDbLine
10
64.590000000000
20
48.520000000000
30
0.0
11
65.790000000000
21
48.520000000000
31
0.0
0
LINE
5
481
100
AcDbEntity
8
F-F
6
CONTINUOUS
62
4
100
AcDbLine
10
64.590000000000
20
48.760000000000
30
0.0
11
65.790000000000
21
48.760000000000
31
0.0
0
LINE
5
482
100
AcDbEntity
8
F-F
6
CONTINUOUS
62
4
100
AcDbLine
10
64.590000000000
20
49.000000000000
30
0.0
11
65.790000000000
21
49.000000000000
31
0.0
0
LINE
5
483
100
AcDbEntity
8
F-F
6
CONTINUOUS
62
4
100
AcDbLine
10
64.590000000000
20
49.480000000000
30
0.0
11
65.790000000000
21
49.480000000000
31
0.0
0
LINE
5
484
100
AcDbEntity
8
F-F
6
CONTINUOUS
62
4
100
AcDbLine
10
64.590000000000
20
49.720000000000
30
0.0
11
65.790000000000
21
49.720000000000
31
0.0
0
LINE
5
485
100
AcDbEntity
8
F-F
6
CONTINUOUS
62
4
100
AcDbLine
10
64.590000000000
20
49.960000000000
30
0.0
11
65.790000000000
21
49.960000000000
31
0.0
0
LINE
5
486
100
AcDbEntity
8
F-F
6
CONTINUOUS
62
4
100
AcDbLine
10
64.590000000000
20
50.200000000000
30
0.0
11
65.790000000000
21
50.200000000000
31
0.0
0
LINE
5
487
100
AcDbEntity
8
F-F
6
CONTINUOUS
62
4
100
AcDbLine
10
64.590000000000
20
50.440000000000
30
0.0
11
65.790000000000
21
50.440000000000
31
0.0
0
LINE
5
488
100
AcDbEntity
8
F-F
6
CONTINUOUS
62
4
100
AcDbLine
10
64.590000000000
20
50.680000000000
30
0.0
11
65.790000000000
21
50.680000000000
31
0.0
0
LINE
5
489
100
AcDbEntity
8
F-F
6
CONTINUOUS
62
4
100
AcDbLine
10
64.590000000000
20
50.920000000000
30
0.0
11
65.790000000000
21
50.920000000000
31
0.0
0
LINE
5
48a
100
AcDbEntity
8
F-F
6
CONTINUOUS
62
4
100
AcDbLine
10
64.590000000000
20
51.160000000000
30
0.0
11
65.790000000000
21
51.160000000000
31
0.0
0
LINE
5
48b
100
AcDbEntity
8
F-F
6
CONTINUOUS
62
4
100
AcDbLine
10
64.590000000000
20
51.400000000000
30
0.0
11
65.790000000000
21
51.400000000000
31
0.0
0
LINE
5
48c
100
AcDbEntity
8
F-F
6
CONTINUOUS
62
4
100
AcDbLine
10
64.590000000000
20
51.640000000000
30
0.0
11
65.790000000000
21
51.640000000000
31
0.0
0
LINE
5
48d
100
AcDbEntity
8
F-F
6
CONTINUOUS
62
4
100
AcDbLine
10
64.590000000000
20
52.360000000000
30
0.0
11
65.790000000000
21
52.360000000000
31
0.0
0
LINE
5
48e
100
AcDbEntity
8
F-F
6
CONTINUOUS
62
4
100
AcDbLine
10
64.590000000000
20
53.080000000000
30
0.0
11
65.790000000000
21
53.080000000000
31
0.0
0
LINE
5
48f
100
AcDbEntity
8
F-F
6
CONTINUOUS
62
4
100
AcDbLine
10
64.590000000000
20
53.320000000000
30
0.0
11
65.790000000000
21
53.320000000000
31
0.0
0
LINE
5
490
100
AcDbEntity
8
F-F
6
CONTINUOUS
62
4
100
AcDbLine
10
64.590000000000
20
53.560000000000
30
0.0
11
65.790000000000
21
53.560000000000
31
0.0
0
LINE
5
491
100
AcDbEntity
8
F-F
6
CONTINUOUS
62
4
100
AcDbLine
10
64.590000000000
20
53.800000000000
30
0.0
11
65.790000000000
21
53.800000000000
31
0.0
0
LINE
5
492
100
AcDbEntity
8
F-F
6
CONTINUOUS
62
4
100
AcDbLine
10
64.590000000000
20
54.520000000000
30
0.0
11
65.790000000000
21
54.520000000000
31
0.0
0
LINE
5
493
100
AcDbEntity
8
F-F
6
CONTINUOUS
62
4
100
AcDbLine
10
64.590000000000
20
54.280000000000
30
0.0
11
65.790000000000
21
54.280000000000
31
0.0
0
LINE
5
494
100
AcDbEntity
8
F-F
6
CONTINUOUS
62
4
100
AcDbLine
10
64.590000000000
20
54.040000000000
30
0.0
11
65.790000000000
21
54.040000000000
31
0.0
0
LINE
5
495
100
AcDbEntity
8
F-F
6
CONTINUOUS
62
4
100
AcDbLine
10
64.590000000000
20
52.600000000000
30
0.0
11
65.790000000000
21
52.600000000000
31
0.0
0
LINE
5
496
100
AcDbEntity
8
F-F
6
CONTINUOUS
62
4
100
AcDbLine
10
64.590000000000
20
52.840000000000
30
0.0
11
65.790000000000
21
52.840000000000
31
0.0
0
LINE
5
497
100
AcDbEntity
8
F-F
6
CONTINUOUS
62
4
100
AcDbLine
10
64.590000000000
20
52.120000000000
30
0.0
11
65.790000000000
21
52.120000000000
31
0.0
0
LINE
5
498
100
AcDbEntity
8
F-F
6
CONTINUOUS
62
4
100
AcDbLine
10
64.590000000000
20
51.880000000000
30
0.0
11
65.790000000000
21
51.880000000000
31
0.0
0
LINE
5
499
100
AcDbEntity
8
F-F
6
CONTINUOUS
62
4
100
AcDbLine
10
64.590000000000
20
45.640000000000
30
0.0
11
65.790000000000
21
45.640000000000
31
0.0
0
LINE
5
49a
100
AcDbEntity
8
F-F
6
CONTINUOUS
62
4
100
AcDbLine
10
64.590000000000
20
45.880000000000
30
0.0
11
65.790000000000
21
45.880000000000
31
0.0
0
LINE
5
49b
100
AcDbEntity
8
F-F
6
CONTINUOUS
62
4
100
AcDbLine
10
64.040000000000
20
55.000000000000
30
0.0
11
65.790000000000
21
55.000000000000
31
0.0
0
LINE
5
49c
100
AcDbEntity
8
F-F
6
CONTINUOUS
62
4
100
AcDbLine
10
63.800000000000
20
54.760000000000
30
0.0
11
65.790000000000
21
54.760000000000
31
0.0
0
LINE
5
49d
100
AcDbEntity
8
F-F
6
CONTINUOUS
62
4
100
AcDbLine
10
57.800000000000
20
48.760000000000
30
0.0
11
58.650000000000
21
48.760000000000
31
0.0
0
LINE
5
49e
100
AcDbEntity
8
F-F
6
CONTINUOUS
62
4
100
AcDbLine
10
57.560000000000
20
48.520000000000
30
0.0
11
58.410000000000
21
48.520000000000
31
0.0
0
LINE
5
49f
100
AcDbEntity
8
F-F
6
CONTINUOUS
62
4
100
AcDbLine
10
57.320000000000
20
48.280000000000
30
0.0
11
58.170000000000
21
48.280000000000
31
0.0
0
LINE
5
4a0
100
AcDbEntity
8
F-F
6
CONTINUOUS
62
4
100
AcDbLine
10
57.080000000000
20
48.040000000000
30
0.0
11
57.930000000000
21
48.040000000000
31
0.0
0
LINE
5
4a1
100
AcDbEntity
8
F-F
6
CONTINUOUS
62
4
100
AcDbLine
10
58.760000000000
20
49.720000000000
30
0.0
11
59.610000000000
21
49.720000000000
31
0.0
0
LINE
5
4a2
100
AcDbEntity
8
F-F
6
CONTINUOUS
62
4
100
AcDbLine
10
58.520000000000
20
49.480000000000
30
0.0
11
59.370000000000
21
49.480000000000
31
0.0
0
LINE
5
4a3
100
AcDbEntity
8
F-F
6
CONTINUOUS
62
4
100
AcDbLine
10
58.280000000000
20
49.240000000000
30
0.0
11
59.130000000000
21
49.240000000000
31
0.0
0
LINE
5
4a4
100
AcDbEntity
8
F-F
6
CONTINUOUS
62
4
100
AcDbLine
10
58.040000000000
20
49.000000000000
30
0.0
11
58.890000000000
21
49.000000000000
31
0.0
0
LINE
5
4a5
100
AcDbEntity
8
F-F
6
CONTINUOUS
62
4
100
AcDbLine
10
59.720000000000
20
50.680000000000
30
0.0
11
60.570000000000
21
50.680000000000
31
0.0
0
LINE
5
4a6
100
AcDbEntity
8
F-F
6
CONTINUOUS
62
4
100
AcDbLine
10
59.480000000000
20
50.440000000000
30
0.0
11
60.330000000000
21
50.440000000000
31
0.0
0
LINE
5
4a7
100
AcDbEntity
8
F-F
6
CONTINUOUS
62
4
100
AcDbLine
10
59.240000000000
20
50.200000000000
30
0.0
11
60.090000000000
21
50.200000000000
31
0.0
0
LINE
5
4a8
100
AcDbEntity
8
F-F
6
CONTINUOUS
62
4
100
AcDbLine
10
59.000000000000
20
49.960000000000
30
0.0
11
59.850000000000
21
49.960000000000
31
0.0
0
LINE
5
4a9
100
AcDbEntity
8
F-F
6
CONTINUOUS
62
4
100
AcDbLine
10
60.680000000000
20
51.640000000000
30
0.0
11
61.530000000000
21
51.640000000000
31
0.0
0
LINE
5
4aa
100
AcDbEntity
8
F-F
6
CONTINUOUS
62
4
100
AcDbLine
10
60.440000000000
20
51.400000000000
30
0.0
11
61.290000000000
21
51.400000000000
31
0.0
0
LINE
5
4ab
100
AcDbEntity
8
F-F
6
CONTINUOUS
62
4
100
AcDbLine
10
60.200000000000
20
51.160000000000
30
0.0
11
61.050000000000
21
51.160000000000
31
0.0
0
LINE
5
4ac
100
AcDbEntity
8
F-F
6
CONTINUOUS
62
4
100
AcDbLine
10
59.960000000000
20
50.920000000000
30
0.0
11
60.810000000000
21
50.920000000000
31
0.0
0
LINE
5
4ad
100
AcDbEntity
8
F-F
6
CONTINUOUS
62
4
100
AcDbLine
10
61.640000000000
20
52.600000000000
30
0.0
11
62.490000000000
21
52.600000000000
31
0.0
0
LINE
5
4ae
100
AcDbEntity
8
F-F
6
CONTINUOUS
62
4
100
AcDbLine
10
61.400000000000
20
52.360000000000
30
0.0
11
62.250000000000
21
52.360000000000
31
0.0
0
LINE
5
4af
100
AcDbEntity
8
F-F
6
CONTINUOUS
62
4
100
AcDbLine
10
61.160000000000
20
52.120000000000
30
0.0
11
62.010000000000
21
52.120000000000
31
0.0
0
LINE
5
4b0
100
AcDbEntity
8
F-F
6
CONTINUOUS
62
4
100
AcDbLine
10
60.920000000000
20
51.880000000000
30
0.0
11
61.770000000000
21
51.880000000000
31
0.0
0
LINE
5
4b1
100
AcDbEntity
8
F-F
6
CONTINUOUS
62
4
100
AcDbLine
10
62.600000000000
20
53.560000000000
30
0.0
11
63.450000000000
21
53.560000000000
31
0.0
0
LINE
5
4b2
100
AcDbEntity
8
F-F
6
CONTINUOUS
62
4
100
AcDbLine
10
62.360000000000
20
53.320000000000
30
0.0
11
63.210000000000
21
53.320000000000
31
0.0
0
LINE
5
4b3
100
AcDbEntity
8
F-F
6
CONTINUOUS
62
4
100
AcDbLine
10
62.120000000000
20
53.080000000000
30
0.0
11
62.970000000000
21
53.080000000000
31
0.0
0
LINE
5
4b4
100
AcDbEntity
8
F-F
6
CONTINUOUS
62
4
100
AcDbLine
10
61.880000000000
20
52.840000000000
30
0.0
11
62.730000000000
21
52.840000000000
31
0.0
0
LINE
5
4b5
100
AcDbEntity
8
F-F
6
CONTINUOUS
62
4
100
AcDbLine
10
63.560000000000
20
54.520000000000
30
0.0
11
64.410000000000
21
54.520000000000
31
0.0
0
LINE
5
4b6
100
AcDbEntity
8
F-F
6
CONTINUOUS
62
4
100
AcDbLine
10
63.320000000000
20
54.280000000000
30
0.0
11
64.170000000000
21
54.280000000000
31
0.0
0
LINE
5
4b7
100
AcDbEntity
8
F-F
6
CONTINUOUS
62
4
100
AcDbLine
10
63.080000000000
20
54.040000000000
30
0.0
11
63.930000000000
21
54.040000000000
31
0.0
0
LINE
5
4b8
100
AcDbEntity
8
F-F
6
CONTINUOUS
62
4
100
AcDbLine
10
62.840000000000
20
53.800000000000
30
0.0
11
63.690000000000
21
53.800000000000
31
0.0
0
LINE
5
4b9
100
AcDbEntity
8
F-F
6
CONTINUOUS
62
4
100
AcDbLine
10
64.590000000000
20
49.240000000000
30
0.0
11
65.790000000000
21
49.240000000000
31
0.0
0
LINE
5
4ba
100
AcDbEntity
8
0-202
6
CONTINUOUS
62
4
100
AcDbLine
10
559.200000000000
20
364.610000000000
30
0.0
11
559.200000000000
21
325.010000000000
31
0.0
0
POLYLINE
5
4bb
100
AcDbEntity
8
0-202
6
CONTINUOUS
62
  4
100
AcDb2dPolyline
66
1
10
0.0
20
0.0
30
0.0
70
0
0
VERTEX
5
4bc
100
AcDbEntity
8
0-202
6
CONTINUOUS
62
  4
100
AcDbVertex
100
AcDb2dVertex
10
600.160000000000
20
313.390000000000
30
0.0
0
VERTEX
5
4bd
100
AcDbEntity
8
0-202
6
CONTINUOUS
62
  4
100
AcDbVertex
100
AcDb2dVertex
10
600.930000000000
20
314.310000000000
30
0.0
0
VERTEX
5
4be
100
AcDbEntity
8
0-202
6
CONTINUOUS
62
  4
100
AcDbVertex
100
AcDb2dVertex
10
593.270000000000
20
320.730000000000
30
0.0
0
SEQEND
5
4bf
100
AcDbEntity
8
0-202
0
LINE
5
4c0
100
AcDbEntity
8
0-202
6
CONTINUOUS
62
4
100
AcDbLine
10
563.200000000000
20
321.010000000000
30
0.0
11
592.500000000000
21
321.010000000000
31
0.0
0
LINE
5
4c1
100
AcDbEntity
8
0-202
6
CONTINUOUS
62
4
100
AcDbLine
10
545.400000000000
20
365.810000000000
30
0.0
11
558.000000000000
21
365.810000000000
31
0.0
0
LINE
5
4c2
100
AcDbEntity
8
0-202
6
CONTINUOUS
62
4
100
AcDbLine
10
585.000000000000
20
321.010000000000
30
0.0
11
582.430000000000
21
322.840000000000
31
0.0
0
LINE
5
4c3
100
AcDbEntity
8
0-202
6
CONTINUOUS
62
4
100
AcDbLine
10
563.420000000000
20
323.610000000000
30
0.0
11
580.000000000000
21
323.610000000000
31
0.0
0
LINE
5
4c4
100
AcDbEntity
8
0-202
6
CONTINUOUS
62
4
100
AcDbLine
10
559.200000000000
20
335.810000000000
30
0.0
11
561.460000000000
21
325.200000000000
31
0.0
0
LINE
5
4c5
100
AcDbEntity
8
0-202
6
CONTINUOUS
62
4
100
AcDbLine
10
1014.200000000000
20
364.610000000000
30
0.0
11
1014.200000000000
21
325.010000000000
31
0.0
0
POLYLINE
5
4c6
100
AcDbEntity
8
0-202
6
CONTINUOUS
62
  4
100
AcDb2dPolyline
66
1
10
0.0
20
0.0
30
0.0
70
0
0
VERTEX
5
4c7
100
AcDbEntity
8
0-202
6
CONTINUOUS
62
  4
100
AcDbVertex
100
AcDb2dVertex
10
1055.160000000000
20
313.390000000000
30
0.0
0
VERTEX
5
4c8
100
AcDbEntity
8
0-202
6
CONTINUOUS
62
  4
100
AcDbVertex
100
AcDb2dVertex
10
1055.930000000000
20
314.310000000000
30
0.0
0
VERTEX
5
4c9
100
AcDbEntity
8
0-202
6
CONTINUOUS
62
  4
100
AcDbVertex
100
AcDb2dVertex
10
1048.270000000000
20
320.730000000000
30
0.0
0
SEQEND
5
4ca
100
AcDbEntity
8
0-202
0
LINE
5
4cb
100
AcDbEntity
8
0-202
6
CONTINUOUS
62
4
100
AcDbLine
10
1013.000000000000
20
364.610000000000
30
0.0
11
1013.000000000000
21
339.790000000000
31
0.0
0
LINE
5
4cc
100
AcDbEntity
8
0-202
6
CONTINUOUS
62
4
100
AcDbLine
10
1014.200000000000
20
335.810000000000
30
0.0
11
1016.460000000000
21
325.200000000000
31
0.0
0
LINE
5
4cd
100
AcDbEntity
8
0-202
6
CONTINUOUS
62
4
100
AcDbLine
10
1018.420000000000
20
323.610000000000
30
0.0
11
1035.000000000000
21
323.610000000000
31
0.0
0
LINE
5
4ce
100
AcDbEntity
8
0-202
6
CONTINUOUS
62
4
100
AcDbLine
10
1040.000000000000
20
321.010000000000
30
0.0
11
1037.430000000000
21
322.840000000000
31
0.0
0
LINE
5
4cf
100
AcDbEntity
8
0-202
6
CONTINUOUS
62
3
100
AcDbLine
10
582.110000000000
20
323.310000000000
30
0.0
11
582.110000000000
21
330.410000000000
31
0.0
0
LINE
5
4d0
100
AcDbEntity
8
0-202
6
CONTINUOUS
62
3
100
AcDbLine
10
572.290000000000
20
323.610000000000
30
0.0
11
572.290000000000
21
330.410000000000
31
0.0
0
LINE
5
4d1
100
AcDbEntity
8
0-202
6
CONTINUOUS
62
3
100
AcDbLine
10
533.950000000000
20
342.950000000000
30
0.0
11
553.580000000000
21
343.980000000000
31
0.0
0
LINE
5
4d2
100
AcDbEntity
8
0-202
6
CONTINUOUS
62
4
100
AcDbLine
10
558.000000000000
20
364.610000000000
30
0.0
11
558.000000000000
21
339.790000000000
31
0.0
0
LINE
5
4d3
100
AcDbEntity
8
0-202
6
CONTINUOUS
62
3
100
AcDbLine
10
555.200000000000
20
334.800000000000
30
0.0
11
555.200000000000
21
318.700000000000
31
0.0
0
LINE
5
4d4
100
AcDbEntity
8
0-202
6
CONTINUOUS
62
3
100
AcDbLine
10
559.400000000000
20
319.810000000000
30
0.0
11
592.500000000000
21
319.810000000000
31
0.0
0
LINE
5
4d5
100
AcDbEntity
8
0-202
6
CONTINUOUS
62
3
100
AcDbLine
10
585.450000000000
20
331.310000000000
30
0.0
11
568.950000000000
21
331.310000000000
31
0.0
0
LINE
5
4d6
100
AcDbEntity
8
0-202
6
CONTINUOUS
62
3
100
AcDbLine
10
567.380000000000
20
323.610000000000
30
0.0
11
567.380000000000
21
330.410000000000
31
0.0
0
LINE
5
4d7
100
AcDbEntity
8
0-202
6
CONTINUOUS
62
3
100
AcDbLine
10
655.580000000000
20
247.970000000000
30
0.0
11
617.570000000000
21
298.350000000000
31
0.0
0
LINE
5
4d8
100
AcDbEntity
8
0-202
6
CONTINUOUS
62
3
100
AcDbLine
10
1070.580000000000
20
300.440000000000
30
0.0
11
1047.500000000000
21
319.810000000000
31
0.0
0
LINE
5
4d9
100
AcDbEntity
8
0-202
6
CONTINUOUS
62
3
100
AcDbLine
10
648.870000000000
20
247.970000000000
30
0.0
11
606.340000000000
21
304.340000000000
31
0.0
0
LINE
5
4da
100
AcDbEntity
8
0-202
6
CONTINUOUS
62
3
100
AcDbLine
10
921.040000000000
20
244.610000000000
30
0.0
11
805.950000000000
21
244.610000000000
31
0.0
0
LINE
5
4db
100
AcDbEntity
8
0-202
6
CONTINUOUS
62
3
100
AcDbLine
10
647.100000000000
20
246.280000000000
30
0.0
11
604.380000000000
21
302.910000000000
31
0.0
0
LINE
5
4dc
100
AcDbEntity
8
0-202
6
CONTINUOUS
62
3
100
AcDbLine
10
615.580000000000
20
300.440000000000
30
0.0
11
592.500000000000
21
319.810000000000
31
0.0
0
LINE
5
4dd
100
AcDbEntity
8
0-202
6
CONTINUOUS
62
3
100
AcDbLine
10
604.380000000000
20
302.910000000000
30
0.0
11
590.960000000000
21
314.180000000000
31
0.0
0
LINE
5
4de
100
AcDbEntity
8
0-202
6
CONTINUOUS
62
3
100
AcDbLine
10
605.910000000000
20
304.790000000000
30
0.0
11
592.620000000000
21
315.940000000000
31
0.0
0
LINE
5
4df
100
AcDbEntity
8
0-202
6
CONTINUOUS
62
3
100
AcDbLine
10
587.010000000000
20
323.310000000000
30
0.0
11
587.010000000000
21
330.410000000000
31
0.0
0
LINE
5
4e0
100
AcDbEntity
8
0-202
6
CONTINUOUS
62
3
100
AcDbLine
10
553.730000000000
20
336.200000000000
30
0.0
11
536.680000000000
21
335.300000000000
31
0.0
0
LINE
5
4e1
100
AcDbEntity
8
0-202
6
CONTINUOUS
62
3
100
AcDbLine
10
553.580000000000
20
338.620000000000
30
0.0
11
536.730000000000
21
337.730000000000
31
0.0
0
LINE
5
4e2
100
AcDbEntity
8
0-202
6
CONTINUOUS
62
3
100
AcDbLine
10
559.400000000000
20
316.930000000000
30
0.0
11
589.920000000000
21
316.930000000000
31
0.0
0
LINE
5
4e3
100
AcDbEntity
8
0-202
6
CONTINUOUS
62
3
100
AcDbLine
10
559.400000000000
20
314.500000000000
30
0.0
11
590.060000000000
21
314.500000000000
31
0.0
0
LINE
5
4e4
100
AcDbEntity
8
0-202
6
CONTINUOUS
62
3
100
AcDbLine
10
988.950000000000
20
342.950000000000
30
0.0
11
1008.580000000000
21
343.980000000000
31
0.0
0
LINE
5
4e5
100
AcDbEntity
8
0-202
6
CONTINUOUS
62
3
100
AcDbLine
10
915.420000000000
20
247.970000000000
30
0.0
11
985.820000000000
21
341.290000000000
31
0.0
0
LINE
5
4e6
100
AcDbEntity
8
0-202
6
CONTINUOUS
62
3
100
AcDbLine
10
1010.200000000000
20
334.800000000000
30
0.0
11
1010.200000000000
21
318.700000000000
31
0.0
0
LINE
5
4e7
100
AcDbEntity
8
0-202
6
CONTINUOUS
62
3
100
AcDbLine
10
1014.400000000000
20
319.810000000000
30
0.0
11
1047.500000000000
21
319.810000000000
31
0.0
0
LINE
5
4e8
100
AcDbEntity
8
0-202
6
CONTINUOUS
62
3
100
AcDbLine
10
567.380000000000
20
330.410000000000
30
0.0
11
568.950000000000
21
331.310000000000
31
0.0
0
LINE
5
4e9
100
AcDbEntity
8
0-202
6
CONTINUOUS
62
3
100
AcDbLine
10
923.900000000000
20
246.280000000000
30
0.0
11
990.640000000000
21
334.750000000000
31
0.0
0
LINE
5
4ea
100
AcDbEntity
8
0-202
6
CONTINUOUS
62
3
100
AcDbLine
10
922.130000000000
20
247.970000000000
30
0.0
11
988.590000000000
21
336.070000000000
31
0.0
0
LINE
5
4eb
100
AcDbEntity
8
0-202
6
CONTINUOUS
62
3
100
AcDbLine
10
587.530000000000
20
321.020000000000
30
0.0
11
587.700000000000
21
322.810000000000
31
0.0
0
LINE
5
4ec
100
AcDbEntity
8
0-202
6
CONTINUOUS
62
3
100
AcDbLine
10
1059.380000000000
20
302.910000000000
30
0.0
11
1045.960000000000
21
314.180000000000
31
0.0
0
LINE
5
4ed
100
AcDbEntity
8
0-202
6
CONTINUOUS
62
3
100
AcDbLine
10
1060.910000000000
20
304.790000000000
30
0.0
11
1047.620000000000
21
315.940000000000
31
0.0
0
LINE
5
4ee
100
AcDbEntity
8
0-202
6
CONTINUOUS
62
3
100
AcDbLine
10
587.010000000000
20
323.310000000000
30
0.0
11
581.560000000000
21
323.310000000000
31
0.0
0
LINE
5
4ef
100
AcDbEntity
8
0-202
6
CONTINUOUS
62
3
100
AcDbLine
10
1008.730000000000
20
336.200000000000
30
0.0
11
991.680000000000
21
335.300000000000
31
0.0
0
LINE
5
4f0
100
AcDbEntity
8
0-202
6
CONTINUOUS
62
3
100
AcDbLine
10
1008.580000000000
20
338.620000000000
30
0.0
11
991.730000000000
21
337.730000000000
31
0.0
0
LINE
5
4f1
100
AcDbEntity
8
0-202
6
CONTINUOUS
62
3
100
AcDbLine
10
1014.400000000000
20
316.930000000000
30
0.0
11
1044.920000000000
21
316.930000000000
31
0.0
0
LINE
5
4f2
100
AcDbEntity
8
0-202
6
CONTINUOUS
62
3
100
AcDbLine
10
1014.400000000000
20
314.500000000000
30
0.0
11
1045.060000000000
21
314.500000000000
31
0.0
0
LINE
5
4f3
100
AcDbEntity
8
0-202
6
CONTINUOUS
62
3
100
AcDbLine
10
582.200000000000
20
336.260000000000
30
0.0
11
582.200000000000
21
331.310000000000
31
0.0
0
LINE
5
4f4
100
AcDbEntity
8
0-202
6
CONTINUOUS
62
3
100
AcDbLine
10
1022.380000000000
20
330.410000000000
30
0.0
11
1023.950000000000
21
331.310000000000
31
0.0
0
LINE
5
4f5
100
AcDbEntity
8
0-202
6
CONTINUOUS
62
3
100
AcDbLine
10
581.450000000000
20
337.010000000000
30
0.0
11
581.450000000000
21
331.310000000000
31
0.0
0
LINE
5
4f6
100
AcDbEntity
8
0-202
6
CONTINUOUS
62
3
100
AcDbLine
10
1042.010000000000
20
323.310000000000
30
0.0
11
1042.010000000000
21
330.410000000000
31
0.0
0
LINE
5
4f7
100
AcDbEntity
8
0-202
6
CONTINUOUS
62
3
100
AcDbLine
10
1040.450000000000
20
331.310000000000
30
0.0
11
1023.950000000000
21
331.310000000000
31
0.0
0
LINE
5
4f8
100
AcDbEntity
8
0-202
6
CONTINUOUS
62
3
100
AcDbLine
10
581.450000000000
20
337.010000000000
30
0.0
11
582.200000000000
21
336.260000000000
31
0.0
0
LINE
5
4f9
100
AcDbEntity
8
0-202
6
CONTINUOUS
62
3
100
AcDbLine
10
572.950000000000
20
337.010000000000
30
0.0
11
572.950000000000
21
331.310000000000
31
0.0
0
LINE
5
4fa
100
AcDbEntity
8
0-202
6
CONTINUOUS
62
3
100
AcDbLine
10
572.200000000000
20
336.260000000000
30
0.0
11
572.950000000000
21
337.010000000000
31
0.0
0
LINE
5
4fb
100
AcDbEntity
8
0-202
6
CONTINUOUS
62
3
100
AcDbLine
10
1027.290000000000
20
323.610000000000
30
0.0
11
1027.290000000000
21
330.410000000000
31
0.0
0
LINE
5
4fc
100
AcDbEntity
8
0-202
6
CONTINUOUS
62
3
100
AcDbLine
10
572.200000000000
20
336.260000000000
30
0.0
11
582.200000000000
21
336.260000000000
31
0.0
0
LINE
5
4fd
100
AcDbEntity
8
0-202
6
CONTINUOUS
62
3
100
AcDbLine
10
587.700000000000
20
322.810000000000
30
0.0
11
582.620000000000
21
323.310000000000
31
0.0
0
LINE
5
4fe
100
AcDbEntity
8
0-202
6
CONTINUOUS
62
3
100
AcDbLine
10
587.010000000000
20
330.410000000000
30
0.0
11
585.450000000000
21
331.310000000000
31
0.0
0
LINE
5
4ff
100
AcDbEntity
8
0-202
6
CONTINUOUS
62
3
100
AcDbLine
10
1042.530000000000
20
321.020000000000
30
0.0
11
1042.700000000000
21
322.810000000000
31
0.0
0
LINE
5
500
100
AcDbEntity
8
0-202
6
CONTINUOUS
62
3
100
AcDbLine
10
568.200000000000
20
313.510000000000
30
0.0
11
586.200000000000
21
313.510000000000
31
0.0
0
LINE
5
501
100
AcDbEntity
8
0-202
6
CONTINUOUS
62
3
100
AcDbLine
10
1022.380000000000
20
323.610000000000
30
0.0
11
1022.380000000000
21
330.410000000000
31
0.0
0
LINE
5
502
100
AcDbEntity
8
0-202
6
CONTINUOUS
62
3
100
AcDbLine
10
572.200000000000
20
336.260000000000
30
0.0
11
572.200000000000
21
331.310000000000
31
0.0
0
LINE
5
503
100
AcDbEntity
8
0-202
6
CONTINUOUS
62
3
100
AcDbLine
10
572.950000000000
20
337.010000000000
30
0.0
11
581.450000000000
21
337.010000000000
31
0.0
0
LINE
5
504
100
AcDbEntity
8
0-202
6
CONTINUOUS
62
3
100
AcDbLine
10
1037.110000000000
20
323.310000000000
30
0.0
11
1037.110000000000
21
330.410000000000
31
0.0
0
LINE
5
505
100
AcDbEntity
8
0-202
6
CONTINUOUS
62
3
100
AcDbLine
10
1042.010000000000
20
323.310000000000
30
0.0
11
1036.560000000000
21
323.310000000000
31
0.0
0
LINE
5
506
100
AcDbEntity
8
0-202
6
CONTINUOUS
62
3
100
AcDbLine
10
1037.200000000000
20
336.260000000000
30
0.0
11
1037.200000000000
21
331.310000000000
31
0.0
0
LINE
5
507
100
AcDbEntity
8
0-202
6
CONTINUOUS
62
3
100
AcDbLine
10
1036.450000000000
20
337.010000000000
30
0.0
11
1036.450000000000
21
331.310000000000
31
0.0
0
LINE
5
508
100
AcDbEntity
8
0-202
6
CONTINUOUS
62
3
100
AcDbLine
10
1036.450000000000
20
337.010000000000
30
0.0
11
1037.200000000000
21
336.260000000000
31
0.0
0
LINE
5
509
100
AcDbEntity
8
0-202
6
CONTINUOUS
62
3
100
AcDbLine
10
1027.950000000000
20
337.010000000000
30
0.0
11
1027.950000000000
21
331.310000000000
31
0.0
0
LINE
5
50a
100
AcDbEntity
8
0-202
6
CONTINUOUS
62
3
100
AcDbLine
10
1027.200000000000
20
336.260000000000
30
0.0
11
1027.950000000000
21
337.010000000000
31
0.0
0
LINE
5
50b
100
AcDbEntity
8
0-202
6
CONTINUOUS
62
3
100
AcDbLine
10
1027.200000000000
20
336.260000000000
30
0.0
11
1037.200000000000
21
336.260000000000
31
0.0
0
LINE
5
50c
100
AcDbEntity
8
0-202
6
CONTINUOUS
62
3
100
AcDbLine
10
1042.700000000000
20
322.810000000000
30
0.0
11
1037.620000000000
21
323.310000000000
31
0.0
0
LINE
5
50d
100
AcDbEntity
8
0-202
6
CONTINUOUS
62
3
100
AcDbLine
10
1042.010000000000
20
330.410000000000
30
0.0
11
1040.450000000000
21
331.310000000000
31
0.0
0
LINE
5
50e
100
AcDbEntity
8
0-202
6
CONTINUOUS
62
3
100
AcDbLine
10
1023.200000000000
20
313.510000000000
30
0.0
11
1041.200000000000
21
313.510000000000
31
0.0
0
LINE
5
50f
100
AcDbEntity
8
0-202
6
CONTINUOUS
62
3
100
AcDbLine
10
1027.200000000000
20
336.260000000000
30
0.0
11
1027.200000000000
21
331.310000000000
31
0.0
0
LINE
5
510
100
AcDbEntity
8
0-202
6
CONTINUOUS
62
3
100
AcDbLine
10
1027.950000000000
20
337.010000000000
30
0.0
11
1036.450000000000
21
337.010000000000
31
0.0
0
LINE
5
511
100
AcDbEntity
8
0-202
6
CONTINUOUS
62
4
100
AcDbLine
10
1018.200000000000
20
321.010000000000
30
0.0
11
1047.500000000000
21
321.010000000000
31
0.0
0
LINE
5
512
100
AcDbEntity
8
0-202
6
CONTINUOUS
62
3
100
AcDbLine
10
1013.000000000000
20
339.790000000000
30
0.0
11
1013.000000000000
21
318.330000000000
31
0.0
0
LINE
5
513
100
AcDbEntity
8
0-202
6
CONTINUOUS
62
3
100
AcDbLine
10
558.000000000000
20
339.790000000000
30
0.0
11
558.000000000000
21
318.330000000000
31
0.0
0
POLYLINE
5
514
100
AcDbEntity
8
0-202
6
CONTINUOUS
62
  4
100
AcDb2dPolyline
66
1
10
0.0
20
0.0
30
0.0
70
0
0
VERTEX
5
515
100
AcDbEntity
8
0-202
6
CONTINUOUS
62
  4
100
AcDbVertex
100
AcDb2dVertex
10
552.420000000000
20
359.940000000000
30
0.0
0
VERTEX
5
516
100
AcDbEntity
8
0-202
6
CONTINUOUS
62
  4
100
AcDbVertex
100
AcDb2dVertex
10
551.740000000000
20
358.950000000000
30
0.0
0
VERTEX
5
517
100
AcDbEntity
8
0-202
6
CONTINUOUS
62
  4
100
AcDbVertex
100
AcDb2dVertex
10
544.430000000000
20
363.840000000000
30
0.0
0
SEQEND
5
518
100
AcDbEntity
8
0-202
0
LINE
5
519
100
AcDbEntity
8
0-202
6
CONTINUOUS
62
7
100
AcDbLine
10
560.500000000000
20
347.450000000000
30
0.0
11
560.500000000000
21
365.510000000000
31
0.0
0
LINE
5
51a
100
AcDbEntity
8
0-202
6
CONTINUOUS
62
7
100
AcDbLine
10
559.500000000000
20
365.510000000000
30
0.0
11
559.500000000000
21
347.450000000000
31
0.0
0
LINE
5
51b
100
AcDbEntity
8
0-202
6
CONTINUOUS
62
7
100
AcDbLine
10
589.520000000000
20
343.580000000000
30
0.0
11
561.370000000000
21
345.450000000000
31
0.0
0
LINE
5
51c
100
AcDbEntity
8
0-202
6
CONTINUOUS
62
7
100
AcDbLine
10
590.250000000000
20
343.180000000000
30
0.0
11
656.830000000000
21
255.410000000000
31
0.0
0
LINE
5
51d
100
AcDbEntity
8
0-202
6
CONTINUOUS
62
7
100
AcDbLine
10
561.430000000000
20
346.450000000000
30
0.0
11
589.590000000000
21
344.570000000000
31
0.0
0
LINE
5
51e
100
AcDbEntity
8
0-202
6
CONTINUOUS
62
7
100
AcDbLine
10
657.620000000000
20
256.010000000000
30
0.0
11
591.050000000000
21
343.790000000000
31
0.0
0
LINE
5
51f
100
AcDbEntity
8
0-202
6
CONTINUOUS
62
7
100
AcDbLine
10
546.980000000000
20
364.600000000000
30
0.0
11
546.940000000000
21
363.600000000000
31
0.0
0
LINE
5
520
100
AcDbEntity
8
0-202
6
CONTINUOUS
62
7
100
AcDbLine
10
556.500000000000
20
347.450000000000
30
0.0
11
556.500000000000
21
362.310000000000
31
0.0
0
LINE
5
521
100
AcDbEntity
8
0-202
6
CONTINUOUS
62
7
100
AcDbLine
10
557.500000000000
20
362.310000000000
30
0.0
11
557.500000000000
21
347.450000000000
31
0.0
0
LINE
5
522
100
AcDbEntity
8
0-202
6
CONTINUOUS
62
7
100
AcDbLine
10
530.440000000000
20
343.770000000000
30
0.0
11
555.630000000000
21
345.450000000000
31
0.0
0
LINE
5
523
100
AcDbEntity
8
0-202
6
CONTINUOUS
62
7
100
AcDbLine
10
555.570000000000
20
346.450000000000
30
0.0
11
530.380000000000
21
344.770000000000
31
0.0
0
LINE
5
524
100
AcDbEntity
8
0-202
6
CONTINUOUS
62
7
100
AcDbLine
10
1015.500000000000
20
347.450000000000
30
0.0
11
1015.500000000000
21
365.510000000000
31
0.0
0
LINE
5
525
100
AcDbEntity
8
0-202
6
CONTINUOUS
62
7
100
AcDbLine
10
1014.500000000000
20
365.510000000000
30
0.0
11
1014.500000000000
21
347.450000000000
31
0.0
0
LINE
5
526
100
AcDbEntity
8
0-202
6
CONTINUOUS
62
7
100
AcDbLine
10
1044.520000000000
20
343.580000000000
30
0.0
11
1016.370000000000
21
345.450000000000
31
0.0
0
LINE
5
527
100
AcDbEntity
8
0-202
6
CONTINUOUS
62
7
100
AcDbLine
10
1016.430000000000
20
346.450000000000
30
0.0
11
1044.590000000000
21
344.570000000000
31
0.0
0
LINE
5
528
100
AcDbEntity
8
0-202
6
CONTINUOUS
62
7
100
AcDbLine
10
1011.500000000000
20
347.450000000000
30
0.0
11
1011.500000000000
21
362.310000000000
31
0.0
0
LINE
5
529
100
AcDbEntity
8
0-202
6
CONTINUOUS
62
7
100
AcDbLine
10
1012.500000000000
20
362.310000000000
30
0.0
11
1012.500000000000
21
347.450000000000
31
0.0
0
LINE
5
52a
100
AcDbEntity
8
0-202
6
CONTINUOUS
62
7
100
AcDbLine
10
985.440000000000
20
343.770000000000
30
0.0
11
1010.630000000000
21
345.450000000000
31
0.0
0
LINE
5
52b
100
AcDbEntity
8
0-202
6
CONTINUOUS
62
7
100
AcDbLine
10
984.730000000000
20
343.400000000000
30
0.0
11
914.080000000000
21
255.360000000000
31
0.0
0
LINE
5
52c
100
AcDbEntity
8
0-202
6
CONTINUOUS
62
7
100
AcDbLine
10
1010.570000000000
20
346.450000000000
30
0.0
11
985.380000000000
21
344.770000000000
31
0.0
0
LINE
5
52d
100
AcDbEntity
8
0-202
6
CONTINUOUS
62
7
100
AcDbLine
10
913.300000000000
20
255.990000000000
30
0.0
11
983.950000000000
21
344.030000000000
31
0.0
0
LINE
5
52e
100
AcDbEntity
8
0-202
6
CONTINUOUS
62
4
100
AcDbLine
10
948.930000000000
20
244.610000000000
30
0.0
11
948.930000000000
21
254.610000000000
31
0.0
0
LINE
5
52f
100
AcDbEntity
8
0-202
6
CONTINUOUS
62
4
100
AcDbLine
10
690.280000000000
20
254.610000000000
30
0.0
11
690.280000000000
21
344.510000000000
31
0.0
0
LINE
5
530
100
AcDbEntity
8
0-202
6
CONTINUOUS
62
4
100
AcDbLine
10
665.280000000000
20
367.510000000000
30
0.0
11
690.280000000000
21
367.510000000000
31
0.0
0
LINE
5
531
100
AcDbEntity
8
0-202
6
CONTINUOUS
62
4
100
AcDbLine
10
665.280000000000
20
344.510000000000
30
0.0
11
690.280000000000
21
344.510000000000
31
0.0
0
LINE
5
532
100
AcDbEntity
8
0-202
6
CONTINUOUS
62
4
100
AcDbLine
10
949.060000000000
20
292.570000000000
30
0.0
11
917.200000000000
21
252.860000000000
31
0.0
0
LINE
5
533
100
AcDbEntity
8
0-202
6
CONTINUOUS
62
4
100
AcDbLine
10
1068.520000000000
20
305.890000000000
30
0.0
11
1071.370000000000
21
308.740000000000
31
0.0
0
LINE
5
534
100
AcDbEntity
8
0-202
6
CONTINUOUS
62
4
100
AcDbLine
10
1065.470000000000
20
309.910000000000
30
0.0
11
1068.320000000000
21
312.770000000000
31
0.0
0
LINE
5
535
100
AcDbEntity
8
0-202
6
CONTINUOUS
62
4
100
AcDbLine
10
1062.420000000000
20
313.930000000000
30
0.0
11
1065.270000000000
21
316.790000000000
31
0.0
0
LINE
5
536
100
AcDbEntity
8
0-202
6
CONTINUOUS
62
4
100
AcDbLine
10
1059.370000000000
20
317.950000000000
30
0.0
11
1062.220000000000
21
320.810000000000
31
0.0
0
LINE
5
537
100
AcDbEntity
8
0-202
6
CONTINUOUS
62
4
100
AcDbLine
10
1056.320000000000
20
321.970000000000
30
0.0
11
1059.170000000000
21
324.830000000000
31
0.0
0
LINE
5
538
100
AcDbEntity
8
0-202
6
CONTINUOUS
62
4
100
AcDbLine
10
1053.270000000000
20
326.000000000000
30
0.0
11
1056.120000000000
21
328.850000000000
31
0.0
0
LINE
5
539
100
AcDbEntity
8
0-202
6
CONTINUOUS
62
4
100
AcDbLine
10
1050.220000000000
20
330.020000000000
30
0.0
11
1053.070000000000
21
332.870000000000
31
0.0
0
LINE
5
53a
100
AcDbEntity
8
0-202
6
CONTINUOUS
62
4
100
AcDbLine
10
1047.170000000000
20
334.040000000000
30
0.0
11
1050.020000000000
21
336.890000000000
31
0.0
0
LINE
5
53b
100
AcDbEntity
8
0-202
6
CONTINUOUS
62
4
100
AcDbLine
10
1044.120000000000
20
338.060000000000
30
0.0
11
1046.970000000000
21
340.910000000000
31
0.0
0
LINE
5
53c
100
AcDbEntity
8
0-202
6
CONTINUOUS
62
4
100
AcDbLine
10
1038.930000000000
20
339.940000000000
30
0.0
11
1042.690000000000
21
343.700000000000
31
0.0
0
LINE
5
53d
100
AcDbEntity
8
0-202
6
CONTINUOUS
62
4
100
AcDbLine
10
1032.300000000000
20
340.380000000000
30
0.0
11
1036.060000000000
21
344.140000000000
31
0.0
0
LINE
5
53e
100
AcDbEntity
8
0-202
6
CONTINUOUS
62
4
100
AcDbLine
10
1025.670000000000
20
340.820000000000
30
0.0
11
1029.430000000000
21
344.580000000000
31
0.0
0
LINE
5
53f
100
AcDbEntity
8
0-202
6
CONTINUOUS
62
4
100
AcDbLine
10
1019.040000000000
20
341.270000000000
30
0.0
11
1022.800000000000
21
345.030000000000
31
0.0
0
LINE
5
540
100
AcDbEntity
8
0-202
6
CONTINUOUS
62
4
100
AcDbLine
10
1021.520000000000
20
345.110000000000
30
0.0
11
1025.820000000000
21
340.820000000000
31
0.0
0
LINE
5
541
100
AcDbEntity
8
0-202
6
CONTINUOUS
62
4
100
AcDbLine
10
1029.100000000000
20
344.610000000000
30
0.0
11
1033.400000000000
21
340.310000000000
31
0.0
0
LINE
5
542
100
AcDbEntity
8
0-202
6
CONTINUOUS
62
4
100
AcDbLine
10
1036.680000000000
20
344.100000000000
30
0.0
11
1040.970000000000
21
339.800000000000
31
0.0
0
LINE
5
543
100
AcDbEntity
8
0-202
6
CONTINUOUS
62
4
100
AcDbLine
10
1048.520000000000
20
332.250000000000
30
0.0
11
1069.300000000000
21
311.470000000000
31
0.0
0
LINE
5
544
100
AcDbEntity
8
0-202
6
CONTINUOUS
62
4
100
AcDbLine
10
1044.250000000000
20
343.590000000000
30
0.0
11
1047.100000000000
21
340.740000000000
31
0.0
0
LINE
5
545
100
AcDbEntity
8
0-202
6
CONTINUOUS
62
4
100
AcDbLine
10
587.890000000000
20
339.680000000000
30
0.0
11
653.640000000000
21
252.990000000000
31
0.0
0
LINE
5
546
100
AcDbEntity
8
0-202
6
CONTINUOUS
62
4
100
AcDbLine
10
555.630000000000
20
345.450000000000
30
0.0
11
555.760000000000
21
343.500000000000
31
0.0
0
LINE
5
547
100
AcDbEntity
8
0-202
6
CONTINUOUS
62
4
100
AcDbLine
10
699.660000000000
20
250.610000000000
30
0.0
11
703.660000000000
21
254.610000000000
31
0.0
0
LINE
5
548
100
AcDbEntity
8
0-202
6
CONTINUOUS
62
4
100
AcDbLine
10
692.590000000000
20
250.610000000000
30
0.0
11
696.590000000000
21
254.610000000000
31
0.0
0
LINE
5
549
100
AcDbEntity
8
0-202
6
CONTINUOUS
62
4
100
AcDbLine
10
685.520000000000
20
250.610000000000
30
0.0
11
689.520000000000
21
254.610000000000
31
0.0
0
LINE
5
54a
100
AcDbEntity
8
0-202
6
CONTINUOUS
62
4
100
AcDbLine
10
678.450000000000
20
250.610000000000
30
0.0
11
682.450000000000
21
254.610000000000
31
0.0
0
LINE
5
54b
100
AcDbEntity
8
0-202
6
CONTINUOUS
62
4
100
AcDbLine
10
671.380000000000
20
250.610000000000
30
0.0
11
675.380000000000
21
254.610000000000
31
0.0
0
LINE
5
54c
100
AcDbEntity
8
0-202
6
CONTINUOUS
62
4
100
AcDbLine
10
664.310000000000
20
250.610000000000
30
0.0
11
668.310000000000
21
254.610000000000
31
0.0
0
LINE
5
54d
100
AcDbEntity
8
0-202
6
CONTINUOUS
62
4
100
AcDbLine
10
657.340000000000
20
250.710000000000
30
0.0
11
661.240000000000
21
254.610000000000
31
0.0
0
LINE
5
54e
100
AcDbEntity
8
0-202
6
CONTINUOUS
62
4
100
AcDbLine
10
653.170000000000
20
253.610000000000
30
0.0
11
656.020000000000
21
256.470000000000
31
0.0
0
LINE
5
54f
100
AcDbEntity
8
0-202
6
CONTINUOUS
62
4
100
AcDbLine
10
650.120000000000
20
257.630000000000
30
0.0
11
652.970000000000
21
260.490000000000
31
0.0
0
LINE
5
550
100
AcDbEntity
8
0-202
6
CONTINUOUS
62
4
100
AcDbLine
10
647.070000000000
20
261.660000000000
30
0.0
11
649.920000000000
21
264.510000000000
31
0.0
0
LINE
5
551
100
AcDbEntity
8
0-202
6
CONTINUOUS
62
4
100
AcDbLine
10
644.020000000000
20
265.680000000000
30
0.0
11
646.870000000000
21
268.530000000000
31
0.0
0
LINE
5
552
100
AcDbEntity
8
0-202
6
CONTINUOUS
62
4
100
AcDbLine
10
640.970000000000
20
269.700000000000
30
0.0
11
643.820000000000
21
272.550000000000
31
0.0
0
LINE
5
553
100
AcDbEntity
8
0-202
6
CONTINUOUS
62
4
100
AcDbLine
10
637.920000000000
20
273.720000000000
30
0.0
11
640.770000000000
21
276.570000000000
31
0.0
0
LINE
5
554
100
AcDbEntity
8
0-202
6
CONTINUOUS
62
4
100
AcDbLine
10
634.870000000000
20
277.740000000000
30
0.0
11
637.720000000000
21
280.600000000000
31
0.0
0
LINE
5
555
100
AcDbEntity
8
0-202
6
CONTINUOUS
62
4
100
AcDbLine
10
631.820000000000
20
281.760000000000
30
0.0
11
634.670000000000
21
284.620000000000
31
0.0
0
LINE
5
556
100
AcDbEntity
8
0-202
6
CONTINUOUS
62
4
100
AcDbLine
10
628.770000000000
20
285.780000000000
30
0.0
11
631.620000000000
21
288.640000000000
31
0.0
0
LINE
5
557
100
AcDbEntity
8
0-202
6
CONTINUOUS
62
4
100
AcDbLine
10
625.720000000000
20
289.800000000000
30
0.0
11
628.570000000000
21
292.660000000000
31
0.0
0
LINE
5
558
100
AcDbEntity
8
0-202
6
CONTINUOUS
62
4
100
AcDbLine
10
622.670000000000
20
293.830000000000
30
0.0
11
625.520000000000
21
296.680000000000
31
0.0
0
LINE
5
559
100
AcDbEntity
8
0-202
6
CONTINUOUS
62
4
100
AcDbLine
10
619.620000000000
20
297.850000000000
30
0.0
11
622.470000000000
21
300.700000000000
31
0.0
0
LINE
5
55a
100
AcDbEntity
8
0-202
6
CONTINUOUS
62
4
100
AcDbLine
10
616.570000000000
20
301.870000000000
30
0.0
11
619.420000000000
21
304.720000000000
31
0.0
0
LINE
5
55b
100
AcDbEntity
8
0-202
6
CONTINUOUS
62
4
100
AcDbLine
10
613.520000000000
20
305.890000000000
30
0.0
11
616.370000000000
21
308.740000000000
31
0.0
0
LINE
5
55c
100
AcDbEntity
8
0-202
6
CONTINUOUS
62
4
100
AcDbLine
10
610.470000000000
20
309.910000000000
30
0.0
11
613.320000000000
21
312.770000000000
31
0.0
0
LINE
5
55d
100
AcDbEntity
8
0-202
6
CONTINUOUS
62
4
100
AcDbLine
10
607.420000000000
20
313.930000000000
30
0.0
11
610.270000000000
21
316.790000000000
31
0.0
0
LINE
5
55e
100
AcDbEntity
8
0-202
6
CONTINUOUS
62
4
100
AcDbLine
10
604.370000000000
20
317.950000000000
30
0.0
11
607.220000000000
21
320.810000000000
31
0.0
0
LINE
5
55f
100
AcDbEntity
8
0-202
6
CONTINUOUS
62
4
100
AcDbLine
10
601.320000000000
20
321.970000000000
30
0.0
11
604.170000000000
21
324.830000000000
31
0.0
0
LINE
5
560
100
AcDbEntity
8
0-202
6
CONTINUOUS
62
4
100
AcDbLine
10
598.270000000000
20
326.000000000000
30
0.0
11
601.120000000000
21
328.850000000000
31
0.0
0
LINE
5
561
100
AcDbEntity
8
0-202
6
CONTINUOUS
62
4
100
AcDbLine
10
595.220000000000
20
330.020000000000
30
0.0
11
598.070000000000
21
332.870000000000
31
0.0
0
LINE
5
562
100
AcDbEntity
8
0-202
6
CONTINUOUS
62
4
100
AcDbLine
10
592.170000000000
20
334.040000000000
30
0.0
11
595.020000000000
21
336.890000000000
31
0.0
0
LINE
5
563
100
AcDbEntity
8
0-202
6
CONTINUOUS
62
4
100
AcDbLine
10
589.120000000000
20
338.060000000000
30
0.0
11
591.970000000000
21
340.910000000000
31
0.0
0
LINE
5
564
100
AcDbEntity
8
0-202
6
CONTINUOUS
62
4
100
AcDbLine
10
583.930000000000
20
339.940000000000
30
0.0
11
587.690000000000
21
343.700000000000
31
0.0
0
LINE
5
565
100
AcDbEntity
8
0-202
6
CONTINUOUS
62
4
100
AcDbLine
10
577.300000000000
20
340.380000000000
30
0.0
11
581.060000000000
21
344.140000000000
31
0.0
0
LINE
5
566
100
AcDbEntity
8
0-202
6
CONTINUOUS
62
4
100
AcDbLine
10
570.670000000000
20
340.820000000000
30
0.0
11
574.430000000000
21
344.580000000000
31
0.0
0
LINE
5
567
100
AcDbEntity
8
0-202
6
CONTINUOUS
62
4
100
AcDbLine
10
564.040000000000
20
341.270000000000
30
0.0
11
567.800000000000
21
345.030000000000
31
0.0
0
LINE
5
568
100
AcDbEntity
8
0-202
6
CONTINUOUS
62
4
100
AcDbLine
10
566.520000000000
20
345.110000000000
30
0.0
11
570.820000000000
21
340.820000000000
31
0.0
0
LINE
5
569
100
AcDbEntity
8
0-202
6
CONTINUOUS
62
4
100
AcDbLine
10
637.920000000000
20
273.710000000000
30
0.0
11
661.020000000000
21
250.610000000000
31
0.0
0
LINE
5
56a
100
AcDbEntity
8
0-202
6
CONTINUOUS
62
4
100
AcDbLine
10
574.100000000000
20
344.610000000000
30
0.0
11
578.390000000000
21
340.310000000000
31
0.0
0
LINE
5
56b
100
AcDbEntity
8
0-202
6
CONTINUOUS
62
4
100
AcDbLine
10
615.720000000000
20
302.980000000000
30
0.0
11
636.500000000000
21
282.200000000000
31
0.0
0
LINE
5
56c
100
AcDbEntity
8
0-202
6
CONTINUOUS
62
4
100
AcDbLine
10
664.090000000000
20
254.610000000000
30
0.0
11
668.090000000000
21
250.610000000000
31
0.0
0
LINE
5
56d
100
AcDbEntity
8
0-202
6
CONTINUOUS
62
4
100
AcDbLine
10
581.680000000000
20
344.100000000000
30
0.0
11
585.970000000000
21
339.800000000000
31
0.0
0
LINE
5
56e
100
AcDbEntity
8
0-202
6
CONTINUOUS
62
4
100
AcDbLine
10
593.520000000000
20
332.250000000000
30
0.0
11
614.300000000000
21
311.470000000000
31
0.0
0
LINE
5
56f
100
AcDbEntity
8
0-202
6
CONTINUOUS
62
4
100
AcDbLine
10
671.160000000000
20
254.610000000000
30
0.0
11
675.160000000000
21
250.610000000000
31
0.0
0
LINE
5
570
100
AcDbEntity
8
0-202
6
CONTINUOUS
62
4
100
AcDbLine
10
589.250000000000
20
343.590000000000
30
0.0
11
592.100000000000
21
340.740000000000
31
0.0
0
LINE
5
571
100
AcDbEntity
8
0-202
6
CONTINUOUS
62
4
100
AcDbLine
10
678.230000000000
20
254.610000000000
30
0.0
11
682.230000000000
21
250.610000000000
31
0.0
0
LINE
5
572
100
AcDbEntity
8
0-202
6
CONTINUOUS
62
4
100
AcDbLine
10
685.300000000000
20
254.610000000000
30
0.0
11
689.300000000000
21
250.610000000000
31
0.0
0
LINE
5
573
100
AcDbEntity
8
0-202
6
CONTINUOUS
62
4
100
AcDbLine
10
692.380000000000
20
254.610000000000
30
0.0
11
696.380000000000
21
250.610000000000
31
0.0
0
LINE
5
574
100
AcDbEntity
8
0-202
6
CONTINUOUS
62
4
100
AcDbLine
10
699.450000000000
20
254.610000000000
30
0.0
11
703.450000000000
21
250.610000000000
31
0.0
0
LINE
5
575
100
AcDbEntity
8
0-202
6
CONTINUOUS
62
4
100
AcDbLine
10
866.030000000000
20
254.610000000000
30
0.0
11
870.030000000000
21
250.610000000000
31
0.0
0
LINE
5
576
100
AcDbEntity
8
0-202
6
CONTINUOUS
62
4
100
AcDbLine
10
871.600000000000
20
254.610000000000
30
0.0
11
875.600000000000
21
250.610000000000
31
0.0
0
LINE
5
577
100
AcDbEntity
8
0-202
6
CONTINUOUS
62
4
100
AcDbLine
10
878.670000000000
20
254.610000000000
30
0.0
11
882.670000000000
21
250.610000000000
31
0.0
0
LINE
5
578
100
AcDbEntity
8
0-202
6
CONTINUOUS
62
4
100
AcDbLine
10
885.750000000000
20
254.610000000000
30
0.0
11
889.750000000000
21
250.610000000000
31
0.0
0
LINE
5
579
100
AcDbEntity
8
0-202
6
CONTINUOUS
62
4
100
AcDbLine
10
892.820000000000
20
254.610000000000
30
0.0
11
896.820000000000
21
250.610000000000
31
0.0
0
LINE
5
57a
100
AcDbEntity
8
0-202
6
CONTINUOUS
62
4
100
AcDbLine
10
899.890000000000
20
254.610000000000
30
0.0
11
903.890000000000
21
250.610000000000
31
0.0
0
LINE
5
57b
100
AcDbEntity
8
0-202
6
CONTINUOUS
62
4
100
AcDbLine
10
906.960000000000
20
254.610000000000
30
0.0
11
910.960000000000
21
250.610000000000
31
0.0
0
LINE
5
57c
100
AcDbEntity
8
0-202
6
CONTINUOUS
62
4
100
AcDbLine
10
913.670000000000
20
254.980000000000
30
0.0
11
916.510000000000
21
252.130000000000
31
0.0
0
LINE
5
57d
100
AcDbEntity
8
0-202
6
CONTINUOUS
62
4
100
AcDbLine
10
916.870000000000
20
258.840000000000
30
0.0
11
919.720000000000
21
256.000000000000
31
0.0
0
LINE
5
57e
100
AcDbEntity
8
0-202
6
CONTINUOUS
62
4
100
AcDbLine
10
920.020000000000
20
262.770000000000
30
0.0
11
922.870000000000
21
259.920000000000
31
0.0
0
LINE
5
57f
100
AcDbEntity
8
0-202
6
CONTINUOUS
62
4
100
AcDbLine
10
923.170000000000
20
266.690000000000
30
0.0
11
926.010000000000
21
263.840000000000
31
0.0
0
LINE
5
580
100
AcDbEntity
8
0-202
6
CONTINUOUS
62
4
100
AcDbLine
10
926.320000000000
20
270.610000000000
30
0.0
11
929.160000000000
21
267.770000000000
31
0.0
0
LINE
5
581
100
AcDbEntity
8
0-202
6
CONTINUOUS
62
4
100
AcDbLine
10
929.460000000000
20
274.530000000000
30
0.0
11
932.310000000000
21
271.690000000000
31
0.0
0
LINE
5
582
100
AcDbEntity
8
0-202
6
CONTINUOUS
62
4
100
AcDbLine
10
932.610000000000
20
278.460000000000
30
0.0
11
935.460000000000
21
275.610000000000
31
0.0
0
LINE
5
583
100
AcDbEntity
8
0-202
6
CONTINUOUS
62
4
100
AcDbLine
10
935.760000000000
20
282.380000000000
30
0.0
11
938.610000000000
21
279.540000000000
31
0.0
0
LINE
5
584
100
AcDbEntity
8
0-202
6
CONTINUOUS
62
4
100
AcDbLine
10
938.910000000000
20
286.300000000000
30
0.0
11
941.750000000000
21
283.460000000000
31
0.0
0
LINE
5
585
100
AcDbEntity
8
0-202
6
CONTINUOUS
62
4
100
AcDbLine
10
942.060000000000
20
290.230000000000
30
0.0
11
944.900000000000
21
287.380000000000
31
0.0
0
LINE
5
586
100
AcDbEntity
8
0-202
6
CONTINUOUS
62
4
100
AcDbLine
10
945.210000000000
20
294.150000000000
30
0.0
11
948.050000000000
21
291.300000000000
31
0.0
0
LINE
5
587
100
AcDbEntity
8
0-202
6
CONTINUOUS
62
4
100
AcDbLine
10
948.350000000000
20
298.070000000000
30
0.0
11
951.130000000000
21
295.300000000000
31
0.0
0
LINE
5
588
100
AcDbEntity
8
0-202
6
CONTINUOUS
62
4
100
AcDbLine
10
951.500000000000
20
302.000000000000
30
0.0
11
954.170000000000
21
299.330000000000
31
0.0
0
LINE
5
589
100
AcDbEntity
8
0-202
6
CONTINUOUS
62
4
100
AcDbLine
10
954.650000000000
20
305.920000000000
30
0.0
11
957.210000000000
21
303.360000000000
31
0.0
0
LINE
5
58a
100
AcDbEntity
8
0-202
6
CONTINUOUS
62
4
100
AcDbLine
10
957.800000000000
20
309.840000000000
30
0.0
11
960.250000000000
21
307.390000000000
31
0.0
0
LINE
5
58b
100
AcDbEntity
8
0-202
6
CONTINUOUS
62
4
100
AcDbLine
10
960.950000000000
20
313.770000000000
30
0.0
11
963.290000000000
21
311.420000000000
31
0.0
0
LINE
5
58c
100
AcDbEntity
8
0-202
6
CONTINUOUS
62
4
100
AcDbLine
10
964.090000000000
20
317.690000000000
30
0.0
11
966.330000000000
21
315.450000000000
31
0.0
0
LINE
5
58d
100
AcDbEntity
8
0-202
6
CONTINUOUS
62
4
100
AcDbLine
10
967.240000000000
20
321.610000000000
30
0.0
11
969.370000000000
21
319.480000000000
31
0.0
0
LINE
5
58e
100
AcDbEntity
8
0-202
6
CONTINUOUS
62
4
100
AcDbLine
10
970.390000000000
20
325.530000000000
30
0.0
11
972.410000000000
21
323.510000000000
31
0.0
0
LINE
5
58f
100
AcDbEntity
8
0-202
6
CONTINUOUS
62
4
100
AcDbLine
10
973.540000000000
20
329.460000000000
30
0.0
11
975.450000000000
21
327.540000000000
31
0.0
0
LINE
5
590
100
AcDbEntity
8
0-202
6
CONTINUOUS
62
4
100
AcDbLine
10
976.690000000000
20
333.380000000000
30
0.0
11
978.490000000000
21
331.570000000000
31
0.0
0
LINE
5
591
100
AcDbEntity
8
0-202
6
CONTINUOUS
62
4
100
AcDbLine
10
979.830000000000
20
337.300000000000
30
0.0
11
981.530000000000
21
335.610000000000
31
0.0
0
LINE
5
592
100
AcDbEntity
8
0-202
6
CONTINUOUS
62
4
100
AcDbLine
10
982.980000000000
20
341.230000000000
30
0.0
11
984.570000000000
21
339.640000000000
31
0.0
0
LINE
5
593
100
AcDbEntity
8
0-202
6
CONTINUOUS
62
4
100
AcDbLine
10
987.380000000000
20
343.900000000000
30
0.0
11
988.390000000000
21
342.890000000000
31
0.0
0
LINE
5
594
100
AcDbEntity
8
0-202
6
CONTINUOUS
62
4
100
AcDbLine
10
994.000000000000
20
344.350000000000
30
0.0
11
995.080000000000
21
343.270000000000
31
0.0
0
LINE
5
595
100
AcDbEntity
8
0-202
6
CONTINUOUS
62
4
100
AcDbLine
10
1000.630000000000
20
344.790000000000
30
0.0
11
1001.790000000000
21
343.630000000000
31
0.0
0
LINE
5
596
100
AcDbEntity
8
0-202
6
CONTINUOUS
62
4
100
AcDbLine
10
1007.260000000000
20
345.230000000000
30
0.0
11
1008.510000000000
21
343.980000000000
31
0.0
0
LINE
5
597
100
AcDbEntity
8
0-202
6
CONTINUOUS
62
4
100
AcDbLine
10
914.630000000000
20
251.000000000000
30
0.0
11
920.070000000000
21
256.440000000000
31
0.0
0
LINE
5
598
100
AcDbEntity
8
0-202
6
CONTINUOUS
62
4
100
AcDbLine
10
1007.560000000000
20
343.930000000000
30
0.0
11
1008.980000000000
21
345.340000000000
31
0.0
0
LINE
5
599
100
AcDbEntity
8
0-202
6
CONTINUOUS
62
4
100
AcDbLine
10
907.180000000000
20
250.610000000000
30
0.0
11
911.180000000000
21
254.610000000000
31
0.0
0
LINE
5
59a
100
AcDbEntity
8
0-202
6
CONTINUOUS
62
4
100
AcDbLine
10
922.830000000000
20
266.270000000000
30
0.0
11
948.800000000000
21
292.230000000000
31
0.0
0
LINE
5
59b
100
AcDbEntity
8
0-202
6
CONTINUOUS
62
4
100
AcDbLine
10
1000.100000000000
20
343.540000000000
30
0.0
11
1001.400000000000
21
344.840000000000
31
0.0
0
LINE
5
59c
100
AcDbEntity
8
0-202
6
CONTINUOUS
62
4
100
AcDbLine
10
900.110000000000
20
250.610000000000
30
0.0
11
904.110000000000
21
254.610000000000
31
0.0
0
LINE
5
59d
100
AcDbEntity
8
0-202
6
CONTINUOUS
62
4
100
AcDbLine
10
951.560000000000
20
302.070000000000
30
0.0
11
970.580000000000
21
321.090000000000
31
0.0
0
LINE
5
59e
100
AcDbEntity
8
0-202
6
CONTINUOUS
62
4
100
AcDbLine
10
992.640000000000
20
343.150000000000
30
0.0
11
993.820000000000
21
344.330000000000
31
0.0
0
LINE
5
59f
100
AcDbEntity
8
0-202
6
CONTINUOUS
62
4
100
AcDbLine
10
893.030000000000
20
250.610000000000
30
0.0
11
897.030000000000
21
254.610000000000
31
0.0
0
LINE
5
5a0
100
AcDbEntity
8
0-202
6
CONTINUOUS
62
4
100
AcDbLine
10
980.280000000000
20
337.860000000000
30
0.0
11
986.250000000000
21
343.830000000000
31
0.0
0
LINE
5
5a1
100
AcDbEntity
8
0-202
6
CONTINUOUS
62
4
100
AcDbLine
10
885.960000000000
20
250.610000000000
30
0.0
11
889.960000000000
21
254.610000000000
31
0.0
0
LINE
5
5a2
100
AcDbEntity
8
0-202
6
CONTINUOUS
62
4
100
AcDbLine
10
878.890000000000
20
250.610000000000
30
0.0
11
882.890000000000
21
254.610000000000
31
0.0
0
LINE
5
5a3
100
AcDbEntity
8
0-202
6
CONTINUOUS
62
4
100
AcDbLine
10
871.820000000000
20
250.610000000000
30
0.0
11
875.820000000000
21
254.610000000000
31
0.0
0
LINE
5
5a4
100
AcDbEntity
8
0-202
6
CONTINUOUS
62
4
100
AcDbLine
10
866.250000000000
20
250.610000000000
30
0.0
11
870.250000000000
21
254.610000000000
31
0.0
0
LINE
5
5a5
100
AcDbEntity
8
0-202
6
CONTINUOUS
62
4
100
AcDbLine
10
499.650000000000
20
305.920000000000
30
0.0
11
502.210000000000
21
303.360000000000
31
0.0
0
LINE
5
5a6
100
AcDbEntity
8
0-202
6
CONTINUOUS
62
4
100
AcDbLine
10
502.800000000000
20
309.840000000000
30
0.0
11
505.250000000000
21
307.390000000000
31
0.0
0
LINE
5
5a7
100
AcDbEntity
8
0-202
6
CONTINUOUS
62
4
100
AcDbLine
10
505.950000000000
20
313.770000000000
30
0.0
11
508.290000000000
21
311.420000000000
31
0.0
0
LINE
5
5a8
100
AcDbEntity
8
0-202
6
CONTINUOUS
62
4
100
AcDbLine
10
509.090000000000
20
317.690000000000
30
0.0
11
511.330000000000
21
315.450000000000
31
0.0
0
LINE
5
5a9
100
AcDbEntity
8
0-202
6
CONTINUOUS
62
4
100
AcDbLine
10
512.240000000000
20
321.610000000000
30
0.0
11
514.370000000000
21
319.480000000000
31
0.0
0
LINE
5
5aa
100
AcDbEntity
8
0-202
6
CONTINUOUS
62
4
100
AcDbLine
10
515.390000000000
20
325.530000000000
30
0.0
11
517.410000000000
21
323.510000000000
31
0.0
0
LINE
5
5ab
100
AcDbEntity
8
0-202
6
CONTINUOUS
62
4
100
AcDbLine
10
518.540000000000
20
329.460000000000
30
0.0
11
520.450000000000
21
327.540000000000
31
0.0
0
LINE
5
5ac
100
AcDbEntity
8
0-202
6
CONTINUOUS
62
4
100
AcDbLine
10
521.690000000000
20
333.380000000000
30
0.0
11
523.490000000000
21
331.570000000000
31
0.0
0
LINE
5
5ad
100
AcDbEntity
8
0-202
6
CONTINUOUS
62
4
100
AcDbLine
10
524.830000000000
20
337.300000000000
30
0.0
11
526.530000000000
21
335.610000000000
31
0.0
0
LINE
5
5ae
100
AcDbEntity
8
0-202
6
CONTINUOUS
62
4
100
AcDbLine
10
527.980000000000
20
341.230000000000
30
0.0
11
529.570000000000
21
339.640000000000
31
0.0
0
LINE
5
5af
100
AcDbEntity
8
0-202
6
CONTINUOUS
62
4
100
AcDbLine
10
532.380000000000
20
343.900000000000
30
0.0
11
533.390000000000
21
342.890000000000
31
0.0
0
LINE
5
5b0
100
AcDbEntity
8
0-202
6
CONTINUOUS
62
4
100
AcDbLine
10
539.000000000000
20
344.350000000000
30
0.0
11
540.080000000000
21
343.270000000000
31
0.0
0
LINE
5
5b1
100
AcDbEntity
8
0-202
6
CONTINUOUS
62
4
100
AcDbLine
10
545.630000000000
20
344.790000000000
30
0.0
11
546.790000000000
21
343.630000000000
31
0.0
0
LINE
5
5b2
100
AcDbEntity
8
0-202
6
CONTINUOUS
62
4
100
AcDbLine
10
552.260000000000
20
345.230000000000
30
0.0
11
553.510000000000
21
343.980000000000
31
0.0
0
LINE
5
5b3
100
AcDbEntity
8
0-202
6
CONTINUOUS
62
4
100
AcDbLine
10
552.560000000000
20
343.930000000000
30
0.0
11
553.980000000000
21
345.340000000000
31
0.0
0
LINE
5
5b4
100
AcDbEntity
8
0-202
6
CONTINUOUS
62
4
100
AcDbLine
10
545.100000000000
20
343.540000000000
30
0.0
11
546.400000000000
21
344.840000000000
31
0.0
0
LINE
5
5b5
100
AcDbEntity
8
0-202
6
CONTINUOUS
62
4
100
AcDbLine
10
537.640000000000
20
343.150000000000
30
0.0
11
538.820000000000
21
344.330000000000
31
0.0
0
LINE
5
5b6
100
AcDbEntity
8
0-202
6
CONTINUOUS
62
4
100
AcDbLine
10
525.280000000000
20
337.860000000000
30
0.0
11
531.250000000000
21
343.830000000000
31
0.0
0
LINE
5
5b7
100
AcDbEntity
8
0-202
6
CONTINUOUS
62
4
100
AcDbLine
10
587.890000000000
20
339.680000000000
30
0.0
11
559.200000000000
21
341.590000000000
31
0.0
0
LINE
5
5b8
100
AcDbEntity
8
0-202
6
CONTINUOUS
62
4
100
AcDbLine
10
559.200000000000
20
345.360000000000
30
0.0
11
563.240000000000
21
341.320000000000
31
0.0
0
LINE
5
5b9
100
AcDbEntity
8
0-202
6
CONTINUOUS
62
4
100
AcDbLine
10
1042.890000000000
20
339.680000000000
30
0.0
11
1014.200000000000
21
341.590000000000
31
0.0
0
LINE
5
5ba
100
AcDbEntity
8
0-202
6
CONTINUOUS
62
4
100
AcDbLine
10
1014.200000000000
20
345.360000000000
30
0.0
11
1018.240000000000
21
341.320000000000
31
0.0
0
LINE
5
5bb
100
AcDbEntity
8
0-101
6
CONTINUOUS
62
3
100
AcDbLine
10
226.360000000000
20
236.610000000000
30
0.0
11
226.360000000000
21
305.910000000000
31
0.0
0
LINE
5
5bc
100
AcDbEntity
8
0-101
6
CONTINUOUS
62
3
100
AcDbLine
10
242.110000000000
20
329.010000000000
30
0.0
11
242.110000000000
21
323.310000000000
31
0.0
0
LINE
5
5bd
100
AcDbEntity
8
0-101
6
CONTINUOUS
62
3
100
AcDbLine
10
232.360000000000
20
239.410000000000
30
0.0
11
226.360000000000
21
239.410000000000
31
0.0
0
LINE
5
5be
100
AcDbEntity
8
0-101
6
CONTINUOUS
62
3
100
AcDbLine
10
266.360000000000
20
236.610000000000
30
0.0
11
266.360000000000
21
305.910000000000
31
0.0
0
LINE
5
5bf
100
AcDbEntity
8
0-101
6
CONTINUOUS
62
3
100
AcDbLine
10
257.360000000000
20
240.810000000000
30
0.0
11
235.360000000000
21
240.810000000000
31
0.0
0
LINE
5
5c0
100
AcDbEntity
8
0-101
6
CONTINUOUS
62
3
100
AcDbLine
10
257.360000000000
20
238.010000000000
30
0.0
11
235.360000000000
21
238.010000000000
31
0.0
0
LINE
5
5c1
100
AcDbEntity
8
0-101
6
CONTINUOUS
62
3
100
AcDbLine
10
232.360000000000
20
236.610000000000
30
0.0
11
226.360000000000
21
236.610000000000
31
0.0
0
LINE
5
5c2
100
AcDbEntity
8
0-101
6
CONTINUOUS
62
3
100
AcDbLine
10
260.360000000000
20
239.410000000000
30
0.0
11
266.360000000000
21
239.410000000000
31
0.0
0
LINE
5
5c3
100
AcDbEntity
8
0-101
6
CONTINUOUS
62
3
100
AcDbLine
10
233.870000000000
20
237.060000000000
30
0.0
11
235.360000000000
21
238.010000000000
31
0.0
0
LINE
5
5c4
100
AcDbEntity
8
0-101
6
CONTINUOUS
62
3
100
AcDbLine
10
258.840000000000
20
237.060000000000
30
0.0
11
257.360000000000
21
238.010000000000
31
0.0
0
LINE
5
5c5
100
AcDbEntity
8
0-101
6
CONTINUOUS
62
3
100
AcDbLine
10
232.360000000000
20
239.410000000000
30
0.0
11
233.840000000000
21
240.370000000000
31
0.0
0
LINE
5
5c6
100
AcDbEntity
8
0-101
6
CONTINUOUS
62
3
100
AcDbLine
10
260.360000000000
20
239.410000000000
30
0.0
11
258.870000000000
21
240.370000000000
31
0.0
0
LINE
5
5c7
100
AcDbEntity
8
0-101
6
CONTINUOUS
62
3
100
AcDbLine
10
242.110000000000
20
329.010000000000
30
0.0
11
250.610000000000
21
329.010000000000
31
0.0
0
LINE
5
5c8
100
AcDbEntity
8
0-101
6
CONTINUOUS
62
3
100
AcDbLine
10
241.360000000000
20
328.260000000000
30
0.0
11
241.360000000000
21
323.310000000000
31
0.0
0
LINE
5
5c9
100
AcDbEntity
8
0-101
6
CONTINUOUS
62
3
100
AcDbLine
10
260.360000000000
20
236.610000000000
30
0.0
11
266.360000000000
21
236.610000000000
31
0.0
0
LINE
5
5ca
100
AcDbEntity
8
0-101
6
CONTINUOUS
62
3
100
AcDbLine
10
246.360000000000
20
315.310000000000
30
0.0
11
246.360000000000
21
322.410000000000
31
0.0
0
LINE
5
5cb
100
AcDbEntity
8
0-101
6
CONTINUOUS
62
3
100
AcDbLine
10
254.610000000000
20
323.310000000000
30
0.0
11
238.110000000000
21
323.310000000000
31
0.0
0
LINE
5
5cc
100
AcDbEntity
8
0-101
6
CONTINUOUS
62
3
100
AcDbLine
10
251.360000000000
20
328.260000000000
30
0.0
11
251.360000000000
21
323.310000000000
31
0.0
0
LINE
5
5cd
100
AcDbEntity
8
0-101
6
CONTINUOUS
62
3
100
AcDbLine
10
254.860000000000
20
323.170000000000
30
0.0
11
254.610000000000
21
323.310000000000
31
0.0
0
LINE
5
5ce
100
AcDbEntity
8
0-101
6
CONTINUOUS
62
3
100
AcDbLine
10
237.860000000000
20
323.170000000000
30
0.0
11
238.110000000000
21
323.310000000000
31
0.0
0
LINE
5
5cf
100
AcDbEntity
8
0-101
6
CONTINUOUS
62
3
100
AcDbLine
10
254.860000000000
20
315.310000000000
30
0.0
11
254.860000000000
21
323.170000000000
31
0.0
0
LINE
5
5d0
100
AcDbEntity
8
0-101
6
CONTINUOUS
62
3
100
AcDbLine
10
237.860000000000
20
315.310000000000
30
0.0
11
237.860000000000
21
323.170000000000
31
0.0
0
LINE
5
5d1
100
AcDbEntity
8
0-101
6
CONTINUOUS
62
3
100
AcDbLine
10
254.860000000000
20
315.310000000000
30
0.0
11
237.860000000000
21
315.310000000000
31
0.0
0
LINE
5
5d2
100
AcDbEntity
8
0-101
6
CONTINUOUS
62
3
100
AcDbLine
10
250.610000000000
20
329.010000000000
30
0.0
11
250.610000000000
21
323.310000000000
31
0.0
0
LINE
5
5d3
100
AcDbEntity
8
0-101
6
CONTINUOUS
62
3
100
AcDbLine
10
250.610000000000
20
329.010000000000
30
0.0
11
251.360000000000
21
328.260000000000
31
0.0
0
LINE
5
5d4
100
AcDbEntity
8
0-101
6
CONTINUOUS
62
3
100
AcDbLine
10
231.360000000000
20
294.290000000000
30
0.0
11
231.360000000000
21
305.390000000000
31
0.0
0
LINE
5
5d5
100
AcDbEntity
8
0-101
6
CONTINUOUS
62
3
100
AcDbLine
10
261.360000000000
20
294.290000000000
30
0.0
11
261.360000000000
21
305.390000000000
31
0.0
0
LINE
5
5d6
100
AcDbEntity
8
0-101
6
CONTINUOUS
62
4
100
AcDbLine
10
214.470000000000
20
311.810000000000
30
0.0
11
171.360000000000
21
355.610000000000
31
0.0
0
LINE
5
5d7
100
AcDbEntity
8
0-101
6
CONTINUOUS
62
4
100
AcDbLine
10
278.010000000000
20
356.810000000000
30
0.0
11
171.360000000000
21
356.810000000000
31
0.0
0
LINE
5
5d8
100
AcDbEntity
8
0-101
6
CONTINUOUS
62
4
100
AcDbLine
10
257.860000000000
20
313.010000000000
30
0.0
11
260.450000000000
21
324.680000000000
31
0.0
0
LINE
5
5d9
100
AcDbEntity
8
0-101
6
CONTINUOUS
62
4
100
AcDbLine
10
234.860000000000
20
313.010000000000
30
0.0
11
232.260000000000
21
324.680000000000
31
0.0
0
LINE
5
5da
100
AcDbEntity
8
0-101
6
CONTINUOUS
62
4
100
AcDbLine
10
178.830000000000
20
348.020000000000
30
0.0
11
174.360000000000
21
348.020000000000
31
0.0
0
LINE
5
5db
100
AcDbEntity
8
0-101
6
CONTINUOUS
62
4
100
AcDbLine
10
221.860000000000
20
313.010000000000
30
0.0
11
224.450000000000
21
324.680000000000
31
0.0
0
LINE
5
5dc
100
AcDbEntity
8
0-101
6
CONTINUOUS
62
4
100
AcDbLine
10
270.860000000000
20
313.010000000000
30
0.0
11
268.260000000000
21
324.680000000000
31
0.0
0
LINE
5
5dd
100
AcDbEntity
8
0-101
6
CONTINUOUS
62
4
100
AcDbLine
10
271.360000000000
20
311.810000000000
30
0.0
11
278.250000000000
21
311.810000000000
31
0.0
0
LINE
5
5de
100
AcDbEntity
8
0-101
6
CONTINUOUS
62
4
100
AcDbLine
10
171.360000000000
20
350.350000000000
30
0.0
11
171.360000000000
21
356.810000000000
31
0.0
0
LINE
5
5df
100
AcDbEntity
8
0-101
6
CONTINUOUS
62
4
100
AcDbLine
10
221.360000000000
20
311.810000000000
30
0.0
11
214.470000000000
21
311.810000000000
31
0.0
0
LINE
5
5e0
100
AcDbEntity
8
0-101
6
CONTINUOUS
62
4
100
AcDbLine
10
271.360000000000
20
310.530000000000
30
0.0
11
271.360000000000
21
313.010000000000
31
0.0
0
LINE
5
5e1
100
AcDbEntity
8
0-101
6
CONTINUOUS
62
4
100
AcDbLine
10
263.360000000000
20
306.310000000000
30
0.0
11
229.360000000000
21
306.310000000000
31
0.0
0
LINE
5
5e2
100
AcDbEntity
8
0-101
6
CONTINUOUS
62
4
100
AcDbLine
10
263.360000000000
20
305.390000000000
30
0.0
11
229.360000000000
21
305.390000000000
31
0.0
0
LINE
5
5e3
100
AcDbEntity
8
0-101
6
CONTINUOUS
62
4
100
AcDbLine
10
221.360000000000
20
310.530000000000
30
0.0
11
221.360000000000
21
313.010000000000
31
0.0
0
LINE
5
5e4
100
AcDbEntity
8
0-101
6
CONTINUOUS
62
4
100
AcDbLine
10
279.430000000000
20
313.010000000000
30
0.0
11
213.290000000000
21
313.010000000000
31
0.0
0
LINE
5
5e5
100
AcDbEntity
8
0-101
6
CONTINUOUS
62
4
100
AcDbLine
10
178.080000000000
20
348.780000000000
30
0.0
11
174.360000000000
21
348.780000000000
31
0.0
0
LINE
5
5e6
100
AcDbEntity
8
0-101
6
CONTINUOUS
62
3
100
AcDbLine
10
235.860000000000
20
314.810000000000
30
0.0
11
240.930000000000
21
315.310000000000
31
0.0
0
LINE
5
5e7
100
AcDbEntity
8
0-101
6
CONTINUOUS
62
3
100
AcDbLine
10
236.030000000000
20
313.020000000000
30
0.0
11
235.860000000000
21
314.810000000000
31
0.0
0
LINE
5
5e8
100
AcDbEntity
8
0-101
6
CONTINUOUS
62
3
100
AcDbLine
10
256.680000000000
20
313.020000000000
30
0.0
11
256.860000000000
21
314.810000000000
31
0.0
0
LINE
5
5e9
100
AcDbEntity
8
0-101
6
CONTINUOUS
62
3
100
AcDbLine
10
241.360000000000
20
328.260000000000
30
0.0
11
242.110000000000
21
329.010000000000
31
0.0
0
LINE
5
5ea
100
AcDbEntity
8
0-101
6
CONTINUOUS
62
3
100
AcDbLine
10
256.860000000000
20
314.810000000000
30
0.0
11
251.780000000000
21
315.310000000000
31
0.0
0
LINE
5
5eb
100
AcDbEntity
8
0-101
6
CONTINUOUS
62
3
100
AcDbLine
10
241.360000000000
20
328.260000000000
30
0.0
11
251.360000000000
21
328.260000000000
31
0.0
0
LINE
5
5ec
100
AcDbEntity
8
0-101
6
CONTINUOUS
62
4
100
AcDbLine
10
278.250000000000
20
311.810000000000
30
0.0
11
321.360000000000
21
355.610000000000
31
0.0
0
LINE
5
5ed
100
AcDbEntity
8
0-101
6
CONTINUOUS
62
4
100
AcDbLine
10
214.710000000000
20
356.810000000000
30
0.0
11
321.360000000000
21
356.810000000000
31
0.0
0
LINE
5
5ee
100
AcDbEntity
8
0-101
6
CONTINUOUS
62
4
100
AcDbLine
10
313.890000000000
20
348.020000000000
30
0.0
11
318.360000000000
21
348.020000000000
31
0.0
0
LINE
5
5ef
100
AcDbEntity
8
0-101
6
CONTINUOUS
62
4
100
AcDbLine
10
321.360000000000
20
350.350000000000
30
0.0
11
321.360000000000
21
356.810000000000
31
0.0
0
LINE
5
5f0
100
AcDbEntity
8
0-101
6
CONTINUOUS
62
4
100
AcDbLine
10
314.630000000000
20
348.780000000000
30
0.0
11
318.360000000000
21
348.780000000000
31
0.0
0
POLYLINE
5
5f1
100
AcDbEntity
8
0-101
6
CONTINUOUS
62
  4
100
AcDb2dPolyline
66
1
10
0.0
20
0.0
30
0.0
70
0
0
VERTEX
5
5f2
100
AcDbEntity
8
0-101
6
CONTINUOUS
62
  4
100
AcDbVertex
100
AcDb2dVertex
10
171.360000000000
20
350.350000000000
30
0.0
0
VERTEX
5
5f3
100
AcDbEntity
8
0-101
6
CONTINUOUS
62
  4
100
AcDbVertex
100
AcDb2dVertex
10
171.370000000000
20
350.120000000000
30
0.0
0
VERTEX
5
5f4
100
AcDbEntity
8
0-101
6
CONTINUOUS
62
  4
100
AcDbVertex
100
AcDb2dVertex
10
171.420000000000
20
349.900000000000
30
0.0
0
VERTEX
5
5f5
100
AcDbEntity
8
0-101
6
CONTINUOUS
62
  4
100
AcDbVertex
100
AcDb2dVertex
10
171.490000000000
20
349.680000000000
30
0.0
0
VERTEX
5
5f6
100
AcDbEntity
8
0-101
6
CONTINUOUS
62
  4
100
AcDbVertex
100
AcDb2dVertex
10
171.590000000000
20
349.460000000000
30
0.0
0
VERTEX
5
5f7
100
AcDbEntity
8
0-101
6
CONTINUOUS
62
  4
100
AcDbVertex
100
AcDb2dVertex
10
171.710000000000
20
349.250000000000
30
0.0
0
VERTEX
5
5f8
100
AcDbEntity
8
0-101
6
CONTINUOUS
62
  4
100
AcDbVertex
100
AcDb2dVertex
10
171.860000000000
20
349.060000000000
30
0.0
0
VERTEX
5
5f9
100
AcDbEntity
8
0-101
6
CONTINUOUS
62
  4
100
AcDbVertex
100
AcDb2dVertex
10
172.040000000000
20
348.870000000000
30
0.0
0
VERTEX
5
5fa
100
AcDbEntity
8
0-101
6
CONTINUOUS
62
  4
100
AcDbVertex
100
AcDb2dVertex
10
172.240000000000
20
348.700000000000
30
0.0
0
VERTEX
5
5fb
100
AcDbEntity
8
0-101
6
CONTINUOUS
62
  4
100
AcDbVertex
100
AcDb2dVertex
10
172.450000000000
20
348.550000000000
30
0.0
0
VERTEX
5
5fc
100
AcDbEntity
8
0-101
6
CONTINUOUS
62
  4
100
AcDbVertex
100
AcDb2dVertex
10
172.690000000000
20
348.410000000000
30
0.0
0
VERTEX
5
5fd
100
AcDbEntity
8
0-101
6
CONTINUOUS
62
  4
100
AcDbVertex
100
AcDb2dVertex
10
172.940000000000
20
348.300000000000
30
0.0
0
VERTEX
5
5fe
100
AcDbEntity
8
0-101
6
CONTINUOUS
62
  4
100
AcDbVertex
100
AcDb2dVertex
10
173.210000000000
20
348.200000000000
30
0.0
0
VERTEX
5
5ff
100
AcDbEntity
8
0-101
6
CONTINUOUS
62
  4
100
AcDbVertex
100
AcDb2dVertex
10
173.490000000000
20
348.120000000000
30
0.0
0
VERTEX
5
600
100
AcDbEntity
8
0-101
6
CONTINUOUS
62
  4
100
AcDbVertex
100
AcDb2dVertex
10
173.770000000000
20
348.070000000000
30
0.0
0
VERTEX
5
601
100
AcDbEntity
8
0-101
6
CONTINUOUS
62
  4
100
AcDbVertex
100
AcDb2dVertex
10
174.060000000000
20
348.030000000000
30
0.0
0
VERTEX
5
602
100
AcDbEntity
8
0-101
6
CONTINUOUS
62
  4
100
AcDbVertex
100
AcDb2dVertex
10
174.360000000000
20
348.020000000000
30
0.0
0
SEQEND
5
603
100
AcDbEntity
8
0-101
0
POLYLINE
5
604
100
AcDbEntity
8
0-101
6
CONTINUOUS
62
  4
100
AcDb2dPolyline
66
1
10
0.0
20
0.0
30
0.0
70
0
0
VERTEX
5
605
100
AcDbEntity
8
0-101
6
CONTINUOUS
62
  4
100
AcDbVertex
100
AcDb2dVertex
10
171.360000000000
20
351.110000000000
30
0.0
0
VERTEX
5
606
100
AcDbEntity
8
0-101
6
CONTINUOUS
62
  4
100
AcDbVertex
100
AcDb2dVertex
10
171.370000000000
20
350.880000000000
30
0.0
0
VERTEX
5
607
100
AcDbEntity
8
0-101
6
CONTINUOUS
62
  4
100
AcDbVertex
100
AcDb2dVertex
10
171.420000000000
20
350.650000000000
30
0.0
0
VERTEX
5
608
100
AcDbEntity
8
0-101
6
CONTINUOUS
62
  4
100
AcDbVertex
100
AcDb2dVertex
10
171.490000000000
20
350.430000000000
30
0.0
0
VERTEX
5
609
100
AcDbEntity
8
0-101
6
CONTINUOUS
62
  4
100
AcDbVertex
100
AcDb2dVertex
10
171.590000000000
20
350.210000000000
30
0.0
0
VERTEX
5
60a
100
AcDbEntity
8
0-101
6
CONTINUOUS
62
  4
100
AcDbVertex
100
AcDb2dVertex
10
171.710000000000
20
350.010000000000
30
0.0
0
VERTEX
5
60b
100
AcDbEntity
8
0-101
6
CONTINUOUS
62
  4
100
AcDbVertex
100
AcDb2dVertex
10
171.860000000000
20
349.810000000000
30
0.0
0
VERTEX
5
60c
100
AcDbEntity
8
0-101
6
CONTINUOUS
62
  4
100
AcDbVertex
100
AcDb2dVertex
10
172.040000000000
20
349.630000000000
30
0.0
0
VERTEX
5
60d
100
AcDbEntity
8
0-101
6
CONTINUOUS
62
  4
100
AcDbVertex
100
AcDb2dVertex
10
172.240000000000
20
349.460000000000
30
0.0
0
VERTEX
5
60e
100
AcDbEntity
8
0-101
6
CONTINUOUS
62
  4
100
AcDbVertex
100
AcDb2dVertex
10
172.450000000000
20
349.300000000000
30
0.0
0
VERTEX
5
60f
100
AcDbEntity
8
0-101
6
CONTINUOUS
62
  4
100
AcDbVertex
100
AcDb2dVertex
10
172.690000000000
20
349.170000000000
30
0.0
0
VERTEX
5
610
100
AcDbEntity
8
0-101
6
CONTINUOUS
62
  4
100
AcDbVertex
100
AcDb2dVertex
10
172.940000000000
20
349.050000000000
30
0.0
0
VERTEX
5
611
100
AcDbEntity
8
0-101
6
CONTINUOUS
62
  4
100
AcDbVertex
100
AcDb2dVertex
10
173.210000000000
20
348.950000000000
30
0.0
0
VERTEX
5
612
100
AcDbEntity
8
0-101
6
CONTINUOUS
62
  4
100
AcDbVertex
100
AcDb2dVertex
10
173.490000000000
20
348.880000000000
30
0.0
0
VERTEX
5
613
100
AcDbEntity
8
0-101
6
CONTINUOUS
62
  4
100
AcDbVertex
100
AcDb2dVertex
10
173.770000000000
20
348.820000000000
30
0.0
0
VERTEX
5
614
100
AcDbEntity
8
0-101
6
CONTINUOUS
62
  4
100
AcDbVertex
100
AcDb2dVertex
10
174.060000000000
20
348.790000000000
30
0.0
0
VERTEX
5
615
100
AcDbEntity
8
0-101
6
CONTINUOUS
62
  4
100
AcDbVertex
100
AcDb2dVertex
10
174.360000000000
20
348.780000000000
30
0.0
0
SEQEND
5
616
100
AcDbEntity
8
0-101
0
POLYLINE
5
617
100
AcDbEntity
8
0-101
6
CONTINUOUS
62
  4
100
AcDb2dPolyline
66
1
10
0.0
20
0.0
30
0.0
70
0
0
VERTEX
5
618
100
AcDbEntity
8
0-101
6
CONTINUOUS
62
  4
100
AcDbVertex
100
AcDb2dVertex
10
318.360000000000
20
348.020000000000
30
0.0
0
VERTEX
5
619
100
AcDbEntity
8
0-101
6
CONTINUOUS
62
  4
100
AcDbVertex
100
AcDb2dVertex
10
318.650000000000
20
348.030000000000
30
0.0
0
VERTEX
5
61a
100
AcDbEntity
8
0-101
6
CONTINUOUS
62
  4
100
AcDbVertex
100
AcDb2dVertex
10
318.940000000000
20
348.070000000000
30
0.0
0
VERTEX
5
61b
100
AcDbEntity
8
0-101
6
CONTINUOUS
62
  4
100
AcDbVertex
100
AcDb2dVertex
10
319.230000000000
20
348.120000000000
30
0.0
0
VERTEX
5
61c
100
AcDbEntity
8
0-101
6
CONTINUOUS
62
  4
100
AcDbVertex
100
AcDb2dVertex
10
319.510000000000
20
348.200000000000
30
0.0
0
VERTEX
5
61d
100
AcDbEntity
8
0-101
6
CONTINUOUS
62
  4
100
AcDbVertex
100
AcDb2dVertex
10
319.770000000000
20
348.300000000000
30
0.0
0
VERTEX
5
61e
100
AcDbEntity
8
0-101
6
CONTINUOUS
62
  4
100
AcDbVertex
100
AcDb2dVertex
10
320.020000000000
20
348.410000000000
30
0.0
0
VERTEX
5
61f
100
AcDbEntity
8
0-101
6
CONTINUOUS
62
  4
100
AcDbVertex
100
AcDb2dVertex
10
320.260000000000
20
348.550000000000
30
0.0
0
VERTEX
5
620
100
AcDbEntity
8
0-101
6
CONTINUOUS
62
  4
100
AcDbVertex
100
AcDb2dVertex
10
320.480000000000
20
348.700000000000
30
0.0
0
VERTEX
5
621
100
AcDbEntity
8
0-101
6
CONTINUOUS
62
  4
100
AcDbVertex
100
AcDb2dVertex
10
320.680000000000
20
348.870000000000
30
0.0
0
VERTEX
5
622
100
AcDbEntity
8
0-101
6
CONTINUOUS
62
  4
100
AcDbVertex
100
AcDb2dVertex
10
320.850000000000
20
349.060000000000
30
0.0
0
VERTEX
5
623
100
AcDbEntity
8
0-101
6
CONTINUOUS
62
  4
100
AcDbVertex
100
AcDb2dVertex
10
321.000000000000
20
349.250000000000
30
0.0
0
VERTEX
5
624
100
AcDbEntity
8
0-101
6
CONTINUOUS
62
  4
100
AcDbVertex
100
AcDb2dVertex
10
321.130000000000
20
349.460000000000
30
0.0
0
VERTEX
5
625
100
AcDbEntity
8
0-101
6
CONTINUOUS
62
  4
100
AcDbVertex
100
AcDb2dVertex
10
321.230000000000
20
349.680000000000
30
0.0
0
VERTEX
5
626
100
AcDbEntity
8
0-101
6
CONTINUOUS
62
  4
100
AcDbVertex
100
AcDb2dVertex
10
321.300000000000
20
349.900000000000
30
0.0
0
VERTEX
5
627
100
AcDbEntity
8
0-101
6
CONTINUOUS
62
  4
100
AcDbVertex
100
AcDb2dVertex
10
321.340000000000
20
350.120000000000
30
0.0
0
VERTEX
5
628
100
AcDbEntity
8
0-101
6
CONTINUOUS
62
  4
100
AcDbVertex
100
AcDb2dVertex
10
321.360000000000
20
350.350000000000
30
0.0
0
SEQEND
5
629
100
AcDbEntity
8
0-101
0
POLYLINE
5
62a
100
AcDbEntity
8
0-101
6
CONTINUOUS
62
  4
100
AcDb2dPolyline
66
1
10
0.0
20
0.0
30
0.0
70
0
0
VERTEX
5
62b
100
AcDbEntity
8
0-101
6
CONTINUOUS
62
  4
100
AcDbVertex
100
AcDb2dVertex
10
318.360000000000
20
348.780000000000
30
0.0
0
VERTEX
5
62c
100
AcDbEntity
8
0-101
6
CONTINUOUS
62
  4
100
AcDbVertex
100
AcDb2dVertex
10
318.650000000000
20
348.790000000000
30
0.0
0
VERTEX
5
62d
100
AcDbEntity
8
0-101
6
CONTINUOUS
62
  4
100
AcDbVertex
100
AcDb2dVertex
10
318.940000000000
20
348.820000000000
30
0.0
0
VERTEX
5
62e
100
AcDbEntity
8
0-101
6
CONTINUOUS
62
  4
100
AcDbVertex
100
AcDb2dVertex
10
319.230000000000
20
348.880000000000
30
0.0
0
VERTEX
5
62f
100
AcDbEntity
8
0-101
6
CONTINUOUS
62
  4
100
AcDbVertex
100
AcDb2dVertex
10
319.510000000000
20
348.950000000000
30
0.0
0
VERTEX
5
630
100
AcDbEntity
8
0-101
6
CONTINUOUS
62
  4
100
AcDbVertex
100
AcDb2dVertex
10
319.770000000000
20
349.050000000000
30
0.0
0
VERTEX
5
631
100
AcDbEntity
8
0-101
6
CONTINUOUS
62
  4
100
AcDbVertex
100
AcDb2dVertex
10
320.020000000000
20
349.170000000000
30
0.0
0
VERTEX
5
632
100
AcDbEntity
8
0-101
6
CONTINUOUS
62
  4
100
AcDbVertex
100
AcDb2dVertex
10
320.260000000000
20
349.300000000000
30
0.0
0
VERTEX
5
633
100
AcDbEntity
8
0-101
6
CONTINUOUS
62
  4
100
AcDbVertex
100
AcDb2dVertex
10
320.480000000000
20
349.460000000000
30
0.0
0
VERTEX
5
634
100
AcDbEntity
8
0-101
6
CONTINUOUS
62
  4
100
AcDbVertex
100
AcDb2dVertex
10
320.680000000000
20
349.630000000000
30
0.0
0
VERTEX
5
635
100
AcDbEntity
8
0-101
6
CONTINUOUS
62
  4
100
AcDbVertex
100
AcDb2dVertex
10
320.850000000000
20
349.810000000000
30
0.0
0
VERTEX
5
636
100
AcDbEntity
8
0-101
6
CONTINUOUS
62
  4
100
AcDbVertex
100
AcDb2dVertex
10
321.000000000000
20
350.010000000000
30
0.0
0
VERTEX
5
637
100
AcDbEntity
8
0-101
6
CONTINUOUS
62
  4
100
AcDbVertex
100
AcDb2dVertex
10
321.130000000000
20
350.210000000000
30
0.0
0
VERTEX
5
638
100
AcDbEntity
8
0-101
6
CONTINUOUS
62
  4
100
AcDbVertex
100
AcDb2dVertex
10
321.230000000000
20
350.430000000000
30
0.0
0
VERTEX
5
639
100
AcDbEntity
8
0-101
6
CONTINUOUS
62
  4
100
AcDbVertex
100
AcDb2dVertex
10
321.300000000000
20
350.650000000000
30
0.0
0
VERTEX
5
63a
100
AcDbEntity
8
0-101
6
CONTINUOUS
62
  4
100
AcDbVertex
100
AcDb2dVertex
10
321.340000000000
20
350.880000000000
30
0.0
0
VERTEX
5
63b
100
AcDbEntity
8
0-101
6
CONTINUOUS
62
  4
100
AcDbVertex
100
AcDb2dVertex
10
321.360000000000
20
351.110000000000
30
0.0
0
SEQEND
5
63c
100
AcDbEntity
8
0-101
0
LINE
5
63d
100
AcDbEntity
8
0-000
6
CONTINUOUS
62
7
100
AcDbLine
10
1002.000000000000
20
692.940000000000
30
0.0
11
1002.000000000000
21
691.940000000000
31
0.0
0
LINE
5
63e
100
AcDbEntity
8
0-000
6
CONTINUOUS
62
7
100
AcDbLine
10
1011.000000000000
20
692.940000000000
30
0.0
11
1002.000000000000
21
692.940000000000
31
0.0
0
LINE
5
63f
100
AcDbEntity
8
0-000
6
CONTINUOUS
62
7
100
AcDbLine
10
1011.000000000000
20
691.940000000000
30
0.0
11
1002.000000000000
21
691.940000000000
31
0.0
0
LINE
5
640
100
AcDbEntity
8
0-000
6
CONTINUOUS
62
7
100
AcDbLine
10
558.000000000000
20
676.080000000000
30
0.0
11
558.000000000000
21
694.140000000000
31
0.0
0
LINE
5
641
100
AcDbEntity
8
0-000
6
CONTINUOUS
62
7
100
AcDbLine
10
557.000000000000
20
694.140000000000
30
0.0
11
557.000000000000
21
676.080000000000
31
0.0
0
LINE
5
642
100
AcDbEntity
8
0-000
6
CONTINUOUS
62
7
100
AcDbLine
10
1012.000000000000
20
676.080000000000
30
0.0
11
1012.000000000000
21
690.940000000000
31
0.0
0
LINE
5
643
100
AcDbEntity
8
0-000
6
CONTINUOUS
62
7
100
AcDbLine
10
1013.000000000000
20
690.940000000000
30
0.0
11
1013.000000000000
21
676.080000000000
31
0.0
0
LINE
5
644
100
AcDbEntity
8
0-000
6
CONTINUOUS
62
7
100
AcDbLine
10
587.020000000000
20
672.200000000000
30
0.0
11
558.870000000000
21
674.080000000000
31
0.0
0
LINE
5
645
100
AcDbEntity
8
0-000
6
CONTINUOUS
62
7
100
AcDbLine
10
587.750000000000
20
671.810000000000
30
0.0
11
654.330000000000
21
584.030000000000
31
0.0
0
LINE
5
646
100
AcDbEntity
8
0-000
6
CONTINUOUS
62
7
100
AcDbLine
10
558.930000000000
20
675.080000000000
30
0.0
11
587.090000000000
21
673.200000000000
31
0.0
0
LINE
5
647
100
AcDbEntity
8
0-000
6
CONTINUOUS
62
7
100
AcDbLine
10
655.120000000000
20
584.640000000000
30
0.0
11
588.550000000000
21
672.410000000000
31
0.0
0
LINE
5
648
100
AcDbEntity
8
0-000
6
CONTINUOUS
62
4
100
AcDbLine
10
535.480000000000
20
678.610000000000
30
0.0
11
527.930000000000
21
678.610000000000
31
0.0
0
LINE
5
649
100
AcDbEntity
8
0-000
6
CONTINUOUS
62
4
100
AcDbLine
10
535.480000000000
20
696.140000000000
30
0.0
11
527.930000000000
21
696.140000000000
31
0.0
0
LINE
5
64a
100
AcDbEntity
8
0-000
6
CONTINUOUS
62
4
100
AcDbLine
10
607.130000000000
20
673.140000000000
30
0.0
11
607.130000000000
21
675.140000000000
31
0.0
0
LINE
5
64b
100
AcDbEntity
8
0-000
6
CONTINUOUS
62
4
100
AcDbLine
10
596.270000000000
20
673.140000000000
30
0.0
11
607.130000000000
21
673.140000000000
31
0.0
0
POLYLINE
5
64c
100
AcDbEntity
8
0-000
6
CONTINUOUS
62
  4
100
AcDb2dPolyline
66
1
10
0.0
20
0.0
30
0.0
70
0
0
VERTEX
5
64d
100
AcDbEntity
8
0-000
6
CONTINUOUS
62
  4
100
AcDbVertex
100
AcDb2dVertex
10
596.270000000000
20
675.140000000000
30
0.0
0
VERTEX
5
64e
100
AcDbEntity
8
0-000
6
CONTINUOUS
62
  4
100
AcDbVertex
100
AcDb2dVertex
10
607.130000000000
20
675.140000000000
30
0.0
0
VERTEX
5
64f
100
AcDbEntity
8
0-000
6
CONTINUOUS
62
  4
100
AcDbVertex
100
AcDb2dVertex
10
607.130000000000
20
696.140000000000
30
0.0
0
SEQEND
5
650
100
AcDbEntity
8
0-000
0
LINE
5
651
100
AcDbEntity
8
0-000
6
CONTINUOUS
62
4
100
AcDbLine
10
596.270000000000
20
696.140000000000
30
0.0
11
607.130000000000
21
696.140000000000
31
0.0
0
LINE
5
652
100
AcDbEntity
8
0-000
6
CONTINUOUS
62
4
100
AcDbLine
10
558.000000000000
20
710.680000000000
30
0.0
11
588.000000000000
21
710.680000000000
31
0.0
0
LINE
5
653
100
AcDbEntity
8
0-000
6
CONTINUOUS
62
4
100
AcDbLine
10
1013.000000000000
20
664.220000000000
30
0.0
11
1013.000000000000
21
654.670000000000
31
0.0
0
LINE
5
654
100
AcDbEntity
8
0-000
6
CONTINUOUS
62
4
100
AcDbLine
10
1002.000000000000
20
710.680000000000
30
0.0
11
1013.000000000000
21
710.680000000000
31
0.0
0
LINE
5
655
100
AcDbEntity
8
0-000
6
CONTINUOUS
62
4
100
AcDbLine
10
1027.070000000000
20
692.940000000000
30
0.0
11
1027.070000000000
21
675.080000000000
31
0.0
0
LINE
5
656
100
AcDbEntity
8
0-000
6
CONTINUOUS
62
4
100
AcDbLine
10
1019.520000000000
20
692.940000000000
30
0.0
11
1027.070000000000
21
692.940000000000
31
0.0
0
LINE
5
657
100
AcDbEntity
8
0-000
6
CONTINUOUS
62
4
100
AcDbLine
10
1019.520000000000
20
675.080000000000
30
0.0
11
1027.070000000000
21
675.080000000000
31
0.0
0
LINE
5
658
100
AcDbEntity
8
0-000
6
CONTINUOUS
62
4
100
AcDbLine
10
588.000000000000
20
701.180000000000
30
0.0
11
588.000000000000
21
710.680000000000
31
0.0
0
LINE
5
659
100
AcDbEntity
8
0-000
6
CONTINUOUS
62
4
100
AcDbLine
10
558.000000000000
20
701.180000000000
30
0.0
11
558.000000000000
21
710.680000000000
31
0.0
0
LINE
5
65a
100
AcDbEntity
8
0-000
6
CONTINUOUS
62
4
100
AcDbLine
10
1002.000000000000
20
701.180000000000
30
0.0
11
1002.000000000000
21
710.680000000000
31
0.0
0
LINE
5
65b
100
AcDbEntity
8
0-000
6
CONTINUOUS
62
4
100
AcDbLine
10
1013.000000000000
20
701.180000000000
30
0.0
11
1013.000000000000
21
710.680000000000
31
0.0
0
LINE
5
65c
100
AcDbEntity
8
0-202
6
CONTINUOUS
62
4
100
AcDbLine
10
1013.000000000000
20
379.880000000000
30
0.0
11
1013.000000000000
21
401.000000000000
31
0.0
0
LINE
5
65d
100
AcDbEntity
8
0-202
6
CONTINUOUS
62
4
100
AcDbLine
10
558.000000000000
20
379.880000000000
30
0.0
11
558.000000000000
21
401.000000000000
31
0.0
0
LINE
5
65e
100
AcDbEntity
8
0-202
6
CONTINUOUS
62
7
100
AcDbLine
10
498.000000000000
20
305.460000000000
30
0.0
11
528.950000000000
21
344.030000000000
31
0.0
0
LINE
5
65f
100
AcDbEntity
8
0-202
6
CONTINUOUS
62
7
100
AcDbLine
10
529.730000000000
20
343.400000000000
30
0.0
11
498.000000000000
21
303.860000000000
31
0.0
0
LINE
5
660
100
AcDbEntity
8
0-202
6
CONTINUOUS
62
4
100
AcDbLine
10
498.000000000000
20
303.510000000000
30
0.0
11
515.580000000000
21
321.090000000000
31
0.0
0
LINE
5
661
100
AcDbEntity
8
0-202
6
CONTINUOUS
62
3
100
AcDbLine
10
498.000000000000
20
297.780000000000
30
0.0
11
530.820000000000
21
341.290000000000
31
0.0
0
LINE
5
662
100
AcDbEntity
8
0-202
6
CONTINUOUS
62
4
100
AcDbLine
10
498.000000000000
20
300.500000000000
30
0.0
11
499.170000000000
21
299.330000000000
31
0.0
0
LINE
5
663
100
AcDbEntity
8
0-202
6
CONTINUOUS
62
3
100
AcDbLine
10
498.000000000000
20
288.890000000000
30
0.0
11
533.590000000000
21
336.070000000000
31
0.0
0
LINE
5
664
100
AcDbEntity
8
0-202
6
CONTINUOUS
62
3
100
AcDbLine
10
498.000000000000
20
284.860000000000
30
0.0
11
535.640000000000
21
334.750000000000
31
0.0
0
LINE
5
665
100
AcDbEntity
8
0-202
6
CONTINUOUS
62
7
100
AcDbLine
10
1073.000000000000
20
308.250000000000
30
0.0
11
1046.050000000000
21
343.790000000000
31
0.0
0
LINE
5
666
100
AcDbEntity
8
0-202
6
CONTINUOUS
62
7
100
AcDbLine
10
1045.250000000000
20
343.180000000000
30
0.0
11
1073.000000000000
21
306.600000000000
31
0.0
0
LINE
5
667
100
AcDbEntity
8
0-202
6
CONTINUOUS
62
4
100
AcDbLine
10
1071.570000000000
20
301.870000000000
30
0.0
11
1073.000000000000
21
303.300000000000
31
0.0
0
LINE
5
668
100
AcDbEntity
8
0-202
6
CONTINUOUS
62
4
100
AcDbLine
10
1070.720000000000
20
302.980000000000
30
0.0
11
1073.000000000000
21
300.710000000000
31
0.0
0
LINE
5
669
100
AcDbEntity
8
0-202
6
CONTINUOUS
62
4
100
AcDbLine
10
1042.890000000000
20
339.680000000000
30
0.0
11
1073.000000000000
21
299.980000000000
31
0.0
0
LINE
5
66a
100
AcDbEntity
8
0-202
6
CONTINUOUS
62
3
100
AcDbLine
10
1073.000000000000
20
297.780000000000
30
0.0
11
1072.570000000000
21
298.350000000000
31
0.0
0
LINE
5
66b
100
AcDbEntity
8
0-202
6
CONTINUOUS
62
3
100
AcDbLine
10
1073.000000000000
20
288.890000000000
30
0.0
11
1061.340000000000
21
304.340000000000
31
0.0
0
LINE
5
66c
100
AcDbEntity
8
0-202
6
CONTINUOUS
62
3
100
AcDbLine
10
1073.000000000000
20
284.860000000000
30
0.0
11
1059.380000000000
21
302.910000000000
31
0.0
0
POLYLINE
5
66d
100
AcDbEntity
8
0-101
6
CONTINUOUS
62
  3
100
AcDb2dPolyline
66
1
10
0.0
20
0.0
30
0.0
70
0
0
VERTEX
5
66e
100
AcDbEntity
8
0-101
6
CONTINUOUS
62
  3
100
AcDbVertex
100
AcDb2dVertex
10
201.360000000000
20
236.610000000000
30
0.0
0
VERTEX
5
66f
100
AcDbEntity
8
0-101
6
CONTINUOUS
62
  3
100
AcDbVertex
100
AcDb2dVertex
10
201.360000000000
20
228.620000000000
30
0.0
0
VERTEX
5
670
100
AcDbEntity
8
0-101
6
CONTINUOUS
62
  3
100
AcDbVertex
100
AcDb2dVertex
10
235.610000000000
20
228.610000000000
30
0.0
0
SEQEND
5
671
100
AcDbEntity
8
0-101
0
LINE
5
672
100
AcDbEntity
8
0-101
6
CONTINUOUS
62
3
100
AcDbLine
10
243.610000000000
20
149.110000000000
30
0.0
11
243.610000000000
21
220.610000000000
31
0.0
0
POLYLINE
5
673
100
AcDbEntity
8
0-101
6
CONTINUOUS
62
  3
100
AcDb2dPolyline
66
1
10
0.0
20
0.0
30
0.0
70
0
0
VERTEX
5
674
100
AcDbEntity
8
0-101
6
CONTINUOUS
62
  3
100
AcDbVertex
100
AcDb2dVertex
10
291.360000000000
20
236.610000000000
30
0.0
0
VERTEX
5
675
100
AcDbEntity
8
0-101
6
CONTINUOUS
62
  3
100
AcDbVertex
100
AcDb2dVertex
10
291.360000000000
20
228.610000000000
30
0.0
0
VERTEX
5
676
100
AcDbEntity
8
0-101
6
CONTINUOUS
62
  3
100
AcDbVertex
100
AcDb2dVertex
10
257.110000000000
20
228.610000000000
30
0.0
0
SEQEND
5
677
100
AcDbEntity
8
0-101
0
LINE
5
678
100
AcDbEntity
8
0-101
6
CONTINUOUS
62
3
100
AcDbLine
10
291.360000000000
20
236.610000000000
30
0.0
11
203.660000000000
21
236.610000000000
31
0.0
0
LINE
5
679
100
AcDbEntity
8
0-101
6
CONTINUOUS
62
3
100
AcDbLine
10
249.110000000000
20
149.110000000000
30
0.0
11
249.110000000000
21
220.610000000000
31
0.0
0
LINE
5
67a
100
AcDbEntity
8
F-E_J_ADD
6
HIDDEN
62
3
100
AcDbLine
10
203.660000000000
20
236.620000000000
30
0.0
11
199.260000000000
21
236.610000000000
31
0.0
0
LINE
5
67b
100
AcDbEntity
8
0-000
6
CONTINUOUS
62
4
100
AcDbLine
10
634.180000000000
20
675.140000000000
30
0.0
11
680.500000000000
21
675.140000000000
31
0.0
0
LINE
5
67c
100
AcDbEntity
8
0-101
6
CONTINUOUS
62
7
100
AcDbLine
10
346.360000000000
20
246.510000000000
30
0.0
11
146.360000000000
21
246.510000000000
31
0.0
0
LINE
5
67d
100
AcDbEntity
8
0-101
6
CONTINUOUS
62
7
100
AcDbLine
10
346.360000000000
20
336.510000000000
30
0.0
11
146.360000000000
21
336.510000000000
31
0.0
0
LINE
5
67e
100
AcDbEntity
8
0-101
6
CONTINUOUS
62
7
100
AcDbLine
10
346.360000000000
20
359.510000000000
30
0.0
11
146.360000000000
21
359.510000000000
31
0.0
0
LINE
5
67f
100
AcDbEntity
8
0-101
6
DOT
62
7
100
AcDbLine
10
346.360000000000
20
356.310000000000
30
0.0
11
146.360000000000
21
356.310000000000
31
0.0
0
LINE
5
680
100
AcDbEntity
8
0-101
6
CONTINUOUS
62
4
100
AcDbLine
10
171.360000000000
20
393.000000000000
30
0.0
11
321.360000000000
21
393.000000000000
31
0.0
0
LINE
5
681
100
AcDbEntity
8
0-101
6
CONTINUOUS
62
4
100
AcDbLine
10
321.360000000000
20
371.880000000000
30
0.0
11
321.360000000000
21
393.000000000000
31
0.0
0
LINE
5
682
100
AcDbEntity
8
0-101
6
CONTINUOUS
62
4
100
AcDbLine
10
171.360000000000
20
371.880000000000
30
0.0
11
171.360000000000
21
393.000000000000
31
0.0
0
LINE
5
683
100
AcDbEntity
8
0-101
6
CONTINUOUS
62
4
100
AcDbLine
10
226.360000000000
20
267.330000000000
30
0.0
11
266.360000000000
21
267.330000000000
31
0.0
0
LINE
5
684
100
AcDbEntity
8
0-101
6
CENTER2
62
7
100
AcDbLine
10
246.360000000000
20
149.110000000000
30
0.0
11
246.360000000000
21
262.890000000000
31
0.0
0
LINE
5
685
100
AcDbEntity
8
0-101
6
CONTINUOUS
62
4
100
AcDbLine
10
378.600000000000
20
236.610000000000
30
0.0
11
378.600000000000
21
246.510000000000
31
0.0
0
LINE
5
686
100
AcDbEntity
8
0-101
6
CONTINUOUS
62
4
100
AcDbLine
10
378.600000000000
20
336.510000000000
30
0.0
11
378.600000000000
21
359.510000000000
31
0.0
0
LINE
5
687
100
AcDbEntity
8
0-101
6
CONTINUOUS
62
4
100
AcDbLine
10
398.600000000000
20
236.610000000000
30
0.0
11
398.600000000000
21
359.510000000000
31
0.0
0
LINE
5
688
100
AcDbEntity
8
0-101
6
CONTINUOUS
62
7
100
AcDbLine
10
291.180000000000
20
324.950000000000
30
0.0
11
297.670000000000
21
313.700000000000
31
0.0
0
LINE
5
689
100
AcDbEntity
8
0-202
6
CONTINUOUS
62
7
100
AcDbLine
10
621.230000000000
20
280.580000000000
30
0.0
11
614.730000000000
21
269.330000000000
31
0.0
0
LINE
5
68a
100
AcDbEntity
8
0-202
6
CONTINUOUS
62
7
100
AcDbLine
10
965.930000000000
20
321.570000000000
30
0.0
11
952.020000000000
21
345.660000000000
31
0.0
0
LINE
5
68b
100
AcDbEntity
8
0-202
6
CONTINUOUS
62
7
100
AcDbLine
10
581.510000000000
20
359.610000000000
30
0.0
11
572.940000000000
21
359.610000000000
31
0.0
0
LINE
5
68c
100
AcDbEntity
8
0-000
6
CONTINUOUS
62
7
100
AcDbLine
10
539.530000000000
20
678.610000000000
30
0.0
11
540.430000000000
21
678.170000000000
31
0.0
0
LINE
5
68d
100
AcDbEntity
8
0-000
6
CONTINUOUS
62
7
100
AcDbLine
10
542.000000000000
20
683.640000000000
30
0.0
11
539.530000000000
21
678.610000000000
31
0.0
0
LINE
5
68e
100
AcDbEntity
8
0-000
6
CONTINUOUS
62
7
100
AcDbLine
10
542.000000000000
20
683.640000000000
30
0.0
11
542.000000000000
21
694.140000000000
31
0.0
0
LINE
5
68f
100
AcDbEntity
8
0-000
6
CONTINUOUS
62
7
100
AcDbLine
10
543.000000000000
20
683.410000000000
30
0.0
11
540.430000000000
21
678.170000000000
31
0.0
0
LINE
5
690
100
AcDbEntity
8
0-000
6
CONTINUOUS
62
7
100
AcDbLine
10
543.000000000000
20
694.140000000000
30
0.0
11
543.000000000000
21
683.410000000000
31
0.0
0
LINE
5
691
100
AcDbEntity
8
0-000
6
CONTINUOUS
62
4
100
AcDbLine
10
680.500000000000
20
583.240000000000
30
0.0
11
680.500000000000
21
675.140000000000
31
0.0
0
POLYLINE
5
692
100
AcDbEntity
8
0-000
6
CONTINUOUS
62
  4
100
AcDb2dPolyline
66
1
10
0.0
20
0.0
30
0.0
70
0
0
VERTEX
5
693
100
AcDbEntity
8
0-000
6
CONTINUOUS
62
  4
100
AcDbVertex
100
AcDb2dVertex
10
983.000000000000
20
664.220000000000
30
0.0
0
VERTEX
5
694
100
AcDbEntity
8
0-000
6
CONTINUOUS
62
  4
100
AcDbVertex
100
AcDb2dVertex
10
983.000000000000
20
654.670000000000
30
0.0
0
VERTEX
5
695
100
AcDbEntity
8
0-000
6
CONTINUOUS
62
  4
100
AcDbVertex
100
AcDb2dVertex
10
1013.000000000000
20
654.670000000000
30
0.0
0
SEQEND
5
696
100
AcDbEntity
8
0-000
0
LINE
5
697
100
AcDbEntity
8
0-000
6
CONTINUOUS
62
7
100
AcDbLine
10
982.980000000000
20
672.200000000000
30
0.0
11
1011.130000000000
21
674.080000000000
31
0.0
0
LINE
5
698
100
AcDbEntity
8
0-000
6
CONTINUOUS
62
7
100
AcDbLine
10
1011.070000000000
20
675.080000000000
30
0.0
11
982.910000000000
21
673.200000000000
31
0.0
0
LINE
5
699
100
AcDbEntity
8
0-000
6
CONTINUOUS
62
7
100
AcDbLine
10
982.250000000000
20
671.810000000000
30
0.0
11
914.660000000000
21
584.020000000000
31
0.0
0
LINE
5
69a
100
AcDbEntity
8
0-000
6
CONTINUOUS
62
7
100
AcDbLine
10
981.450000000000
20
672.420000000000
30
0.0
11
913.870000000000
21
584.630000000000
31
0.0
0
LINE
5
69b
100
AcDbEntity
8
0-000
6
CONTINUOUS
62
4
100
AcDbLine
10
527.930000000000
20
678.610000000000
30
0.0
11
527.930000000000
21
696.140000000000
31
0.0
0
POLYLINE
5
69c
100
AcDbEntity
8
0-000
6
CONTINUOUS
62
  4
100
AcDb2dPolyline
66
1
10
0.0
20
0.0
30
0.0
70
0
0
VERTEX
5
69d
100
AcDbEntity
8
0-000
6
CONTINUOUS
62
  4
100
AcDbVertex
100
AcDb2dVertex
10
983.000000000000
20
701.180000000000
30
0.0
0
VERTEX
5
69e
100
AcDbEntity
8
0-000
6
CONTINUOUS
62
  4
100
AcDbVertex
100
AcDb2dVertex
10
983.000000000000
20
710.680000000000
30
0.0
0
VERTEX
5
69f
100
AcDbEntity
8
0-000
6
CONTINUOUS
62
  4
100
AcDbVertex
100
AcDb2dVertex
10
1002.000000000000
20
710.680000000000
30
0.0
0
SEQEND
5
6a0
100
AcDbEntity
8
0-000
0
LINE
5
6a1
100
AcDbEntity
8
0-202
6
CONTINUOUS
62
7
100
AcDbLine
10
558.500000000000
20
367.510000000000
30
0.0
11
545.800000000000
21
367.510000000000
31
0.0
0
LINE
5
6a2
100
AcDbEntity
8
0-202
6
CONTINUOUS
62
7
100
AcDbLine
10
558.500000000000
20
366.510000000000
30
0.0
11
545.800000000000
21
366.510000000000
31
0.0
0
LINE
5
6a3
100
AcDbEntity
8
0-202
6
CONTINUOUS
62
7
100
AcDbLine
10
555.580000000000
20
351.380000000000
30
0.0
11
556.520000000000
21
351.740000000000
31
0.0
0
POLYLINE
5
6a4
100
AcDbEntity
8
0-202
6
CONTINUOUS
62
  7
100
AcDb2dPolyline
66
1
10
0.0
20
0.0
30
0.0
70
0
0
VERTEX
5
6a5
100
AcDbEntity
8
0-202
6
CONTINUOUS
62
  7
100
AcDbVertex
100
AcDb2dVertex
10
543.830000000000
20
362.720000000000
30
0.0
0
VERTEX
5
6a6
100
AcDbEntity
8
0-202
6
CONTINUOUS
62
  7
100
AcDbVertex
100
AcDb2dVertex
10
553.800000000000
20
356.050000000000
30
0.0
0
VERTEX
5
6a7
100
AcDbEntity
8
0-202
6
CONTINUOUS
62
  7
100
AcDbVertex
100
AcDb2dVertex
10
555.580000000000
20
351.380000000000
30
0.0
0
SEQEND
5
6a8
100
AcDbEntity
8
0-202
0
POLYLINE
5
6a9
100
AcDbEntity
8
0-202
6
CONTINUOUS
62
  7
100
AcDb2dPolyline
66
1
10
0.0
20
0.0
30
0.0
70
0
0
VERTEX
5
6aa
100
AcDbEntity
8
0-202
6
CONTINUOUS
62
  7
100
AcDbVertex
100
AcDb2dVertex
10
544.450000000000
20
363.510000000000
30
0.0
0
VERTEX
5
6ab
100
AcDbEntity
8
0-202
6
CONTINUOUS
62
  7
100
AcDbVertex
100
AcDb2dVertex
10
554.620000000000
20
356.710000000000
30
0.0
0
VERTEX
5
6ac
100
AcDbEntity
8
0-202
6
CONTINUOUS
62
  7
100
AcDbVertex
100
AcDb2dVertex
10
556.520000000000
20
351.740000000000
30
0.0
0
SEQEND
5
6ad
100
AcDbEntity
8
0-202
0
LINE
5
6ae
100
AcDbEntity
8
0-202
6
CONTINUOUS
62
4
100
AcDbLine
10
545.430000000000
20
364.610000000000
30
0.0
11
558.000000000000
21
364.610000000000
31
0.0
0
LINE
5
6af
100
AcDbEntity
8
0-202
6
CONTINUOUS
62
4
100
AcDbLine
10
552.420000000000
20
359.940000000000
30
0.0
11
545.430000000000
21
364.610000000000
31
0.0
0
LINE
5
6b0
100
AcDbEntity
8
0-000
6
CONTINUOUS
62
4
100
AcDbLine
10
542.000000000000
20
710.680000000000
30
0.0
11
558.000000000000
21
710.680000000000
31
0.0
0
LINE
5
6b1
100
AcDbEntity
8
0-000
6
CONTINUOUS
62
7
100
AcDbLine
10
556.000000000000
20
696.140000000000
30
0.0
11
544.000000000000
21
696.140000000000
31
0.0
0
LINE
5
6b2
100
AcDbEntity
8
0-000
6
CONTINUOUS
62
7
100
AcDbLine
10
544.000000000000
20
695.140000000000
30
0.0
11
556.000000000000
21
695.140000000000
31
0.0
0
LINE
5
6b3
100
AcDbEntity
8
0-000
6
CONTINUOUS
62
4
100
AcDbLine
10
542.000000000000
20
701.180000000000
30
0.0
11
542.000000000000
21
710.680000000000
31
0.0
0
LINE
5
6b4
100
AcDbEntity
8
0-202
6
CONTINUOUS
62
7
100
AcDbLine
10
555.580000000000
20
363.310000000000
30
0.0
11
546.940000000000
21
363.600000000000
31
0.0
0
LINE
5
6b5
100
AcDbEntity
8
0-202
6
CONTINUOUS
62
7
100
AcDbLine
10
555.640000000000
20
364.310000000000
30
0.0
11
546.980000000000
21
364.600000000000
31
0.0
0
LINE
5
6b6
100
AcDbEntity
8
0-202
6
CONTINUOUS
62
4
100
AcDbLine
10
1000.400000000000
20
365.810000000000
30
0.0
11
1013.000000000000
21
365.810000000000
31
0.0
0
POLYLINE
5
6b7
100
AcDbEntity
8
0-202
6
CONTINUOUS
62
  4
100
AcDb2dPolyline
66
1
10
0.0
20
0.0
30
0.0
70
0
0
VERTEX
5
6b8
100
AcDbEntity
8
0-202
6
CONTINUOUS
62
  4
100
AcDbVertex
100
AcDb2dVertex
10
1007.420000000000
20
359.940000000000
30
0.0
0
VERTEX
5
6b9
100
AcDbEntity
8
0-202
6
CONTINUOUS
62
  4
100
AcDbVertex
100
AcDb2dVertex
10
1006.740000000000
20
358.950000000000
30
0.0
0
VERTEX
5
6ba
100
AcDbEntity
8
0-202
6
CONTINUOUS
62
  4
100
AcDbVertex
100
AcDb2dVertex
10
999.430000000000
20
363.840000000000
30
0.0
0
SEQEND
5
6bb
100
AcDbEntity
8
0-202
0
LINE
5
6bc
100
AcDbEntity
8
0-202
6
CONTINUOUS
62
7
100
AcDbLine
10
1001.980000000000
20
364.600000000000
30
0.0
11
1001.940000000000
21
363.600000000000
31
0.0
0
LINE
5
6bd
100
AcDbEntity
8
0-202
6
CONTINUOUS
62
7
100
AcDbLine
10
1013.500000000000
20
367.510000000000
30
0.0
11
1000.800000000000
21
367.510000000000
31
0.0
0
LINE
5
6be
100
AcDbEntity
8
0-202
6
CONTINUOUS
62
7
100
AcDbLine
10
1013.500000000000
20
366.510000000000
30
0.0
11
1000.800000000000
21
366.510000000000
31
0.0
0
LINE
5
6bf
100
AcDbEntity
8
0-202
6
CONTINUOUS
62
7
100
AcDbLine
10
1010.580000000000
20
351.380000000000
30
0.0
11
1011.520000000000
21
351.740000000000
31
0.0
0
POLYLINE
5
6c0
100
AcDbEntity
8
0-202
6
CONTINUOUS
62
  7
100
AcDb2dPolyline
66
1
10
0.0
20
0.0
30
0.0
70
0
0
VERTEX
5
6c1
100
AcDbEntity
8
0-202
6
CONTINUOUS
62
  7
100
AcDbVertex
100
AcDb2dVertex
10
998.830000000000
20
362.720000000000
30
0.0
0
VERTEX
5
6c2
100
AcDbEntity
8
0-202
6
CONTINUOUS
62
  7
100
AcDbVertex
100
AcDb2dVertex
10
1008.800000000000
20
356.050000000000
30
0.0
0
VERTEX
5
6c3
100
AcDbEntity
8
0-202
6
CONTINUOUS
62
  7
100
AcDbVertex
100
AcDb2dVertex
10
1010.580000000000
20
351.380000000000
30
0.0
0
SEQEND
5
6c4
100
AcDbEntity
8
0-202
0
POLYLINE
5
6c5
100
AcDbEntity
8
0-202
6
CONTINUOUS
62
  7
100
AcDb2dPolyline
66
1
10
0.0
20
0.0
30
0.0
70
0
0
VERTEX
5
6c6
100
AcDbEntity
8
0-202
6
CONTINUOUS
62
  7
100
AcDbVertex
100
AcDb2dVertex
10
999.450000000000
20
363.510000000000
30
0.0
0
VERTEX
5
6c7
100
AcDbEntity
8
0-202
6
CONTINUOUS
62
  7
100
AcDbVertex
100
AcDb2dVertex
10
1009.620000000000
20
356.710000000000
30
0.0
0
VERTEX
5
6c8
100
AcDbEntity
8
0-202
6
CONTINUOUS
62
  7
100
AcDbVertex
100
AcDb2dVertex
10
1011.520000000000
20
351.740000000000
30
0.0
0
SEQEND
5
6c9
100
AcDbEntity
8
0-202
0
LINE
5
6ca
100
AcDbEntity
8
0-202
6
CONTINUOUS
62
4
100
AcDbLine
10
1000.430000000000
20
364.610000000000
30
0.0
11
1013.000000000000
21
364.610000000000
31
0.0
0
LINE
5
6cb
100
AcDbEntity
8
0-202
6
CONTINUOUS
62
4
100
AcDbLine
10
1007.420000000000
20
359.940000000000
30
0.0
11
1000.430000000000
21
364.610000000000
31
0.0
0
LINE
5
6cc
100
AcDbEntity
8
0-202
6
CONTINUOUS
62
7
100
AcDbLine
10
1010.580000000000
20
363.310000000000
30
0.0
11
1001.940000000000
21
363.600000000000
31
0.0
0
LINE
5
6cd
100
AcDbEntity
8
0-202
6
CONTINUOUS
62
7
100
AcDbLine
10
1010.640000000000
20
364.310000000000
30
0.0
11
1001.980000000000
21
364.600000000000
31
0.0
0
LINE
5
6ce
100
AcDbEntity
8
0-000
6
CONTINUOUS
62
4
100
AcDbLine
10
1013.000000000000
20
710.680000000000
30
0.0
11
1013.000000000000
21
720.180000000000
31
0.0
0
LINE
5
6cf
100
AcDbEntity
8
0-000
6
CONTINUOUS
62
4
100
AcDbLine
10
558.000000000000
20
720.180000000000
30
0.0
11
558.000000000000
21
729.680000000000
31
0.0
0
LINE
5
6d0
100
AcDbEntity
8
0-000
6
CONTINUOUS
62
4
100
AcDbLine
10
754.500000000000
20
598.430000000000
30
0.0
11
754.500000000000
21
618.430000000000
31
0.0
0
LINE
5
6d1
100
AcDbEntity
8
0-000
6
CONTINUOUS
62
7
100
AcDbLine
10
756.270000000000
20
584.800000000000
30
0.0
11
784.500000000000
21
584.800000000000
31
0.0
0
LINE
5
6d2
100
AcDbEntity
8
0-000
6
CONTINUOUS
62
7
100
AcDbLine
10
755.560000000000
20
584.500000000000
30
0.0
11
754.880000000000
21
583.830000000000
31
0.0
0
LINE
5
6d3
100
AcDbEntity
8
0-000
6
CONTINUOUS
62
7
100
AcDbLine
10
754.180000000000
20
584.530000000000
30
0.0
11
754.850000000000
21
585.210000000000
31
0.0
0
LINE
5
6d4
100
AcDbEntity
8
0-000
6
CONTINUOUS
62
7
100
AcDbLine
10
756.270000000000
20
585.800000000000
30
0.0
11
784.500000000000
21
585.800000000000
31
0.0
0
LINE
5
6d5
100
AcDbEntity
8
0-000
6
CONTINUOUS
62
4
100
AcDbLine
10
814.500000000000
20
598.430000000000
30
0.0
11
814.500000000000
21
618.430000000000
31
0.0
0
LINE
5
6d6
100
AcDbEntity
8
0-000
6
CONTINUOUS
62
7
100
AcDbLine
10
812.730000000000
20
584.800000000000
30
0.0
11
784.500000000000
21
584.800000000000
31
0.0
0
LINE
5
6d7
100
AcDbEntity
8
0-000
6
CONTINUOUS
62
7
100
AcDbLine
10
813.440000000000
20
584.500000000000
30
0.0
11
814.110000000000
21
583.830000000000
31
0.0
0
LINE
5
6d8
100
AcDbEntity
8
0-000
6
CONTINUOUS
62
7
100
AcDbLine
10
814.820000000000
20
584.530000000000
30
0.0
11
814.140000000000
21
585.210000000000
31
0.0
0
LINE
5
6d9
100
AcDbEntity
8
0-000
6
CONTINUOUS
62
7
100
AcDbLine
10
812.730000000000
20
585.800000000000
30
0.0
11
784.500000000000
21
585.800000000000
31
0.0
0
LINE
5
6da
100
AcDbEntity
8
0-000
6
CONTINUOUS
62
7
100
AcDbLine
10
655.920000000000
20
584.240000000000
30
0.0
11
753.470000000000
21
584.240000000000
31
0.0
0
LINE
5
6db
100
AcDbEntity
8
0-000
6
CONTINUOUS
62
7
100
AcDbLine
10
655.920000000000
20
583.240000000000
30
0.0
11
753.470000000000
21
583.240000000000
31
0.0
0
LINE
5
6dc
100
AcDbEntity
8
0-000
6
CONTINUOUS
62
7
100
AcDbLine
10
913.080000000000
20
584.240000000000
30
0.0
11
815.530000000000
21
584.240000000000
31
0.0
0
LINE
5
6dd
100
AcDbEntity
8
0-000
6
CONTINUOUS
62
7
100
AcDbLine
10
913.080000000000
20
583.240000000000
30
0.0
11
815.530000000000
21
583.240000000000
31
0.0
0
LINE
5
6de
100
AcDbEntity
8
0-000
6
CONTINUOUS
62
4
100
AcDbLine
10
754.500000000000
20
618.430000000000
30
0.0
11
814.500000000000
21
618.430000000000
31
0.0
0
LINE
5
6df
100
AcDbEntity
8
0-000
6
CONTINUOUS
62
7
100
AcDbLine
10
754.500000000000
20
618.430000000000
30
0.0
11
754.500000000000
21
617.430000000000
31
0.0
0
LINE
5
6e0
100
AcDbEntity
8
0-000
6
CONTINUOUS
62
7
100
AcDbLine
10
814.500000000000
20
618.430000000000
30
0.0
11
814.500000000000
21
617.430000000000
31
0.0
0
LINE
5
6e1
100
AcDbEntity
8
0-202
6
CONTINUOUS
62
4
100
AcDbLine
10
755.000000000000
20
269.750000000000
30
0.0
11
755.000000000000
21
289.750000000000
31
0.0
0
LINE
5
6e2
100
AcDbEntity
8
0-202
6
CONTINUOUS
62
7
100
AcDbLine
10
756.770000000000
20
256.120000000000
30
0.0
11
785.000000000000
21
256.120000000000
31
0.0
0
LINE
5
6e3
100
AcDbEntity
8
0-202
6
CONTINUOUS
62
7
100
AcDbLine
10
756.060000000000
20
255.830000000000
30
0.0
11
755.380000000000
21
255.150000000000
31
0.0
0
LINE
5
6e4
100
AcDbEntity
8
0-202
6
CONTINUOUS
62
7
100
AcDbLine
10
754.680000000000
20
255.860000000000
30
0.0
11
755.350000000000
21
256.530000000000
31
0.0
0
LINE
5
6e5
100
AcDbEntity
8
0-202
6
CONTINUOUS
62
7
100
AcDbLine
10
756.770000000000
20
257.120000000000
30
0.0
11
785.000000000000
21
257.120000000000
31
0.0
0
LINE
5
6e6
100
AcDbEntity
8
0-202
6
CONTINUOUS
62
4
100
AcDbLine
10
815.000000000000
20
269.750000000000
30
0.0
11
815.000000000000
21
289.750000000000
31
0.0
0
LINE
5
6e7
100
AcDbEntity
8
0-202
6
CONTINUOUS
62
7
100
AcDbLine
10
813.230000000000
20
256.120000000000
30
0.0
11
785.000000000000
21
256.120000000000
31
0.0
0
LINE
5
6e8
100
AcDbEntity
8
0-202
6
CONTINUOUS
62
7
100
AcDbLine
10
813.940000000000
20
255.830000000000
30
0.0
11
814.610000000000
21
255.150000000000
31
0.0
0
LINE
5
6e9
100
AcDbEntity
8
0-202
6
CONTINUOUS
62
7
100
AcDbLine
10
815.320000000000
20
255.860000000000
30
0.0
11
814.640000000000
21
256.530000000000
31
0.0
0
LINE
5
6ea
100
AcDbEntity
8
0-202
6
CONTINUOUS
62
7
100
AcDbLine
10
813.230000000000
20
257.120000000000
30
0.0
11
785.000000000000
21
257.120000000000
31
0.0
0
LINE
5
6eb
100
AcDbEntity
8
0-202
6
CONTINUOUS
62
4
100
AcDbLine
10
755.000000000000
20
289.750000000000
30
0.0
11
815.000000000000
21
289.750000000000
31
0.0
0
LINE
5
6ec
100
AcDbEntity
8
0-202
6
CONTINUOUS
62
7
100
AcDbLine
10
755.000000000000
20
289.750000000000
30
0.0
11
755.000000000000
21
288.750000000000
31
0.0
0
LINE
5
6ed
100
AcDbEntity
8
0-202
6
CONTINUOUS
62
7
100
AcDbLine
10
815.000000000000
20
289.750000000000
30
0.0
11
815.000000000000
21
288.750000000000
31
0.0
0
LINE
5
6ee
100
AcDbEntity
8
0-202
6
CONTINUOUS
62
4
100
AcDbLine
10
913.080000000000
20
250.610000000000
30
0.0
11
785.000000000000
21
250.610000000000
31
0.0
0
LINE
5
6ef
100
AcDbEntity
8
0-202
6
CONTINUOUS
62
4
100
AcDbLine
10
822.610000000000
20
254.610000000000
30
0.0
11
826.610000000000
21
250.610000000000
31
0.0
0
LINE
5
6f0
100
AcDbEntity
8
0-202
6
CONTINUOUS
62
4
100
AcDbLine
10
829.680000000000
20
254.610000000000
30
0.0
11
833.680000000000
21
250.610000000000
31
0.0
0
LINE
5
6f1
100
AcDbEntity
8
0-202
6
CONTINUOUS
62
4
100
AcDbLine
10
836.750000000000
20
254.610000000000
30
0.0
11
840.750000000000
21
250.610000000000
31
0.0
0
LINE
5
6f2
100
AcDbEntity
8
0-202
6
CONTINUOUS
62
4
100
AcDbLine
10
843.820000000000
20
254.610000000000
30
0.0
11
847.820000000000
21
250.610000000000
31
0.0
0
LINE
5
6f3
100
AcDbEntity
8
0-202
6
CONTINUOUS
62
4
100
AcDbLine
10
851.890000000000
20
254.610000000000
30
0.0
11
855.890000000000
21
250.610000000000
31
0.0
0
LINE
5
6f4
100
AcDbEntity
8
0-202
6
CONTINUOUS
62
4
100
AcDbLine
10
858.960000000000
20
254.610000000000
30
0.0
11
862.960000000000
21
250.610000000000
31
0.0
0
LINE
5
6f5
100
AcDbEntity
8
0-202
6
CONTINUOUS
62
4
100
AcDbLine
10
859.180000000000
20
250.610000000000
30
0.0
11
863.180000000000
21
254.610000000000
31
0.0
0
LINE
5
6f6
100
AcDbEntity
8
0-202
6
CONTINUOUS
62
4
100
AcDbLine
10
852.110000000000
20
250.610000000000
30
0.0
11
856.110000000000
21
254.610000000000
31
0.0
0
LINE
5
6f7
100
AcDbEntity
8
0-202
6
CONTINUOUS
62
4
100
AcDbLine
10
844.040000000000
20
250.610000000000
30
0.0
11
848.040000000000
21
254.610000000000
31
0.0
0
LINE
5
6f8
100
AcDbEntity
8
0-202
6
CONTINUOUS
62
4
100
AcDbLine
10
836.970000000000
20
250.610000000000
30
0.0
11
840.970000000000
21
254.610000000000
31
0.0
0
LINE
5
6f9
100
AcDbEntity
8
0-202
6
CONTINUOUS
62
4
100
AcDbLine
10
829.890000000000
20
250.610000000000
30
0.0
11
833.890000000000
21
254.610000000000
31
0.0
0
LINE
5
6fa
100
AcDbEntity
8
0-202
6
CONTINUOUS
62
4
100
AcDbLine
10
822.820000000000
20
250.610000000000
30
0.0
11
826.820000000000
21
254.610000000000
31
0.0
0
LINE
5
6fb
100
AcDbEntity
8
0-202
6
CONTINUOUS
62
4
100
AcDbLine
10
787.250000000000
20
256.120000000000
30
0.0
11
791.250000000000
21
252.120000000000
31
0.0
0
LINE
5
6fc
100
AcDbEntity
8
0-202
6
CONTINUOUS
62
4
100
AcDbLine
10
794.320000000000
20
256.120000000000
30
0.0
11
798.320000000000
21
252.120000000000
31
0.0
0
LINE
5
6fd
100
AcDbEntity
8
0-202
6
CONTINUOUS
62
4
100
AcDbLine
10
801.390000000000
20
256.120000000000
30
0.0
11
805.390000000000
21
252.120000000000
31
0.0
0
LINE
5
6fe
100
AcDbEntity
8
0-202
6
CONTINUOUS
62
4
100
AcDbLine
10
808.460000000000
20
256.120000000000
30
0.0
11
812.460000000000
21
252.120000000000
31
0.0
0
LINE
5
6ff
100
AcDbEntity
8
0-202
6
CONTINUOUS
62
4
100
AcDbLine
10
815.540000000000
20
254.610000000000
30
0.0
11
819.540000000000
21
250.610000000000
31
0.0
0
LINE
5
700
100
AcDbEntity
8
0-202
6
CONTINUOUS
62
4
100
AcDbLine
10
815.750000000000
20
250.610000000000
30
0.0
11
819.750000000000
21
254.610000000000
31
0.0
0
LINE
5
701
100
AcDbEntity
8
0-202
6
CONTINUOUS
62
4
100
AcDbLine
10
808.680000000000
20
252.120000000000
30
0.0
11
812.680000000000
21
256.120000000000
31
0.0
0
LINE
5
702
100
AcDbEntity
8
0-202
6
CONTINUOUS
62
4
100
AcDbLine
10
801.610000000000
20
252.120000000000
30
0.0
11
805.610000000000
21
256.120000000000
31
0.0
0
LINE
5
703
100
AcDbEntity
8
0-202
6
CONTINUOUS
62
4
100
AcDbLine
10
794.540000000000
20
252.120000000000
30
0.0
11
798.540000000000
21
256.120000000000
31
0.0
0
LINE
5
704
100
AcDbEntity
8
0-202
6
CONTINUOUS
62
4
100
AcDbLine
10
787.470000000000
20
252.120000000000
30
0.0
11
791.470000000000
21
256.120000000000
31
0.0
0
LINE
5
705
100
AcDbEntity
8
0-202
6
CONTINUOUS
62
4
100
AcDbLine
10
732.520000000000
20
250.610000000000
30
0.0
11
736.520000000000
21
254.610000000000
31
0.0
0
LINE
5
706
100
AcDbEntity
8
0-202
6
CONTINUOUS
62
4
100
AcDbLine
10
726.950000000000
20
250.610000000000
30
0.0
11
730.950000000000
21
254.610000000000
31
0.0
0
LINE
5
707
100
AcDbEntity
8
0-202
6
CONTINUOUS
62
4
100
AcDbLine
10
720.880000000000
20
250.610000000000
30
0.0
11
724.880000000000
21
254.610000000000
31
0.0
0
LINE
5
708
100
AcDbEntity
8
0-202
6
CONTINUOUS
62
4
100
AcDbLine
10
713.810000000000
20
250.610000000000
30
0.0
11
717.810000000000
21
254.610000000000
31
0.0
0
LINE
5
709
100
AcDbEntity
8
0-202
6
CONTINUOUS
62
4
100
AcDbLine
10
706.730000000000
20
250.610000000000
30
0.0
11
710.730000000000
21
254.610000000000
31
0.0
0
LINE
5
70a
100
AcDbEntity
8
0-202
6
CONTINUOUS
62
4
100
AcDbLine
10
706.520000000000
20
254.610000000000
30
0.0
11
710.520000000000
21
250.610000000000
31
0.0
0
LINE
5
70b
100
AcDbEntity
8
0-202
6
CONTINUOUS
62
4
100
AcDbLine
10
713.590000000000
20
254.610000000000
30
0.0
11
717.590000000000
21
250.610000000000
31
0.0
0
LINE
5
70c
100
AcDbEntity
8
0-202
6
CONTINUOUS
62
4
100
AcDbLine
10
720.660000000000
20
254.610000000000
30
0.0
11
724.660000000000
21
250.610000000000
31
0.0
0
LINE
5
70d
100
AcDbEntity
8
0-202
6
CONTINUOUS
62
4
100
AcDbLine
10
726.730000000000
20
254.610000000000
30
0.0
11
730.730000000000
21
250.610000000000
31
0.0
0
LINE
5
70e
100
AcDbEntity
8
0-202
6
CONTINUOUS
62
4
100
AcDbLine
10
732.300000000000
20
254.610000000000
30
0.0
11
736.300000000000
21
250.610000000000
31
0.0
0
LINE
5
70f
100
AcDbEntity
8
0-202
6
CONTINUOUS
62
4
100
AcDbLine
10
767.870000000000
20
252.120000000000
30
0.0
11
771.870000000000
21
256.120000000000
31
0.0
0
LINE
5
710
100
AcDbEntity
8
0-202
6
CONTINUOUS
62
4
100
AcDbLine
10
760.800000000000
20
252.120000000000
30
0.0
11
764.800000000000
21
256.120000000000
31
0.0
0
LINE
5
711
100
AcDbEntity
8
0-202
6
CONTINUOUS
62
4
100
AcDbLine
10
753.730000000000
20
250.610000000000
30
0.0
11
757.730000000000
21
254.610000000000
31
0.0
0
LINE
5
712
100
AcDbEntity
8
0-202
6
CONTINUOUS
62
4
100
AcDbLine
10
746.660000000000
20
250.610000000000
30
0.0
11
750.660000000000
21
254.610000000000
31
0.0
0
LINE
5
713
100
AcDbEntity
8
0-202
6
CONTINUOUS
62
4
100
AcDbLine
10
739.590000000000
20
250.610000000000
30
0.0
11
743.590000000000
21
254.610000000000
31
0.0
0
LINE
5
714
100
AcDbEntity
8
0-202
6
CONTINUOUS
62
4
100
AcDbLine
10
739.370000000000
20
254.610000000000
30
0.0
11
743.370000000000
21
250.610000000000
31
0.0
0
LINE
5
715
100
AcDbEntity
8
0-202
6
CONTINUOUS
62
4
100
AcDbLine
10
746.440000000000
20
254.610000000000
30
0.0
11
750.440000000000
21
250.610000000000
31
0.0
0
LINE
5
716
100
AcDbEntity
8
0-202
6
CONTINUOUS
62
4
100
AcDbLine
10
753.510000000000
20
254.610000000000
30
0.0
11
757.520000000000
21
250.610000000000
31
0.0
0
LINE
5
717
100
AcDbEntity
8
0-202
6
CONTINUOUS
62
4
100
AcDbLine
10
760.590000000000
20
256.120000000000
30
0.0
11
764.590000000000
21
252.120000000000
31
0.0
0
LINE
5
718
100
AcDbEntity
8
0-202
6
CONTINUOUS
62
4
100
AcDbLine
10
767.660000000000
20
256.120000000000
30
0.0
11
771.660000000000
21
252.120000000000
31
0.0
0
LINE
5
719
100
AcDbEntity
8
0-202
6
CONTINUOUS
62
4
100
AcDbLine
10
774.950000000000
20
252.120000000000
30
0.0
11
778.950000000000
21
256.120000000000
31
0.0
0
LINE
5
71a
100
AcDbEntity
8
0-202
6
CONTINUOUS
62
4
100
AcDbLine
10
774.730000000000
20
256.120000000000
30
0.0
11
778.730000000000
21
252.120000000000
31
0.0
0
LINE
5
71b
100
AcDbEntity
8
0-202
6
CONTINUOUS
62
4
100
AcDbLine
10
782.020000000000
20
252.120000000000
30
0.0
11
786.020000000000
21
256.120000000000
31
0.0
0
LINE
5
71c
100
AcDbEntity
8
0-202
6
CONTINUOUS
62
4
100
AcDbLine
10
781.800000000000
20
256.120000000000
30
0.0
11
785.800000000000
21
252.120000000000
31
0.0
0
LINE
5
71d
100
AcDbEntity
8
0-101
6
CENTER2
62
7
100
AcDbLine
10
246.360000000000
20
284.620000000000
30
0.0
11
246.360000000000
21
332.780000000000
31
0.0
0
LINE
5
71e
100
AcDbEntity
8
0-000
6
CONTINUOUS
62
4
100
AcDbLine
10
558.000000000000
20
710.680000000000
30
0.0
11
558.000000000000
21
729.680000000000
31
0.0
0
LINE
5
71f
100
AcDbEntity
8
0-000
6
CONTINUOUS
62
4
100
AcDbLine
10
1013.000000000000
20
720.180000000000
30
0.0
11
1013.000000000000
21
729.680000000000
31
0.0
0
LINE
5
720
100
AcDbEntity
8
0-000
6
CONTINUOUS
62
4
100
AcDbLine
10
558.000000000000
20
729.680000000000
30
0.0
11
1013.000000000000
21
729.680000000000
31
0.0
0
POLYLINE
5
721
100
AcDbEntity
8
0-202
6
CONTINUOUS
62
  4
100
AcDb2dPolyline
66
1
10
0.0
20
0.0
30
0.0
70
0
0
VERTEX
5
722
100
AcDbEntity
8
0-202
6
CONTINUOUS
62
  4
100
AcDbVertex
100
AcDb2dVertex
10
658.500000000000
20
226.680000000000
30
0.0
0
VERTEX
5
723
100
AcDbEntity
8
0-202
6
CONTINUOUS
62
  4
100
AcDbVertex
100
AcDb2dVertex
10
658.500000000000
20
207.680000000000
30
0.0
0
VERTEX
5
724
100
AcDbEntity
8
0-202
6
CONTINUOUS
62
  4
100
AcDbVertex
100
AcDb2dVertex
10
913.500000000000
20
207.680000000000
30
0.0
0
SEQEND
5
725
100
AcDbEntity
8
0-202
0
LINE
5
726
100
AcDbEntity
8
0-202
6
CONTINUOUS
62
4
100
AcDbLine
10
913.500000000000
20
226.680000000000
30
0.0
11
913.500000000000
21
207.680000000000
31
0.0
0
LINE
5
727
100
AcDbEntity
8
0-202
6
CONTINUOUS
62
4
100
AcDbLine
10
1013.000000000000
20
401.000000000000
30
0.0
11
1093.000000000000
21
401.000000000000
31
0.0
0
LINE
5
728
100
AcDbEntity
8
0-202
6
CONTINUOUS
62
4
100
AcDbLine
10
558.000000000000
20
401.000000000000
30
0.0
11
478.000000000000
21
401.000000000000
31
0.0
0
LINE
5
729
100
AcDbEntity
8
0-202
6
CONTINUOUS
62
4
100
AcDbLine
10
558.000000000000
20
401.000000000000
30
0.0
11
1013.000000000000
21
401.000000000000
31
0.0
0
LINE
5
72a
100
AcDbEntity
8
0-202
6
CONTINUOUS
62
7
100
AcDbLine
10
912.520000000000
20
255.610000000000
30
0.0
11
816.340000000000
21
255.610000000000
31
0.0
0
LINE
5
72b
100
AcDbEntity
8
0-202
6
CONTINUOUS
62
7
100
AcDbLine
10
912.520000000000
20
254.610000000000
30
0.0
11
816.470000000000
21
254.610000000000
31
0.0
0
LINE
5
72c
100
AcDbEntity
8
0-202
6
CONTINUOUS
62
7
100
AcDbLine
10
658.420000000000
20
255.610000000000
30
0.0
11
753.660000000000
21
255.610000000000
31
0.0
0
LINE
5
72d
100
AcDbEntity
8
0-202
6
CONTINUOUS
62
7
100
AcDbLine
10
658.420000000000
20
254.610000000000
30
0.0
11
753.530000000000
21
254.610000000000
31
0.0
0
LINE
5
72e
100
AcDbEntity
8
0-202
6
CONTINUOUS
62
4
100
AcDbLine
10
658.420000000000
20
250.610000000000
30
0.0
11
785.000000000000
21
250.610000000000
31
0.0
0
LINE
5
72f
100
AcDbEntity
8
0-202
6
CONTINUOUS
62
3
100
AcDbLine
10
915.860000000000
20
248.810000000000
30
0.0
11
655.640000000000
21
248.810000000000
31
0.0
0
LINE
5
730
100
AcDbEntity
8
0-202
6
CONTINUOUS
62
3
100
AcDbLine
10
475.500000000000
20
236.610000000000
30
0.0
11
1093.000000000000
21
236.610000000000
31
0.0
0
LINE
5
731
100
AcDbEntity
8
0-202
6
CONTINUOUS
62
3
100
AcDbLine
10
475.500000000000
20
244.610000000000
30
0.0
11
1093.000000000000
21
244.610000000000
31
0.0
0
LINE
5
732
100
AcDbEntity
8
0-202
6
CONTINUOUS
62
3
100
AcDbLine
10
921.010000000000
20
247.410000000000
30
0.0
11
649.980000000000
21
247.410000000000
31
0.0
0
LINE
5
733
100
AcDbEntity
8
0-000
6
CONTINUOUS
62
4
100
AcDbLine
10
913.500000000000
20
574.360000000000
30
0.0
11
913.500000000000
21
555.360000000000
31
0.0
0
POLYLINE
5
734
100
AcDbEntity
8
0-000
6
CONTINUOUS
62
  4
100
AcDb2dPolyline
66
1
10
0.0
20
0.0
30
0.0
70
0
0
VERTEX
5
735
100
AcDbEntity
8
0-000
6
CONTINUOUS
62
  4
100
AcDbVertex
100
AcDb2dVertex
10
655.500000000000
20
574.360000000000
30
0.0
0
VERTEX
5
736
100
AcDbEntity
8
0-000
6
CONTINUOUS
62
  4
100
AcDbVertex
100
AcDb2dVertex
10
655.500000000000
20
555.360000000000
30
0.0
0
VERTEX
5
737
100
AcDbEntity
8
0-000
6
CONTINUOUS
62
  4
100
AcDbVertex
100
AcDb2dVertex
10
913.500000000000
20
555.360000000000
30
0.0
0
SEQEND
5
738
100
AcDbEntity
8
0-000
0
LINE
5
739
100
AcDbEntity
8
0-101
6
CONTINUOUS
62
4
100
AcDbLine
10
378.600000000000
20
359.510000000000
30
0.0
11
398.600000000000
21
359.510000000000
31
0.0
0
LINE
5
73a
100
AcDbEntity
8
0-101
6
CONTINUOUS
62
4
100
AcDbLine
10
378.600000000000
20
236.610000000000
30
0.0
11
398.600000000000
21
236.610000000000
31
0.0
0
LINE
5
73b
100
AcDbEntity
8
0-101
6
CONTINUOUS
62
4
100
AcDbLine
10
358.600000000000
20
246.510000000000
30
0.0
11
378.600000000000
21
246.510000000000
31
0.0
0
LINE
5
73c
100
AcDbEntity
8
0-101
6
CONTINUOUS
62
4
100
AcDbLine
10
358.600000000000
20
236.610000000000
30
0.0
11
378.600000000000
21
236.610000000000
31
0.0
0
LINE
5
73d
100
AcDbEntity
8
0-101
6
CONTINUOUS
62
4
100
AcDbLine
10
358.600000000000
20
336.510000000000
30
0.0
11
378.600000000000
21
336.510000000000
31
0.0
0
LINE
5
73e
100
AcDbEntity
8
0-101
6
CONTINUOUS
62
4
100
AcDbLine
10
358.600000000000
20
359.510000000000
30
0.0
11
378.600000000000
21
359.510000000000
31
0.0
0
LINE
5
73f
100
AcDbEntity
8
0-101
6
CONTINUOUS
62
7
100
AcDbLine
10
226.360000000000
20
272.820000000000
30
0.0
11
217.950000000000
21
287.380000000000
31
0.0
0
LINE
5
740
100
AcDbEntity
8
0-202
6
CONTINUOUS
62
4
100
AcDbLine
10
478.000000000000
20
401.000000000000
30
0.0
11
489.590000000000
21
404.110000000000
31
0.0
0
LINE
5
741
100
AcDbEntity
8
0-202
6
CONTINUOUS
62
4
100
AcDbLine
10
478.000000000000
20
401.000000000000
30
0.0
11
489.590000000000
21
397.900000000000
31
0.0
0
LINE
5
742
100
AcDbEntity
8
0-202
6
CONTINUOUS
62
4
100
AcDbLine
10
1093.000000000000
20
401.000000000000
30
0.0
11
1081.410000000000
21
397.900000000000
31
0.0
0
LINE
5
743
100
AcDbEntity
8
0-202
6
CONTINUOUS
62
4
100
AcDbLine
10
1093.000000000000
20
401.000000000000
30
0.0
11
1081.410000000000
21
404.110000000000
31
0.0
0
LINE
5
744
100
AcDbEntity
8
0-202
6
CONTINUOUS
62
4
100
AcDbLine
10
690.280000000000
20
344.510000000000
30
0.0
11
690.280000000000
21
367.510000000000
31
0.0
0
LINE
5
745
100
AcDbEntity
8
0-000
6
CONTINUOUS
62
4
100
AcDbLine
10
1013.000000000000
20
710.680000000000
30
0.0
11
1029.450000000000
21
710.680000000000
31
0.0
0
LINE
5
746
100
AcDbEntity
8
0-202
6
CONTINUOUS
62
7
100
AcDbLine
10
558.600000000000
20
334.780000000000
30
0.0
11
572.940000000000
21
359.610000000000
31
0.0
0
LINE
5
747
100
AcDbEntity
8
0-202
6
CONTINUOUS
62
4
100
AcDbLine
10
948.930000000000
20
254.610000000000
30
0.0
11
936.100000000000
21
254.610000000000
31
0.0
0
LINE
5
748
100
AcDbEntity
8
0-101
6
CONTINUOUS
62
4
100
AcDbLine
10
378.600000000000
20
236.610000000000
30
0.0
11
378.600000000000
21
222.270000000000
31
0.0
0
LINE
5
749
100
AcDbEntity
8
0-101
6
CONTINUOUS
62
4
100
AcDbLine
10
378.600000000000
20
246.510000000000
30
0.0
11
378.600000000000
21
336.510000000000
31
0.0
0
CIRCLE
5
74a
100
AcDbEntity
8
F-F
6
CONTINUOUS
62
3
100
AcDbCircle
10
59.790000000000
20
50.320000000000
30
0.0
40
8.485282734762
0
CIRCLE
5
74b
100
AcDbEntity
8
F-F
6
CONTINUOUS
62
3
100
AcDbCircle
10
59.790000000000
20
50.320000000000
30
0.0
40
9.685283007543
0
CIRCLE
5
74c
100
AcDbEntity
8
F-F
6
CONTINUOUS
62
4
100
AcDbCircle
10
59.790000000000
20
50.320000000000
30
0.0
40
8.605283923295
0
CIRCLE
5
74d
100
AcDbEntity
8
F-F
6
CONTINUOUS
62
4
100
AcDbCircle
10
59.790000000000
20
50.320000000000
30
0.0
40
8.845281655342
0
CIRCLE
5
74e
100
AcDbEntity
8
F-F
6
CONTINUOUS
62
4
100
AcDbCircle
10
59.790000000000
20
50.320000000000
30
0.0
40
9.085282290525
0
CIRCLE
5
74f
100
AcDbEntity
8
F-F
6
CONTINUOUS
62
4
100
AcDbCircle
10
59.790000000000
20
50.320000000000
30
0.0
40
9.325280603199
0
CIRCLE
5
750
100
AcDbEntity
8
F-F
6
CONTINUOUS
62
4
100
AcDbCircle
10
59.790000000000
20
50.320000000000
30
0.0
40
9.565280657755
0
ARC
5
751
100
AcDbEntity
8
0-202
6
CONTINUOUS
62
4
100
AcDbCircle
10
563.200000000000
20
325.010000000000
30
0.0
40
5.200000020795
100
AcDbArc
50
179.999969482422
51
269.999984741211
0
ARC
5
752
100
AcDbEntity
8
0-202
6
CONTINUOUS
62
4
100
AcDbCircle
10
563.200000000000
20
325.010000000000
30
0.0
40
4.000000328642
100
AcDbArc
50
179.999969482422
51
269.999984741211
0
ARC
5
753
100
AcDbEntity
8
0-202
6
CONTINUOUS
62
4
100
AcDbCircle
10
592.500000000000
20
319.810000000000
30
0.0
40
1.200000127624
100
AcDbArc
50
49.999969482422
51
89.999984741211
0
ARC
5
754
100
AcDbEntity
8
0-202
6
CONTINUOUS
62
4
100
AcDbCircle
10
558.000000000000
20
364.610000000000
30
0.0
40
1.200000127624
100
AcDbArc
50
360.000000000000
51
449.999984741211
0
ARC
5
755
100
AcDbEntity
8
0-202
6
CONTINUOUS
62
4
100
AcDbCircle
10
580.000000000000
20
319.410000000000
30
0.0
40
4.200000374105
100
AcDbArc
50
54.611068725586
51
89.999984741211
0
ARC
5
756
100
AcDbEntity
8
0-202
6
CONTINUOUS
62
4
100
AcDbCircle
10
563.420000000000
20
325.610000000000
30
0.0
40
2.000000164321
100
AcDbArc
50
192.030593872070
51
270.000000000000
0
ARC
5
757
100
AcDbEntity
8
0-202
6
CONTINUOUS
62
4
100
AcDbCircle
10
1018.200000000000
20
325.010000000000
30
0.0
40
5.200000020795
100
AcDbArc
50
179.999969482422
51
269.999984741211
0
ARC
5
758
100
AcDbEntity
8
0-202
6
CONTINUOUS
62
4
100
AcDbCircle
10
1018.200000000000
20
325.010000000000
30
0.0
40
4.000000328642
100
AcDbArc
50
179.999969482422
51
269.999984741211
0
ARC
5
759
100
AcDbEntity
8
0-202
6
CONTINUOUS
62
4
100
AcDbCircle
10
1047.500000000000
20
319.810000000000
30
0.0
40
1.200000127624
100
AcDbArc
50
49.999984741211
51
89.999984741211
0
ARC
5
75a
100
AcDbEntity
8
0-202
6
CONTINUOUS
62
4
100
AcDbCircle
10
1018.420000000000
20
325.610000000000
30
0.0
40
2.000000164321
100
AcDbArc
50
192.030593872070
51
270.000000000000
0
ARC
5
75b
100
AcDbEntity
8
0-202
6
CONTINUOUS
62
4
100
AcDbCircle
10
1035.000000000000
20
319.410000000000
30
0.0
40
4.200000374105
100
AcDbArc
50
54.611068725586
51
89.999984741211
0
ARC
5
75c
100
AcDbEntity
8
0-202
6
CONTINUOUS
62
3
100
AcDbCircle
10
921.010000000000
20
248.810000000000
30
0.0
40
1.400000027931
100
AcDbArc
50
270.000000000000
51
322.968307495117
0
ARC
5
75d
100
AcDbEntity
8
0-202
6
CONTINUOUS
62
3
100
AcDbCircle
10
650.450000000000
20
248.810000000000
30
0.0
40
4.200000374105
100
AcDbArc
50
217.031677246094
51
270.000000000000
0
ARC
5
75e
100
AcDbEntity
8
0-202
6
CONTINUOUS
62
3
100
AcDbCircle
10
559.400000000000
20
318.330000000000
30
0.0
40
1.400000027931
100
AcDbArc
50
179.999969482422
51
269.999984741211
0
ARC
5
75f
100
AcDbEntity
8
0-202
6
CONTINUOUS
62
3
100
AcDbCircle
10
534.170000000000
20
338.760000000000
30
0.0
40
4.200000374105
100
AcDbArc
50
92.999984741211
51
142.968292236328
0
ARC
5
760
100
AcDbEntity
8
0-202
6
CONTINUOUS
62
3
100
AcDbCircle
10
604.110000000000
20
302.650000000000
30
0.0
40
2.800000055861
100
AcDbArc
50
37.031661987305
51
49.999984741211
0
ARC
5
761
100
AcDbEntity
8
0-202
6
CONTINUOUS
62
3
100
AcDbCircle
10
553.800000000000
20
339.790000000000
30
0.0
40
4.200000374105
100
AcDbArc
50
360.000000000000
51
452.999984741211
0
ARC
5
762
100
AcDbEntity
8
0-202
6
CONTINUOUS
62
3
100
AcDbCircle
10
553.800000000000
20
334.800000000000
30
0.0
40
1.400000027931
100
AcDbArc
50
360.000000000000
51
452.999984741211
0
ARC
5
763
100
AcDbEntity
8
0-202
6
CONTINUOUS
62
3
100
AcDbCircle
10
536.750000000000
20
333.900000000000
30
0.0
40
1.400000027931
100
AcDbArc
50
92.999984741211
51
142.968292236328
0
ARC
5
764
100
AcDbEntity
8
0-202
6
CONTINUOUS
62
3
100
AcDbCircle
10
590.060000000000
20
313.100000000000
30
0.0
40
1.400000027931
100
AcDbArc
50
49.999969482422
51
89.999984741211
0
ARC
5
765
100
AcDbEntity
8
0-202
6
CONTINUOUS
62
3
100
AcDbCircle
10
607.360000000000
20
290.640000000000
30
0.0
40
12.800000587152
100
AcDbArc
50
37.031661987305
51
49.999969482422
0
ARC
5
766
100
AcDbEntity
8
0-202
6
CONTINUOUS
62
3
100
AcDbCircle
10
536.950000000000
20
333.540000000000
30
0.0
40
4.200000374105
100
AcDbArc
50
92.999984741211
51
142.968292236328
0
ARC
5
767
100
AcDbEntity
8
0-202
6
CONTINUOUS
62
3
100
AcDbCircle
10
589.920000000000
20
312.730000000000
30
0.0
40
4.200000374105
100
AcDbArc
50
49.999969482422
51
89.999984741211
0
ARC
5
768
100
AcDbEntity
8
0-202
6
CONTINUOUS
62
3
100
AcDbCircle
10
590.970000000000
20
315.610000000000
30
0.0
40
4.200000374105
100
AcDbArc
50
49.999969482422
51
89.999984741211
0
ARC
5
769
100
AcDbEntity
8
0-202
6
CONTINUOUS
62
3
100
AcDbCircle
10
553.800000000000
20
334.420000000000
30
0.0
40
4.200000374105
100
AcDbArc
50
360.000000000000
51
452.999984741211
0
ARC
5
76a
100
AcDbEntity
8
0-202
6
CONTINUOUS
62
3
100
AcDbCircle
10
559.400000000000
20
321.210000000000
30
0.0
40
1.400000027931
100
AcDbArc
50
179.999969482422
51
269.999984741211
0
ARC
5
76b
100
AcDbEntity
8
0-202
6
CONTINUOUS
62
3
100
AcDbCircle
10
559.400000000000
20
318.700000000000
30
0.0
40
4.200000374105
100
AcDbArc
50
179.999969482422
51
269.999984741211
0
ARC
5
76c
100
AcDbEntity
8
0-202
6
CONTINUOUS
62
3
100
AcDbCircle
10
569.840000000000
20
326.160000000000
30
0.0
40
4.907479886367
100
AcDbArc
50
59.999969482422
51
119.999969482422
0
ARC
5
76d
100
AcDbEntity
8
0-202
6
CONTINUOUS
62
3
100
AcDbCircle
10
1024.840000000000
20
326.160000000000
30
0.0
40
4.907479886367
100
AcDbArc
50
59.999969482422
51
119.999969482422
0
ARC
5
76e
100
AcDbEntity
8
0-202
6
CONTINUOUS
62
3
100
AcDbCircle
10
920.540000000000
20
248.810000000000
30
0.0
40
4.200000374105
100
AcDbArc
50
270.000000000000
51
322.968307495117
0
ARC
5
76f
100
AcDbEntity
8
0-202
6
CONTINUOUS
62
3
100
AcDbCircle
10
1014.400000000000
20
318.330000000000
30
0.0
40
1.400000027931
100
AcDbArc
50
179.999969482422
51
269.999984741211
0
ARC
5
770
100
AcDbEntity
8
0-202
6
CONTINUOUS
62
3
100
AcDbCircle
10
989.170000000000
20
338.760000000000
30
0.0
40
4.200000374105
100
AcDbArc
50
92.999984741211
51
142.968292236328
0
ARC
5
771
100
AcDbEntity
8
0-202
6
CONTINUOUS
62
3
100
AcDbCircle
10
1059.110000000000
20
302.650000000000
30
0.0
40
2.800000055861
100
AcDbArc
50
37.031661987305
51
49.999984741211
0
ARC
5
772
100
AcDbEntity
8
0-202
6
CONTINUOUS
62
3
100
AcDbCircle
10
1008.800000000000
20
339.790000000000
30
0.0
40
4.200000374105
100
AcDbArc
50
360.000000000000
51
452.999984741211
0
ARC
5
773
100
AcDbEntity
8
0-202
6
CONTINUOUS
62
3
100
AcDbCircle
10
1008.800000000000
20
334.800000000000
30
0.0
40
1.400000027931
100
AcDbArc
50
360.000000000000
51
452.999984741211
0
ARC
5
774
100
AcDbEntity
8
0-202
6
CONTINUOUS
62
3
100
AcDbCircle
10
584.560000000000
20
326.160000000000
30
0.0
40
4.907479886367
100
AcDbArc
50
59.999969482422
51
119.999969482422
0
ARC
5
775
100
AcDbEntity
8
0-202
6
CONTINUOUS
62
3
100
AcDbCircle
10
991.750000000000
20
333.900000000000
30
0.0
40
1.400000027931
100
AcDbArc
50
92.999984741211
51
142.968292236328
0
ARC
5
776
100
AcDbEntity
8
0-202
6
CONTINUOUS
62
3
100
AcDbCircle
10
1045.060000000000
20
313.100000000000
30
0.0
40
1.400000027931
100
AcDbArc
50
49.999969482422
51
89.999984741211
0
ARC
5
777
100
AcDbEntity
8
0-202
6
CONTINUOUS
62
3
100
AcDbCircle
10
1062.360000000000
20
290.640000000000
30
0.0
40
12.800000587152
100
AcDbArc
50
37.031661987305
51
49.999969482422
0
ARC
5
778
100
AcDbEntity
8
0-202
6
CONTINUOUS
62
3
100
AcDbCircle
10
577.200000000000
20
317.530000000000
30
0.0
40
13.779203318052
100
AcDbArc
50
69.135986328125
51
110.863998413086
0
ARC
5
779
100
AcDbEntity
8
0-202
6
CONTINUOUS
62
3
100
AcDbCircle
10
991.950000000000
20
333.540000000000
30
0.0
40
4.200000374105
100
AcDbArc
50
92.999984741211
51
142.968292236328
0
ARC
5
77a
100
AcDbEntity
8
0-202
6
CONTINUOUS
62
3
100
AcDbCircle
10
1044.920000000000
20
312.730000000000
30
0.0
40
4.200000374105
100
AcDbArc
50
49.999969482422
51
89.999984741211
0
ARC
5
77b
100
AcDbEntity
8
0-202
6
CONTINUOUS
62
3
100
AcDbCircle
10
1045.970000000000
20
315.610000000000
30
0.0
40
4.200000374105
100
AcDbArc
50
49.999969482422
51
89.999984741211
0
ARC
5
77c
100
AcDbEntity
8
0-202
6
CONTINUOUS
62
3
100
AcDbCircle
10
1008.800000000000
20
334.420000000000
30
0.0
40
4.200000374105
100
AcDbArc
50
360.000000000000
51
452.999984741211
0
ARC
5
77d
100
AcDbEntity
8
0-202
6
CONTINUOUS
62
3
100
AcDbCircle
10
1014.400000000000
20
321.210000000000
30
0.0
40
1.400000027931
100
AcDbArc
50
179.999969482422
51
269.999984741211
0
ARC
5
77e
100
AcDbEntity
8
0-202
6
CONTINUOUS
62
3
100
AcDbCircle
10
1014.400000000000
20
318.700000000000
30
0.0
40
4.200000374105
100
AcDbArc
50
179.999969482422
51
269.999984741211
0
ARC
5
77f
100
AcDbEntity
8
0-202
6
CONTINUOUS
62
3
100
AcDbCircle
10
586.200000000000
20
315.510000000000
30
0.0
40
2.000000164321
100
AcDbArc
50
270.000000000000
51
329.614776611328
0
ARC
5
780
100
AcDbEntity
8
0-202
6
CONTINUOUS
62
3
100
AcDbCircle
10
568.200000000000
20
315.510000000000
30
0.0
40
2.000000164321
100
AcDbArc
50
210.385208129883
51
270.000000000000
0
ARC
5
781
100
AcDbEntity
8
0-202
6
CONTINUOUS
62
3
100
AcDbCircle
10
582.450000000000
20
321.510000000000
30
0.0
40
1.800000264014
100
AcDbArc
50
84.468582153320
51
89.999984741211
0
ARC
5
782
100
AcDbEntity
8
0-202
6
CONTINUOUS
62
3
100
AcDbCircle
10
915.360000000000
20
250.210000000000
30
0.0
40
1.400000027931
100
AcDbArc
50
270.000000000000
51
322.968307495117
0
ARC
5
783
100
AcDbEntity
8
0-202
6
CONTINUOUS
62
3
100
AcDbCircle
10
914.300000000000
20
248.810000000000
30
0.0
40
1.400000027931
100
AcDbArc
50
270.000000000000
51
322.968307495117
0
ARC
5
784
100
AcDbEntity
8
0-202
6
CONTINUOUS
62
3
100
AcDbCircle
10
649.980000000000
20
248.810000000000
30
0.0
40
1.400000027931
100
AcDbArc
50
217.031677246094
51
270.000000000000
0
ARC
5
785
100
AcDbEntity
8
0-202
6
CONTINUOUS
62
3
100
AcDbCircle
10
1039.560000000000
20
326.160000000000
30
0.0
40
4.907479886367
100
AcDbArc
50
59.999969482422
51
119.999969482422
0
ARC
5
786
100
AcDbEntity
8
0-202
6
CONTINUOUS
62
3
100
AcDbCircle
10
1032.200000000000
20
317.530000000000
30
0.0
40
13.779203318052
100
AcDbArc
50
69.135986328125
51
110.863998413086
0
ARC
5
787
100
AcDbEntity
8
0-202
6
CONTINUOUS
62
3
100
AcDbCircle
10
1041.200000000000
20
315.510000000000
30
0.0
40
2.000000164321
100
AcDbArc
50
270.000000000000
51
329.614776611328
0
ARC
5
788
100
AcDbEntity
8
0-202
6
CONTINUOUS
62
3
100
AcDbCircle
10
1023.200000000000
20
315.510000000000
30
0.0
40
2.000000164321
100
AcDbArc
50
210.385208129883
51
270.000000000000
0
ARC
5
789
100
AcDbEntity
8
0-202
6
CONTINUOUS
62
3
100
AcDbCircle
10
1037.450000000000
20
321.510000000000
30
0.0
40
1.800000264014
100
AcDbArc
50
84.468582153320
51
89.999984741211
0
ARC
5
78a
100
AcDbEntity
8
0-202
6
CONTINUOUS
62
4
100
AcDbCircle
10
545.400000000000
20
364.610000000000
30
0.0
40
1.200000127624
100
AcDbArc
50
89.999984741211
51
224.770782470703
0
ARC
5
78b
100
AcDbEntity
8
0-202
6
CONTINUOUS
62
7
100
AcDbCircle
10
558.500000000000
20
365.510000000000
30
0.0
40
1.000000082160
100
AcDbArc
50
360.000000000000
51
449.999984741211
0
ARC
5
78c
100
AcDbEntity
8
0-202
6
CONTINUOUS
62
7
100
AcDbCircle
10
558.500000000000
20
365.510000000000
30
0.0
40
2.000000164321
100
AcDbArc
50
360.000000000000
51
449.999984741211
0
ARC
5
78d
100
AcDbEntity
8
0-202
6
CONTINUOUS
62
7
100
AcDbCircle
10
561.500000000000
20
347.450000000000
30
0.0
40
1.000000082160
100
AcDbArc
50
179.999969482422
51
266.186004638672
0
ARC
5
78e
100
AcDbEntity
8
0-202
6
CONTINUOUS
62
7
100
AcDbCircle
10
561.500000000000
20
347.450000000000
30
0.0
40
2.000000164321
100
AcDbArc
50
179.999969482422
51
266.186004638672
0
ARC
5
78f
100
AcDbEntity
8
0-202
6
CONTINUOUS
62
7
100
AcDbCircle
10
658.420000000000
20
256.610000000000
30
0.0
40
1.000000082160
100
AcDbArc
50
217.178192138672
51
270.000000000000
0
ARC
5
790
100
AcDbEntity
8
0-202
6
CONTINUOUS
62
7
100
AcDbCircle
10
658.420000000000
20
256.610000000000
30
0.0
40
2.000000164321
100
AcDbArc
50
217.178192138672
51
270.000000000000
0
ARC
5
791
100
AcDbEntity
8
0-202
6
CONTINUOUS
62
7
100
AcDbCircle
10
589.460000000000
20
342.580000000000
30
0.0
40
1.000000082160
100
AcDbArc
50
37.176208496094
51
86.186019897461
0
ARC
5
792
100
AcDbEntity
8
0-202
6
CONTINUOUS
62
7
100
AcDbCircle
10
589.460000000000
20
342.580000000000
30
0.0
40
2.000000164321
100
AcDbArc
50
37.176208496094
51
86.186019897461
0
ARC
5
793
100
AcDbEntity
8
0-202
6
CONTINUOUS
62
7
100
AcDbCircle
10
555.500000000000
20
362.310000000000
30
0.0
40
2.000000164321
100
AcDbArc
50
360.000000000000
51
408.300933837891
0
ARC
5
794
100
AcDbEntity
8
0-202
6
CONTINUOUS
62
7
100
AcDbCircle
10
555.500000000000
20
347.450000000000
30
0.0
40
2.000000164321
100
AcDbArc
50
273.813964843750
51
359.999984741211
0
ARC
5
795
100
AcDbEntity
8
0-202
6
CONTINUOUS
62
7
100
AcDbCircle
10
555.500000000000
20
347.450000000000
30
0.0
40
1.000000082160
100
AcDbArc
50
273.813964843750
51
359.999984741211
0
ARC
5
796
100
AcDbEntity
8
0-202
6
CONTINUOUS
62
7
100
AcDbCircle
10
530.510000000000
20
342.780000000000
30
0.0
40
1.000000082160
100
AcDbArc
50
93.813873291016
51
141.253280639648
0
ARC
5
797
100
AcDbEntity
8
0-202
6
CONTINUOUS
62
7
100
AcDbCircle
10
530.510000000000
20
342.780000000000
30
0.0
40
2.000000164321
100
AcDbArc
50
93.813873291016
51
141.253280639648
0
ARC
5
798
100
AcDbEntity
8
0-202
6
CONTINUOUS
62
7
100
AcDbCircle
10
1016.500000000000
20
347.450000000000
30
0.0
40
1.000000082160
100
AcDbArc
50
179.999969482422
51
266.186004638672
0
ARC
5
799
100
AcDbEntity
8
0-202
6
CONTINUOUS
62
7
100
AcDbCircle
10
1016.500000000000
20
347.450000000000
30
0.0
40
2.000000164321
100
AcDbArc
50
179.999969482422
51
266.186004638672
0
ARC
5
79a
100
AcDbEntity
8
0-202
6
CONTINUOUS
62
7
100
AcDbCircle
10
1044.460000000000
20
342.580000000000
30
0.0
40
1.000000082160
100
AcDbArc
50
37.176208496094
51
86.186019897461
0
ARC
5
79b
100
AcDbEntity
8
0-202
6
CONTINUOUS
62
7
100
AcDbCircle
10
1044.460000000000
20
342.580000000000
30
0.0
40
2.000000164321
100
AcDbArc
50
37.176208496094
51
86.186019897461
0
ARC
5
79c
100
AcDbEntity
8
0-202
6
CONTINUOUS
62
7
100
AcDbCircle
10
1010.500000000000
20
347.450000000000
30
0.0
40
2.000000164321
100
AcDbArc
50
273.813964843750
51
359.999984741211
0
ARC
5
79d
100
AcDbEntity
8
0-202
6
CONTINUOUS
62
7
100
AcDbCircle
10
1010.500000000000
20
347.450000000000
30
0.0
40
1.000000082160
100
AcDbArc
50
273.813964843750
51
359.999984741211
0
ARC
5
79e
100
AcDbEntity
8
0-202
6
CONTINUOUS
62
7
100
AcDbCircle
10
912.520000000000
20
256.610000000000
30
0.0
40
1.000000082160
100
AcDbArc
50
270.000000000000
51
321.253295898438
0
ARC
5
79f
100
AcDbEntity
8
0-202
6
CONTINUOUS
62
7
100
AcDbCircle
10
912.520000000000
20
256.610000000000
30
0.0
40
2.000000164321
100
AcDbArc
50
270.000000000000
51
321.253295898438
0
ARC
5
7a0
100
AcDbEntity
8
0-202
6
CONTINUOUS
62
7
100
AcDbCircle
10
985.510000000000
20
342.780000000000
30
0.0
40
1.000000082160
100
AcDbArc
50
93.813873291016
51
141.253280639648
0
ARC
5
7a1
100
AcDbEntity
8
0-202
6
CONTINUOUS
62
7
100
AcDbCircle
10
985.510000000000
20
342.780000000000
30
0.0
40
2.000000164321
100
AcDbArc
50
93.813873291016
51
141.253280639648
0
ARC
5
7a2
100
AcDbEntity
8
0-202
6
CONTINUOUS
62
4
100
AcDbCircle
10
912.520000000000
20
256.610000000000
30
0.0
40
6.000000783277
100
AcDbArc
50
270.000000000000
51
321.253295898438
0
ARC
5
7a3
100
AcDbEntity
8
0-202
6
CONTINUOUS
62
4
100
AcDbCircle
10
658.420000000000
20
256.610000000000
30
0.0
40
6.000000783277
100
AcDbArc
50
217.178192138672
51
270.000000000000
0
ARC
5
7a4
100
AcDbEntity
8
0-101
6
CONTINUOUS
62
3
100
AcDbCircle
10
257.360000000000
20
238.010000000000
30
0.0
40
2.800000055861
100
AcDbArc
50
57.262237548828
51
89.999984741211
0
ARC
5
7a5
100
AcDbEntity
8
0-101
6
CONTINUOUS
62
3
100
AcDbCircle
10
232.360000000000
20
239.410000000000
30
0.0
40
2.800000055861
100
AcDbArc
50
270.000000000000
51
302.737731933594
0
ARC
5
7a6
100
AcDbEntity
8
0-101
6
CONTINUOUS
62
3
100
AcDbCircle
10
260.360000000000
20
239.410000000000
30
0.0
40
2.800000055861
100
AcDbArc
50
237.262252807617
51
270.000000000000
0
ARC
5
7a7
100
AcDbEntity
8
0-101
6
CONTINUOUS
62
3
100
AcDbCircle
10
235.360000000000
20
238.010000000000
30
0.0
40
2.800000055861
100
AcDbArc
50
89.999984741211
51
122.737716674805
0
ARC
5
7a8
100
AcDbEntity
8
0-101
6
CONTINUOUS
62
3
100
AcDbCircle
10
246.360000000000
20
333.410000000000
30
0.0
40
41.904527677487
100
AcDbArc
50
241.492370605469
51
298.507583618164
0
ARC
5
7a9
100
AcDbEntity
8
0-101
6
CONTINUOUS
62
3
100
AcDbCircle
10
250.610000000000
20
310.890000000000
30
0.0
40
12.275601054381
100
AcDbArc
50
69.744369506836
51
110.255981445313
0
ARC
5
7aa
100
AcDbEntity
8
0-101
6
CONTINUOUS
62
3
100
AcDbCircle
10
242.110000000000
20
310.890000000000
30
0.0
40
12.275601054381
100
AcDbArc
50
69.744369506836
51
110.255981445313
0
ARC
5
7ab
100
AcDbEntity
8
0-101
6
CONTINUOUS
62
4
100
AcDbCircle
10
229.360000000000
20
314.180000000000
30
0.0
40
8.794045923499
100
AcDbArc
50
204.535171508789
51
269.999984741211
0
ARC
5
7ac
100
AcDbEntity
8
0-101
6
CONTINUOUS
62
4
100
AcDbCircle
10
229.360000000000
20
315.100000000000
30
0.0
40
8.794045923499
100
AcDbArc
50
204.535171508789
51
270.000000000000
0
ARC
5
7ad
100
AcDbEntity
8
0-101
6
CONTINUOUS
62
4
100
AcDbCircle
10
264.360000000000
20
323.810000000000
30
0.0
40
4.000000328642
100
AcDbArc
50
12.540130615234
51
167.459823608398
0
ARC
5
7ae
100
AcDbEntity
8
0-101
6
CONTINUOUS
62
4
100
AcDbCircle
10
228.360000000000
20
323.810000000000
30
0.0
40
4.000000328642
100
AcDbArc
50
12.540130615234
51
167.459823608398
0
ARC
5
7af
100
AcDbEntity
8
0-101
6
CONTINUOUS
62
4
100
AcDbCircle
10
263.360000000000
20
314.180000000000
30
0.0
40
8.794045923499
100
AcDbArc
50
269.999984741211
51
335.464813232422
0
ARC
5
7b0
100
AcDbEntity
8
0-101
6
CONTINUOUS
62
4
100
AcDbCircle
10
263.360000000000
20
315.100000000000
30
0.0
40
8.794045923499
100
AcDbArc
50
270.000000000000
51
335.464813232422
0
ARC
5
7b1
100
AcDbEntity
8
0-101
6
CONTINUOUS
62
4
100
AcDbCircle
10
264.360000000000
20
307.470000000000
30
0.0
40
8.541666890646
100
AcDbArc
50
40.449691772461
51
139.550262451172
0
ARC
5
7b2
100
AcDbEntity
8
0-101
6
CONTINUOUS
62
4
100
AcDbCircle
10
228.360000000000
20
307.470000000000
30
0.0
40
8.541666890646
100
AcDbArc
50
40.449691772461
51
139.550262451172
0
ARC
5
7b3
100
AcDbEntity
8
0-101
6
CONTINUOUS
62
3
100
AcDbCircle
10
241.110000000000
20
313.510000000000
30
0.0
40
1.800000264014
100
AcDbArc
50
89.999984741211
51
95.531372070313
0
ARC
5
7b4
100
AcDbEntity
8
0-101
6
CONTINUOUS
62
3
100
AcDbCircle
10
251.610000000000
20
313.510000000000
30
0.0
40
1.800000264014
100
AcDbArc
50
84.468582153320
51
89.999984741211
0
ARC
5
7b5
100
AcDbEntity
8
0-000
6
CONTINUOUS
62
7
100
AcDbCircle
10
1011.000000000000
20
690.940000000000
30
0.0
40
1.000000082160
100
AcDbArc
50
360.000000000000
51
449.999984741211
0
ARC
5
7b6
100
AcDbEntity
8
0-000
6
CONTINUOUS
62
7
100
AcDbCircle
10
556.000000000000
20
694.140000000000
30
0.0
40
1.000000082160
100
AcDbArc
50
360.000000000000
51
449.999984741211
0
ARC
5
7b7
100
AcDbEntity
8
0-000
6
CONTINUOUS
62
7
100
AcDbCircle
10
556.000000000000
20
694.140000000000
30
0.0
40
2.000000164321
100
AcDbArc
50
360.000000000000
51
449.999984741211
0
ARC
5
7b8
100
AcDbEntity
8
0-000
6
CONTINUOUS
62
7
100
AcDbCircle
10
1011.000000000000
20
690.940000000000
30
0.0
40
2.000000164321
100
AcDbArc
50
48.300933837891
51
89.999969482422
0
ARC
5
7b9
100
AcDbEntity
8
0-000
6
CONTINUOUS
62
7
100
AcDbCircle
10
1011.000000000000
20
690.940000000000
30
0.0
40
2.000000164321
100
AcDbArc
50
360.000000000000
51
408.300933837891
0
ARC
5
7ba
100
AcDbEntity
8
0-000
6
CONTINUOUS
62
7
100
AcDbCircle
10
559.000000000000
20
676.080000000000
30
0.0
40
1.000000082160
100
AcDbArc
50
179.999969482422
51
266.186004638672
0
ARC
5
7bb
100
AcDbEntity
8
0-000
6
CONTINUOUS
62
7
100
AcDbCircle
10
559.000000000000
20
676.080000000000
30
0.0
40
2.000000164321
100
AcDbArc
50
179.999969482422
51
266.186004638672
0
ARC
5
7bc
100
AcDbEntity
8
0-000
6
CONTINUOUS
62
7
100
AcDbCircle
10
655.920000000000
20
585.240000000000
30
0.0
40
1.000000082160
100
AcDbArc
50
217.178192138672
51
270.000000000000
0
ARC
5
7bd
100
AcDbEntity
8
0-000
6
CONTINUOUS
62
7
100
AcDbCircle
10
655.920000000000
20
585.240000000000
30
0.0
40
2.000000164321
100
AcDbArc
50
217.178192138672
51
270.000000000000
0
ARC
5
7be
100
AcDbEntity
8
0-000
6
CONTINUOUS
62
7
100
AcDbCircle
10
586.960000000000
20
671.210000000000
30
0.0
40
1.000000082160
100
AcDbArc
50
37.176208496094
51
86.186019897461
0
ARC
5
7bf
100
AcDbEntity
8
0-000
6
CONTINUOUS
62
7
100
AcDbCircle
10
586.960000000000
20
671.210000000000
30
0.0
40
2.000000164321
100
AcDbArc
50
37.176208496094
51
86.186019897461
0
ARC
5
7c0
100
AcDbEntity
8
0-000
6
CONTINUOUS
62
7
100
AcDbCircle
10
544.000000000000
20
694.140000000000
30
0.0
40
1.000000082160
100
AcDbArc
50
89.999984741211
51
179.999984741211
0
ARC
5
7c1
100
AcDbEntity
8
0-000
6
CONTINUOUS
62
7
100
AcDbCircle
10
544.000000000000
20
694.140000000000
30
0.0
40
2.000000164321
100
AcDbArc
50
89.999984741211
51
179.999984741211
0
ARC
5
7c2
100
AcDbEntity
8
0-101
6
CONTINUOUS
62
3
100
AcDbCircle
10
235.610000000000
20
220.610000000000
30
0.0
40
7.999947820181
100
AcDbArc
50
359.999740600586
51
89.999725341797
0
ARC
5
7c3
100
AcDbEntity
8
0-101
6
CONTINUOUS
62
3
100
AcDbCircle
10
257.110000000000
20
220.610000000000
30
0.0
40
7.999947820181
100
AcDbArc
50
89.999725341797
51
179.999725341797
0
ARC
5
7c4
100
AcDbEntity
8
0-000
6
CONTINUOUS
62
7
100
AcDbCircle
10
1011.000000000000
20
676.080000000000
30
0.0
40
1.000000082160
100
AcDbArc
50
273.813964843750
51
359.999984741211
0
ARC
5
7c5
100
AcDbEntity
8
0-000
6
CONTINUOUS
62
7
100
AcDbCircle
10
1011.000000000000
20
676.080000000000
30
0.0
40
2.000000164321
100
AcDbArc
50
273.813964843750
51
359.999984741211
0
ARC
5
7c6
100
AcDbEntity
8
0-000
6
CONTINUOUS
62
7
100
AcDbCircle
10
983.040000000000
20
671.210000000000
30
0.0
40
1.000000082160
100
AcDbArc
50
93.813949584961
51
142.823776245117
0
ARC
5
7c7
100
AcDbEntity
8
0-000
6
CONTINUOUS
62
7
100
AcDbCircle
10
983.040000000000
20
671.210000000000
30
0.0
40
2.000000164321
100
AcDbArc
50
93.813949584961
51
142.823776245117
0
ARC
5
7c8
100
AcDbEntity
8
0-000
6
CONTINUOUS
62
7
100
AcDbCircle
10
913.080000000000
20
585.240000000000
30
0.0
40
2.000000164321
100
AcDbArc
50
269.999984741211
51
322.409835815430
0
ARC
5
7c9
100
AcDbEntity
8
0-000
6
CONTINUOUS
62
7
100
AcDbCircle
10
913.080000000000
20
585.240000000000
30
0.0
40
1.000000082160
100
AcDbArc
50
269.999984741211
51
322.410095214844
0
ARC
5
7ca
100
AcDbEntity
8
0-202
6
CONTINUOUS
62
7
100
AcDbCircle
10
545.800000000000
20
364.710000000000
30
0.0
40
1.800000264014
100
AcDbArc
50
89.999984741211
51
224.770782470703
0
ARC
5
7cb
100
AcDbEntity
8
0-202
6
CONTINUOUS
62
7
100
AcDbCircle
10
545.800000000000
20
364.710000000000
30
0.0
40
2.800000636489
100
AcDbArc
50
89.999984741211
51
224.770782470703
0
ARC
5
7cc
100
AcDbEntity
8
0-202
6
CONTINUOUS
62
7
100
AcDbCircle
10
555.500000000000
20
362.310000000000
30
0.0
40
1.000000082160
100
AcDbArc
50
360.000000000000
51
445.303527832031
0
ARC
5
7cd
100
AcDbEntity
8
0-202
6
CONTINUOUS
62
7
100
AcDbCircle
10
555.500000000000
20
362.310000000000
30
0.0
40
2.000000164321
100
AcDbArc
50
48.300933837891
51
86.074356079102
0
ARC
5
7ce
100
AcDbEntity
8
0-202
6
CONTINUOUS
62
4
100
AcDbCircle
10
1013.000000000000
20
364.610000000000
30
0.0
40
1.200000127624
100
AcDbArc
50
360.000000000000
51
449.999984741211
0
ARC
5
7cf
100
AcDbEntity
8
0-202
6
CONTINUOUS
62
4
100
AcDbCircle
10
1000.400000000000
20
364.610000000000
30
0.0
40
1.200000127624
100
AcDbArc
50
89.999984741211
51
224.770782470703
0
ARC
5
7d0
100
AcDbEntity
8
0-202
6
CONTINUOUS
62
7
100
AcDbCircle
10
1013.500000000000
20
365.510000000000
30
0.0
40
1.000000082160
100
AcDbArc
50
360.000000000000
51
449.999984741211
0
ARC
5
7d1
100
AcDbEntity
8
0-202
6
CONTINUOUS
62
7
100
AcDbCircle
10
1013.500000000000
20
365.510000000000
30
0.0
40
2.000000164321
100
AcDbArc
50
360.000000000000
51
449.999984741211
0
ARC
5
7d2
100
AcDbEntity
8
0-202
6
CONTINUOUS
62
7
100
AcDbCircle
10
1010.500000000000
20
362.310000000000
30
0.0
40
2.000000164321
100
AcDbArc
50
360.000000000000
51
408.300933837891
0
ARC
5
7d3
100
AcDbEntity
8
0-202
6
CONTINUOUS
62
7
100
AcDbCircle
10
1000.800000000000
20
364.710000000000
30
0.0
40
1.800000264014
100
AcDbArc
50
89.999984741211
51
224.770782470703
0
ARC
5
7d4
100
AcDbEntity
8
0-202
6
CONTINUOUS
62
7
100
AcDbCircle
10
1000.800000000000
20
364.710000000000
30
0.0
40
2.800000636489
100
AcDbArc
50
89.999984741211
51
224.770782470703
0
ARC
5
7d5
100
AcDbEntity
8
0-202
6
CONTINUOUS
62
7
100
AcDbCircle
10
1010.500000000000
20
362.310000000000
30
0.0
40
1.000000082160
100
AcDbArc
50
360.000000000000
51
445.303527832031
0
ARC
5
7d6
100
AcDbEntity
8
0-202
6
CONTINUOUS
62
7
100
AcDbCircle
10
1010.500000000000
20
362.310000000000
30
0.0
40
2.000000164321
100
AcDbArc
50
48.300933837891
51
86.074356079102
0
ARC
5
7d7
100
AcDbEntity
8
0-202
6
CONTINUOUS
62
3
100
AcDbCircle
10
655.640000000000
20
250.210000000000
30
0.0
40
1.400000027931
100
AcDbArc
50
217.031677246094
51
270.000000000000
0
ARC
5
7d8
100
AcDbEntity
8
0-202
6
CONTINUOUS
62
3
100
AcDbCircle
10
656.700000000000
20
248.810000000000
30
0.0
40
1.400000027931
100
AcDbArc
50
217.031677246094
51
270.000000000000
0
ARC
5
7d9
100
AcDbEntity
8
0-000
6
CONTINUOUS
62
7
100
AcDbCircle
10
753.470000000000
20
585.240000000000
30
0.0
40
1.000000082160
100
AcDbArc
50
270.000000000000
51
315.000000000000
0
ARC
5
7da
100
AcDbEntity
8
0-000
6
CONTINUOUS
62
7
100
AcDbCircle
10
753.470000000000
20
585.240000000000
30
0.0
40
2.000000164321
100
AcDbArc
50
270.000000000000
51
315.000000000000
0
ARC
5
7db
100
AcDbEntity
8
0-000
6
CONTINUOUS
62
7
100
AcDbCircle
10
756.270000000000
20
583.800000000000
30
0.0
40
1.000000082160
100
AcDbArc
50
90.000000000000
51
135.000000000000
0
ARC
5
7dc
100
AcDbEntity
8
0-000
6
CONTINUOUS
62
7
100
AcDbCircle
10
756.270000000000
20
583.800000000000
30
0.0
40
2.000000164321
100
AcDbArc
50
90.000000000000
51
135.000000000000
0
ARC
5
7dd
100
AcDbEntity
8
0-000
6
CONTINUOUS
62
7
100
AcDbCircle
10
815.530000000000
20
585.240000000000
30
0.0
40
1.000000082160
100
AcDbArc
50
225.000000000000
51
270.000000000000
0
ARC
5
7de
100
AcDbEntity
8
0-000
6
CONTINUOUS
62
7
100
AcDbCircle
10
815.530000000000
20
585.240000000000
30
0.0
40
2.000000164321
100
AcDbArc
50
225.000000000000
51
270.000000000000
0
ARC
5
7df
100
AcDbEntity
8
0-000
6
CONTINUOUS
62
7
100
AcDbCircle
10
812.730000000000
20
583.800000000000
30
0.0
40
1.000000082160
100
AcDbArc
50
45.000000000000
51
90.000000000000
0
ARC
5
7e0
100
AcDbEntity
8
0-000
6
CONTINUOUS
62
7
100
AcDbCircle
10
812.730000000000
20
583.800000000000
30
0.0
40
2.000000164321
100
AcDbArc
50
45.000000000000
51
90.000000000000
0
ARC
5
7e1
100
AcDbEntity
8
0-202
6
CONTINUOUS
62
7
100
AcDbCircle
10
753.970000000000
20
256.560000000000
30
0.0
40
1.000000082160
100
AcDbArc
50
270.000000000000
51
315.000000000000
0
ARC
5
7e2
100
AcDbEntity
8
0-202
6
CONTINUOUS
62
7
100
AcDbCircle
10
753.970000000000
20
256.560000000000
30
0.0
40
2.000000164321
100
AcDbArc
50
270.000000000000
51
315.000000000000
0
ARC
5
7e3
100
AcDbEntity
8
0-202
6
CONTINUOUS
62
7
100
AcDbCircle
10
756.770000000000
20
255.120000000000
30
0.0
40
1.000000082160
100
AcDbArc
50
90.000000000000
51
135.000000000000
0
ARC
5
7e4
100
AcDbEntity
8
0-202
6
CONTINUOUS
62
7
100
AcDbCircle
10
756.770000000000
20
255.120000000000
30
0.0
40
2.000000164321
100
AcDbArc
50
90.000000000000
51
135.000000000000
0
ARC
5
7e5
100
AcDbEntity
8
0-202
6
CONTINUOUS
62
7
100
AcDbCircle
10
816.030000000000
20
256.560000000000
30
0.0
40
1.000000082160
100
AcDbArc
50
225.000000000000
51
270.000000000000
0
ARC
5
7e6
100
AcDbEntity
8
0-202
6
CONTINUOUS
62
7
100
AcDbCircle
10
816.030000000000
20
256.560000000000
30
0.0
40
2.000000164321
100
AcDbArc
50
225.000000000000
51
270.000000000000
0
ARC
5
7e7
100
AcDbEntity
8
0-202
6
CONTINUOUS
62
7
100
AcDbCircle
10
813.230000000000
20
255.120000000000
30
0.0
40
1.000000082160
100
AcDbArc
50
45.000000000000
51
90.000000000000
0
ARC
5
7e8
100
AcDbEntity
8
0-202
6
CONTINUOUS
62
7
100
AcDbCircle
10
813.230000000000
20
255.120000000000
30
0.0
40
2.000000164321
100
AcDbArc
50
45.000000000000
51
90.000000000000
0
TEXT
5
7e9
100
AcDbEntity
8
F-F
62
7
370
-3
100
AcDbText
10
399.068
20
56.814
30
0.0
40
3.692
1
変　　　　　　更　　　　　　記　　　　　　事
41
0.999
50
0.000
100
AcDbText
0
TEXT
5
7ea
100
AcDbEntity
8
F-F
62
7
370
-3
100
AcDbText
10
611.869
20
56.214
30
0.0
40
3.692
1
受領　　日附
41
0.999
50
0.000
100
AcDbText
0
TEXT
5
7eb
100
AcDbEntity
8
F-F
62
7
370
-3
100
AcDbText
10
760.532
20
34.140
30
0.0
40
3.692
1
施工者
41
0.999
50
0.000
100
AcDbText
0
TEXT
5
7ec
100
AcDbEntity
8
F-F
62
7
370
-3
100
AcDbText
10
760.532
20
56.363
30
0.0
40
3.692
1
設計者
41
0.999
50
0.000
100
AcDbText
0
TEXT
5
7ed
100
AcDbEntity
8
F-F
62
7
370
-3
100
AcDbText
10
914.644
20
33.733
30
0.0
40
3.692
1
作図
41
0.999
50
0.000
100
AcDbText
0
TEXT
5
7ee
100
AcDbEntity
8
F-F
62
7
370
-3
100
AcDbText
10
968.514
20
34.131
30
0.0
40
3.692
1
図面名
41
0.999
50
0.000
100
AcDbText
0
TEXT
5
7ef
100
AcDbEntity
8
F-F
62
7
370
-3
100
AcDbText
10
914.644
20
55.955
30
0.0
40
3.692
1
日附
41
0.999
50
0.000
100
AcDbText
0
TEXT
5
7f0
100
AcDbEntity
8
F-F
62
7
370
-3
100
AcDbText
10
968.514
20
56.353
30
0.0
40
3.692
1
工事件名
41
0.999
50
0.000
100
AcDbText
0
TEXT
5
7f1
100
AcDbEntity
8
F-F
62
7
370
-3
100
AcDbText
10
931.246
20
55.766
30
0.0
40
3.692
1
年　月　日
41
0.999
50
0.000
100
AcDbText
0
TEXT
5
7f2
100
AcDbEntity
8
F-F
62
7
370
-3
100
AcDbText
10
931.246
20
33.544
30
0.0
40
3.692
1
年　月　日
41
0.999
50
0.000
100
AcDbText
0
TEXT
5
7f3
100
AcDbEntity
8
F-F
62
7
370
-3
100
AcDbText
10
1157.771
20
56.353
30
0.0
40
3.692
1
設計番号
41
0.999
50
0.000
100
AcDbText
0
MTEXT
5
7f4
100
AcDbEntity
8
F-F
62
7
370
-3
100
AcDbMText
10
290.259
20
50.866
30
0.0
40
3.487
41
0.000
71
7
72
1
1
\W1.134;{\W0.817;. }　{\W0.817;.}　{\W0.817; }
7
STANDARD
11
1.00000
21
0.00000
31
0.0
0
MTEXT
5
7f5
100
AcDbEntity
8
F-F
62
7
370
-3
100
AcDbMText
10
290.259
20
43.459
30
0.0
40
3.487
41
0.000
71
7
72
1
1
\W1.134;{\W0.817;. }　{\W0.817;.}　{\W0.817; }
7
STANDARD
11
1.00000
21
0.00000
31
0.0
0
MTEXT
5
7f6
100
AcDbEntity
8
F-F
62
7
370
-3
100
AcDbMText
10
290.259
20
36.051
30
0.0
40
3.487
41
0.000
71
7
72
1
1
\W1.134;{\W0.817;. }　{\W0.817;.}　{\W0.817; }
7
STANDARD
11
1.00000
21
0.00000
31
0.0
0
MTEXT
5
7f7
100
AcDbEntity
8
F-F
62
7
370
-3
100
AcDbMText
10
290.259
20
28.643
30
0.0
40
3.487
41
0.000
71
7
72
1
1
\W1.134;{\W0.817;. }　{\W0.817;.}　{\W0.817; }
7
STANDARD
11
1.00000
21
0.00000
31
0.0
0
MTEXT
5
7f8
100
AcDbEntity
8
F-F
62
7
370
-3
100
AcDbMText
10
290.259
20
21.236
30
0.0
40
3.487
41
0.000
71
7
72
1
1
\W1.134;{\W0.817;. }　{\W0.817;.}　{\W0.817; }
7
STANDARD
11
1.00000
21
0.00000
31
0.0
0
TEXT
5
7f9
100
AcDbEntity
8
F-F
62
3
370
-3
100
AcDbText
10
775.787
20
46.780
30
0.0
40
4.923
1
　　　　　　　　　　
41
0.963
50
0.000
100
AcDbText
0
TEXT
5
7fa
100
AcDbEntity
8
F-F
62
3
370
-3
100
AcDbText
10
775.787
20
24.557
30
0.0
40
4.923
1
　　　　　　　　　　
41
0.963
50
0.000
100
AcDbText
0
TEXT
5
7fb
100
AcDbEntity
8
F-F
62
3
370
-3
100
AcDbText
10
988.384
20
47.940
30
0.0
40
4.923
1
　　　　　　　　　　　　　
41
0.963
50
0.000
100
AcDbText
0
TEXT
5
7fc
100
AcDbEntity
8
F-F
62
7
370
-3
100
AcDbText
10
283.530
20
56.765
30
0.0
40
3.692
1
年　月　日
41
0.999
50
0.000
100
AcDbText
0
TEXT
5
7fd
100
AcDbEntity
8
F-F
62
7
370
-3
100
AcDbText
10
654.747
20
55.776
30
0.0
40
3.692
1
年　　月　　日
41
0.999
50
0.000
100
AcDbText
0
MTEXT
5
7fe
100
AcDbEntity
8
F-F
62
7
370
-3
100
AcDbMText
10
664.161
20
47.549
30
0.0
40
3.487
41
0.000
71
7
72
1
1
\W1.134;{\W0.817;.}　{\W0.817; }　{\W0.817;.}
7
STANDARD
11
1.00000
21
0.00000
31
0.0
0
TEXT
5
7ff
100
AcDbEntity
8
F-F
62
7
370
-3
100
AcDbText
10
611.869
20
33.992
30
0.0
40
3.692
1
受領　　日附
41
0.999
50
0.000
100
AcDbText
0
TEXT
5
800
100
AcDbEntity
8
F-F
62
7
370
-3
100
AcDbText
10
654.747
20
33.554
30
0.0
40
3.692
1
年　　月　　日
41
0.999
50
0.000
100
AcDbText
0
MTEXT
5
801
100
AcDbEntity
8
F-F
62
7
370
-3
100
AcDbMText
10
664.161
20
25.327
30
0.0
40
3.487
41
0.000
71
7
72
1
1
\W1.134;{\W0.817;.}　{\W0.817; }　{\W0.817;.}
7
STANDARD
11
1.00000
21
0.00000
31
0.0
0
MTEXT
5
802
100
AcDbEntity
8
F-F
62
7
370
-3
100
AcDbMText
10
936.325
20
46.264
30
0.0
40
3.487
41
0.000
71
7
72
1
1
\W1.134;{\W0.817;.}　　{\W0.817;.}　
7
STANDARD
11
1.00000
21
0.00000
31
0.0
0
TEXT
5
803
100
AcDbEntity
8
F-F
62
7
370
-3
100
AcDbText
10
1157.771
20
34.131
30
0.0
40
3.692
1
縮　尺
41
0.999
50
0.000
100
AcDbText
0
TEXT
5
804
100
AcDbEntity
8
F-F
62
3
370
-3
100
AcDbText
10
125.001
20
21.575
30
0.0
40
4.923
1
電話（０５４）２６３－２２８０（代表）
41
0.963
50
0.000
100
AcDbText
0
TEXT
5
805
100
AcDbEntity
8
F-F
62
2
370
-3
100
AcDbText
10
92.077
20
45.869
30
0.0
40
9.846
1
小　池　弥　太　郎　商　店
41
0.963
50
0.000
100
AcDbText
0
TEXT
5
806
100
AcDbEntity
8
F-F
62
3
370
-3
100
AcDbText
10
124.998
20
32.700
30
0.0
40
4.923
1
静岡県静岡市葵区流通センター１６番
41
0.963
50
0.000
100
AcDbText
0
TEXT
5
807
100
AcDbEntity
8
F-F
62
7
370
-3
100
AcDbText
10
75.101
20
51.187
30
0.0
40
3.692
1
株
41
0.999
50
0.000
100
AcDbText
0
TEXT
5
808
100
AcDbEntity
8
F-F
62
7
370
-3
100
AcDbText
10
80.464
20
45.750
30
0.0
40
3.692
1
社
41
0.999
50
0.000
100
AcDbText
0
TEXT
5
809
100
AcDbEntity
8
F-F
62
7
370
-3
100
AcDbText
10
75.064
20
45.750
30
0.0
40
3.692
1
会
41
0.999
50
0.000
100
AcDbText
0
TEXT
5
80a
100
AcDbEntity
8
F-F
62
7
370
-3
100
AcDbText
10
80.164
20
51.037
30
0.0
40
3.692
1
式
41
0.999
50
0.000
100
AcDbText
0
TEXT
5
80b
100
AcDbEntity
8
0-202
62
2
370
-3
100
AcDbText
10
961.409
20
246.891
30
0.0
40
11.076
1
10
41
0.806
50
90.000
100
AcDbText
0
TEXT
5
80c
100
AcDbEntity
8
0-101
62
2
370
-3
100
AcDbText
10
296.186
20
299.807
30
0.0
40
11.076
1
吊子
41
0.952
50
360.000
100
AcDbText
0
TEXT
5
80d
100
AcDbEntity
8
0-101
62
2
370
-3
100
AcDbText
10
107.519
20
290.847
30
0.0
40
11.076
1
タイトフレーム
41
0.952
50
0.000
100
AcDbText
0
TEXT
5
80e
100
AcDbEntity
8
0-202
62
2
370
-3
100
AcDbText
10
586.792
20
354.643
30
0.0
40
11.076
1
吊子
41
0.952
50
0.000
100
AcDbText
0
TEXT
5
80f
100
AcDbEntity
8
0-202
62
2
370
-3
100
AcDbText
10
524.203
20
252.989
30
0.0
40
11.076
1
タイトフレーム
41
0.952
50
0.000
100
AcDbText
0
TEXT
5
810
100
AcDbEntity
8
0-000
62
2
370
-3
100
AcDbText
10
677.978
20
625.517
30
0.0
40
11.076
1
90
41
0.649
50
90.000
100
AcDbText
0
TEXT
5
811
100
AcDbEntity
8
0-000
62
2
370
-3
100
AcDbText
10
778.651
20
621.446
30
0.0
40
11.076
41
0.621
50
0.000
1
60
72
1
11
785.963
21
620.215
31
0.0
100
AcDbText
73
1
0
TEXT
5
812
100
AcDbEntity
8
0-202
62
2
370
-3
100
AcDbText
10
779.150
20
292.770
30
0.0
40
11.076
41
0.621
50
0.000
1
60
72
1
11
786.463
21
291.539
31
0.0
100
AcDbText
73
1
0
TEXT
5
813
100
AcDbEntity
8
0-000
62
2
370
-3
100
AcDbText
10
775.275
20
558.379
30
0.0
40
11.076
41
0.541
50
0.000
1
255
72
1
11
786.244
21
557.148
31
0.0
100
AcDbText
73
1
0
TEXT
5
814
100
AcDbEntity
8
0-202
62
2
370
-3
100
AcDbText
10
775.775
20
210.703
30
0.0
40
11.076
41
0.541
50
0.000
1
255
72
1
11
786.744
21
209.473
31
0.0
100
AcDbText
73
1
0
TEXT
5
815
100
AcDbEntity
8
0-202
62
2
370
-3
100
AcDbText
10
510.275
20
403.523
30
0.0
40
11.076
1
@455
41
0.573
50
0.000
100
AcDbText
0
TEXT
5
816
100
AcDbEntity
8
0-202
62
2
370
-3
100
AcDbText
10
775.275
20
404.023
30
0.0
40
11.076
41
0.573
50
0.000
1
455
72
1
11
786.244
21
402.793
31
0.0
100
AcDbText
73
1
0
TEXT
5
817
100
AcDbEntity
8
0-202
62
2
370
-3
100
AcDbText
10
1044.276
20
403.523
30
0.0
40
11.076
1
@455
41
0.573
50
0.000
100
AcDbText
0
TEXT
5
818
100
AcDbEntity
8
0-101
62
2
370
-3
100
AcDbText
10
237.134
20
396.024
30
0.0
40
11.076
41
0.701
50
0.000
1
150
72
1
11
248.103
21
394.793
31
0.0
100
AcDbText
73
1
0
TEXT
5
819
100
AcDbEntity
8
0-101
62
2
370
-3
100
AcDbText
10
375.576
20
285.666
30
0.0
40
11.076
41
0.649
50
90.000
1
90
72
1
11
376.807
21
292.979
31
0.0
100
AcDbText
73
1
0
TEXT
5
81a
100
AcDbEntity
8
0-101
62
2
370
-3
100
AcDbText
10
375.576
20
342.166
30
0.0
40
11.076
41
0.541
50
90.000
1
23
72
1
11
376.807
21
349.479
31
0.0
100
AcDbText
73
1
0
TEXT
5
81b
100
AcDbEntity
8
0-101
62
2
370
-3
100
AcDbText
10
395.576
20
288.841
30
0.0
40
11.076
41
0.632
50
90.000
1
123
72
1
11
396.807
21
299.810
31
0.0
100
AcDbText
73
1
0
TEXT
5
81c
100
AcDbEntity
8
0-101
62
2
370
-3
100
AcDbText
10
372.049
20
220.404
30
0.0
40
11.076
41
0.806
50
90.000
1
10
72
1
11
373.279
21
227.717
31
0.0
100
AcDbText
73
1
0
TEXT
5
81d
100
AcDbEntity
8
0-101
62
2
370
-3
100
AcDbText
10
240.509
20
270.348
30
0.0
40
11.076
41
0.649
50
0.000
1
40
72
1
11
247.821
21
269.118
31
0.0
100
AcDbText
73
1
0
TEXT
5
81e
100
AcDbEntity
8
0-000
62
2
370
-3
100
AcDbText
10
567.150
20
713.699
30
0.0
40
11.076
41
0.629
50
0.000
1
30
72
1
11
574.463
21
712.468
31
0.0
100
AcDbText
73
1
0
TEXT
5
81f
100
AcDbEntity
8
0-000
62
2
370
-3
100
AcDbText
10
524.909
20
681.529
30
0.0
40
11.076
41
0.696
50
90.000
1
18
72
1
11
526.140
21
688.841
31
0.0
100
AcDbText
73
1
0
TEXT
5
820
100
AcDbEntity
8
0-000
62
2
370
-3
100
AcDbText
10
622.113
20
671.667
30
0.0
40
11.076
41
0.512
50
90.000
1
2
72
1
11
623.344
21
675.323
31
0.0
100
AcDbText
73
1
0
TEXT
5
821
100
AcDbEntity
8
0-000
62
2
370
-3
100
AcDbText
10
604.113
20
679.792
30
0.0
40
11.076
41
0.667
50
90.000
1
21
72
1
11
605.344
21
687.104
31
0.0
100
AcDbText
73
1
0
TEXT
5
822
100
AcDbEntity
8
0-000
62
2
370
-3
100
AcDbText
10
986.650
20
713.699
30
0.0
40
11.076
41
0.743
50
0.000
1
19
72
1
11
993.963
21
712.468
31
0.0
100
AcDbText
73
1
0
TEXT
5
823
100
AcDbEntity
8
0-000
62
2
370
-3
100
AcDbText
10
1019.650
20
714.199
30
0.0
40
11.076
41
0.956
50
0.000
1
11
72
1
11
1026.963
21
712.968
31
0.0
100
AcDbText
73
1
0
TEXT
5
824
100
AcDbEntity
8
0-000
62
2
370
-3
100
AcDbText
10
1042.048
20
678.161
30
0.0
40
11.076
41
0.696
50
90.000
1
18
72
1
11
1043.279
21
685.473
31
0.0
100
AcDbText
73
1
0
TEXT
5
825
100
AcDbEntity
8
0-000
62
2
370
-3
100
AcDbText
10
992.151
20
639.691
30
0.0
40
11.076
41
0.629
50
0.000
1
30
72
1
11
999.463
21
638.461
31
0.0
100
AcDbText
73
1
0
TEXT
5
826
100
AcDbEntity
8
0-202
62
2
370
-3
100
AcDbText
10
687.262
20
293.716
30
0.0
40
11.076
41
0.649
50
90.000
1
90
72
1
11
688.492
21
301.028
31
0.0
100
AcDbText
73
1
0
TEXT
5
827
100
AcDbEntity
8
0-202
62
2
370
-3
100
AcDbText
10
687.262
20
350.166
30
0.0
40
11.076
41
0.541
50
90.000
1
23
72
1
11
688.492
21
357.478
31
0.0
100
AcDbText
73
1
0
TEXT
5
828
100
AcDbEntity
8
0-000
62
2
370
-3
100
AcDbText
10
776.275
20
732.699
30
0.0
40
11.076
41
0.573
50
0.000
1
455
72
1
11
787.244
21
731.468
31
0.0
100
AcDbText
73
1
0
MTEXT
5
829
100
AcDbEntity
8
F-F
62
3
370
-3
100
AcDbMText
10
1175.259
20
30.688
30
0.0
40
4.649
41
0.000
71
7
72
1
1
\W1.093;Ａ１－１／{\W0.787;1.5}　
7
STANDARD
11
1.00000
21
0.00000
31
0.0
0
TEXT
5
82a
100
AcDbEntity
8
F-F
62
3
370
-3
100
AcDbText
10
1175.259
20
20.124
30
0.0
40
4.923
1
Ａ３－１／３
41
0.963
50
0.000
100
AcDbText
0
TEXT
5
82b
100
AcDbEntity
8
0-000
62
2
370
-3
100
AcDbText
10
543.400
20
713.449
30
0.0
40
11.076
41
0.707
50
0.000
1
16
72
1
11
550.713
21
712.218
31
0.0
100
AcDbText
73
1
0
TEXT
5
82c
100
AcDbEntity
8
0-202
62
2
370
-3
100
AcDbText
10
842.097
20
351.512
30
0.0
40
11.076
1
ＫＲ角ハゼ４５５
41
0.952
50
0.000
100
AcDbText
0
TEXT
5
82d
100
AcDbEntity
8
F-F
62
7
370
-3
100
AcDbText
10
917.037
20
23.674
30
0.0
40
3.692
1
MA 2015-05-26
41
0.647
50
0.000
100
AcDbText
0
TEXT
5
82e
100
AcDbEntity
8
F-F
62
2
370
-3
100
AcDbText
10
1169.126
20
45.889
30
0.0
40
6.153
1
KR455 - 01
41
0.658
50
0.000
100
AcDbText
0
TEXT
5
82f
100
AcDbEntity
8
F-F
62
3
370
-3
100
AcDbText
10
988.385
20
25.718
30
0.0
40
4.923
1
コイケルーフ角ハゼ折板　ＫＲ４５５ハゼ　断面図
41
0.963
50
0.000
100
AcDbText
0
POLYLINE
5
830
100
AcDbEntity
  8
F-F
6
CONTINUOUS
62
3
100
AcDb2dPolyline
66
1
10
0
20
0
70
1
40
0.600
41
0.600
0
VERTEX
5
831
100
AcDbEntity
  8
F-F
6
CONTINUOUS
62
3
100
AcDbVertex
100
AcDb2dVertex
10
40.768
20
857.731
30
0.0
42
1.000
0
VERTEX
5
832
100
AcDbEntity
  8
F-F
6
CONTINUOUS
62
3
100
AcDbVertex
100
AcDb2dVertex
10
41.368
20
857.731
30
0.0
42
1.000
0
SEQEND
5
833
100
AcDbEntity
  8
F-F
0
POLYLINE
5
834
100
AcDbEntity
  8
0-202
6
CONTINUOUS
62
4
100
AcDb2dPolyline
66
1
10
0
20
0
70
1
40
0.600
41
0.600
0
VERTEX
5
835
100
AcDbEntity
  8
0-202
6
CONTINUOUS
62
4
100
AcDbVertex
100
AcDb2dVertex
10
948.630
20
244.614
30
0.0
42
1.000
0
VERTEX
5
836
100
AcDbEntity
  8
0-202
6
CONTINUOUS
62
4
100
AcDbVertex
100
AcDb2dVertex
10
949.230
20
244.614
30
0.0
42
1.000
0
SEQEND
5
837
100
AcDbEntity
  8
0-202
0
POLYLINE
5
838
100
AcDbEntity
  8
0-202
6
CONTINUOUS
62
4
100
AcDb2dPolyline
66
1
10
0
20
0
70
1
40
0.600
41
0.600
0
VERTEX
5
839
100
AcDbEntity
  8
0-202
6
CONTINUOUS
62
4
100
AcDbVertex
100
AcDb2dVertex
10
948.630
20
254.614
30
0.0
42
1.000
0
VERTEX
5
83a
100
AcDbEntity
  8
0-202
6
CONTINUOUS
62
4
100
AcDbVertex
100
AcDb2dVertex
10
949.230
20
254.614
30
0.0
42
1.000
0
SEQEND
5
83b
100
AcDbEntity
  8
0-202
0
POLYLINE
5
83c
100
AcDbEntity
  8
0-202
6
CONTINUOUS
62
4
100
AcDb2dPolyline
66
1
10
0
20
0
70
1
40
0.600
41
0.600
0
VERTEX
5
83d
100
AcDbEntity
  8
0-202
6
CONTINUOUS
62
4
100
AcDbVertex
100
AcDb2dVertex
10
689.982
20
254.614
30
0.0
42
1.000
0
VERTEX
5
83e
100
AcDbEntity
  8
0-202
6
CONTINUOUS
62
4
100
AcDbVertex
100
AcDb2dVertex
10
690.582
20
254.614
30
0.0
42
1.000
0
SEQEND
5
83f
100
AcDbEntity
  8
0-202
0
POLYLINE
5
840
100
AcDbEntity
  8
0-202
6
CONTINUOUS
62
4
100
AcDb2dPolyline
66
1
10
0
20
0
70
1
40
0.600
41
0.600
0
VERTEX
5
841
100
AcDbEntity
  8
0-202
6
CONTINUOUS
62
4
100
AcDbVertex
100
AcDb2dVertex
10
689.982
20
344.514
30
0.0
42
1.000
0
VERTEX
5
842
100
AcDbEntity
  8
0-202
6
CONTINUOUS
62
4
100
AcDbVertex
100
AcDb2dVertex
10
690.582
20
344.514
30
0.0
42
1.000
0
SEQEND
5
843
100
AcDbEntity
  8
0-202
0
POLYLINE
5
844
100
AcDbEntity
  8
0-202
6
CONTINUOUS
62
4
100
AcDb2dPolyline
66
1
10
0
20
0
70
1
40
0.600
41
0.600
0
VERTEX
5
845
100
AcDbEntity
  8
0-202
6
CONTINUOUS
62
4
100
AcDbVertex
100
AcDb2dVertex
10
689.982
20
367.514
30
0.0
42
1.000
0
VERTEX
5
846
100
AcDbEntity
  8
0-202
6
CONTINUOUS
62
4
100
AcDbVertex
100
AcDb2dVertex
10
690.582
20
367.514
30
0.0
42
1.000
0
SEQEND
5
847
100
AcDbEntity
  8
0-202
0
POLYLINE
5
848
100
AcDbEntity
  8
0-000
6
CONTINUOUS
62
4
100
AcDb2dPolyline
66
1
10
0
20
0
70
1
40
0.600
41
0.600
0
VERTEX
5
849
100
AcDbEntity
  8
0-000
6
CONTINUOUS
62
4
100
AcDbVertex
100
AcDb2dVertex
10
527.630
20
678.614
30
0.0
42
1.000
0
VERTEX
5
84a
100
AcDbEntity
  8
0-000
6
CONTINUOUS
62
4
100
AcDbVertex
100
AcDb2dVertex
10
528.230
20
678.614
30
0.0
42
1.000
0
SEQEND
5
84b
100
AcDbEntity
  8
0-000
0
POLYLINE
5
84c
100
AcDbEntity
  8
0-000
6
CONTINUOUS
62
4
100
AcDb2dPolyline
66
1
10
0
20
0
70
1
40
0.600
41
0.600
0
VERTEX
5
84d
100
AcDbEntity
  8
0-000
6
CONTINUOUS
62
4
100
AcDbVertex
100
AcDb2dVertex
10
527.630
20
696.140
30
0.0
42
1.000
0
VERTEX
5
84e
100
AcDbEntity
  8
0-000
6
CONTINUOUS
62
4
100
AcDbVertex
100
AcDb2dVertex
10
528.230
20
696.140
30
0.0
42
1.000
0
SEQEND
5
84f
100
AcDbEntity
  8
0-000
0
POLYLINE
5
850
100
AcDbEntity
  8
0-000
6
CONTINUOUS
62
4
100
AcDb2dPolyline
66
1
10
0
20
0
70
1
40
0.600
41
0.600
0
VERTEX
5
851
100
AcDbEntity
  8
0-000
6
CONTINUOUS
62
4
100
AcDbVertex
100
AcDb2dVertex
10
606.834
20
673.140
30
0.0
42
1.000
0
VERTEX
5
852
100
AcDbEntity
  8
0-000
6
CONTINUOUS
62
4
100
AcDbVertex
100
AcDb2dVertex
10
607.434
20
673.140
30
0.0
42
1.000
0
SEQEND
5
853
100
AcDbEntity
  8
0-000
0
POLYLINE
5
854
100
AcDbEntity
  8
0-000
6
CONTINUOUS
62
4
100
AcDb2dPolyline
66
1
10
0
20
0
70
1
40
0.600
41
0.600
0
VERTEX
5
855
100
AcDbEntity
  8
0-000
6
CONTINUOUS
62
4
100
AcDbVertex
100
AcDb2dVertex
10
606.834
20
675.140
30
0.0
42
1.000
0
VERTEX
5
856
100
AcDbEntity
  8
0-000
6
CONTINUOUS
62
4
100
AcDbVertex
100
AcDb2dVertex
10
607.434
20
675.140
30
0.0
42
1.000
0
SEQEND
5
857
100
AcDbEntity
  8
0-000
0
POLYLINE
5
858
100
AcDbEntity
  8
0-000
6
CONTINUOUS
62
4
100
AcDb2dPolyline
66
1
10
0
20
0
70
1
40
0.600
41
0.600
0
VERTEX
5
859
100
AcDbEntity
  8
0-000
6
CONTINUOUS
62
4
100
AcDbVertex
100
AcDb2dVertex
10
606.834
20
696.140
30
0.0
42
1.000
0
VERTEX
5
85a
100
AcDbEntity
  8
0-000
6
CONTINUOUS
62
4
100
AcDbVertex
100
AcDb2dVertex
10
607.434
20
696.140
30
0.0
42
1.000
0
SEQEND
5
85b
100
AcDbEntity
  8
0-000
0
POLYLINE
5
85c
100
AcDbEntity
  8
0-000
6
CONTINUOUS
62
4
100
AcDb2dPolyline
66
1
10
0
20
0
70
1
40
0.600
41
0.600
0
VERTEX
5
85d
100
AcDbEntity
  8
0-000
6
CONTINUOUS
62
4
100
AcDbVertex
100
AcDb2dVertex
10
541.699
20
710.678
30
0.0
42
1.000
0
VERTEX
5
85e
100
AcDbEntity
  8
0-000
6
CONTINUOUS
62
4
100
AcDbVertex
100
AcDb2dVertex
10
542.299
20
710.678
30
0.0
42
1.000
0
SEQEND
5
85f
100
AcDbEntity
  8
0-000
0
POLYLINE
5
860
100
AcDbEntity
  8
0-000
6
CONTINUOUS
62
4
100
AcDb2dPolyline
66
1
10
0
20
0
70
1
40
0.600
41
0.600
0
VERTEX
5
861
100
AcDbEntity
  8
0-000
6
CONTINUOUS
62
4
100
AcDbVertex
100
AcDb2dVertex
10
557.699
20
710.678
30
0.0
42
1.000
0
VERTEX
5
862
100
AcDbEntity
  8
0-000
6
CONTINUOUS
62
4
100
AcDbVertex
100
AcDb2dVertex
10
558.299
20
710.678
30
0.0
42
1.000
0
SEQEND
5
863
100
AcDbEntity
  8
0-000
0
POLYLINE
5
864
100
AcDbEntity
  8
0-000
6
CONTINUOUS
62
4
100
AcDb2dPolyline
66
1
10
0
20
0
70
1
40
0.600
41
0.600
0
VERTEX
5
865
100
AcDbEntity
  8
0-000
6
CONTINUOUS
62
4
100
AcDbVertex
100
AcDb2dVertex
10
587.699
20
710.678
30
0.0
42
1.000
0
VERTEX
5
866
100
AcDbEntity
  8
0-000
6
CONTINUOUS
62
4
100
AcDbVertex
100
AcDb2dVertex
10
588.299
20
710.678
30
0.0
42
1.000
0
SEQEND
5
867
100
AcDbEntity
  8
0-000
0
POLYLINE
5
868
100
AcDbEntity
  8
0-000
6
CONTINUOUS
62
4
100
AcDb2dPolyline
66
1
10
0
20
0
70
1
40
0.600
41
0.600
0
VERTEX
5
869
100
AcDbEntity
  8
0-000
6
CONTINUOUS
62
4
100
AcDbVertex
100
AcDb2dVertex
10
982.699
20
710.678
30
0.0
42
1.000
0
VERTEX
5
86a
100
AcDbEntity
  8
0-000
6
CONTINUOUS
62
4
100
AcDbVertex
100
AcDb2dVertex
10
983.299
20
710.678
30
0.0
42
1.000
0
SEQEND
5
86b
100
AcDbEntity
  8
0-000
0
POLYLINE
5
86c
100
AcDbEntity
  8
0-000
6
CONTINUOUS
62
4
100
AcDb2dPolyline
66
1
10
0
20
0
70
1
40
0.600
41
0.600
0
VERTEX
5
86d
100
AcDbEntity
  8
0-000
6
CONTINUOUS
62
4
100
AcDbVertex
100
AcDb2dVertex
10
1012.699
20
654.671
30
0.0
42
1.000
0
VERTEX
5
86e
100
AcDbEntity
  8
0-000
6
CONTINUOUS
62
4
100
AcDbVertex
100
AcDb2dVertex
10
1013.299
20
654.671
30
0.0
42
1.000
0
SEQEND
5
86f
100
AcDbEntity
  8
0-000
0
POLYLINE
5
870
100
AcDbEntity
  8
0-000
6
CONTINUOUS
62
4
100
AcDb2dPolyline
66
1
10
0
20
0
70
1
40
0.600
41
0.600
0
VERTEX
5
871
100
AcDbEntity
  8
0-000
6
CONTINUOUS
62
4
100
AcDbVertex
100
AcDb2dVertex
10
982.699
20
654.671
30
0.0
42
1.000
0
VERTEX
5
872
100
AcDbEntity
  8
0-000
6
CONTINUOUS
62
4
100
AcDbVertex
100
AcDb2dVertex
10
983.299
20
654.671
30
0.0
42
1.000
0
SEQEND
5
873
100
AcDbEntity
  8
0-000
0
POLYLINE
5
874
100
AcDbEntity
  8
0-000
6
CONTINUOUS
62
4
100
AcDb2dPolyline
66
1
10
0
20
0
70
1
40
0.600
41
0.600
0
VERTEX
5
875
100
AcDbEntity
  8
0-000
6
CONTINUOUS
62
4
100
AcDbVertex
100
AcDb2dVertex
10
1001.699
20
710.678
30
0.0
42
1.000
0
VERTEX
5
876
100
AcDbEntity
  8
0-000
6
CONTINUOUS
62
4
100
AcDbVertex
100
AcDb2dVertex
10
1002.299
20
710.678
30
0.0
42
1.000
0
SEQEND
5
877
100
AcDbEntity
  8
0-000
0
POLYLINE
5
878
100
AcDbEntity
  8
0-000
6
CONTINUOUS
62
4
100
AcDb2dPolyline
66
1
10
0
20
0
70
1
40
0.600
41
0.600
0
VERTEX
5
879
100
AcDbEntity
  8
0-000
6
CONTINUOUS
62
4
100
AcDbVertex
100
AcDb2dVertex
10
1012.699
20
710.678
30
0.0
42
1.000
0
VERTEX
5
87a
100
AcDbEntity
  8
0-000
6
CONTINUOUS
62
4
100
AcDbVertex
100
AcDb2dVertex
10
1013.299
20
710.678
30
0.0
42
1.000
0
SEQEND
5
87b
100
AcDbEntity
  8
0-000
0
POLYLINE
5
87c
100
AcDbEntity
  8
0-000
6
CONTINUOUS
62
4
100
AcDb2dPolyline
66
1
10
0
20
0
70
1
40
0.600
41
0.600
0
VERTEX
5
87d
100
AcDbEntity
  8
0-000
6
CONTINUOUS
62
4
100
AcDbVertex
100
AcDb2dVertex
10
1026.769
20
692.940
30
0.0
42
1.000
0
VERTEX
5
87e
100
AcDbEntity
  8
0-000
6
CONTINUOUS
62
4
100
AcDbVertex
100
AcDb2dVertex
10
1027.369
20
692.940
30
0.0
42
1.000
0
SEQEND
5
87f
100
AcDbEntity
  8
0-000
0
POLYLINE
5
880
100
AcDbEntity
  8
0-000
6
CONTINUOUS
62
4
100
AcDb2dPolyline
66
1
10
0
20
0
70
1
40
0.600
41
0.600
0
VERTEX
5
881
100
AcDbEntity
  8
0-000
6
CONTINUOUS
62
4
100
AcDbVertex
100
AcDb2dVertex
10
1026.769
20
675.078
30
0.0
42
1.000
0
VERTEX
5
882
100
AcDbEntity
  8
0-000
6
CONTINUOUS
62
4
100
AcDbVertex
100
AcDb2dVertex
10
1027.369
20
675.078
30
0.0
42
1.000
0
SEQEND
5
883
100
AcDbEntity
  8
0-000
0
POLYLINE
5
884
100
AcDbEntity
  8
0-202
6
CONTINUOUS
62
4
100
AcDb2dPolyline
66
1
10
0
20
0
70
1
40
0.600
41
0.600
0
VERTEX
5
885
100
AcDbEntity
  8
0-202
6
CONTINUOUS
62
4
100
AcDbVertex
100
AcDb2dVertex
10
557.699
20
401.003
30
0.0
42
1.000
0
VERTEX
5
886
100
AcDbEntity
  8
0-202
6
CONTINUOUS
62
4
100
AcDbVertex
100
AcDb2dVertex
10
558.299
20
401.003
30
0.0
42
1.000
0
SEQEND
5
887
100
AcDbEntity
  8
0-202
0
POLYLINE
5
888
100
AcDbEntity
  8
0-202
6
CONTINUOUS
62
4
100
AcDb2dPolyline
66
1
10
0
20
0
70
1
40
0.600
41
0.600
0
VERTEX
5
889
100
AcDbEntity
  8
0-202
6
CONTINUOUS
62
4
100
AcDbVertex
100
AcDb2dVertex
10
1012.699
20
401.003
30
0.0
42
1.000
0
VERTEX
5
88a
100
AcDbEntity
  8
0-202
6
CONTINUOUS
62
4
100
AcDbVertex
100
AcDb2dVertex
10
1013.299
20
401.003
30
0.0
42
1.000
0
SEQEND
5
88b
100
AcDbEntity
  8
0-202
0
POLYLINE
5
88c
100
AcDbEntity
  8
0-000
6
CONTINUOUS
62
4
100
AcDb2dPolyline
66
1
10
0
20
0
70
1
40
0.600
41
0.600
0
VERTEX
5
88d
100
AcDbEntity
  8
0-000
6
CONTINUOUS
62
4
100
AcDbVertex
100
AcDb2dVertex
10
655.199
20
555.359
30
0.0
42
1.000
0
VERTEX
5
88e
100
AcDbEntity
  8
0-000
6
CONTINUOUS
62
4
100
AcDbVertex
100
AcDb2dVertex
10
655.799
20
555.359
30
0.0
42
1.000
0
SEQEND
5
88f
100
AcDbEntity
  8
0-000
0
POLYLINE
5
890
100
AcDbEntity
  8
0-000
6
CONTINUOUS
62
4
100
AcDb2dPolyline
66
1
10
0
20
0
70
1
40
0.600
41
0.600
0
VERTEX
5
891
100
AcDbEntity
  8
0-000
6
CONTINUOUS
62
4
100
AcDbVertex
100
AcDb2dVertex
10
913.199
20
555.359
30
0.0
42
1.000
0
VERTEX
5
892
100
AcDbEntity
  8
0-000
6
CONTINUOUS
62
4
100
AcDbVertex
100
AcDb2dVertex
10
913.799
20
555.359
30
0.0
42
1.000
0
SEQEND
5
893
100
AcDbEntity
  8
0-000
0
POLYLINE
5
894
100
AcDbEntity
  8
0-000
6
CONTINUOUS
62
4
100
AcDb2dPolyline
66
1
10
0
20
0
70
1
40
0.600
41
0.600
0
VERTEX
5
895
100
AcDbEntity
  8
0-000
6
CONTINUOUS
62
4
100
AcDbVertex
100
AcDb2dVertex
10
680.199
20
583.240
30
0.0
42
1.000
0
VERTEX
5
896
100
AcDbEntity
  8
0-000
6
CONTINUOUS
62
4
100
AcDbVertex
100
AcDb2dVertex
10
680.799
20
583.240
30
0.0
42
1.000
0
SEQEND
5
897
100
AcDbEntity
  8
0-000
0
POLYLINE
5
898
100
AcDbEntity
  8
0-000
6
CONTINUOUS
62
4
100
AcDb2dPolyline
66
1
10
0
20
0
70
1
40
0.600
41
0.600
0
VERTEX
5
899
100
AcDbEntity
  8
0-000
6
CONTINUOUS
62
4
100
AcDbVertex
100
AcDb2dVertex
10
680.199
20
675.140
30
0.0
42
1.000
0
VERTEX
5
89a
100
AcDbEntity
  8
0-000
6
CONTINUOUS
62
4
100
AcDbVertex
100
AcDb2dVertex
10
680.799
20
675.140
30
0.0
42
1.000
0
SEQEND
5
89b
100
AcDbEntity
  8
0-000
0
POLYLINE
5
89c
100
AcDbEntity
  8
0-101
6
CONTINUOUS
62
4
100
AcDb2dPolyline
66
1
10
0
20
0
70
1
40
0.600
41
0.600
0
VERTEX
5
89d
100
AcDbEntity
  8
0-101
6
CONTINUOUS
62
4
100
AcDbVertex
100
AcDb2dVertex
10
171.057
20
393.004
30
0.0
42
1.000
0
VERTEX
5
89e
100
AcDbEntity
  8
0-101
6
CONTINUOUS
62
4
100
AcDbVertex
100
AcDb2dVertex
10
171.657
20
393.004
30
0.0
42
1.000
0
SEQEND
5
89f
100
AcDbEntity
  8
0-101
0
POLYLINE
5
8a0
100
AcDbEntity
  8
0-101
6
CONTINUOUS
62
4
100
AcDb2dPolyline
66
1
10
0
20
0
70
1
40
0.600
41
0.600
0
VERTEX
5
8a1
100
AcDbEntity
  8
0-101
6
CONTINUOUS
62
4
100
AcDbVertex
100
AcDb2dVertex
10
321.057
20
393.004
30
0.0
42
1.000
0
VERTEX
5
8a2
100
AcDbEntity
  8
0-101
6
CONTINUOUS
62
4
100
AcDbVertex
100
AcDb2dVertex
10
321.657
20
393.004
30
0.0
42
1.000
0
SEQEND
5
8a3
100
AcDbEntity
  8
0-101
0
POLYLINE
5
8a4
100
AcDbEntity
  8
0-101
6
CONTINUOUS
62
4
100
AcDb2dPolyline
66
1
10
0
20
0
70
1
40
0.600
41
0.600
0
VERTEX
5
8a5
100
AcDbEntity
  8
0-101
6
CONTINUOUS
62
4
100
AcDbVertex
100
AcDb2dVertex
10
226.057
20
267.328
30
0.0
42
1.000
0
VERTEX
5
8a6
100
AcDbEntity
  8
0-101
6
CONTINUOUS
62
4
100
AcDbVertex
100
AcDb2dVertex
10
226.657
20
267.328
30
0.0
42
1.000
0
SEQEND
5
8a7
100
AcDbEntity
  8
0-101
0
POLYLINE
5
8a8
100
AcDbEntity
  8
0-101
6
CONTINUOUS
62
4
100
AcDb2dPolyline
66
1
10
0
20
0
70
1
40
0.600
41
0.600
0
VERTEX
5
8a9
100
AcDbEntity
  8
0-101
6
CONTINUOUS
62
4
100
AcDbVertex
100
AcDb2dVertex
10
266.057
20
267.328
30
0.0
42
1.000
0
VERTEX
5
8aa
100
AcDbEntity
  8
0-101
6
CONTINUOUS
62
4
100
AcDbVertex
100
AcDb2dVertex
10
266.657
20
267.328
30
0.0
42
1.000
0
SEQEND
5
8ab
100
AcDbEntity
  8
0-101
0
POLYLINE
5
8ac
100
AcDbEntity
  8
0-101
6
CONTINUOUS
62
4
100
AcDb2dPolyline
66
1
10
0
20
0
70
1
40
0.600
41
0.600
0
VERTEX
5
8ad
100
AcDbEntity
  8
0-101
6
CONTINUOUS
62
4
100
AcDbVertex
100
AcDb2dVertex
10
378.296
20
236.614
30
0.0
42
1.000
0
VERTEX
5
8ae
100
AcDbEntity
  8
0-101
6
CONTINUOUS
62
4
100
AcDbVertex
100
AcDb2dVertex
10
378.896
20
236.614
30
0.0
42
1.000
0
SEQEND
5
8af
100
AcDbEntity
  8
0-101
0
POLYLINE
5
8b0
100
AcDbEntity
  8
0-101
6
CONTINUOUS
62
4
100
AcDb2dPolyline
66
1
10
0
20
0
70
1
40
0.600
41
0.600
0
VERTEX
5
8b1
100
AcDbEntity
  8
0-101
6
CONTINUOUS
62
4
100
AcDbVertex
100
AcDb2dVertex
10
378.296
20
246.515
30
0.0
42
1.000
0
VERTEX
5
8b2
100
AcDbEntity
  8
0-101
6
CONTINUOUS
62
4
100
AcDbVertex
100
AcDb2dVertex
10
378.896
20
246.515
30
0.0
42
1.000
0
SEQEND
5
8b3
100
AcDbEntity
  8
0-101
0
POLYLINE
5
8b4
100
AcDbEntity
  8
0-101
6
CONTINUOUS
62
4
100
AcDb2dPolyline
66
1
10
0
20
0
70
1
40
0.600
41
0.600
0
VERTEX
5
8b5
100
AcDbEntity
  8
0-101
6
CONTINUOUS
62
4
100
AcDbVertex
100
AcDb2dVertex
10
378.296
20
336.515
30
0.0
42
1.000
0
VERTEX
5
8b6
100
AcDbEntity
  8
0-101
6
CONTINUOUS
62
4
100
AcDbVertex
100
AcDb2dVertex
10
378.896
20
336.515
30
0.0
42
1.000
0
SEQEND
5
8b7
100
AcDbEntity
  8
0-101
0
POLYLINE
5
8b8
100
AcDbEntity
  8
0-101
6
CONTINUOUS
62
4
100
AcDb2dPolyline
66
1
10
0
20
0
70
1
40
0.600
41
0.600
0
VERTEX
5
8b9
100
AcDbEntity
  8
0-101
6
CONTINUOUS
62
4
100
AcDbVertex
100
AcDb2dVertex
10
378.296
20
359.515
30
0.0
42
1.000
0
VERTEX
5
8ba
100
AcDbEntity
  8
0-101
6
CONTINUOUS
62
4
100
AcDbVertex
100
AcDb2dVertex
10
378.896
20
359.515
30
0.0
42
1.000
0
SEQEND
5
8bb
100
AcDbEntity
  8
0-101
0
POLYLINE
5
8bc
100
AcDbEntity
  8
0-101
6
CONTINUOUS
62
4
100
AcDb2dPolyline
66
1
10
0
20
0
70
1
40
0.600
41
0.600
0
VERTEX
5
8bd
100
AcDbEntity
  8
0-101
6
CONTINUOUS
62
4
100
AcDbVertex
100
AcDb2dVertex
10
398.296
20
236.614
30
0.0
42
1.000
0
VERTEX
5
8be
100
AcDbEntity
  8
0-101
6
CONTINUOUS
62
4
100
AcDbVertex
100
AcDb2dVertex
10
398.896
20
236.614
30
0.0
42
1.000
0
SEQEND
5
8bf
100
AcDbEntity
  8
0-101
0
POLYLINE
5
8c0
100
AcDbEntity
  8
0-101
6
CONTINUOUS
62
4
100
AcDb2dPolyline
66
1
10
0
20
0
70
1
40
0.600
41
0.600
0
VERTEX
5
8c1
100
AcDbEntity
  8
0-101
6
CONTINUOUS
62
4
100
AcDbVertex
100
AcDb2dVertex
10
398.296
20
359.515
30
0.0
42
1.000
0
VERTEX
5
8c2
100
AcDbEntity
  8
0-101
6
CONTINUOUS
62
4
100
AcDbVertex
100
AcDb2dVertex
10
398.896
20
359.515
30
0.0
42
1.000
0
SEQEND
5
8c3
100
AcDbEntity
  8
0-101
0
POLYLINE
5
8c4
100
AcDbEntity
  8
0-000
6
CONTINUOUS
62
4
100
AcDb2dPolyline
66
1
10
0
20
0
70
1
40
0.600
41
0.600
0
VERTEX
5
8c5
100
AcDbEntity
  8
0-000
6
CONTINUOUS
62
4
100
AcDbVertex
100
AcDb2dVertex
10
1012.699
20
729.679
30
0.0
42
1.000
0
VERTEX
5
8c6
100
AcDbEntity
  8
0-000
6
CONTINUOUS
62
4
100
AcDbVertex
100
AcDb2dVertex
10
1013.299
20
729.679
30
0.0
42
1.000
0
SEQEND
5
8c7
100
AcDbEntity
  8
0-000
0
POLYLINE
5
8c8
100
AcDbEntity
  8
0-000
6
CONTINUOUS
62
4
100
AcDb2dPolyline
66
1
10
0
20
0
70
1
40
0.600
41
0.600
0
VERTEX
5
8c9
100
AcDbEntity
  8
0-000
6
CONTINUOUS
62
4
100
AcDbVertex
100
AcDb2dVertex
10
557.699
20
729.679
30
0.0
42
1.000
0
VERTEX
5
8ca
100
AcDbEntity
  8
0-000
6
CONTINUOUS
62
4
100
AcDbVertex
100
AcDb2dVertex
10
558.299
20
729.679
30
0.0
42
1.000
0
SEQEND
5
8cb
100
AcDbEntity
  8
0-000
0
POLYLINE
5
8cc
100
AcDbEntity
  8
0-000
6
CONTINUOUS
62
7
100
AcDb2dPolyline
66
1
10
0
20
0
70
1
40
0.600
41
0.600
0
VERTEX
5
8cd
100
AcDbEntity
  8
0-000
6
CONTINUOUS
62
7
100
AcDbVertex
100
AcDb2dVertex
10
754.199
20
618.425
30
0.0
42
1.000
0
VERTEX
5
8ce
100
AcDbEntity
  8
0-000
6
CONTINUOUS
62
7
100
AcDbVertex
100
AcDb2dVertex
10
754.799
20
618.425
30
0.0
42
1.000
0
SEQEND
5
8cf
100
AcDbEntity
  8
0-000
0
POLYLINE
5
8d0
100
AcDbEntity
  8
0-000
6
CONTINUOUS
62
7
100
AcDb2dPolyline
66
1
10
0
20
0
70
1
40
0.600
41
0.600
0
VERTEX
5
8d1
100
AcDbEntity
  8
0-000
6
CONTINUOUS
62
7
100
AcDbVertex
100
AcDb2dVertex
10
814.199
20
618.425
30
0.0
42
1.000
0
VERTEX
5
8d2
100
AcDbEntity
  8
0-000
6
CONTINUOUS
62
7
100
AcDbVertex
100
AcDb2dVertex
10
814.799
20
618.425
30
0.0
42
1.000
0
SEQEND
5
8d3
100
AcDbEntity
  8
0-000
0
POLYLINE
5
8d4
100
AcDbEntity
  8
0-202
6
CONTINUOUS
62
7
100
AcDb2dPolyline
66
1
10
0
20
0
70
1
40
0.600
41
0.600
0
VERTEX
5
8d5
100
AcDbEntity
  8
0-202
6
CONTINUOUS
62
7
100
AcDbVertex
100
AcDb2dVertex
10
754.699
20
289.750
30
0.0
42
1.000
0
VERTEX
5
8d6
100
AcDbEntity
  8
0-202
6
CONTINUOUS
62
7
100
AcDbVertex
100
AcDb2dVertex
10
755.299
20
289.750
30
0.0
42
1.000
0
SEQEND
5
8d7
100
AcDbEntity
  8
0-202
0
POLYLINE
5
8d8
100
AcDbEntity
  8
0-202
6
CONTINUOUS
62
7
100
AcDb2dPolyline
66
1
10
0
20
0
70
1
40
0.600
41
0.600
0
VERTEX
5
8d9
100
AcDbEntity
  8
0-202
6
CONTINUOUS
62
7
100
AcDbVertex
100
AcDb2dVertex
10
814.699
20
289.750
30
0.0
42
1.000
0
VERTEX
5
8da
100
AcDbEntity
  8
0-202
6
CONTINUOUS
62
7
100
AcDbVertex
100
AcDb2dVertex
10
815.299
20
289.750
30
0.0
42
1.000
0
SEQEND
5
8db
100
AcDbEntity
  8
0-202
0
POLYLINE
5
8dc
100
AcDbEntity
  8
0-202
6
CONTINUOUS
62
4
100
AcDb2dPolyline
66
1
10
0
20
0
70
1
40
0.600
41
0.600
0
VERTEX
5
8dd
100
AcDbEntity
  8
0-202
6
CONTINUOUS
62
4
100
AcDbVertex
100
AcDb2dVertex
10
658.199
20
207.683
30
0.0
42
1.000
0
VERTEX
5
8de
100
AcDbEntity
  8
0-202
6
CONTINUOUS
62
4
100
AcDbVertex
100
AcDb2dVertex
10
658.799
20
207.683
30
0.0
42
1.000
0
SEQEND
5
8df
100
AcDbEntity
  8
0-202
0
POLYLINE
5
8e0
100
AcDbEntity
  8
0-202
6
CONTINUOUS
62
4
100
AcDb2dPolyline
66
1
10
0
20
0
70
1
40
0.600
41
0.600
0
VERTEX
5
8e1
100
AcDbEntity
  8
0-202
6
CONTINUOUS
62
4
100
AcDbVertex
100
AcDb2dVertex
10
913.199
20
207.683
30
0.0
42
1.000
0
VERTEX
5
8e2
100
AcDbEntity
  8
0-202
6
CONTINUOUS
62
4
100
AcDbVertex
100
AcDb2dVertex
10
913.799
20
207.683
30
0.0
42
1.000
0
SEQEND
5
8e3
100
AcDbEntity
  8
0-202
0
POLYLINE
5
8e4
100
AcDbEntity
  8
0-101
6
CONTINUOUS
62
4
100
AcDb2dPolyline
66
1
10
0
20
0
70
1
40
0.600
41
0.600
0
VERTEX
5
8e5
100
AcDbEntity
  8
0-101
6
CONTINUOUS
62
4
100
AcDbVertex
100
AcDb2dVertex
10
378.296
20
236.614
30
0.0
42
1.000
0
VERTEX
5
8e6
100
AcDbEntity
  8
0-101
6
CONTINUOUS
62
4
100
AcDbVertex
100
AcDb2dVertex
10
378.896
20
236.614
30
0.0
42
1.000
0
SEQEND
5
8e7
100
AcDbEntity
  8
0-101
0
POLYLINE
5
8e8
100
AcDbEntity
  8
0-101
6
CONTINUOUS
62
7
100
AcDb2dPolyline
66
1
10
0
20
0
70
1
40
0.600
41
0.600
0
VERTEX
5
8e9
100
AcDbEntity
  8
0-101
6
CONTINUOUS
62
7
100
AcDbVertex
100
AcDb2dVertex
10
226.058
20
272.819
30
0.0
42
1.000
0
VERTEX
5
8ea
100
AcDbEntity
  8
0-101
6
CONTINUOUS
62
7
100
AcDbVertex
100
AcDb2dVertex
10
226.658
20
272.819
30
0.0
42
1.000
0
SEQEND
5
8eb
100
AcDbEntity
  8
0-101
0
POLYLINE
5
8ec
100
AcDbEntity
  8
0-101
6
CONTINUOUS
62
7
100
AcDb2dPolyline
66
1
10
0
20
0
70
1
40
0.600
41
0.600
0
VERTEX
5
8ed
100
AcDbEntity
  8
0-101
6
CONTINUOUS
62
7
100
AcDbVertex
100
AcDb2dVertex
10
290.877
20
324.949
30
0.0
42
1.000
0
VERTEX
5
8ee
100
AcDbEntity
  8
0-101
6
CONTINUOUS
62
7
100
AcDbVertex
100
AcDb2dVertex
10
291.477
20
324.949
30
0.0
42
1.000
0
SEQEND
5
8ef
100
AcDbEntity
  8
0-101
0
POLYLINE
5
8f0
100
AcDbEntity
  8
0-202
6
CONTINUOUS
62
7
100
AcDb2dPolyline
66
1
10
0
20
0
70
1
40
0.600
41
0.600
0
VERTEX
5
8f1
100
AcDbEntity
  8
0-202
6
CONTINUOUS
62
7
100
AcDbVertex
100
AcDb2dVertex
10
558.299
20
334.775
30
0.0
42
1.000
0
VERTEX
5
8f2
100
AcDbEntity
  8
0-202
6
CONTINUOUS
62
7
100
AcDbVertex
100
AcDb2dVertex
10
558.899
20
334.775
30
0.0
42
1.000
0
SEQEND
5
8f3
100
AcDbEntity
  8
0-202
0
POLYLINE
5
8f4
100
AcDbEntity
  8
0-202
6
CONTINUOUS
62
7
100
AcDb2dPolyline
66
1
10
0
20
0
70
1
40
0.600
41
0.600
0
VERTEX
5
8f5
100
AcDbEntity
  8
0-202
6
CONTINUOUS
62
7
100
AcDbVertex
100
AcDb2dVertex
10
620.929
20
280.577
30
0.0
42
1.000
0
VERTEX
5
8f6
100
AcDbEntity
  8
0-202
6
CONTINUOUS
62
7
100
AcDbVertex
100
AcDb2dVertex
10
621.529
20
280.577
30
0.0
42
1.000
0
SEQEND
5
8f7
100
AcDbEntity
  8
0-202
0
POLYLINE
5
8f8
100
AcDbEntity
  8
0-202
6
CONTINUOUS
62
7
100
AcDb2dPolyline
66
1
10
0
20
0
70
1
40
0.600
41
0.600
0
VERTEX
5
8f9
100
AcDbEntity
  8
0-202
6
CONTINUOUS
62
7
100
AcDbVertex
100
AcDb2dVertex
10
965.629
20
321.573
30
0.0
42
1.000
0
VERTEX
5
8fa
100
AcDbEntity
  8
0-202
6
CONTINUOUS
62
7
100
AcDbVertex
100
AcDb2dVertex
10
966.229
20
321.573
30
0.0
42
1.000
0
SEQEND
5
8fb
100
AcDbEntity
  8
0-202
0
ENDSEC
 0
SECTION
  2
OBJECTS
 0
DICTIONARY
  5
C
100
AcDbDictionary
  3
ACAD_GROUP
350
D
  3
ACAD_MLINESTYLE
350
E
 0
DICTIONARY
  5
D
102
{ACAD_REACTORS
102
}
100
AcDbDictionary
 0
DICTIONARY
  5
E
102
{ACAD_REACTORS
102
}
100
AcDbDictionary
  3
STANDARD
350
13
0
MLINESTYLE
  5
13
102
{ACAD_REACTORS
102
}
100
AcDbMlineStyle
  2
STANDARD
 70
    0
3

62
256
51
90.0
52
90.0
71
0
0
ACDBPLACEHOLDER
  5
14
102
{ACAD_REACTORS
102
}
0
ENDSEC
0
EOF
