0
SECTION
2
HEADER
9
$ACADVER
1
AC1015
9
$ACADMAINTVER
 70
6
9
$DWGCODEPAGE
3
ANSI_932
9
$EXTMIN
10
0.000
20
0.000
30
0.0
9
$EXTMAX
10
1682.000
20
1188.000
30
0.0
9
$LIMMIN
10
0.000
20
0.000
9
$LIMMAX
10
1682.000
20
1188.000
9
$DIMSCALE
40
2.000000
9
$LTSCALE
40
2.000
9
$PDMODE
70
0
9
$PDSIZE
40
40.0
9
$HANDSEED
5
61be8
9
$UNITMODE
70
0
9
$VISRETAIN
70
0
9
$PLINEGEN
70
0
9
$PSLTSCALE
70
1
9
$TREEDEPTH
70
3020
9
$CMLSTYLE
2
STANDARD
9
$CMLJUST
70
0
9
$CMLSCALE
40
1.0
9
$PROXYGRAPHICS
70
1
9
$MEASUREMENT
70
0
9
$CELWEIGHT
370
-1
9
$ENDCAPS
280
0
9
$JOINSTYLE
280
0
9
$LWDISPLAY
290
0
9
$INSUNITS
70
0
9
$HYPERLINKBASE
1

9
$STYLESHEET
1

9
$XEDIT
290
1
9
$CEPSNTYPE
380
0
9
$PSTYLEMODE
290
1
9
$FINGERPRINTGUID
2
{5F082321-0195-11D3-BDFB-0060B0CD5109}
9
$VERSIONGUID
2
{12943756-294D-11D3-98C2-0060B087942D}
9
$EXTNAMES
290
1
9
$PSVPSCALE
40
0.0
9
$OLESTARTUP
290
0
0
ENDSEC
0
SECTION
  2
CLASSES
0
ENDSEC
0
SECTION
2
TABLES
0
TABLE
2
VPORT
5
190
100
AcDbSymbolTable
70
2
0
VPORT
5
191
100
AcDbSymbolTableRecord
100
AcDbViewportTableRecord
2
*ACTIVE
70
0
10
0.0
20
0.0
11
1.0
21
1.0
12
841.000
22
594.000
13
0.0
23
0.0
14
1.0
24
1.0
15
0.0
25
0.0
16
0.0
26
0.0
36
1.0
17
0.0
27
0.0
37
0.0
40
1218.841
41
2.0
42
50.0
43
0.0
44
0.0
50
0.0
51
0.0
71
0
72
1000
73
1
74
1
75
0
76
0
77
0
78
0
0
ENDTAB
0
TABLE
2
LTYPE
5
1f4
100
AcDbSymbolTable
70
9
0
LTYPE
5
1f5
100
AcDbSymbolTableRecord
100
AcDbLinetypeTableRecord
2
BYBLOCK
70
 64
3

72
 65
73
  0
40
0.0
0
LTYPE
5
1f6
100
AcDbSymbolTableRecord
100
AcDbLinetypeTableRecord
2
BYLAYER
70
 64
3

72
 65
73
  0
40
0.0
0
LTYPE
5
1f7
100
AcDbSymbolTableRecord
100
AcDbLinetypeTableRecord
2
CONTINUOUS
70
64
3
SolidLine
72
65
73
0
40
0.0
0
LTYPE
5
1f8
100
AcDbSymbolTableRecord
100
AcDbLinetypeTableRecord
2
DOT
70
64
3
--  --  --  --  --  --  --  --     
72
65
73
2
40
3.000
49
1.000
74
0
49
-2.000
74
0
0
LTYPE
5
1f9
100
AcDbSymbolTableRecord
100
AcDbLinetypeTableRecord
2
DASHED
70
64
3
----    ----    ----    ----    
72
65
73
2
40
5.000
49
2.000
74
0
49
-3.000
74
0
0
LTYPE
5
1fa
100
AcDbSymbolTableRecord
100
AcDbLinetypeTableRecord
2
DASHED2
70
64
3
------  ------  ------  ------ 
72
65
73
2
40
10.000
49
4.000
74
0
49
-6.000
74
0
0
LTYPE
5
1fb
100
AcDbSymbolTableRecord
100
AcDbLinetypeTableRecord
2
CENTER
70
64
3
----- - ----- - ----- - ----- - 
72
65
73
4
40
10.000
49
6.000
74
0
49
-3.000
74
0
49
1.000
74
0
49
-3.000
74
0
0
LTYPE
5
1fc
100
AcDbSymbolTableRecord
100
AcDbLinetypeTableRecord
2
CENTER2
70
64
3
----------  --  ----------  -- 
72
65
73
4
40
17.000
49
12.000
74
0
49
-5.000
74
0
49
2.000
74
0
49
-5.000
74
0
0
LTYPE
5
1fd
100
AcDbSymbolTableRecord
100
AcDbLinetypeTableRecord
2
PHANTOM
70
64
3
--- - - --- - - --- - - --- - -
72
65
73
6
40
13.000
49
5.000
74
0
49
-3.000
74
0
49
1.000
74
0
49
-3.000
74
0
49
1.000
74
0
49
-3.000
74
0
0
LTYPE
5
1fe
100
AcDbSymbolTableRecord
100
AcDbLinetypeTableRecord
2
PHANTOM2
70
64
3
--------  -  -  --------  -  -
72
65
73
6
40
20.000
49
6.000
74
0
49
-5.000
74
0
49
2.000
74
0
49
-5.000
74
0
49
2.000
74
0
49
-5.000
74
0
0
LTYPE
5
1ff
100
AcDbSymbolTableRecord
100
AcDbLinetypeTableRecord
2
HIDDEN
70
64
3
-   -   -   -   -   -   -   -   
72
65
73
2
40
3.000
49
0.500
74
0
49
-2.500
74
0
0
ENDTAB
0
TABLE
2
STYLE
5
200
100
AcDbSymbolTable
70
1
0
STYLE
5
201
100
AcDbSymbolTableRecord
100
AcDbTextStyleTableRecord
2
STANDARD
70
0
40
0.0
41
1.0
50
0.0
71
0
42
0.0
3
txt.shx
4
extfont.shx
0
STYLE
5
202
100
AcDbSymbolTableRecord
100
AcDbTextStyleTableRecord
2
TATEGAKI
70
4
40
0.0
41
1.0
50
0.0
71
0
42
0.0
3
txt.shx
4
extfont.shx
0
STYLE
5
203
100
AcDbSymbolTableRecord
100
AcDbTextStyleTableRecord
2
DIM
70
0
40
0.0
41
0.75
50
0.0
71
0
42
0.0
3
txt.shx
4
extfont.shx
0
STYLE
5
204
100
AcDbSymbolTableRecord
100
AcDbTextStyleTableRecord
2
_Gothic_
70
0
40
1.0
41
1.0
50
0.0
71
0
42
10.0
3

4

1001
ACAD
1000
MS Gothic
1071
32817
0
STYLE
5
205
100
AcDbSymbolTableRecord
100
AcDbTextStyleTableRecord
2
_TateGothic_
70
4
40
0.0
41
1.0
50
0.0
71
0
42
0.0
3
@MS Gothic
4

0
ENDTAB
0
TABLE
2
VIEW
5
206
100
AcDbSymbolTable
70
0
0
ENDTAB
0
TABLE
2
UCS
5
207
100
AcDbSymbolTable
70
0
0
ENDTAB
0
TABLE
2
APPID
5
208
100
AcDbSymbolTable
70
1
0
APPID
5
209
100
AcDbSymbolTableRecord
100
AcDbRegAppTableRecord
2
ACAD
70
0
0
ENDTAB
0
TABLE
2
DIMSTYLE
5
403
330
0
100
AcDbSymbolTable
70
1
100
AcDbDimStyleTable
71
0
0
DIMSTYLE
105
404
330
402
100
AcDbSymbolTableRecord
100
AcDbDimStyleTableRecord
2
JAC_DIM
70
0
41
4.000
42
0.000
44
0.0
73
0
74
0
77
1
78
8
79
2
140
0.000
170
0
171
2
172
0
173
0
174
0
175
0
176
0
177
0
178
0
270
2
271
0
272
0
273
2
274
2
340
201
275
0
280
0
281
0
282
0
283
0
284
0
285
0
286
0
287
3
288
0
0
ENDTAB
0
TABLE
2
BLOCK_RECORD
5
405
100
AcDbSymbolTable
70
0
0
BLOCK_RECORD
5
406
100
AcDbSymbolTableRecord
100
AcDbBlockTableRecord
2
*MODEL_SPACE
0
BLOCK_RECORD
5
407
100
AcDbSymbolTableRecord
100
AcDbBlockTableRecord
2
*PAPER_SPACE
0
BLOCK_RECORD
5
408
100
AcDbSymbolTableRecord
100
AcDbBlockTableRecord
2
_JACCONVERT_
0
ENDTAB
0
TABLE
2
LAYER
5
409
100
AcDbSymbolTable
70
10
0
LAYER
5
40a
100
AcDbSymbolTableRecord
100
AcDbLayerTableRecord
2
0
70
0
62
7
6
CONTINUOUS
370
-3
390
14
0
LAYER
5
40b
100
AcDbSymbolTableRecord
100
AcDbLayerTableRecord
2
0-0
70
0
62
7
6
CONTINUOUS
370
-3
390
14
0
LAYER
5
40c
100
AcDbSymbolTableRecord
100
AcDbLayerTableRecord
2
F-E_J_ADD
70
0
62
-7
6
CONTINUOUS
290
0
370
-3
390
14
0
LAYER
5
40d
100
AcDbSymbolTableRecord
100
AcDbLayerTableRecord
2
F-F
70
0
62
7
6
CONTINUOUS
370
-3
390
14
0
ENDTAB
0
ENDSEC
0
SECTION
2
BLOCKS
0
BLOCK
5
40e
100
AcDbEntity
67
1
8
0
100
AcDbBlockBegin
2
*MODEL_SPACE
70
0
10
0.0
20
0.0
30
0.0
3
*MODEL_SPACE
1

0
ENDBLK
5
40f
100
AcDbEntity
8
0
100
AcDbBlockEnd
0
BLOCK
5
410
100
AcDbEntity
67
1
8
0
100
AcDbBlockBegin
2
*PAPER_SPACE
70
0
10
0.0
20
0.0
30
0.0
3
*PAPER_SPACE
1

0
ENDBLK
5
411
100
AcDbEntity
67
1
8
0
100
AcDbBlockEnd
0
BLOCK
5
412
100
AcDbEntity
8
0
100
AcDbBlockBegin
2
_JACCONVERT_
70
2
10
0.0
20
0.0
30
0.0
3
_JACCONVERT_
1
_JACCONVERT_
0
ATTDEF
5
413
100
AcDbEntity
8
0
62
0
100
AcDbText
10
0.0
20
0.0
30
0.0
40
1.0
1
User:460950EB0890EC0964308A
100
AcDbAttributeDefinition
3

2
USER
70
8
0
ATTDEF
5
414
100
AcDbEntity
8
0
62
0
100
AcDbText
10
0.0
20
2.0
30
0.0
40
1.0
1
Date:15/06/04 16:19
100
AcDbAttributeDefinition
3

2
REVDATE
70
8
0
ATTDEF
5
415
100
AcDbEntity
8
0
62
0
100
AcDbText
10
0.0
20
4.0
30
0.0
40
1.0
1
File:成型大波　断面図.dxf
100
AcDbAttributeDefinition
3

2
FNAME
70
8
0
ATTDEF
5
416
100
AcDbEntity
8
0
62
0
100
AcDbText
10
0.0
20
6.0
30
0.0
40
1.0
1
JacConvert Version3.09 copyright (c) 2001-2013 K.Nakahara
100
AcDbAttributeDefinition
3

2
VER
70
8
0
ENDBLK
5
417
100
AcDbEntity
67
1
8
0
100
AcDbBlockEnd
0
ENDSEC
0
SECTION
2
ENTITIES
0
LINE
5
418
100
AcDbEntity
8
F-F
6
CONTINUOUS
62
2
100
AcDbLine
10
54.760000000000
20
23.630000000000
30
0.0
11
54.760000000000
21
1143.640000000000
31
0.0
0
LINE
5
419
100
AcDbEntity
8
F-F
6
CONTINUOUS
62
2
100
AcDbLine
10
1284.760000000000
20
82.890000000000
30
0.0
11
1284.760000000000
21
23.630000000000
31
0.0
0
LINE
5
41a
100
AcDbEntity
8
F-F
6
CONTINUOUS
62
2
100
AcDbLine
10
1214.540000000000
20
82.890000000000
30
0.0
11
1214.540000000000
21
23.630000000000
31
0.0
0
LINE
5
41b
100
AcDbEntity
8
F-F
6
CONTINUOUS
62
2
100
AcDbLine
10
1537.120000000000
20
23.630000000000
30
0.0
11
1537.120000000000
21
82.890000000000
31
0.0
0
LINE
5
41c
100
AcDbEntity
8
F-F
6
CONTINUOUS
62
2
100
AcDbLine
10
806.890000000000
20
82.890000000000
30
0.0
11
806.890000000000
21
23.630000000000
31
0.0
0
LINE
5
41d
100
AcDbEntity
8
F-F
6
CONTINUOUS
62
2
100
AcDbLine
10
1009.740000000000
20
82.890000000000
30
0.0
11
1009.740000000000
21
23.630000000000
31
0.0
0
LINE
5
41e
100
AcDbEntity
8
F-F
6
CONTINUOUS
62
2
100
AcDbLine
10
806.890000000000
20
63.140000000000
30
0.0
11
369.760000000000
21
63.140000000000
31
0.0
0
LINE
5
41f
100
AcDbEntity
8
F-F
6
CONTINUOUS
62
2
100
AcDbLine
10
806.890000000000
20
43.390000000000
30
0.0
11
369.760000000000
21
43.390000000000
31
0.0
0
LINE
5
420
100
AcDbEntity
8
F-F
6
CONTINUOUS
62
2
100
AcDbLine
10
806.890000000000
20
33.510000000000
30
0.0
11
369.760000000000
21
33.510000000000
31
0.0
0
LINE
5
421
100
AcDbEntity
8
F-F
6
CONTINUOUS
62
2
100
AcDbLine
10
806.890000000000
20
73.020000000000
30
0.0
11
369.760000000000
21
73.020000000000
31
0.0
0
LINE
5
422
100
AcDbEntity
8
F-F
6
CONTINUOUS
62
2
100
AcDbLine
10
422.420000000000
20
82.890000000000
30
0.0
11
422.420000000000
21
23.630000000000
31
0.0
0
LINE
5
423
100
AcDbEntity
8
F-F
6
CONTINUOUS
62
2
100
AcDbLine
10
369.760000000000
20
82.890000000000
30
0.0
11
369.760000000000
21
23.630000000000
31
0.0
0
LINE
5
424
100
AcDbEntity
8
F-F
6
CONTINUOUS
62
2
100
AcDbLine
10
1631.650000000000
20
23.630000000000
30
0.0
11
1631.650000000000
21
1143.640000000000
31
0.0
0
LINE
5
425
100
AcDbEntity
8
F-F
6
CONTINUOUS
62
2
100
AcDbLine
10
54.760000000000
20
1143.640000000000
30
0.0
11
1631.650000000000
21
1143.640000000000
31
0.0
0
LINE
5
426
100
AcDbEntity
8
F-F
6
CONTINUOUS
62
2
100
AcDbLine
10
54.760000000000
20
23.630000000000
30
0.0
11
1631.650000000000
21
23.630000000000
31
0.0
0
LINE
5
427
100
AcDbEntity
8
F-F
6
CONTINUOUS
62
2
100
AcDbLine
10
1631.650000000000
20
82.890000000000
30
0.0
11
54.760000000000
21
82.890000000000
31
0.0
0
LINE
5
428
100
AcDbEntity
8
F-F
6
CONTINUOUS
62
2
100
AcDbLine
10
369.760000000000
20
53.260000000000
30
0.0
11
1631.650000000000
21
53.260000000000
31
0.0
0
POLYLINE
5
429
100
AcDbEntity
8
F-F
6
CONTINUOUS
62
  3
100
AcDb2dPolyline
66
1
10
0.0
20
0.0
30
0.0
70
0
0
VERTEX
5
42a
100
AcDbEntity
8
F-F
6
CONTINUOUS
62
  3
100
AcDbVertex
100
AcDb2dVertex
10
71.720000000000
20
59.100000000000
30
0.0
0
VERTEX
5
42b
100
AcDbEntity
8
F-F
6
CONTINUOUS
62
  3
100
AcDbVertex
100
AcDb2dVertex
10
71.720000000000
20
75.100000000000
30
0.0
0
VERTEX
5
42c
100
AcDbEntity
8
F-F
6
CONTINUOUS
62
  3
100
AcDbVertex
100
AcDb2dVertex
10
87.720000000000
20
75.100000000000
30
0.0
0
VERTEX
5
42d
100
AcDbEntity
8
F-F
6
CONTINUOUS
62
  3
100
AcDbVertex
100
AcDb2dVertex
10
87.720000000000
20
59.100000000000
30
0.0
0
VERTEX
5
42e
100
AcDbEntity
8
F-F
6
CONTINUOUS
62
  3
100
AcDbVertex
100
AcDb2dVertex
10
71.720000000000
20
59.100000000000
30
0.0
0
SEQEND
5
42f
100
AcDbEntity
8
F-F
0
LINE
5
430
100
AcDbEntity
8
F-F
6
CONTINUOUS
62
3
100
AcDbLine
10
73.320000000000
20
61.260000000000
30
0.0
11
73.320000000000
21
73.500000000000
31
0.0
0
LINE
5
431
100
AcDbEntity
8
F-F
6
CONTINUOUS
62
3
100
AcDbLine
10
86.120000000000
20
60.700000000000
30
0.0
11
73.880000000000
21
60.700000000000
31
0.0
0
POLYLINE
5
432
100
AcDbEntity
8
F-F
6
CONTINUOUS
62
  3
100
AcDb2dPolyline
66
1
10
0.0
20
0.0
30
0.0
70
0
0
VERTEX
5
433
100
AcDbEntity
8
F-F
6
CONTINUOUS
62
  3
100
AcDbVertex
100
AcDb2dVertex
10
73.320000000000
20
73.500000000000
30
0.0
0
VERTEX
5
434
100
AcDbEntity
8
F-F
6
CONTINUOUS
62
  3
100
AcDbVertex
100
AcDb2dVertex
10
85.550000000000
20
73.500000000000
30
0.0
0
VERTEX
5
435
100
AcDbEntity
8
F-F
6
CONTINUOUS
62
  3
100
AcDbVertex
100
AcDb2dVertex
10
73.320000000000
20
61.260000000000
30
0.0
0
SEQEND
5
436
100
AcDbEntity
8
F-F
0
LINE
5
437
100
AcDbEntity
8
F-F
6
CONTINUOUS
62
3
100
AcDbLine
10
86.120000000000
20
72.930000000000
30
0.0
11
73.880000000000
21
60.700000000000
31
0.0
0
LINE
5
438
100
AcDbEntity
8
F-F
6
CONTINUOUS
62
3
100
AcDbLine
10
86.120000000000
20
72.930000000000
30
0.0
11
86.120000000000
21
60.700000000000
31
0.0
0
LINE
5
439
100
AcDbEntity
8
F-F
6
CONTINUOUS
62
4
100
AcDbLine
10
71.720000000000
20
74.940000000000
30
0.0
11
87.720000000000
21
74.940000000000
31
0.0
0
LINE
5
43a
100
AcDbEntity
8
F-F
6
CONTINUOUS
62
4
100
AcDbLine
10
71.720000000000
20
74.620000000000
30
0.0
11
87.720000000000
21
74.620000000000
31
0.0
0
LINE
5
43b
100
AcDbEntity
8
F-F
6
CONTINUOUS
62
4
100
AcDbLine
10
71.720000000000
20
74.300000000000
30
0.0
11
87.720000000000
21
74.300000000000
31
0.0
0
LINE
5
43c
100
AcDbEntity
8
F-F
6
CONTINUOUS
62
4
100
AcDbLine
10
71.720000000000
20
73.980000000000
30
0.0
11
87.720000000000
21
73.980000000000
31
0.0
0
LINE
5
43d
100
AcDbEntity
8
F-F
6
CONTINUOUS
62
4
100
AcDbLine
10
71.720000000000
20
73.660000000000
30
0.0
11
87.720000000000
21
73.660000000000
31
0.0
0
LINE
5
43e
100
AcDbEntity
8
F-F
6
CONTINUOUS
62
4
100
AcDbLine
10
71.720000000000
20
60.540000000000
30
0.0
11
87.720000000000
21
60.540000000000
31
0.0
0
LINE
5
43f
100
AcDbEntity
8
F-F
6
CONTINUOUS
62
4
100
AcDbLine
10
71.720000000000
20
60.220000000000
30
0.0
11
87.720000000000
21
60.220000000000
31
0.0
0
LINE
5
440
100
AcDbEntity
8
F-F
6
CONTINUOUS
62
4
100
AcDbLine
10
71.720000000000
20
59.900000000000
30
0.0
11
87.720000000000
21
59.900000000000
31
0.0
0
LINE
5
441
100
AcDbEntity
8
F-F
6
CONTINUOUS
62
4
100
AcDbLine
10
71.720000000000
20
59.580000000000
30
0.0
11
87.720000000000
21
59.580000000000
31
0.0
0
LINE
5
442
100
AcDbEntity
8
F-F
6
CONTINUOUS
62
4
100
AcDbLine
10
71.720000000000
20
59.260000000000
30
0.0
11
87.720000000000
21
59.260000000000
31
0.0
0
LINE
5
443
100
AcDbEntity
8
F-F
6
CONTINUOUS
62
4
100
AcDbLine
10
71.720000000000
20
61.500000000000
30
0.0
11
73.320000000000
21
61.500000000000
31
0.0
0
LINE
5
444
100
AcDbEntity
8
F-F
6
CONTINUOUS
62
4
100
AcDbLine
10
71.720000000000
20
61.820000000000
30
0.0
11
73.320000000000
21
61.820000000000
31
0.0
0
LINE
5
445
100
AcDbEntity
8
F-F
6
CONTINUOUS
62
4
100
AcDbLine
10
71.720000000000
20
62.140000000000
30
0.0
11
73.320000000000
21
62.140000000000
31
0.0
0
LINE
5
446
100
AcDbEntity
8
F-F
6
CONTINUOUS
62
4
100
AcDbLine
10
71.720000000000
20
62.460000000000
30
0.0
11
73.320000000000
21
62.460000000000
31
0.0
0
LINE
5
447
100
AcDbEntity
8
F-F
6
CONTINUOUS
62
4
100
AcDbLine
10
71.720000000000
20
62.780000000000
30
0.0
11
73.320000000000
21
62.780000000000
31
0.0
0
LINE
5
448
100
AcDbEntity
8
F-F
6
CONTINUOUS
62
4
100
AcDbLine
10
71.720000000000
20
63.100000000000
30
0.0
11
73.320000000000
21
63.100000000000
31
0.0
0
LINE
5
449
100
AcDbEntity
8
F-F
6
CONTINUOUS
62
4
100
AcDbLine
10
71.720000000000
20
63.420000000000
30
0.0
11
73.320000000000
21
63.420000000000
31
0.0
0
LINE
5
44a
100
AcDbEntity
8
F-F
6
CONTINUOUS
62
4
100
AcDbLine
10
71.720000000000
20
63.740000000000
30
0.0
11
73.320000000000
21
63.740000000000
31
0.0
0
LINE
5
44b
100
AcDbEntity
8
F-F
6
CONTINUOUS
62
4
100
AcDbLine
10
71.720000000000
20
64.060000000000
30
0.0
11
73.320000000000
21
64.060000000000
31
0.0
0
LINE
5
44c
100
AcDbEntity
8
F-F
6
CONTINUOUS
62
4
100
AcDbLine
10
71.720000000000
20
64.380000000000
30
0.0
11
73.320000000000
21
64.380000000000
31
0.0
0
LINE
5
44d
100
AcDbEntity
8
F-F
6
CONTINUOUS
62
4
100
AcDbLine
10
71.720000000000
20
64.700000000000
30
0.0
11
73.320000000000
21
64.700000000000
31
0.0
0
LINE
5
44e
100
AcDbEntity
8
F-F
6
CONTINUOUS
62
4
100
AcDbLine
10
71.720000000000
20
65.020000000000
30
0.0
11
73.320000000000
21
65.020000000000
31
0.0
0
LINE
5
44f
100
AcDbEntity
8
F-F
6
CONTINUOUS
62
4
100
AcDbLine
10
71.720000000000
20
65.340000000000
30
0.0
11
73.320000000000
21
65.340000000000
31
0.0
0
LINE
5
450
100
AcDbEntity
8
F-F
6
CONTINUOUS
62
4
100
AcDbLine
10
71.720000000000
20
65.660000000000
30
0.0
11
73.320000000000
21
65.660000000000
31
0.0
0
LINE
5
451
100
AcDbEntity
8
F-F
6
CONTINUOUS
62
4
100
AcDbLine
10
71.720000000000
20
65.980000000000
30
0.0
11
73.320000000000
21
65.980000000000
31
0.0
0
LINE
5
452
100
AcDbEntity
8
F-F
6
CONTINUOUS
62
4
100
AcDbLine
10
71.720000000000
20
66.300000000000
30
0.0
11
73.320000000000
21
66.300000000000
31
0.0
0
LINE
5
453
100
AcDbEntity
8
F-F
6
CONTINUOUS
62
4
100
AcDbLine
10
71.720000000000
20
66.620000000000
30
0.0
11
73.320000000000
21
66.620000000000
31
0.0
0
LINE
5
454
100
AcDbEntity
8
F-F
6
CONTINUOUS
62
4
100
AcDbLine
10
71.720000000000
20
66.940000000000
30
0.0
11
73.320000000000
21
66.940000000000
31
0.0
0
LINE
5
455
100
AcDbEntity
8
F-F
6
CONTINUOUS
62
4
100
AcDbLine
10
71.720000000000
20
67.260000000000
30
0.0
11
73.320000000000
21
67.260000000000
31
0.0
0
LINE
5
456
100
AcDbEntity
8
F-F
6
CONTINUOUS
62
4
100
AcDbLine
10
71.720000000000
20
67.580000000000
30
0.0
11
73.320000000000
21
67.580000000000
31
0.0
0
LINE
5
457
100
AcDbEntity
8
F-F
6
CONTINUOUS
62
4
100
AcDbLine
10
71.720000000000
20
67.900000000000
30
0.0
11
73.320000000000
21
67.900000000000
31
0.0
0
LINE
5
458
100
AcDbEntity
8
F-F
6
CONTINUOUS
62
4
100
AcDbLine
10
71.720000000000
20
68.220000000000
30
0.0
11
73.320000000000
21
68.220000000000
31
0.0
0
LINE
5
459
100
AcDbEntity
8
F-F
6
CONTINUOUS
62
4
100
AcDbLine
10
71.720000000000
20
68.540000000000
30
0.0
11
73.320000000000
21
68.540000000000
31
0.0
0
LINE
5
45a
100
AcDbEntity
8
F-F
6
CONTINUOUS
62
4
100
AcDbLine
10
71.720000000000
20
68.860000000000
30
0.0
11
73.320000000000
21
68.860000000000
31
0.0
0
LINE
5
45b
100
AcDbEntity
8
F-F
6
CONTINUOUS
62
4
100
AcDbLine
10
71.720000000000
20
69.820000000000
30
0.0
11
73.320000000000
21
69.820000000000
31
0.0
0
LINE
5
45c
100
AcDbEntity
8
F-F
6
CONTINUOUS
62
4
100
AcDbLine
10
71.720000000000
20
70.780000000000
30
0.0
11
73.320000000000
21
70.780000000000
31
0.0
0
LINE
5
45d
100
AcDbEntity
8
F-F
6
CONTINUOUS
62
4
100
AcDbLine
10
71.720000000000
20
71.100000000000
30
0.0
11
73.320000000000
21
71.100000000000
31
0.0
0
LINE
5
45e
100
AcDbEntity
8
F-F
6
CONTINUOUS
62
4
100
AcDbLine
10
71.720000000000
20
71.420000000000
30
0.0
11
73.320000000000
21
71.420000000000
31
0.0
0
LINE
5
45f
100
AcDbEntity
8
F-F
6
CONTINUOUS
62
4
100
AcDbLine
10
71.720000000000
20
71.740000000000
30
0.0
11
73.320000000000
21
71.740000000000
31
0.0
0
LINE
5
460
100
AcDbEntity
8
F-F
6
CONTINUOUS
62
4
100
AcDbLine
10
71.720000000000
20
73.340000000000
30
0.0
11
73.320000000000
21
73.340000000000
31
0.0
0
LINE
5
461
100
AcDbEntity
8
F-F
6
CONTINUOUS
62
4
100
AcDbLine
10
71.720000000000
20
73.020000000000
30
0.0
11
73.320000000000
21
73.020000000000
31
0.0
0
LINE
5
462
100
AcDbEntity
8
F-F
6
CONTINUOUS
62
4
100
AcDbLine
10
71.720000000000
20
72.700000000000
30
0.0
11
73.320000000000
21
72.700000000000
31
0.0
0
LINE
5
463
100
AcDbEntity
8
F-F
6
CONTINUOUS
62
4
100
AcDbLine
10
71.720000000000
20
72.380000000000
30
0.0
11
73.320000000000
21
72.380000000000
31
0.0
0
LINE
5
464
100
AcDbEntity
8
F-F
6
CONTINUOUS
62
4
100
AcDbLine
10
71.720000000000
20
72.060000000000
30
0.0
11
73.320000000000
21
72.060000000000
31
0.0
0
LINE
5
465
100
AcDbEntity
8
F-F
6
CONTINUOUS
62
4
100
AcDbLine
10
71.720000000000
20
70.140000000000
30
0.0
11
73.320000000000
21
70.140000000000
31
0.0
0
LINE
5
466
100
AcDbEntity
8
F-F
6
CONTINUOUS
62
4
100
AcDbLine
10
71.720000000000
20
70.460000000000
30
0.0
11
73.320000000000
21
70.460000000000
31
0.0
0
LINE
5
467
100
AcDbEntity
8
F-F
6
CONTINUOUS
62
4
100
AcDbLine
10
71.720000000000
20
69.500000000000
30
0.0
11
73.320000000000
21
69.500000000000
31
0.0
0
LINE
5
468
100
AcDbEntity
8
F-F
6
CONTINUOUS
62
4
100
AcDbLine
10
71.720000000000
20
69.180000000000
30
0.0
11
73.320000000000
21
69.180000000000
31
0.0
0
LINE
5
469
100
AcDbEntity
8
F-F
6
CONTINUOUS
62
4
100
AcDbLine
10
73.870000000000
20
61.820000000000
30
0.0
11
75.000000000000
21
61.820000000000
31
0.0
0
LINE
5
46a
100
AcDbEntity
8
F-F
6
CONTINUOUS
62
4
100
AcDbLine
10
73.550000000000
20
61.500000000000
30
0.0
11
74.680000000000
21
61.500000000000
31
0.0
0
LINE
5
46b
100
AcDbEntity
8
F-F
6
CONTINUOUS
62
4
100
AcDbLine
10
71.720000000000
20
61.180000000000
30
0.0
11
74.360000000000
21
61.180000000000
31
0.0
0
LINE
5
46c
100
AcDbEntity
8
F-F
6
CONTINUOUS
62
4
100
AcDbLine
10
71.720000000000
20
60.860000000000
30
0.0
11
74.040000000000
21
60.860000000000
31
0.0
0
LINE
5
46d
100
AcDbEntity
8
F-F
6
CONTINUOUS
62
4
100
AcDbLine
10
75.790000000000
20
63.740000000000
30
0.0
11
76.920000000000
21
63.740000000000
31
0.0
0
LINE
5
46e
100
AcDbEntity
8
F-F
6
CONTINUOUS
62
4
100
AcDbLine
10
75.470000000000
20
63.420000000000
30
0.0
11
76.600000000000
21
63.420000000000
31
0.0
0
LINE
5
46f
100
AcDbEntity
8
F-F
6
CONTINUOUS
62
4
100
AcDbLine
10
75.150000000000
20
63.100000000000
30
0.0
11
76.280000000000
21
63.100000000000
31
0.0
0
LINE
5
470
100
AcDbEntity
8
F-F
6
CONTINUOUS
62
4
100
AcDbLine
10
74.830000000000
20
62.780000000000
30
0.0
11
75.960000000000
21
62.780000000000
31
0.0
0
LINE
5
471
100
AcDbEntity
8
F-F
6
CONTINUOUS
62
4
100
AcDbLine
10
74.510000000000
20
62.460000000000
30
0.0
11
75.640000000000
21
62.460000000000
31
0.0
0
LINE
5
472
100
AcDbEntity
8
F-F
6
CONTINUOUS
62
4
100
AcDbLine
10
74.190000000000
20
62.140000000000
30
0.0
11
75.320000000000
21
62.140000000000
31
0.0
0
LINE
5
473
100
AcDbEntity
8
F-F
6
CONTINUOUS
62
4
100
AcDbLine
10
73.320000000000
20
73.500000000000
30
0.0
11
73.320000000000
21
73.820000000000
31
0.0
0
LINE
5
474
100
AcDbEntity
8
F-F
6
CONTINUOUS
62
4
100
AcDbLine
10
86.120000000000
20
61.500000000000
30
0.0
11
87.720000000000
21
61.500000000000
31
0.0
0
LINE
5
475
100
AcDbEntity
8
F-F
6
CONTINUOUS
62
4
100
AcDbLine
10
86.120000000000
20
61.820000000000
30
0.0
11
87.720000000000
21
61.820000000000
31
0.0
0
LINE
5
476
100
AcDbEntity
8
F-F
6
CONTINUOUS
62
4
100
AcDbLine
10
86.120000000000
20
62.140000000000
30
0.0
11
87.720000000000
21
62.140000000000
31
0.0
0
LINE
5
477
100
AcDbEntity
8
F-F
6
CONTINUOUS
62
4
100
AcDbLine
10
86.120000000000
20
62.460000000000
30
0.0
11
87.720000000000
21
62.460000000000
31
0.0
0
LINE
5
478
100
AcDbEntity
8
F-F
6
CONTINUOUS
62
4
100
AcDbLine
10
86.120000000000
20
62.780000000000
30
0.0
11
87.720000000000
21
62.780000000000
31
0.0
0
LINE
5
479
100
AcDbEntity
8
F-F
6
CONTINUOUS
62
4
100
AcDbLine
10
86.120000000000
20
63.100000000000
30
0.0
11
87.720000000000
21
63.100000000000
31
0.0
0
LINE
5
47a
100
AcDbEntity
8
F-F
6
CONTINUOUS
62
4
100
AcDbLine
10
86.120000000000
20
63.420000000000
30
0.0
11
87.720000000000
21
63.420000000000
31
0.0
0
LINE
5
47b
100
AcDbEntity
8
F-F
6
CONTINUOUS
62
4
100
AcDbLine
10
86.120000000000
20
63.740000000000
30
0.0
11
87.720000000000
21
63.740000000000
31
0.0
0
LINE
5
47c
100
AcDbEntity
8
F-F
6
CONTINUOUS
62
4
100
AcDbLine
10
86.120000000000
20
64.060000000000
30
0.0
11
87.720000000000
21
64.060000000000
31
0.0
0
LINE
5
47d
100
AcDbEntity
8
F-F
6
CONTINUOUS
62
4
100
AcDbLine
10
86.120000000000
20
64.380000000000
30
0.0
11
87.720000000000
21
64.380000000000
31
0.0
0
LINE
5
47e
100
AcDbEntity
8
F-F
6
CONTINUOUS
62
4
100
AcDbLine
10
86.120000000000
20
64.700000000000
30
0.0
11
87.720000000000
21
64.700000000000
31
0.0
0
LINE
5
47f
100
AcDbEntity
8
F-F
6
CONTINUOUS
62
4
100
AcDbLine
10
86.120000000000
20
65.020000000000
30
0.0
11
87.720000000000
21
65.020000000000
31
0.0
0
LINE
5
480
100
AcDbEntity
8
F-F
6
CONTINUOUS
62
4
100
AcDbLine
10
86.120000000000
20
65.340000000000
30
0.0
11
87.720000000000
21
65.340000000000
31
0.0
0
LINE
5
481
100
AcDbEntity
8
F-F
6
CONTINUOUS
62
4
100
AcDbLine
10
86.120000000000
20
65.980000000000
30
0.0
11
87.720000000000
21
65.980000000000
31
0.0
0
LINE
5
482
100
AcDbEntity
8
F-F
6
CONTINUOUS
62
4
100
AcDbLine
10
86.120000000000
20
66.300000000000
30
0.0
11
87.720000000000
21
66.300000000000
31
0.0
0
LINE
5
483
100
AcDbEntity
8
F-F
6
CONTINUOUS
62
4
100
AcDbLine
10
86.120000000000
20
66.620000000000
30
0.0
11
87.720000000000
21
66.620000000000
31
0.0
0
LINE
5
484
100
AcDbEntity
8
F-F
6
CONTINUOUS
62
4
100
AcDbLine
10
86.120000000000
20
66.940000000000
30
0.0
11
87.720000000000
21
66.940000000000
31
0.0
0
LINE
5
485
100
AcDbEntity
8
F-F
6
CONTINUOUS
62
4
100
AcDbLine
10
86.120000000000
20
67.260000000000
30
0.0
11
87.720000000000
21
67.260000000000
31
0.0
0
LINE
5
486
100
AcDbEntity
8
F-F
6
CONTINUOUS
62
4
100
AcDbLine
10
86.120000000000
20
67.580000000000
30
0.0
11
87.720000000000
21
67.580000000000
31
0.0
0
LINE
5
487
100
AcDbEntity
8
F-F
6
CONTINUOUS
62
4
100
AcDbLine
10
86.120000000000
20
67.900000000000
30
0.0
11
87.720000000000
21
67.900000000000
31
0.0
0
LINE
5
488
100
AcDbEntity
8
F-F
6
CONTINUOUS
62
4
100
AcDbLine
10
86.120000000000
20
68.220000000000
30
0.0
11
87.720000000000
21
68.220000000000
31
0.0
0
LINE
5
489
100
AcDbEntity
8
F-F
6
CONTINUOUS
62
4
100
AcDbLine
10
86.120000000000
20
68.540000000000
30
0.0
11
87.720000000000
21
68.540000000000
31
0.0
0
LINE
5
48a
100
AcDbEntity
8
F-F
6
CONTINUOUS
62
4
100
AcDbLine
10
86.120000000000
20
68.860000000000
30
0.0
11
87.720000000000
21
68.860000000000
31
0.0
0
LINE
5
48b
100
AcDbEntity
8
F-F
6
CONTINUOUS
62
4
100
AcDbLine
10
86.120000000000
20
69.820000000000
30
0.0
11
87.720000000000
21
69.820000000000
31
0.0
0
LINE
5
48c
100
AcDbEntity
8
F-F
6
CONTINUOUS
62
4
100
AcDbLine
10
86.120000000000
20
70.780000000000
30
0.0
11
87.720000000000
21
70.780000000000
31
0.0
0
LINE
5
48d
100
AcDbEntity
8
F-F
6
CONTINUOUS
62
4
100
AcDbLine
10
86.120000000000
20
71.100000000000
30
0.0
11
87.720000000000
21
71.100000000000
31
0.0
0
LINE
5
48e
100
AcDbEntity
8
F-F
6
CONTINUOUS
62
4
100
AcDbLine
10
86.120000000000
20
71.420000000000
30
0.0
11
87.720000000000
21
71.420000000000
31
0.0
0
LINE
5
48f
100
AcDbEntity
8
F-F
6
CONTINUOUS
62
4
100
AcDbLine
10
86.120000000000
20
71.740000000000
30
0.0
11
87.720000000000
21
71.740000000000
31
0.0
0
LINE
5
490
100
AcDbEntity
8
F-F
6
CONTINUOUS
62
4
100
AcDbLine
10
86.120000000000
20
72.700000000000
30
0.0
11
87.720000000000
21
72.700000000000
31
0.0
0
LINE
5
491
100
AcDbEntity
8
F-F
6
CONTINUOUS
62
4
100
AcDbLine
10
86.120000000000
20
72.380000000000
30
0.0
11
87.720000000000
21
72.380000000000
31
0.0
0
LINE
5
492
100
AcDbEntity
8
F-F
6
CONTINUOUS
62
4
100
AcDbLine
10
86.120000000000
20
72.060000000000
30
0.0
11
87.720000000000
21
72.060000000000
31
0.0
0
LINE
5
493
100
AcDbEntity
8
F-F
6
CONTINUOUS
62
4
100
AcDbLine
10
86.120000000000
20
70.140000000000
30
0.0
11
87.720000000000
21
70.140000000000
31
0.0
0
LINE
5
494
100
AcDbEntity
8
F-F
6
CONTINUOUS
62
4
100
AcDbLine
10
86.120000000000
20
70.460000000000
30
0.0
11
87.720000000000
21
70.460000000000
31
0.0
0
LINE
5
495
100
AcDbEntity
8
F-F
6
CONTINUOUS
62
4
100
AcDbLine
10
86.120000000000
20
69.500000000000
30
0.0
11
87.720000000000
21
69.500000000000
31
0.0
0
LINE
5
496
100
AcDbEntity
8
F-F
6
CONTINUOUS
62
4
100
AcDbLine
10
86.120000000000
20
69.180000000000
30
0.0
11
87.720000000000
21
69.180000000000
31
0.0
0
LINE
5
497
100
AcDbEntity
8
F-F
6
CONTINUOUS
62
4
100
AcDbLine
10
86.120000000000
20
60.860000000000
30
0.0
11
87.720000000000
21
60.860000000000
31
0.0
0
LINE
5
498
100
AcDbEntity
8
F-F
6
CONTINUOUS
62
4
100
AcDbLine
10
86.120000000000
20
61.180000000000
30
0.0
11
87.720000000000
21
61.180000000000
31
0.0
0
LINE
5
499
100
AcDbEntity
8
F-F
6
CONTINUOUS
62
4
100
AcDbLine
10
85.390000000000
20
73.340000000000
30
0.0
11
87.720000000000
21
73.340000000000
31
0.0
0
LINE
5
49a
100
AcDbEntity
8
F-F
6
CONTINUOUS
62
4
100
AcDbLine
10
85.070000000000
20
73.020000000000
30
0.0
11
87.720000000000
21
73.020000000000
31
0.0
0
LINE
5
49b
100
AcDbEntity
8
F-F
6
CONTINUOUS
62
4
100
AcDbLine
10
77.070000000000
20
65.020000000000
30
0.0
11
78.200000000000
21
65.020000000000
31
0.0
0
LINE
5
49c
100
AcDbEntity
8
F-F
6
CONTINUOUS
62
4
100
AcDbLine
10
76.750000000000
20
64.700000000000
30
0.0
11
77.880000000000
21
64.700000000000
31
0.0
0
LINE
5
49d
100
AcDbEntity
8
F-F
6
CONTINUOUS
62
4
100
AcDbLine
10
76.430000000000
20
64.380000000000
30
0.0
11
77.560000000000
21
64.380000000000
31
0.0
0
LINE
5
49e
100
AcDbEntity
8
F-F
6
CONTINUOUS
62
4
100
AcDbLine
10
76.110000000000
20
64.060000000000
30
0.0
11
77.240000000000
21
64.060000000000
31
0.0
0
LINE
5
49f
100
AcDbEntity
8
F-F
6
CONTINUOUS
62
4
100
AcDbLine
10
78.350000000000
20
66.300000000000
30
0.0
11
79.480000000000
21
66.300000000000
31
0.0
0
LINE
5
4a0
100
AcDbEntity
8
F-F
6
CONTINUOUS
62
4
100
AcDbLine
10
78.030000000000
20
65.980000000000
30
0.0
11
79.160000000000
21
65.980000000000
31
0.0
0
LINE
5
4a1
100
AcDbEntity
8
F-F
6
CONTINUOUS
62
4
100
AcDbLine
10
77.710000000000
20
65.660000000000
30
0.0
11
78.840000000000
21
65.660000000000
31
0.0
0
LINE
5
4a2
100
AcDbEntity
8
F-F
6
CONTINUOUS
62
4
100
AcDbLine
10
77.390000000000
20
65.340000000000
30
0.0
11
78.520000000000
21
65.340000000000
31
0.0
0
LINE
5
4a3
100
AcDbEntity
8
F-F
6
CONTINUOUS
62
4
100
AcDbLine
10
79.630000000000
20
67.580000000000
30
0.0
11
80.760000000000
21
67.580000000000
31
0.0
0
LINE
5
4a4
100
AcDbEntity
8
F-F
6
CONTINUOUS
62
4
100
AcDbLine
10
79.310000000000
20
67.260000000000
30
0.0
11
80.440000000000
21
67.260000000000
31
0.0
0
LINE
5
4a5
100
AcDbEntity
8
F-F
6
CONTINUOUS
62
4
100
AcDbLine
10
78.990000000000
20
66.940000000000
30
0.0
11
80.120000000000
21
66.940000000000
31
0.0
0
LINE
5
4a6
100
AcDbEntity
8
F-F
6
CONTINUOUS
62
4
100
AcDbLine
10
78.670000000000
20
66.620000000000
30
0.0
11
79.800000000000
21
66.620000000000
31
0.0
0
LINE
5
4a7
100
AcDbEntity
8
F-F
6
CONTINUOUS
62
4
100
AcDbLine
10
80.910000000000
20
68.860000000000
30
0.0
11
82.040000000000
21
68.860000000000
31
0.0
0
LINE
5
4a8
100
AcDbEntity
8
F-F
6
CONTINUOUS
62
4
100
AcDbLine
10
80.590000000000
20
68.540000000000
30
0.0
11
81.720000000000
21
68.540000000000
31
0.0
0
LINE
5
4a9
100
AcDbEntity
8
F-F
6
CONTINUOUS
62
4
100
AcDbLine
10
80.270000000000
20
68.220000000000
30
0.0
11
81.400000000000
21
68.220000000000
31
0.0
0
LINE
5
4aa
100
AcDbEntity
8
F-F
6
CONTINUOUS
62
4
100
AcDbLine
10
79.950000000000
20
67.900000000000
30
0.0
11
81.080000000000
21
67.900000000000
31
0.0
0
LINE
5
4ab
100
AcDbEntity
8
F-F
6
CONTINUOUS
62
4
100
AcDbLine
10
82.190000000000
20
70.140000000000
30
0.0
11
83.320000000000
21
70.140000000000
31
0.0
0
LINE
5
4ac
100
AcDbEntity
8
F-F
6
CONTINUOUS
62
4
100
AcDbLine
10
81.870000000000
20
69.820000000000
30
0.0
11
83.000000000000
21
69.820000000000
31
0.0
0
LINE
5
4ad
100
AcDbEntity
8
F-F
6
CONTINUOUS
62
4
100
AcDbLine
10
81.550000000000
20
69.500000000000
30
0.0
11
82.680000000000
21
69.500000000000
31
0.0
0
LINE
5
4ae
100
AcDbEntity
8
F-F
6
CONTINUOUS
62
4
100
AcDbLine
10
81.230000000000
20
69.180000000000
30
0.0
11
82.360000000000
21
69.180000000000
31
0.0
0
LINE
5
4af
100
AcDbEntity
8
F-F
6
CONTINUOUS
62
4
100
AcDbLine
10
83.470000000000
20
71.420000000000
30
0.0
11
84.600000000000
21
71.420000000000
31
0.0
0
LINE
5
4b0
100
AcDbEntity
8
F-F
6
CONTINUOUS
62
4
100
AcDbLine
10
83.150000000000
20
71.100000000000
30
0.0
11
84.280000000000
21
71.100000000000
31
0.0
0
LINE
5
4b1
100
AcDbEntity
8
F-F
6
CONTINUOUS
62
4
100
AcDbLine
10
82.830000000000
20
70.780000000000
30
0.0
11
83.960000000000
21
70.780000000000
31
0.0
0
LINE
5
4b2
100
AcDbEntity
8
F-F
6
CONTINUOUS
62
4
100
AcDbLine
10
82.510000000000
20
70.460000000000
30
0.0
11
83.640000000000
21
70.460000000000
31
0.0
0
LINE
5
4b3
100
AcDbEntity
8
F-F
6
CONTINUOUS
62
4
100
AcDbLine
10
84.750000000000
20
72.700000000000
30
0.0
11
85.880000000000
21
72.700000000000
31
0.0
0
LINE
5
4b4
100
AcDbEntity
8
F-F
6
CONTINUOUS
62
4
100
AcDbLine
10
84.430000000000
20
72.380000000000
30
0.0
11
85.560000000000
21
72.380000000000
31
0.0
0
LINE
5
4b5
100
AcDbEntity
8
F-F
6
CONTINUOUS
62
4
100
AcDbLine
10
84.110000000000
20
72.060000000000
30
0.0
11
85.240000000000
21
72.060000000000
31
0.0
0
LINE
5
4b6
100
AcDbEntity
8
F-F
6
CONTINUOUS
62
4
100
AcDbLine
10
83.790000000000
20
71.740000000000
30
0.0
11
84.920000000000
21
71.740000000000
31
0.0
0
LINE
5
4b7
100
AcDbEntity
8
F-F
6
CONTINUOUS
62
4
100
AcDbLine
10
86.120000000000
20
65.660000000000
30
0.0
11
87.720000000000
21
65.660000000000
31
0.0
0
LINE
5
4b8
100
AcDbEntity
8
0-0
6
CONTINUOUS
62
7
100
AcDbLine
10
411.000000000000
20
576.510000000000
30
0.0
11
411.000000000000
21
594.510000000000
31
0.0
0
LINE
5
4b9
100
AcDbEntity
8
0-0
6
CONTINUOUS
62
7
100
AcDbLine
10
431.000000000000
20
576.510000000000
30
0.0
11
411.000000000000
21
576.510000000000
31
0.0
0
LINE
5
4ba
100
AcDbEntity
8
0-0
6
CONTINUOUS
62
7
100
AcDbLine
10
431.000000000000
20
594.510000000000
30
0.0
11
411.000000000000
21
594.510000000000
31
0.0
0
LINE
5
4bb
100
AcDbEntity
8
0-0
6
CONTINUOUS
62
7
100
AcDbLine
10
478.500000000000
20
654.510000000000
30
0.0
11
478.500000000000
21
619.510000000000
31
0.0
0
LINE
5
4bc
100
AcDbEntity
8
0-0
6
CONTINUOUS
62
7
100
AcDbLine
10
451.000000000000
20
654.510000000000
30
0.0
11
478.500000000000
21
654.510000000000
31
0.0
0
LINE
5
4bd
100
AcDbEntity
8
0-0
6
CONTINUOUS
62
7
100
AcDbLine
10
451.000000000000
20
684.510000000000
30
0.0
11
1256.000000000000
21
684.510000000000
31
0.0
0
LINE
5
4be
100
AcDbEntity
8
0-0
6
CONTINUOUS
62
7
100
AcDbLine
10
553.500000000000
20
654.510000000000
30
0.0
11
553.500000000000
21
619.510000000000
31
0.0
0
LINE
5
4bf
100
AcDbEntity
8
0-0
6
CONTINUOUS
62
7
100
AcDbLine
10
478.500000000000
20
654.510000000000
30
0.0
11
553.500000000000
21
654.510000000000
31
0.0
0
LINE
5
4c0
100
AcDbEntity
8
0-0
6
CONTINUOUS
62
7
100
AcDbLine
10
628.500000000000
20
654.510000000000
30
0.0
11
628.500000000000
21
619.510000000000
31
0.0
0
LINE
5
4c1
100
AcDbEntity
8
0-0
6
CONTINUOUS
62
7
100
AcDbLine
10
553.500000000000
20
654.510000000000
30
0.0
11
628.500000000000
21
654.510000000000
31
0.0
0
LINE
5
4c2
100
AcDbEntity
8
0-0
6
CONTINUOUS
62
7
100
AcDbLine
10
451.000000000000
20
654.510000000000
30
0.0
11
451.000000000000
21
619.510000000000
31
0.0
0
LINE
5
4c3
100
AcDbEntity
8
0-0
6
CONTINUOUS
62
7
100
AcDbLine
10
451.000000000000
20
684.510000000000
30
0.0
11
451.000000000000
21
674.510000000000
31
0.0
0
LINE
5
4c4
100
AcDbEntity
8
0-0
6
CONTINUOUS
62
7
100
AcDbLine
10
703.500000000000
20
654.510000000000
30
0.0
11
703.500000000000
21
619.510000000000
31
0.0
0
LINE
5
4c5
100
AcDbEntity
8
0-0
6
CONTINUOUS
62
7
100
AcDbLine
10
628.500000000000
20
654.510000000000
30
0.0
11
703.500000000000
21
654.510000000000
31
0.0
0
LINE
5
4c6
100
AcDbEntity
8
0-0
6
CONTINUOUS
62
7
100
AcDbLine
10
778.500000000000
20
654.510000000000
30
0.0
11
778.500000000000
21
619.510000000000
31
0.0
0
LINE
5
4c7
100
AcDbEntity
8
0-0
6
CONTINUOUS
62
7
100
AcDbLine
10
703.500000000000
20
654.510000000000
30
0.0
11
778.500000000000
21
654.510000000000
31
0.0
0
LINE
5
4c8
100
AcDbEntity
8
0-0
6
CONTINUOUS
62
7
100
AcDbLine
10
853.500000000000
20
654.510000000000
30
0.0
11
853.500000000000
21
619.510000000000
31
0.0
0
LINE
5
4c9
100
AcDbEntity
8
0-0
6
CONTINUOUS
62
7
100
AcDbLine
10
778.500000000000
20
654.510000000000
30
0.0
11
853.500000000000
21
654.510000000000
31
0.0
0
LINE
5
4ca
100
AcDbEntity
8
0-0
6
CONTINUOUS
62
7
100
AcDbLine
10
928.500000000000
20
654.510000000000
30
0.0
11
928.500000000000
21
619.510000000000
31
0.0
0
LINE
5
4cb
100
AcDbEntity
8
0-0
6
CONTINUOUS
62
7
100
AcDbLine
10
853.500000000000
20
654.510000000000
30
0.0
11
928.500000000000
21
654.510000000000
31
0.0
0
LINE
5
4cc
100
AcDbEntity
8
0-0
6
CONTINUOUS
62
7
100
AcDbLine
10
1003.500000000000
20
654.510000000000
30
0.0
11
1003.500000000000
21
619.510000000000
31
0.0
0
LINE
5
4cd
100
AcDbEntity
8
0-0
6
CONTINUOUS
62
7
100
AcDbLine
10
928.500000000000
20
654.510000000000
30
0.0
11
1003.500000000000
21
654.510000000000
31
0.0
0
LINE
5
4ce
100
AcDbEntity
8
0-0
6
CONTINUOUS
62
7
100
AcDbLine
10
1078.500000000000
20
654.510000000000
30
0.0
11
1078.500000000000
21
619.510000000000
31
0.0
0
LINE
5
4cf
100
AcDbEntity
8
0-0
6
CONTINUOUS
62
7
100
AcDbLine
10
1003.500000000000
20
654.510000000000
30
0.0
11
1078.500000000000
21
654.510000000000
31
0.0
0
LINE
5
4d0
100
AcDbEntity
8
0-0
6
CONTINUOUS
62
7
100
AcDbLine
10
1153.500000000000
20
654.510000000000
30
0.0
11
1153.500000000000
21
619.510000000000
31
0.0
0
LINE
5
4d1
100
AcDbEntity
8
0-0
6
CONTINUOUS
62
7
100
AcDbLine
10
1078.500000000000
20
654.510000000000
30
0.0
11
1153.500000000000
21
654.510000000000
31
0.0
0
LINE
5
4d2
100
AcDbEntity
8
0-0
6
CONTINUOUS
62
7
100
AcDbLine
10
1228.500000000000
20
654.510000000000
30
0.0
11
1228.500000000000
21
619.510000000000
31
0.0
0
LINE
5
4d3
100
AcDbEntity
8
0-0
6
CONTINUOUS
62
7
100
AcDbLine
10
1153.500000000000
20
654.510000000000
30
0.0
11
1228.500000000000
21
654.510000000000
31
0.0
0
LINE
5
4d4
100
AcDbEntity
8
0-0
6
CONTINUOUS
62
3
100
AcDbLine
10
451.000000000000
20
579.240000000000
30
0.0
11
451.210000000000
21
578.790000000000
31
0.0
0
LINE
5
4d5
100
AcDbEntity
8
0-0
6
CONTINUOUS
62
3
100
AcDbLine
10
1256.000000000000
20
579.240000000000
30
0.0
11
1255.790000000000
21
578.790000000000
31
0.0
0
LINE
5
4d6
100
AcDbEntity
8
0-0
6
CONTINUOUS
62
7
100
AcDbLine
10
1256.000000000000
20
654.510000000000
30
0.0
11
1228.500000000000
21
654.510000000000
31
0.0
0
LINE
5
4d7
100
AcDbEntity
8
0-0
6
CONTINUOUS
62
7
100
AcDbLine
10
1256.000000000000
20
654.510000000000
30
0.0
11
1256.000000000000
21
619.510000000000
31
0.0
0
LINE
5
4d8
100
AcDbEntity
8
0-0
6
CONTINUOUS
62
7
100
AcDbLine
10
1256.000000000000
20
684.510000000000
30
0.0
11
1256.000000000000
21
674.510000000000
31
0.0
0
LINE
5
4d9
100
AcDbEntity
8
0-0
6
CONTINUOUS
62
7
100
AcDbLine
10
1153.500000000000
20
546.510000000000
30
0.0
11
1153.500000000000
21
516.510000000000
31
0.0
0
POLYLINE
5
4da
100
AcDbEntity
8
0-0
6
CONTINUOUS
62
  7
100
AcDb2dPolyline
66
1
10
0.0
20
0.0
30
0.0
70
0
0
VERTEX
5
4db
100
AcDbEntity
8
0-0
6
CONTINUOUS
62
  7
100
AcDbVertex
100
AcDb2dVertex
10
478.500000000000
20
546.510000000000
30
0.0
0
VERTEX
5
4dc
100
AcDbEntity
8
0-0
6
CONTINUOUS
62
  7
100
AcDbVertex
100
AcDb2dVertex
10
478.500000000000
20
516.510000000000
30
0.0
0
VERTEX
5
4dd
100
AcDbEntity
8
0-0
6
CONTINUOUS
62
  7
100
AcDbVertex
100
AcDb2dVertex
10
1153.500000000000
20
516.510000000000
30
0.0
0
SEQEND
5
4de
100
AcDbEntity
8
0-0
0
CIRCLE
5
4df
100
AcDbEntity
8
F-F
6
CONTINUOUS
62
3
100
AcDbCircle
10
79.720000000000
20
67.100000000000
30
0.0
40
11.313709759210
0
CIRCLE
5
4e0
100
AcDbEntity
8
F-F
6
CONTINUOUS
62
3
100
AcDbCircle
10
79.720000000000
20
67.100000000000
30
0.0
40
12.913709270428
0
CIRCLE
5
4e1
100
AcDbEntity
8
F-F
6
CONTINUOUS
62
4
100
AcDbCircle
10
79.720000000000
20
67.100000000000
30
0.0
40
11.473710561919
0
CIRCLE
5
4e2
100
AcDbEntity
8
F-F
6
CONTINUOUS
62
4
100
AcDbCircle
10
79.720000000000
20
67.100000000000
30
0.0
40
11.793707522317
0
CIRCLE
5
4e3
100
AcDbEntity
8
F-F
6
CONTINUOUS
62
4
100
AcDbCircle
10
79.720000000000
20
67.100000000000
30
0.0
40
12.113709127734
0
CIRCLE
5
4e4
100
AcDbEntity
8
F-F
6
CONTINUOUS
62
4
100
AcDbCircle
10
79.720000000000
20
67.100000000000
30
0.0
40
12.433706862302
0
CIRCLE
5
4e5
100
AcDbEntity
8
F-F
6
CONTINUOUS
62
4
100
AcDbCircle
10
79.720000000000
20
67.100000000000
30
0.0
40
12.753706145210
0
ARC
5
4e6
100
AcDbEntity
8
0-0
6
CONTINUOUS
62
3
100
AcDbCircle
10
516.000000000000
20
600.540000000000
30
0.0
40
23.531314044174
100
AcDbArc
50
218.718109130859
51
269.999877929688
0
ARC
5
4e7
100
AcDbEntity
8
0-0
6
CONTINUOUS
62
3
100
AcDbCircle
10
516.000000000000
20
600.540000000000
30
0.0
40
24.031314810756
100
AcDbArc
50
218.718109130859
51
269.999877929688
0
ARC
5
4e8
100
AcDbEntity
8
0-0
6
CONTINUOUS
62
3
100
AcDbCircle
10
478.500000000000
20
570.480000000000
30
0.0
40
24.531262933781
100
AcDbArc
50
38.718002319336
51
90.000000000000
0
ARC
5
4e9
100
AcDbEntity
8
0-0
6
CONTINUOUS
62
3
100
AcDbCircle
10
478.500000000000
20
570.480000000000
30
0.0
40
24.031263715538
100
AcDbArc
50
38.718002319336
51
90.000000000000
0
ARC
5
4ea
100
AcDbEntity
8
0-0
6
CONTINUOUS
62
3
100
AcDbCircle
10
516.000000000000
20
600.540000000000
30
0.0
40
23.531314044174
100
AcDbArc
50
270.000122070313
51
321.281890869141
0
ARC
5
4eb
100
AcDbEntity
8
0-0
6
CONTINUOUS
62
3
100
AcDbCircle
10
516.000000000000
20
600.540000000000
30
0.0
40
24.031314810756
100
AcDbArc
50
270.000122070313
51
321.281890869141
0
ARC
5
4ec
100
AcDbEntity
8
0-0
6
CONTINUOUS
62
3
100
AcDbCircle
10
553.500000000000
20
570.480000000000
30
0.0
40
24.531262933781
100
AcDbArc
50
90.000000000000
51
141.281997680664
0
ARC
5
4ed
100
AcDbEntity
8
0-0
6
CONTINUOUS
62
3
100
AcDbCircle
10
553.500000000000
20
570.480000000000
30
0.0
40
24.031263715538
100
AcDbArc
50
90.000000000000
51
141.281997680664
0
ARC
5
4ee
100
AcDbEntity
8
0-0
6
CONTINUOUS
62
3
100
AcDbCircle
10
478.500000000000
20
570.480000000000
30
0.0
40
24.531262933781
100
AcDbArc
50
90.000000000000
51
141.281997680664
0
ARC
5
4ef
100
AcDbEntity
8
0-0
6
CONTINUOUS
62
3
100
AcDbCircle
10
478.500000000000
20
570.480000000000
30
0.0
40
24.031263715538
100
AcDbArc
50
90.000000000000
51
141.281997680664
0
ARC
5
4f0
100
AcDbEntity
8
0-0
6
CONTINUOUS
62
3
100
AcDbCircle
10
591.000000000000
20
600.540000000000
30
0.0
40
23.531314044174
100
AcDbArc
50
270.000122070313
51
321.281890869141
0
ARC
5
4f1
100
AcDbEntity
8
0-0
6
CONTINUOUS
62
3
100
AcDbCircle
10
591.000000000000
20
600.540000000000
30
0.0
40
24.031314810756
100
AcDbArc
50
270.000122070313
51
321.281890869141
0
ARC
5
4f2
100
AcDbEntity
8
0-0
6
CONTINUOUS
62
3
100
AcDbCircle
10
628.500000000000
20
570.480000000000
30
0.0
40
24.531262933781
100
AcDbArc
50
90.000000000000
51
141.281997680664
0
ARC
5
4f3
100
AcDbEntity
8
0-0
6
CONTINUOUS
62
3
100
AcDbCircle
10
628.500000000000
20
570.480000000000
30
0.0
40
24.031263715538
100
AcDbArc
50
90.000000000000
51
141.281997680664
0
ARC
5
4f4
100
AcDbEntity
8
0-0
6
CONTINUOUS
62
3
100
AcDbCircle
10
591.000000000000
20
600.540000000000
30
0.0
40
23.531314044174
100
AcDbArc
50
218.718109130859
51
269.999877929688
0
ARC
5
4f5
100
AcDbEntity
8
0-0
6
CONTINUOUS
62
3
100
AcDbCircle
10
591.000000000000
20
600.540000000000
30
0.0
40
24.031314810756
100
AcDbArc
50
218.718109130859
51
269.999877929688
0
ARC
5
4f6
100
AcDbEntity
8
0-0
6
CONTINUOUS
62
3
100
AcDbCircle
10
553.500000000000
20
570.480000000000
30
0.0
40
24.531262933781
100
AcDbArc
50
38.718002319336
51
90.000000000000
0
ARC
5
4f7
100
AcDbEntity
8
0-0
6
CONTINUOUS
62
3
100
AcDbCircle
10
553.500000000000
20
570.480000000000
30
0.0
40
24.031263715538
100
AcDbArc
50
38.718002319336
51
90.000000000000
0
ARC
5
4f8
100
AcDbEntity
8
0-0
6
CONTINUOUS
62
3
100
AcDbCircle
10
741.000000000000
20
600.540000000000
30
0.0
40
23.531314044174
100
AcDbArc
50
270.000122070313
51
321.281890869141
0
ARC
5
4f9
100
AcDbEntity
8
0-0
6
CONTINUOUS
62
3
100
AcDbCircle
10
741.000000000000
20
600.540000000000
30
0.0
40
24.031314810756
100
AcDbArc
50
270.000122070313
51
321.281890869141
0
ARC
5
4fa
100
AcDbEntity
8
0-0
6
CONTINUOUS
62
3
100
AcDbCircle
10
778.500000000000
20
570.480000000000
30
0.0
40
24.531262933781
100
AcDbArc
50
90.000000000000
51
141.281997680664
0
ARC
5
4fb
100
AcDbEntity
8
0-0
6
CONTINUOUS
62
3
100
AcDbCircle
10
778.500000000000
20
570.480000000000
30
0.0
40
24.031263715538
100
AcDbArc
50
90.000000000000
51
141.281997680664
0
ARC
5
4fc
100
AcDbEntity
8
0-0
6
CONTINUOUS
62
3
100
AcDbCircle
10
741.000000000000
20
600.540000000000
30
0.0
40
23.531314044174
100
AcDbArc
50
218.718109130859
51
269.999877929688
0
ARC
5
4fd
100
AcDbEntity
8
0-0
6
CONTINUOUS
62
3
100
AcDbCircle
10
741.000000000000
20
600.540000000000
30
0.0
40
24.031314810756
100
AcDbArc
50
218.718109130859
51
269.999877929688
0
ARC
5
4fe
100
AcDbEntity
8
0-0
6
CONTINUOUS
62
3
100
AcDbCircle
10
703.500000000000
20
570.480000000000
30
0.0
40
24.531262933781
100
AcDbArc
50
38.718002319336
51
90.000000000000
0
ARC
5
4ff
100
AcDbEntity
8
0-0
6
CONTINUOUS
62
3
100
AcDbCircle
10
703.500000000000
20
570.480000000000
30
0.0
40
24.031263715538
100
AcDbArc
50
38.718002319336
51
90.000000000000
0
ARC
5
500
100
AcDbEntity
8
0-0
6
CONTINUOUS
62
3
100
AcDbCircle
10
666.000000000000
20
600.540000000000
30
0.0
40
23.531314044174
100
AcDbArc
50
218.718109130859
51
269.999877929688
0
ARC
5
501
100
AcDbEntity
8
0-0
6
CONTINUOUS
62
3
100
AcDbCircle
10
666.000000000000
20
600.540000000000
30
0.0
40
24.031314810756
100
AcDbArc
50
218.718109130859
51
269.999877929688
0
ARC
5
502
100
AcDbEntity
8
0-0
6
CONTINUOUS
62
3
100
AcDbCircle
10
628.500000000000
20
570.480000000000
30
0.0
40
24.531262933781
100
AcDbArc
50
38.718002319336
51
90.000000000000
0
ARC
5
503
100
AcDbEntity
8
0-0
6
CONTINUOUS
62
3
100
AcDbCircle
10
628.500000000000
20
570.480000000000
30
0.0
40
24.031263715538
100
AcDbArc
50
38.718002319336
51
90.000000000000
0
ARC
5
504
100
AcDbEntity
8
0-0
6
CONTINUOUS
62
3
100
AcDbCircle
10
666.000000000000
20
600.540000000000
30
0.0
40
23.531314044174
100
AcDbArc
50
270.000122070313
51
321.281890869141
0
ARC
5
505
100
AcDbEntity
8
0-0
6
CONTINUOUS
62
3
100
AcDbCircle
10
666.000000000000
20
600.540000000000
30
0.0
40
24.031314810756
100
AcDbArc
50
270.000122070313
51
321.281890869141
0
ARC
5
506
100
AcDbEntity
8
0-0
6
CONTINUOUS
62
3
100
AcDbCircle
10
703.500000000000
20
570.480000000000
30
0.0
40
24.531262933781
100
AcDbArc
50
90.000000000000
51
141.281997680664
0
ARC
5
507
100
AcDbEntity
8
0-0
6
CONTINUOUS
62
3
100
AcDbCircle
10
703.500000000000
20
570.480000000000
30
0.0
40
24.031263715538
100
AcDbArc
50
90.000000000000
51
141.281997680664
0
ARC
5
508
100
AcDbEntity
8
0-0
6
CONTINUOUS
62
3
100
AcDbCircle
10
1041.000000000000
20
600.540000000000
30
0.0
40
23.531314044174
100
AcDbArc
50
270.000122070313
51
321.281890869141
0
ARC
5
509
100
AcDbEntity
8
0-0
6
CONTINUOUS
62
3
100
AcDbCircle
10
1041.000000000000
20
600.540000000000
30
0.0
40
24.031314810756
100
AcDbArc
50
270.000122070313
51
321.281890869141
0
ARC
5
50a
100
AcDbEntity
8
0-0
6
CONTINUOUS
62
3
100
AcDbCircle
10
1078.500000000000
20
570.480000000000
30
0.0
40
24.531262933781
100
AcDbArc
50
90.000000000000
51
141.281997680664
0
ARC
5
50b
100
AcDbEntity
8
0-0
6
CONTINUOUS
62
3
100
AcDbCircle
10
1078.500000000000
20
570.480000000000
30
0.0
40
24.031263715538
100
AcDbArc
50
90.000000000000
51
141.281997680664
0
ARC
5
50c
100
AcDbEntity
8
0-0
6
CONTINUOUS
62
3
100
AcDbCircle
10
1041.000000000000
20
600.540000000000
30
0.0
40
23.531314044174
100
AcDbArc
50
218.718109130859
51
269.999877929688
0
ARC
5
50d
100
AcDbEntity
8
0-0
6
CONTINUOUS
62
3
100
AcDbCircle
10
1041.000000000000
20
600.540000000000
30
0.0
40
24.031314810756
100
AcDbArc
50
218.718109130859
51
269.999877929688
0
ARC
5
50e
100
AcDbEntity
8
0-0
6
CONTINUOUS
62
3
100
AcDbCircle
10
1003.500000000000
20
570.480000000000
30
0.0
40
24.531262933781
100
AcDbArc
50
38.718002319336
51
90.000000000000
0
ARC
5
50f
100
AcDbEntity
8
0-0
6
CONTINUOUS
62
3
100
AcDbCircle
10
1003.500000000000
20
570.480000000000
30
0.0
40
24.031263715538
100
AcDbArc
50
38.718002319336
51
90.000000000000
0
ARC
5
510
100
AcDbEntity
8
0-0
6
CONTINUOUS
62
3
100
AcDbCircle
10
966.000000000000
20
600.540000000000
30
0.0
40
23.531314044174
100
AcDbArc
50
218.718109130859
51
269.999877929688
0
ARC
5
511
100
AcDbEntity
8
0-0
6
CONTINUOUS
62
3
100
AcDbCircle
10
966.000000000000
20
600.540000000000
30
0.0
40
24.031314810756
100
AcDbArc
50
218.718109130859
51
269.999877929688
0
ARC
5
512
100
AcDbEntity
8
0-0
6
CONTINUOUS
62
3
100
AcDbCircle
10
928.500000000000
20
570.480000000000
30
0.0
40
24.531262933781
100
AcDbArc
50
38.718002319336
51
90.000000000000
0
ARC
5
513
100
AcDbEntity
8
0-0
6
CONTINUOUS
62
3
100
AcDbCircle
10
928.500000000000
20
570.480000000000
30
0.0
40
24.031263715538
100
AcDbArc
50
38.718002319336
51
90.000000000000
0
ARC
5
514
100
AcDbEntity
8
0-0
6
CONTINUOUS
62
3
100
AcDbCircle
10
966.000000000000
20
600.540000000000
30
0.0
40
23.531314044174
100
AcDbArc
50
270.000122070313
51
321.281890869141
0
ARC
5
515
100
AcDbEntity
8
0-0
6
CONTINUOUS
62
3
100
AcDbCircle
10
966.000000000000
20
600.540000000000
30
0.0
40
24.031314810756
100
AcDbArc
50
270.000122070313
51
321.281890869141
0
ARC
5
516
100
AcDbEntity
8
0-0
6
CONTINUOUS
62
3
100
AcDbCircle
10
1003.500000000000
20
570.480000000000
30
0.0
40
24.531262933781
100
AcDbArc
50
90.000000000000
51
141.281997680664
0
ARC
5
517
100
AcDbEntity
8
0-0
6
CONTINUOUS
62
3
100
AcDbCircle
10
1003.500000000000
20
570.480000000000
30
0.0
40
24.031263715538
100
AcDbArc
50
90.000000000000
51
141.281997680664
0
ARC
5
518
100
AcDbEntity
8
0-0
6
CONTINUOUS
62
3
100
AcDbCircle
10
816.000000000000
20
600.540000000000
30
0.0
40
23.531314044174
100
AcDbArc
50
218.718109130859
51
269.999877929688
0
ARC
5
519
100
AcDbEntity
8
0-0
6
CONTINUOUS
62
3
100
AcDbCircle
10
816.000000000000
20
600.540000000000
30
0.0
40
24.031314810756
100
AcDbArc
50
218.718109130859
51
269.999877929688
0
ARC
5
51a
100
AcDbEntity
8
0-0
6
CONTINUOUS
62
3
100
AcDbCircle
10
778.500000000000
20
570.480000000000
30
0.0
40
24.531262933781
100
AcDbArc
50
38.718002319336
51
90.000000000000
0
ARC
5
51b
100
AcDbEntity
8
0-0
6
CONTINUOUS
62
3
100
AcDbCircle
10
778.500000000000
20
570.480000000000
30
0.0
40
24.031263715538
100
AcDbArc
50
38.718002319336
51
90.000000000000
0
ARC
5
51c
100
AcDbEntity
8
0-0
6
CONTINUOUS
62
3
100
AcDbCircle
10
816.000000000000
20
600.540000000000
30
0.0
40
23.531314044174
100
AcDbArc
50
270.000122070313
51
321.281890869141
0
ARC
5
51d
100
AcDbEntity
8
0-0
6
CONTINUOUS
62
3
100
AcDbCircle
10
816.000000000000
20
600.540000000000
30
0.0
40
24.031314810756
100
AcDbArc
50
270.000122070313
51
321.281890869141
0
ARC
5
51e
100
AcDbEntity
8
0-0
6
CONTINUOUS
62
3
100
AcDbCircle
10
853.500000000000
20
570.480000000000
30
0.0
40
24.531262933781
100
AcDbArc
50
90.000000000000
51
141.281997680664
0
ARC
5
51f
100
AcDbEntity
8
0-0
6
CONTINUOUS
62
3
100
AcDbCircle
10
853.500000000000
20
570.480000000000
30
0.0
40
24.031263715538
100
AcDbArc
50
90.000000000000
51
141.281997680664
0
ARC
5
520
100
AcDbEntity
8
0-0
6
CONTINUOUS
62
3
100
AcDbCircle
10
891.000000000000
20
600.540000000000
30
0.0
40
23.531314044174
100
AcDbArc
50
270.000122070313
51
321.281890869141
0
ARC
5
521
100
AcDbEntity
8
0-0
6
CONTINUOUS
62
3
100
AcDbCircle
10
891.000000000000
20
600.540000000000
30
0.0
40
24.031314810756
100
AcDbArc
50
270.000122070313
51
321.281890869141
0
ARC
5
522
100
AcDbEntity
8
0-0
6
CONTINUOUS
62
3
100
AcDbCircle
10
928.500000000000
20
570.480000000000
30
0.0
40
24.531262933781
100
AcDbArc
50
90.000000000000
51
141.281997680664
0
ARC
5
523
100
AcDbEntity
8
0-0
6
CONTINUOUS
62
3
100
AcDbCircle
10
928.500000000000
20
570.480000000000
30
0.0
40
24.031263715538
100
AcDbArc
50
90.000000000000
51
141.281997680664
0
ARC
5
524
100
AcDbEntity
8
0-0
6
CONTINUOUS
62
3
100
AcDbCircle
10
891.000000000000
20
600.540000000000
30
0.0
40
23.531314044174
100
AcDbArc
50
218.718109130859
51
269.999877929688
0
ARC
5
525
100
AcDbEntity
8
0-0
6
CONTINUOUS
62
3
100
AcDbCircle
10
891.000000000000
20
600.540000000000
30
0.0
40
24.031314810756
100
AcDbArc
50
218.718109130859
51
269.999877929688
0
ARC
5
526
100
AcDbEntity
8
0-0
6
CONTINUOUS
62
3
100
AcDbCircle
10
853.500000000000
20
570.480000000000
30
0.0
40
24.531262933781
100
AcDbArc
50
38.718002319336
51
90.000000000000
0
ARC
5
527
100
AcDbEntity
8
0-0
6
CONTINUOUS
62
3
100
AcDbCircle
10
853.500000000000
20
570.480000000000
30
0.0
40
24.031263715538
100
AcDbArc
50
38.718002319336
51
90.000000000000
0
ARC
5
528
100
AcDbEntity
8
0-0
6
CONTINUOUS
62
3
100
AcDbCircle
10
1116.000000000000
20
600.540000000000
30
0.0
40
23.531314044174
100
AcDbArc
50
218.718109130859
51
269.999877929688
0
ARC
5
529
100
AcDbEntity
8
0-0
6
CONTINUOUS
62
3
100
AcDbCircle
10
1116.000000000000
20
600.540000000000
30
0.0
40
24.031314810756
100
AcDbArc
50
218.718109130859
51
269.999877929688
0
ARC
5
52a
100
AcDbEntity
8
0-0
6
CONTINUOUS
62
3
100
AcDbCircle
10
1078.500000000000
20
570.480000000000
30
0.0
40
24.531262933781
100
AcDbArc
50
38.718002319336
51
90.000000000000
0
ARC
5
52b
100
AcDbEntity
8
0-0
6
CONTINUOUS
62
3
100
AcDbCircle
10
1078.500000000000
20
570.480000000000
30
0.0
40
24.031263715538
100
AcDbArc
50
38.718002319336
51
90.000000000000
0
ARC
5
52c
100
AcDbEntity
8
0-0
6
CONTINUOUS
62
3
100
AcDbCircle
10
1116.000000000000
20
600.540000000000
30
0.0
40
23.531314044174
100
AcDbArc
50
270.000122070313
51
321.281890869141
0
ARC
5
52d
100
AcDbEntity
8
0-0
6
CONTINUOUS
62
3
100
AcDbCircle
10
1116.000000000000
20
600.540000000000
30
0.0
40
24.031314810756
100
AcDbArc
50
270.000122070313
51
321.281890869141
0
ARC
5
52e
100
AcDbEntity
8
0-0
6
CONTINUOUS
62
3
100
AcDbCircle
10
1153.500000000000
20
570.480000000000
30
0.0
40
24.531262933781
100
AcDbArc
50
90.000000000000
51
141.281997680664
0
ARC
5
52f
100
AcDbEntity
8
0-0
6
CONTINUOUS
62
3
100
AcDbCircle
10
1153.500000000000
20
570.480000000000
30
0.0
40
24.031263715538
100
AcDbArc
50
90.000000000000
51
141.281997680664
0
ARC
5
530
100
AcDbEntity
8
0-0
6
CONTINUOUS
62
3
100
AcDbCircle
10
1191.000000000000
20
600.540000000000
30
0.0
40
23.531314044174
100
AcDbArc
50
270.000122070313
51
321.281890869141
0
ARC
5
531
100
AcDbEntity
8
0-0
6
CONTINUOUS
62
3
100
AcDbCircle
10
1191.000000000000
20
600.540000000000
30
0.0
40
24.031314810756
100
AcDbArc
50
270.000122070313
51
321.281890869141
0
ARC
5
532
100
AcDbEntity
8
0-0
6
CONTINUOUS
62
3
100
AcDbCircle
10
1228.500000000000
20
570.480000000000
30
0.0
40
24.531262933781
100
AcDbArc
50
90.000000000000
51
141.281997680664
0
ARC
5
533
100
AcDbEntity
8
0-0
6
CONTINUOUS
62
3
100
AcDbCircle
10
1228.500000000000
20
570.480000000000
30
0.0
40
24.031263715538
100
AcDbArc
50
90.000000000000
51
141.281997680664
0
ARC
5
534
100
AcDbEntity
8
0-0
6
CONTINUOUS
62
3
100
AcDbCircle
10
1191.000000000000
20
600.540000000000
30
0.0
40
23.531314044174
100
AcDbArc
50
218.718109130859
51
269.999877929688
0
ARC
5
535
100
AcDbEntity
8
0-0
6
CONTINUOUS
62
3
100
AcDbCircle
10
1191.000000000000
20
600.540000000000
30
0.0
40
24.031314810756
100
AcDbArc
50
218.718109130859
51
269.999877929688
0
ARC
5
536
100
AcDbEntity
8
0-0
6
CONTINUOUS
62
3
100
AcDbCircle
10
1153.500000000000
20
570.480000000000
30
0.0
40
24.531262933781
100
AcDbArc
50
38.718002319336
51
90.000000000000
0
ARC
5
537
100
AcDbEntity
8
0-0
6
CONTINUOUS
62
3
100
AcDbCircle
10
1153.500000000000
20
570.480000000000
30
0.0
40
24.031263715538
100
AcDbArc
50
38.718002319336
51
90.000000000000
0
ARC
5
538
100
AcDbEntity
8
0-0
6
CONTINUOUS
62
3
100
AcDbCircle
10
1228.500000000000
20
570.480000000000
30
0.0
40
24.531262933781
100
AcDbArc
50
38.718002319336
51
90.000000000000
0
ARC
5
539
100
AcDbEntity
8
0-0
6
CONTINUOUS
62
3
100
AcDbCircle
10
1228.500000000000
20
570.480000000000
30
0.0
40
24.031263715538
100
AcDbArc
50
38.718002319336
51
90.000000000000
0
ARC
5
53a
100
AcDbEntity
8
0-0
6
CONTINUOUS
62
3
100
AcDbCircle
10
441.000000000000
20
600.540000000000
30
0.0
40
24.031314810756
100
AcDbArc
50
295.148651123047
51
321.281890869141
0
ARC
5
53b
100
AcDbEntity
8
0-0
6
CONTINUOUS
62
3
100
AcDbCircle
10
441.000000000000
20
600.540000000000
30
0.0
40
23.531314044174
100
AcDbArc
50
295.148666381836
51
321.281890869141
0
ARC
5
53c
100
AcDbEntity
8
0-0
6
CONTINUOUS
62
3
100
AcDbCircle
10
1266.000000000000
20
600.540000000000
30
0.0
40
24.031314810756
100
AcDbArc
50
218.718109130859
51
244.851455688477
0
ARC
5
53d
100
AcDbEntity
8
0-0
6
CONTINUOUS
62
3
100
AcDbCircle
10
1266.000000000000
20
600.540000000000
30
0.0
40
23.531314044174
100
AcDbArc
50
218.718109130859
51
244.851440429688
0
TEXT
5
53e
100
AcDbEntity
8
F-F
62
3
370
-3
100
AcDbText
10
532.090
20
75.752
30
0.0
40
4.923
1
変　　　　　　更　　　　　　記　　　　　　事
41
0.914
50
0.000
100
AcDbText
0
TEXT
5
53f
100
AcDbEntity
8
F-F
62
3
370
-3
100
AcDbText
10
815.825
20
74.952
30
0.0
40
4.923
1
受領　　日附
41
0.914
50
0.000
100
AcDbText
0
TEXT
5
540
100
AcDbEntity
8
F-F
62
3
370
-3
100
AcDbText
10
1014.042
20
45.520
30
0.0
40
4.923
1
施工者
41
0.914
50
0.000
100
AcDbText
0
TEXT
5
541
100
AcDbEntity
8
F-F
62
3
370
-3
100
AcDbText
10
1014.042
20
75.150
30
0.0
40
4.923
1
設計者
41
0.914
50
0.000
100
AcDbText
0
TEXT
5
542
100
AcDbEntity
8
F-F
62
3
370
-3
100
AcDbText
10
1219.525
20
44.977
30
0.0
40
4.923
1
作図
41
0.914
50
0.000
100
AcDbText
0
TEXT
5
543
100
AcDbEntity
8
F-F
62
3
370
-3
100
AcDbText
10
1291.352
20
45.508
30
0.0
40
4.923
1
図面名
41
0.914
50
0.000
100
AcDbText
0
TEXT
5
544
100
AcDbEntity
8
F-F
62
3
370
-3
100
AcDbText
10
1219.525
20
74.607
30
0.0
40
4.923
1
日附
41
0.914
50
0.000
100
AcDbText
0
TEXT
5
545
100
AcDbEntity
8
F-F
62
3
370
-3
100
AcDbText
10
1291.352
20
75.137
30
0.0
40
4.923
1
工事件名
41
0.914
50
0.000
100
AcDbText
0
TEXT
5
546
100
AcDbEntity
8
F-F
62
3
370
-3
100
AcDbText
10
1241.661
20
74.355
30
0.0
40
4.923
1
年　月　日
41
0.914
50
0.000
100
AcDbText
0
TEXT
5
547
100
AcDbEntity
8
F-F
62
3
370
-3
100
AcDbText
10
1241.661
20
44.726
30
0.0
40
4.923
1
年　月　日
41
0.914
50
0.000
100
AcDbText
0
TEXT
5
548
100
AcDbEntity
8
F-F
62
3
370
-3
100
AcDbText
10
1543.695
20
75.137
30
0.0
40
4.923
1
設計番号
41
0.914
50
0.000
100
AcDbText
0
MTEXT
5
549
100
AcDbEntity
8
F-F
62
3
370
-3
100
AcDbMText
10
387.012
20
67.821
30
0.0
40
4.649
41
0.000
71
7
72
1
1
\W1.037;{\W0.747;. }　{\W0.747;.}　{\W0.747; }
7
STANDARD
11
1.00000
21
0.00000
31
0.0
0
MTEXT
5
54a
100
AcDbEntity
8
F-F
62
3
370
-3
100
AcDbMText
10
387.012
20
57.945
30
0.0
40
4.649
41
0.000
71
7
72
1
1
\W1.037;{\W0.747;. }　{\W0.747;.}　{\W0.747; }
7
STANDARD
11
1.00000
21
0.00000
31
0.0
0
MTEXT
5
54b
100
AcDbEntity
8
F-F
62
3
370
-3
100
AcDbMText
10
387.012
20
48.068
30
0.0
40
4.649
41
0.000
71
7
72
1
1
\W1.037;{\W0.747;. }　{\W0.747;.}　{\W0.747; }
7
STANDARD
11
1.00000
21
0.00000
31
0.0
0
MTEXT
5
54c
100
AcDbEntity
8
F-F
62
3
370
-3
100
AcDbMText
10
387.012
20
38.191
30
0.0
40
4.649
41
0.000
71
7
72
1
1
\W1.037;{\W0.747;. }　{\W0.747;.}　{\W0.747; }
7
STANDARD
11
1.00000
21
0.00000
31
0.0
0
MTEXT
5
54d
100
AcDbEntity
8
F-F
62
3
370
-3
100
AcDbMText
10
387.012
20
28.314
30
0.0
40
4.649
41
0.000
71
7
72
1
1
\W1.037;{\W0.747;. }　{\W0.747;.}　{\W0.747; }
7
STANDARD
11
1.00000
21
0.00000
31
0.0
0
TEXT
5
54e
100
AcDbEntity
8
F-F
62
3
370
-3
100
AcDbText
10
1034.383
20
62.373
30
0.0
40
6.564
1
　　　　　　　　　　
41
0.921
50
0.000
100
AcDbText
0
TEXT
5
54f
100
AcDbEntity
8
F-F
62
3
370
-3
100
AcDbText
10
1034.383
20
32.743
30
0.0
40
6.564
1
　　　　　　　　　　
41
0.921
50
0.000
100
AcDbText
0
TEXT
5
550
100
AcDbEntity
8
F-F
62
3
370
-3
100
AcDbText
10
1317.846
20
63.920
30
0.0
40
6.564
1
　　　　　　　　　　　　　
41
0.921
50
0.000
100
AcDbText
0
TEXT
5
551
100
AcDbEntity
8
F-F
62
3
370
-3
100
AcDbText
10
378.040
20
75.687
30
0.0
40
4.923
1
年　月　日
41
0.914
50
0.000
100
AcDbText
0
TEXT
5
552
100
AcDbEntity
8
F-F
62
3
370
-3
100
AcDbText
10
872.996
20
74.368
30
0.0
40
4.923
1
年　　月　　日
41
0.914
50
0.000
100
AcDbText
0
MTEXT
5
553
100
AcDbEntity
8
F-F
62
3
370
-3
100
AcDbMText
10
885.548
20
63.398
30
0.0
40
4.649
41
0.000
71
7
72
1
1
\W1.037;{\W0.747;.}　{\W0.747; }　{\W0.747;.}
7
STANDARD
11
1.00000
21
0.00000
31
0.0
0
TEXT
5
554
100
AcDbEntity
8
F-F
62
3
370
-3
100
AcDbText
10
815.825
20
45.323
30
0.0
40
4.923
1
受領　　日附
41
0.914
50
0.000
100
AcDbText
0
TEXT
5
555
100
AcDbEntity
8
F-F
62
3
370
-3
100
AcDbText
10
872.996
20
44.738
30
0.0
40
4.923
1
年　　月　　日
41
0.914
50
0.000
100
AcDbText
0
MTEXT
5
556
100
AcDbEntity
8
F-F
62
3
370
-3
100
AcDbMText
10
885.548
20
33.769
30
0.0
40
4.649
41
0.000
71
7
72
1
1
\W1.037;{\W0.747;.}　{\W0.747; }　{\W0.747;.}
7
STANDARD
11
1.00000
21
0.00000
31
0.0
0
MTEXT
5
557
100
AcDbEntity
8
F-F
62
3
370
-3
100
AcDbMText
10
1248.433
20
61.685
30
0.0
40
4.649
41
0.000
71
7
72
1
1
\W1.037;{\W0.747;.}　　{\W0.747;.}　
7
STANDARD
11
1.00000
21
0.00000
31
0.0
0
TEXT
5
558
100
AcDbEntity
8
F-F
62
3
370
-3
100
AcDbText
10
1543.695
20
45.508
30
0.0
40
4.923
1
縮　尺
41
0.914
50
0.000
100
AcDbText
0
TEXT
5
559
100
AcDbEntity
8
F-F
62
3
370
-3
100
AcDbText
10
1567.012
20
41.647
30
0.0
40
6.564
1
Ａ１－１／２　
41
0.921
50
0.000
100
AcDbText
0
TEXT
5
55a
100
AcDbEntity
8
F-F
62
3
370
-3
100
AcDbText
10
1567.012
20
26.832
30
0.0
40
6.564
1
Ａ３－１／４　
41
0.921
50
0.000
100
AcDbText
0
TEXT
5
55b
100
AcDbEntity
8
F-F
62
3
370
-3
100
AcDbText
10
166.668
20
28.767
30
0.0
40
6.564
1
電話（０５４）２６３－２２８０（代表）
41
0.921
50
0.000
100
AcDbText
0
TEXT
5
55c
100
AcDbEntity
8
F-F
62
3
370
-3
100
AcDbText
10
122.770
20
61.158
30
0.0
40
13.127
1
小　池　弥　太　郎　商　店
41
0.963
50
0.000
100
AcDbText
0
TEXT
5
55d
100
AcDbEntity
8
F-F
62
3
370
-3
100
AcDbText
10
166.664
20
43.600
30
0.0
40
6.564
1
静岡県静岡市葵区流通センター１６番
41
0.921
50
0.000
100
AcDbText
0
TEXT
5
55e
100
AcDbEntity
8
F-F
62
3
370
-3
100
AcDbText
10
100.135
20
68.250
30
0.0
40
4.923
1
株
41
0.914
50
0.000
100
AcDbText
0
TEXT
5
55f
100
AcDbEntity
8
F-F
62
3
370
-3
100
AcDbText
10
107.285
20
61.000
30
0.0
40
4.923
1
社
41
0.914
50
0.000
100
AcDbText
0
TEXT
5
560
100
AcDbEntity
8
F-F
62
3
370
-3
100
AcDbText
10
100.085
20
61.000
30
0.0
40
4.923
1
会
41
0.914
50
0.000
100
AcDbText
0
TEXT
5
561
100
AcDbEntity
8
F-F
62
3
370
-3
100
AcDbText
10
106.885
20
68.049
30
0.0
40
4.923
1
式
41
0.914
50
0.000
100
AcDbText
0
TEXT
5
562
100
AcDbEntity
8
0-0
62
3
370
-3
100
AcDbText
10
386.374
20
579.906
30
0.0
40
13.127
41
0.705
50
0.000
1
18
72
1
11
395.149
21
578.448
31
0.0
100
AcDbText
73
1
0
TEXT
5
563
100
AcDbEntity
8
0-0
62
3
370
-3
100
AcDbText
10
585.962
20
657.709
30
0.0
40
6.564
41
0.921
50
0.000
1
〃
72
1
11
590.154
21
656.980
31
0.0
100
AcDbText
73
1
0
TEXT
5
564
100
AcDbEntity
8
0-0
62
3
370
-3
100
AcDbText
10
442.874
20
658.906
30
0.0
40
13.127
41
0.674
50
0.000
1
27.5
72
1
11
460.424
21
657.448
31
0.0
100
AcDbText
73
1
0
TEXT
5
565
100
AcDbEntity
8
0-0
62
3
370
-3
100
AcDbText
10
508.124
20
658.906
30
0.0
40
13.127
41
0.586
50
359.999
1
75
72
1
11
516.899
21
657.448
31
0.0
100
AcDbText
73
1
0
TEXT
5
566
100
AcDbEntity
8
0-0
62
3
370
-3
100
AcDbText
10
660.962
20
657.709
30
0.0
40
6.564
41
0.921
50
0.000
1
〃
72
1
11
665.154
21
656.980
31
0.0
100
AcDbText
73
1
0
TEXT
5
567
100
AcDbEntity
8
0-0
62
3
370
-3
100
AcDbText
10
735.962
20
657.709
30
0.0
40
6.564
41
0.921
50
0.000
1
〃
72
1
11
740.154
21
656.980
31
0.0
100
AcDbText
73
1
0
TEXT
5
568
100
AcDbEntity
8
0-0
62
3
370
-3
100
AcDbText
10
810.962
20
657.709
30
0.0
40
6.564
41
0.921
50
0.000
1
〃
72
1
11
815.154
21
656.980
31
0.0
100
AcDbText
73
1
0
TEXT
5
569
100
AcDbEntity
8
0-0
62
3
370
-3
100
AcDbText
10
885.962
20
657.709
30
0.0
40
6.564
41
0.921
50
0.000
1
〃
72
1
11
890.154
21
656.980
31
0.0
100
AcDbText
73
1
0
TEXT
5
56a
100
AcDbEntity
8
0-0
62
3
370
-3
100
AcDbText
10
960.962
20
657.709
30
0.0
40
6.564
41
0.921
50
0.000
1
〃
72
1
11
965.154
21
656.980
31
0.0
100
AcDbText
73
1
0
TEXT
5
56b
100
AcDbEntity
8
0-0
62
3
370
-3
100
AcDbText
10
1035.962
20
657.709
30
0.0
40
6.564
41
0.921
50
0.000
1
〃
72
1
11
1040.154
21
656.980
31
0.0
100
AcDbText
73
1
0
TEXT
5
56c
100
AcDbEntity
8
0-0
62
3
370
-3
100
AcDbText
10
1110.962
20
657.709
30
0.0
40
6.564
41
0.921
50
0.000
1
〃
72
1
11
1115.154
21
656.980
31
0.0
100
AcDbText
73
1
0
TEXT
5
56d
100
AcDbEntity
8
0-0
62
3
370
-3
100
AcDbText
10
1230.374
20
658.906
30
0.0
40
13.127
41
0.674
50
360.000
1
27.5
72
1
11
1247.924
21
657.448
31
0.0
100
AcDbText
73
1
0
MTEXT
5
56e
100
AcDbEntity
8
0-0
62
3
370
-3
100
AcDbMText
10
772.524
20
519.448
30
0.0
40
12.398
41
0.000
71
7
72
1
1
\W1.093;{\W0.787;675}（働き巾）
7
STANDARD
11
1.00000
21
0.00000
31
0.0
0
TEXT
5
56f
100
AcDbEntity
8
0-0
62
3
370
-3
100
AcDbText
10
841.124
20
688.906
30
0.0
40
13.127
41
0.600
50
0.000
1
805
72
1
11
854.286
21
687.448
31
0.0
100
AcDbText
73
1
0
TEXT
5
570
100
AcDbEntity
8
0-0
62
3
370
-3
100
AcDbText
10
1183.124
20
658.906
30
0.0
40
13.127
41
0.586
50
359.999
1
75
72
1
11
1191.899
21
657.448
31
0.0
100
AcDbText
73
1
0
TEXT
5
571
100
AcDbEntity
8
0-0
62
3
370
-3
100
AcDbText
10
220.429
20
571.994
30
0.0
40
16.409
1
成型大波
41
0.942
50
0.000
100
AcDbText
0
TEXT
5
572
100
AcDbEntity
8
F-F
62
3
370
-3
100
AcDbText
10
1222.716
20
31.566
30
0.0
40
4.923
1
MA 2015-06-04
41
0.611
50
0.000
100
AcDbText
0
TEXT
5
573
100
AcDbEntity
8
F-F
62
3
370
-3
100
AcDbText
10
1557.468
20
61.186
30
0.0
40
8.205
1
K-NAMI-02
41
0.587
50
0.000
100
AcDbText
0
TEXT
5
574
100
AcDbEntity
8
F-F
62
3
370
-3
100
AcDbText
10
1317.846
20
34.290
30
0.0
40
6.564
1
コイケ　成形大波　断面図
41
0.921
50
0.000
100
AcDbText
0
POLYLINE
5
575
100
AcDbEntity
  8
F-F
6
CONTINUOUS
62
3
100
AcDb2dPolyline
66
1
10
0
20
0
70
1
40
0.800
41
0.800
0
VERTEX
5
576
100
AcDbEntity
  8
F-F
6
CONTINUOUS
62
3
100
AcDbVertex
100
AcDb2dVertex
10
54.357
20
1143.641
30
0.0
42
1.000
0
VERTEX
5
577
100
AcDbEntity
  8
F-F
6
CONTINUOUS
62
3
100
AcDbVertex
100
AcDb2dVertex
10
55.157
20
1143.641
30
0.0
42
1.000
0
SEQEND
5
578
100
AcDbEntity
  8
F-F
0
POLYLINE
5
579
100
AcDbEntity
  8
0-0
6
CONTINUOUS
62
3
100
AcDb2dPolyline
66
1
10
0
20
0
70
1
40
0.800
41
0.800
0
VERTEX
5
57a
100
AcDbEntity
  8
0-0
6
CONTINUOUS
62
3
100
AcDbVertex
100
AcDb2dVertex
10
478.100
20
516.512
30
0.0
42
1.000
0
VERTEX
5
57b
100
AcDbEntity
  8
0-0
6
CONTINUOUS
62
3
100
AcDbVertex
100
AcDb2dVertex
10
478.900
20
516.512
30
0.0
42
1.000
0
SEQEND
5
57c
100
AcDbEntity
  8
0-0
0
POLYLINE
5
57d
100
AcDbEntity
  8
0-0
6
CONTINUOUS
62
3
100
AcDb2dPolyline
66
1
10
0
20
0
70
1
40
0.800
41
0.800
0
VERTEX
5
57e
100
AcDbEntity
  8
0-0
6
CONTINUOUS
62
3
100
AcDbVertex
100
AcDb2dVertex
10
450.600
20
654.512
30
0.0
42
1.000
0
VERTEX
5
57f
100
AcDbEntity
  8
0-0
6
CONTINUOUS
62
3
100
AcDbVertex
100
AcDb2dVertex
10
451.400
20
654.512
30
0.0
42
1.000
0
SEQEND
5
580
100
AcDbEntity
  8
0-0
0
POLYLINE
5
581
100
AcDbEntity
  8
0-0
6
CONTINUOUS
62
3
100
AcDb2dPolyline
66
1
10
0
20
0
70
1
40
0.800
41
0.800
0
VERTEX
5
582
100
AcDbEntity
  8
0-0
6
CONTINUOUS
62
3
100
AcDbVertex
100
AcDb2dVertex
10
478.100
20
654.512
30
0.0
42
1.000
0
VERTEX
5
583
100
AcDbEntity
  8
0-0
6
CONTINUOUS
62
3
100
AcDbVertex
100
AcDb2dVertex
10
478.900
20
654.512
30
0.0
42
1.000
0
SEQEND
5
584
100
AcDbEntity
  8
0-0
0
POLYLINE
5
585
100
AcDbEntity
  8
0-0
6
CONTINUOUS
62
3
100
AcDb2dPolyline
66
1
10
0
20
0
70
1
40
0.800
41
0.800
0
VERTEX
5
586
100
AcDbEntity
  8
0-0
6
CONTINUOUS
62
3
100
AcDbVertex
100
AcDb2dVertex
10
450.600
20
684.512
30
0.0
42
1.000
0
VERTEX
5
587
100
AcDbEntity
  8
0-0
6
CONTINUOUS
62
3
100
AcDbVertex
100
AcDb2dVertex
10
451.400
20
684.512
30
0.0
42
1.000
0
SEQEND
5
588
100
AcDbEntity
  8
0-0
0
POLYLINE
5
589
100
AcDbEntity
  8
0-0
6
CONTINUOUS
62
3
100
AcDb2dPolyline
66
1
10
0
20
0
70
1
40
0.800
41
0.800
0
VERTEX
5
58a
100
AcDbEntity
  8
0-0
6
CONTINUOUS
62
3
100
AcDbVertex
100
AcDb2dVertex
10
410.600
20
576.512
30
0.0
42
1.000
0
VERTEX
5
58b
100
AcDbEntity
  8
0-0
6
CONTINUOUS
62
3
100
AcDbVertex
100
AcDb2dVertex
10
411.400
20
576.512
30
0.0
42
1.000
0
SEQEND
5
58c
100
AcDbEntity
  8
0-0
0
POLYLINE
5
58d
100
AcDbEntity
  8
0-0
6
CONTINUOUS
62
3
100
AcDb2dPolyline
66
1
10
0
20
0
70
1
40
0.800
41
0.800
0
VERTEX
5
58e
100
AcDbEntity
  8
0-0
6
CONTINUOUS
62
3
100
AcDbVertex
100
AcDb2dVertex
10
410.600
20
594.512
30
0.0
42
1.000
0
VERTEX
5
58f
100
AcDbEntity
  8
0-0
6
CONTINUOUS
62
3
100
AcDbVertex
100
AcDb2dVertex
10
411.400
20
594.512
30
0.0
42
1.000
0
SEQEND
5
590
100
AcDbEntity
  8
0-0
0
POLYLINE
5
591
100
AcDbEntity
  8
0-0
6
CONTINUOUS
62
3
100
AcDb2dPolyline
66
1
10
0
20
0
70
1
40
0.800
41
0.800
0
VERTEX
5
592
100
AcDbEntity
  8
0-0
6
CONTINUOUS
62
3
100
AcDbVertex
100
AcDb2dVertex
10
1153.100
20
516.512
30
0.0
42
1.000
0
VERTEX
5
593
100
AcDbEntity
  8
0-0
6
CONTINUOUS
62
3
100
AcDbVertex
100
AcDb2dVertex
10
1153.900
20
516.512
30
0.0
42
1.000
0
SEQEND
5
594
100
AcDbEntity
  8
0-0
0
POLYLINE
5
595
100
AcDbEntity
  8
0-0
6
CONTINUOUS
62
3
100
AcDb2dPolyline
66
1
10
0
20
0
70
1
40
0.800
41
0.800
0
VERTEX
5
596
100
AcDbEntity
  8
0-0
6
CONTINUOUS
62
3
100
AcDbVertex
100
AcDb2dVertex
10
1255.600
20
654.512
30
0.0
42
1.000
0
VERTEX
5
597
100
AcDbEntity
  8
0-0
6
CONTINUOUS
62
3
100
AcDbVertex
100
AcDb2dVertex
10
1256.400
20
654.512
30
0.0
42
1.000
0
SEQEND
5
598
100
AcDbEntity
  8
0-0
0
POLYLINE
5
599
100
AcDbEntity
  8
0-0
6
CONTINUOUS
62
3
100
AcDb2dPolyline
66
1
10
0
20
0
70
1
40
0.800
41
0.800
0
VERTEX
5
59a
100
AcDbEntity
  8
0-0
6
CONTINUOUS
62
3
100
AcDbVertex
100
AcDb2dVertex
10
1255.600
20
684.512
30
0.0
42
1.000
0
VERTEX
5
59b
100
AcDbEntity
  8
0-0
6
CONTINUOUS
62
3
100
AcDbVertex
100
AcDb2dVertex
10
1256.400
20
684.512
30
0.0
42
1.000
0
SEQEND
5
59c
100
AcDbEntity
  8
0-0
0
POLYLINE
5
59d
100
AcDbEntity
  8
0-0
6
CONTINUOUS
62
3
100
AcDb2dPolyline
66
1
10
0
20
0
70
1
40
0.800
41
0.800
0
VERTEX
5
59e
100
AcDbEntity
  8
0-0
6
CONTINUOUS
62
3
100
AcDbVertex
100
AcDb2dVertex
10
553.100
20
654.512
30
0.0
42
1.000
0
VERTEX
5
59f
100
AcDbEntity
  8
0-0
6
CONTINUOUS
62
3
100
AcDbVertex
100
AcDb2dVertex
10
553.900
20
654.512
30
0.0
42
1.000
0
SEQEND
5
5a0
100
AcDbEntity
  8
0-0
0
POLYLINE
5
5a1
100
AcDbEntity
  8
0-0
6
CONTINUOUS
62
3
100
AcDb2dPolyline
66
1
10
0
20
0
70
1
40
0.800
41
0.800
0
VERTEX
5
5a2
100
AcDbEntity
  8
0-0
6
CONTINUOUS
62
3
100
AcDbVertex
100
AcDb2dVertex
10
628.100
20
654.512
30
0.0
42
1.000
0
VERTEX
5
5a3
100
AcDbEntity
  8
0-0
6
CONTINUOUS
62
3
100
AcDbVertex
100
AcDb2dVertex
10
628.900
20
654.512
30
0.0
42
1.000
0
SEQEND
5
5a4
100
AcDbEntity
  8
0-0
0
POLYLINE
5
5a5
100
AcDbEntity
  8
0-0
6
CONTINUOUS
62
3
100
AcDb2dPolyline
66
1
10
0
20
0
70
1
40
0.800
41
0.800
0
VERTEX
5
5a6
100
AcDbEntity
  8
0-0
6
CONTINUOUS
62
3
100
AcDbVertex
100
AcDb2dVertex
10
703.100
20
654.512
30
0.0
42
1.000
0
VERTEX
5
5a7
100
AcDbEntity
  8
0-0
6
CONTINUOUS
62
3
100
AcDbVertex
100
AcDb2dVertex
10
703.900
20
654.512
30
0.0
42
1.000
0
SEQEND
5
5a8
100
AcDbEntity
  8
0-0
0
POLYLINE
5
5a9
100
AcDbEntity
  8
0-0
6
CONTINUOUS
62
3
100
AcDb2dPolyline
66
1
10
0
20
0
70
1
40
0.800
41
0.800
0
VERTEX
5
5aa
100
AcDbEntity
  8
0-0
6
CONTINUOUS
62
3
100
AcDbVertex
100
AcDb2dVertex
10
778.100
20
654.512
30
0.0
42
1.000
0
VERTEX
5
5ab
100
AcDbEntity
  8
0-0
6
CONTINUOUS
62
3
100
AcDbVertex
100
AcDb2dVertex
10
778.900
20
654.512
30
0.0
42
1.000
0
SEQEND
5
5ac
100
AcDbEntity
  8
0-0
0
POLYLINE
5
5ad
100
AcDbEntity
  8
0-0
6
CONTINUOUS
62
3
100
AcDb2dPolyline
66
1
10
0
20
0
70
1
40
0.800
41
0.800
0
VERTEX
5
5ae
100
AcDbEntity
  8
0-0
6
CONTINUOUS
62
3
100
AcDbVertex
100
AcDb2dVertex
10
853.100
20
654.512
30
0.0
42
1.000
0
VERTEX
5
5af
100
AcDbEntity
  8
0-0
6
CONTINUOUS
62
3
100
AcDbVertex
100
AcDb2dVertex
10
853.900
20
654.512
30
0.0
42
1.000
0
SEQEND
5
5b0
100
AcDbEntity
  8
0-0
0
POLYLINE
5
5b1
100
AcDbEntity
  8
0-0
6
CONTINUOUS
62
3
100
AcDb2dPolyline
66
1
10
0
20
0
70
1
40
0.800
41
0.800
0
VERTEX
5
5b2
100
AcDbEntity
  8
0-0
6
CONTINUOUS
62
3
100
AcDbVertex
100
AcDb2dVertex
10
928.100
20
654.512
30
0.0
42
1.000
0
VERTEX
5
5b3
100
AcDbEntity
  8
0-0
6
CONTINUOUS
62
3
100
AcDbVertex
100
AcDb2dVertex
10
928.900
20
654.512
30
0.0
42
1.000
0
SEQEND
5
5b4
100
AcDbEntity
  8
0-0
0
POLYLINE
5
5b5
100
AcDbEntity
  8
0-0
6
CONTINUOUS
62
3
100
AcDb2dPolyline
66
1
10
0
20
0
70
1
40
0.800
41
0.800
0
VERTEX
5
5b6
100
AcDbEntity
  8
0-0
6
CONTINUOUS
62
3
100
AcDbVertex
100
AcDb2dVertex
10
1003.100
20
654.512
30
0.0
42
1.000
0
VERTEX
5
5b7
100
AcDbEntity
  8
0-0
6
CONTINUOUS
62
3
100
AcDbVertex
100
AcDb2dVertex
10
1003.900
20
654.512
30
0.0
42
1.000
0
SEQEND
5
5b8
100
AcDbEntity
  8
0-0
0
POLYLINE
5
5b9
100
AcDbEntity
  8
0-0
6
CONTINUOUS
62
3
100
AcDb2dPolyline
66
1
10
0
20
0
70
1
40
0.800
41
0.800
0
VERTEX
5
5ba
100
AcDbEntity
  8
0-0
6
CONTINUOUS
62
3
100
AcDbVertex
100
AcDb2dVertex
10
1078.100
20
654.512
30
0.0
42
1.000
0
VERTEX
5
5bb
100
AcDbEntity
  8
0-0
6
CONTINUOUS
62
3
100
AcDbVertex
100
AcDb2dVertex
10
1078.900
20
654.512
30
0.0
42
1.000
0
SEQEND
5
5bc
100
AcDbEntity
  8
0-0
0
POLYLINE
5
5bd
100
AcDbEntity
  8
0-0
6
CONTINUOUS
62
3
100
AcDb2dPolyline
66
1
10
0
20
0
70
1
40
0.800
41
0.800
0
VERTEX
5
5be
100
AcDbEntity
  8
0-0
6
CONTINUOUS
62
3
100
AcDbVertex
100
AcDb2dVertex
10
1153.100
20
654.512
30
0.0
42
1.000
0
VERTEX
5
5bf
100
AcDbEntity
  8
0-0
6
CONTINUOUS
62
3
100
AcDbVertex
100
AcDb2dVertex
10
1153.900
20
654.512
30
0.0
42
1.000
0
SEQEND
5
5c0
100
AcDbEntity
  8
0-0
0
POLYLINE
5
5c1
100
AcDbEntity
  8
0-0
6
CONTINUOUS
62
3
100
AcDb2dPolyline
66
1
10
0
20
0
70
1
40
0.800
41
0.800
0
VERTEX
5
5c2
100
AcDbEntity
  8
0-0
6
CONTINUOUS
62
3
100
AcDbVertex
100
AcDb2dVertex
10
1228.100
20
654.512
30
0.0
42
1.000
0
VERTEX
5
5c3
100
AcDbEntity
  8
0-0
6
CONTINUOUS
62
3
100
AcDbVertex
100
AcDb2dVertex
10
1228.900
20
654.512
30
0.0
42
1.000
0
SEQEND
5
5c4
100
AcDbEntity
  8
0-0
0
ENDSEC
 0
SECTION
  2
OBJECTS
 0
DICTIONARY
  5
C
100
AcDbDictionary
  3
ACAD_GROUP
350
D
  3
ACAD_MLINESTYLE
350
E
 0
DICTIONARY
  5
D
102
{ACAD_REACTORS
102
}
100
AcDbDictionary
 0
DICTIONARY
  5
E
102
{ACAD_REACTORS
102
}
100
AcDbDictionary
  3
STANDARD
350
13
0
MLINESTYLE
  5
13
102
{ACAD_REACTORS
102
}
100
AcDbMlineStyle
  2
STANDARD
 70
    0
3

62
256
51
90.0
52
90.0
71
0
0
ACDBPLACEHOLDER
  5
14
102
{ACAD_REACTORS
102
}
0
ENDSEC
0
EOF
