0
SECTION
2
HEADER
9
$ACADVER
1
AC1015
9
$ACADMAINTVER
 70
6
9
$DWGCODEPAGE
3
ANSI_932
9
$EXTMIN
10
0.000
20
0.000
30
0.0
9
$EXTMAX
10
1682.000
20
1188.000
30
0.0
9
$LIMMIN
10
0.000
20
0.000
9
$LIMMAX
10
1682.000
20
1188.000
9
$DIMSCALE
40
2.000000
9
$LTSCALE
40
2.000
9
$PDMODE
70
0
9
$PDSIZE
40
40.0
9
$HANDSEED
5
61fcc
9
$UNITMODE
70
0
9
$VISRETAIN
70
0
9
$PLINEGEN
70
0
9
$PSLTSCALE
70
1
9
$TREEDEPTH
70
3020
9
$CMLSTYLE
2
STANDARD
9
$CMLJUST
70
0
9
$CMLSCALE
40
1.0
9
$PROXYGRAPHICS
70
1
9
$MEASUREMENT
70
0
9
$CELWEIGHT
370
-1
9
$ENDCAPS
280
0
9
$JOINSTYLE
280
0
9
$LWDISPLAY
290
0
9
$INSUNITS
70
0
9
$HYPERLINKBASE
1

9
$STYLESHEET
1

9
$XEDIT
290
1
9
$CEPSNTYPE
380
0
9
$PSTYLEMODE
290
1
9
$FINGERPRINTGUID
2
{5F082321-0195-11D3-BDFB-0060B0CD5109}
9
$VERSIONGUID
2
{12943756-294D-11D3-98C2-0060B087942D}
9
$EXTNAMES
290
1
9
$PSVPSCALE
40
0.0
9
$OLESTARTUP
290
0
0
ENDSEC
0
SECTION
  2
CLASSES
0
ENDSEC
0
SECTION
2
TABLES
0
TABLE
2
VPORT
5
190
100
AcDbSymbolTable
70
2
0
VPORT
5
191
100
AcDbSymbolTableRecord
100
AcDbViewportTableRecord
2
*ACTIVE
70
0
10
0.0
20
0.0
11
1.0
21
1.0
12
841.000
22
594.000
13
0.0
23
0.0
14
1.0
24
1.0
15
0.0
25
0.0
16
0.0
26
0.0
36
1.0
17
0.0
27
0.0
37
0.0
40
1218.841
41
2.0
42
50.0
43
0.0
44
0.0
50
0.0
51
0.0
71
0
72
1000
73
1
74
1
75
0
76
0
77
0
78
0
0
ENDTAB
0
TABLE
2
LTYPE
5
1f4
100
AcDbSymbolTable
70
9
0
LTYPE
5
1f5
100
AcDbSymbolTableRecord
100
AcDbLinetypeTableRecord
2
BYBLOCK
70
 64
3

72
 65
73
  0
40
0.0
0
LTYPE
5
1f6
100
AcDbSymbolTableRecord
100
AcDbLinetypeTableRecord
2
BYLAYER
70
 64
3

72
 65
73
  0
40
0.0
0
LTYPE
5
1f7
100
AcDbSymbolTableRecord
100
AcDbLinetypeTableRecord
2
CONTINUOUS
70
64
3
SolidLine
72
65
73
0
40
0.0
0
LTYPE
5
1f8
100
AcDbSymbolTableRecord
100
AcDbLinetypeTableRecord
2
DOT
70
64
3
--  --  --  --  --  --  --  --     
72
65
73
2
40
3.000
49
1.000
74
0
49
-2.000
74
0
0
LTYPE
5
1f9
100
AcDbSymbolTableRecord
100
AcDbLinetypeTableRecord
2
DASHED
70
64
3
----    ----    ----    ----    
72
65
73
2
40
5.000
49
2.000
74
0
49
-3.000
74
0
0
LTYPE
5
1fa
100
AcDbSymbolTableRecord
100
AcDbLinetypeTableRecord
2
DASHED2
70
64
3
------  ------  ------  ------ 
72
65
73
2
40
10.000
49
4.000
74
0
49
-6.000
74
0
0
LTYPE
5
1fb
100
AcDbSymbolTableRecord
100
AcDbLinetypeTableRecord
2
CENTER
70
64
3
----- - ----- - ----- - ----- - 
72
65
73
4
40
10.000
49
6.000
74
0
49
-3.000
74
0
49
1.000
74
0
49
-3.000
74
0
0
LTYPE
5
1fc
100
AcDbSymbolTableRecord
100
AcDbLinetypeTableRecord
2
CENTER2
70
64
3
----------  --  ----------  -- 
72
65
73
4
40
17.000
49
12.000
74
0
49
-5.000
74
0
49
2.000
74
0
49
-5.000
74
0
0
LTYPE
5
1fd
100
AcDbSymbolTableRecord
100
AcDbLinetypeTableRecord
2
PHANTOM
70
64
3
--- - - --- - - --- - - --- - -
72
65
73
6
40
13.000
49
5.000
74
0
49
-3.000
74
0
49
1.000
74
0
49
-3.000
74
0
49
1.000
74
0
49
-3.000
74
0
0
LTYPE
5
1fe
100
AcDbSymbolTableRecord
100
AcDbLinetypeTableRecord
2
PHANTOM2
70
64
3
--------  -  -  --------  -  -
72
65
73
6
40
20.000
49
6.000
74
0
49
-5.000
74
0
49
2.000
74
0
49
-5.000
74
0
49
2.000
74
0
49
-5.000
74
0
0
LTYPE
5
1ff
100
AcDbSymbolTableRecord
100
AcDbLinetypeTableRecord
2
HIDDEN
70
64
3
-   -   -   -   -   -   -   -   
72
65
73
2
40
3.000
49
0.500
74
0
49
-2.500
74
0
0
ENDTAB
0
TABLE
2
STYLE
5
200
100
AcDbSymbolTable
70
1
0
STYLE
5
201
100
AcDbSymbolTableRecord
100
AcDbTextStyleTableRecord
2
STANDARD
70
0
40
0.0
41
1.0
50
0.0
71
0
42
0.0
3
txt.shx
4
extfont.shx
0
STYLE
5
202
100
AcDbSymbolTableRecord
100
AcDbTextStyleTableRecord
2
TATEGAKI
70
4
40
0.0
41
1.0
50
0.0
71
0
42
0.0
3
txt.shx
4
extfont.shx
0
STYLE
5
203
100
AcDbSymbolTableRecord
100
AcDbTextStyleTableRecord
2
DIM
70
0
40
0.0
41
0.75
50
0.0
71
0
42
0.0
3
txt.shx
4
extfont.shx
0
STYLE
5
204
100
AcDbSymbolTableRecord
100
AcDbTextStyleTableRecord
2
_Gothic_
70
0
40
1.0
41
1.0
50
0.0
71
0
42
10.0
3

4

1001
ACAD
1000
MS Gothic
1071
32817
0
STYLE
5
205
100
AcDbSymbolTableRecord
100
AcDbTextStyleTableRecord
2
_TateGothic_
70
4
40
0.0
41
1.0
50
0.0
71
0
42
0.0
3
@MS Gothic
4

0
ENDTAB
0
TABLE
2
VIEW
5
206
100
AcDbSymbolTable
70
0
0
ENDTAB
0
TABLE
2
UCS
5
207
100
AcDbSymbolTable
70
0
0
ENDTAB
0
TABLE
2
APPID
5
208
100
AcDbSymbolTable
70
1
0
APPID
5
209
100
AcDbSymbolTableRecord
100
AcDbRegAppTableRecord
2
ACAD
70
0
0
ENDTAB
0
TABLE
2
DIMSTYLE
5
403
330
0
100
AcDbSymbolTable
70
1
100
AcDbDimStyleTable
71
0
0
DIMSTYLE
105
404
330
402
100
AcDbSymbolTableRecord
100
AcDbDimStyleTableRecord
2
JAC_DIM
70
0
41
4.000
42
0.000
44
0.0
73
0
74
0
77
1
78
8
79
2
140
0.000
170
0
171
2
172
0
173
0
174
0
175
0
176
0
177
0
178
0
270
2
271
0
272
0
273
2
274
2
340
201
275
0
280
0
281
0
282
0
283
0
284
0
285
0
286
0
287
3
288
0
0
ENDTAB
0
TABLE
2
BLOCK_RECORD
5
405
100
AcDbSymbolTable
70
0
0
BLOCK_RECORD
5
406
100
AcDbSymbolTableRecord
100
AcDbBlockTableRecord
2
*MODEL_SPACE
0
BLOCK_RECORD
5
407
100
AcDbSymbolTableRecord
100
AcDbBlockTableRecord
2
*PAPER_SPACE
0
BLOCK_RECORD
5
408
100
AcDbSymbolTableRecord
100
AcDbBlockTableRecord
2
_JACCONVERT_
0
ENDTAB
0
TABLE
2
LAYER
5
409
100
AcDbSymbolTable
70
10
0
LAYER
5
40a
100
AcDbSymbolTableRecord
100
AcDbLayerTableRecord
2
0
70
0
62
7
6
CONTINUOUS
370
-3
390
14
0
LAYER
5
40b
100
AcDbSymbolTableRecord
100
AcDbLayerTableRecord
2
0-0
70
0
62
7
6
CONTINUOUS
370
-3
390
14
0
LAYER
5
40c
100
AcDbSymbolTableRecord
100
AcDbLayerTableRecord
2
0-1
70
0
62
7
6
CONTINUOUS
370
-3
390
14
0
LAYER
5
40d
100
AcDbSymbolTableRecord
100
AcDbLayerTableRecord
2
0-2
70
0
62
7
6
CONTINUOUS
370
-3
390
14
0
LAYER
5
40e
100
AcDbSymbolTableRecord
100
AcDbLayerTableRecord
2
F-E_J_ADD
70
0
62
-7
6
CONTINUOUS
290
0
370
-3
390
14
0
LAYER
5
40f
100
AcDbSymbolTableRecord
100
AcDbLayerTableRecord
2
F-F
70
0
62
7
6
CONTINUOUS
370
-3
390
14
0
ENDTAB
0
ENDSEC
0
SECTION
2
BLOCKS
0
BLOCK
5
410
100
AcDbEntity
67
1
8
0
100
AcDbBlockBegin
2
*MODEL_SPACE
70
0
10
0.0
20
0.0
30
0.0
3
*MODEL_SPACE
1

0
ENDBLK
5
411
100
AcDbEntity
8
0
100
AcDbBlockEnd
0
BLOCK
5
412
100
AcDbEntity
67
1
8
0
100
AcDbBlockBegin
2
*PAPER_SPACE
70
0
10
0.0
20
0.0
30
0.0
3
*PAPER_SPACE
1

0
ENDBLK
5
413
100
AcDbEntity
67
1
8
0
100
AcDbBlockEnd
0
BLOCK
5
414
100
AcDbEntity
8
0
100
AcDbBlockBegin
2
_JACCONVERT_
70
2
10
0.0
20
0.0
30
0.0
3
_JACCONVERT_
1
_JACCONVERT_
0
ATTDEF
5
415
100
AcDbEntity
8
0
62
0
100
AcDbText
10
0.0
20
0.0
30
0.0
40
1.0
1
User:460950EB0890EC0964308A
100
AcDbAttributeDefinition
3

2
USER
70
8
0
ATTDEF
5
416
100
AcDbEntity
8
0
62
0
100
AcDbText
10
0.0
20
2.0
30
0.0
40
1.0
1
Date:15/05/26 13:06
100
AcDbAttributeDefinition
3

2
REVDATE
70
8
0
ATTDEF
5
417
100
AcDbEntity
8
0
62
0
100
AcDbText
10
0.0
20
4.0
30
0.0
40
1.0
1
File:KR90-01.dxf
100
AcDbAttributeDefinition
3

2
FNAME
70
8
0
ATTDEF
5
418
100
AcDbEntity
8
0
62
0
100
AcDbText
10
0.0
20
6.0
30
0.0
40
1.0
1
JacConvert Version3.09 copyright (c) 2001-2013 K.Nakahara
100
AcDbAttributeDefinition
3

2
VER
70
8
0
ENDBLK
5
419
100
AcDbEntity
67
1
8
0
100
AcDbBlockEnd
0
ENDSEC
0
SECTION
2
ENTITIES
0
LINE
5
41a
100
AcDbEntity
8
0-0
6
CONTINUOUS
62
7
100
AcDbLine
10
811.310000000000
20
736.520000000000
30
0.0
11
811.310000000000
21
741.170000000000
31
0.0
0
LINE
5
41b
100
AcDbEntity
8
0-0
6
CONTINUOUS
62
7
100
AcDbLine
10
913.300000000000
20
736.520000000000
30
0.0
11
913.300000000000
21
741.170000000000
31
0.0
0
LINE
5
41c
100
AcDbEntity
8
0-0
6
CONTINUOUS
62
7
100
AcDbLine
10
810.310000000000
20
736.520000000000
30
0.0
11
810.310000000000
21
741.170000000000
31
0.0
0
LINE
5
41d
100
AcDbEntity
8
0-0
6
CONTINUOUS
62
7
100
AcDbLine
10
914.310000000000
20
736.520000000000
30
0.0
11
914.310000000000
21
741.170000000000
31
0.0
0
LINE
5
41e
100
AcDbEntity
8
0-0
6
CONTINUOUS
62
7
100
AcDbLine
10
713.580000000000
20
847.350000000000
30
0.0
11
713.510000000000
21
846.630000000000
31
0.0
0
LINE
5
41f
100
AcDbEntity
8
0-0
6
CONTINUOUS
62
7
100
AcDbLine
10
717.540000000000
20
838.590000000000
30
0.0
11
715.830000000000
21
838.590000000000
31
0.0
0
LINE
5
420
100
AcDbEntity
8
0-0
6
CONTINUOUS
62
7
100
AcDbLine
10
717.540000000000
20
837.580000000000
30
0.0
11
715.830000000000
21
837.580000000000
31
0.0
0
LINE
5
421
100
AcDbEntity
8
0-0
6
CONTINUOUS
62
7
100
AcDbLine
10
713.820000000000
20
829.540000000000
30
0.0
11
713.820000000000
21
835.570000000000
31
0.0
0
LINE
5
422
100
AcDbEntity
8
0-0
6
CONTINUOUS
62
7
100
AcDbLine
10
712.810000000000
20
829.540000000000
30
0.0
11
712.810000000000
21
835.570000000000
31
0.0
0
LINE
5
423
100
AcDbEntity
8
0-0
6
CONTINUOUS
62
7
100
AcDbLine
10
706.180000000000
20
840.400000000000
30
0.0
11
706.180000000000
21
842.410000000000
31
0.0
0
POLYLINE
5
424
100
AcDbEntity
8
0-0
6
CONTINUOUS
62
  7
100
AcDb2dPolyline
66
1
10
0.0
20
0.0
30
0.0
70
0
0
VERTEX
5
425
100
AcDbEntity
8
0-0
6
CONTINUOUS
62
  7
100
AcDbVertex
100
AcDb2dVertex
10
706.180000000000
20
840.400000000000
30
0.0
0
VERTEX
5
426
100
AcDbEntity
8
0-0
6
CONTINUOUS
62
  7
100
AcDbVertex
100
AcDb2dVertex
10
705.170000000000
20
840.400000000000
30
0.0
0
VERTEX
5
427
100
AcDbEntity
8
0-0
6
CONTINUOUS
62
  7
100
AcDbVertex
100
AcDb2dVertex
10
705.170000000000
20
842.410000000000
30
0.0
0
SEQEND
5
428
100
AcDbEntity
8
0-0
0
LINE
5
429
100
AcDbEntity
8
0-0
6
CONTINUOUS
62
7
100
AcDbLine
10
913.300000000000
20
736.520000000000
30
0.0
11
811.310000000000
21
736.520000000000
31
0.0
0
LINE
5
42a
100
AcDbEntity
8
0-0
6
CONTINUOUS
62
7
100
AcDbLine
10
913.300000000000
20
735.520000000000
30
0.0
11
811.310000000000
21
735.520000000000
31
0.0
0
LINE
5
42b
100
AcDbEntity
8
0-0
6
CONTINUOUS
62
7
100
AcDbLine
10
993.170000000000
20
825.520000000000
30
0.0
11
997.700000000000
21
825.520000000000
31
0.0
0
LINE
5
42c
100
AcDbEntity
8
0-0
6
CONTINUOUS
62
7
100
AcDbLine
10
992.440000000000
20
825.200000000000
30
0.0
11
914.290000000000
21
741.150000000000
31
0.0
0
LINE
5
42d
100
AcDbEntity
8
0-0
6
CONTINUOUS
62
7
100
AcDbLine
10
997.690000000000
20
826.520000000000
30
0.0
11
993.170000000000
21
826.520000000000
31
0.0
0
LINE
5
42e
100
AcDbEntity
8
0-0
6
CONTINUOUS
62
7
100
AcDbLine
10
991.710000000000
20
825.880000000000
30
0.0
11
913.560000000000
21
741.830000000000
31
0.0
0
LINE
5
42f
100
AcDbEntity
8
0-0
6
CONTINUOUS
62
7
100
AcDbLine
10
1213.300000000000
20
736.520000000000
30
0.0
11
1213.300000000000
21
741.170000000000
31
0.0
0
LINE
5
430
100
AcDbEntity
8
0-0
6
CONTINUOUS
62
7
100
AcDbLine
10
1111.310000000000
20
736.520000000000
30
0.0
11
1111.310000000000
21
741.170000000000
31
0.0
0
LINE
5
431
100
AcDbEntity
8
0-0
6
CONTINUOUS
62
7
100
AcDbLine
10
1214.310000000000
20
736.520000000000
30
0.0
11
1214.310000000000
21
741.170000000000
31
0.0
0
LINE
5
432
100
AcDbEntity
8
0-0
6
CONTINUOUS
62
7
100
AcDbLine
10
1111.310000000000
20
736.520000000000
30
0.0
11
1213.300000000000
21
736.520000000000
31
0.0
0
LINE
5
433
100
AcDbEntity
8
0-0
6
CONTINUOUS
62
7
100
AcDbLine
10
1111.310000000000
20
735.520000000000
30
0.0
11
1213.300000000000
21
735.520000000000
31
0.0
0
LINE
5
434
100
AcDbEntity
8
0-0
6
CONTINUOUS
62
7
100
AcDbLine
10
1110.310000000000
20
736.520000000000
30
0.0
11
1110.310000000000
21
741.160000000000
31
0.0
0
LINE
5
435
100
AcDbEntity
8
0-0
6
CONTINUOUS
62
7
100
AcDbLine
10
1292.440000000000
20
825.200000000000
30
0.0
11
1214.290000000000
21
741.150000000000
31
0.0
0
LINE
5
436
100
AcDbEntity
8
0-0
6
CONTINUOUS
62
7
100
AcDbLine
10
1291.710000000000
20
825.880000000000
30
0.0
11
1213.560000000000
21
741.830000000000
31
0.0
0
LINE
5
437
100
AcDbEntity
8
0-0
6
CONTINUOUS
62
7
100
AcDbLine
10
731.440000000000
20
825.520000000000
30
0.0
11
716.830000000000
21
825.520000000000
31
0.0
0
LINE
5
438
100
AcDbEntity
8
0-0
6
CONTINUOUS
62
7
100
AcDbLine
10
732.170000000000
20
825.200000000000
30
0.0
11
810.330000000000
21
741.150000000000
31
0.0
0
LINE
5
439
100
AcDbEntity
8
0-0
6
CONTINUOUS
62
7
100
AcDbLine
10
731.440000000000
20
826.520000000000
30
0.0
11
716.830000000000
21
826.520000000000
31
0.0
0
LINE
5
43a
100
AcDbEntity
8
0-0
6
CONTINUOUS
62
7
100
AcDbLine
10
732.910000000000
20
825.880000000000
30
0.0
11
811.060000000000
21
741.830000000000
31
0.0
0
LINE
5
43b
100
AcDbEntity
8
0-0
6
CONTINUOUS
62
7
100
AcDbLine
10
1311.800000000000
20
829.540000000000
30
0.0
11
1311.800000000000
21
834.560000000000
31
0.0
0
LINE
5
43c
100
AcDbEntity
8
0-0
6
CONTINUOUS
62
7
100
AcDbLine
10
1310.800000000000
20
829.540000000000
30
0.0
11
1310.800000000000
21
834.560000000000
31
0.0
0
LINE
5
43d
100
AcDbEntity
8
0-0
6
CONTINUOUS
62
7
100
AcDbLine
10
1308.790000000000
20
836.580000000000
30
0.0
11
1306.170000000000
21
836.580000000000
31
0.0
0
LINE
5
43e
100
AcDbEntity
8
0-0
6
CONTINUOUS
62
7
100
AcDbLine
10
1308.790000000000
20
837.580000000000
30
0.0
11
1306.170000000000
21
837.580000000000
31
0.0
0
LINE
5
43f
100
AcDbEntity
8
0-0
6
CONTINUOUS
62
7
100
AcDbLine
10
1304.160000000000
20
839.590000000000
30
0.0
11
1304.160000000000
21
842.410000000000
31
0.0
0
LINE
5
440
100
AcDbEntity
8
0-0
6
CONTINUOUS
62
7
100
AcDbLine
10
1303.160000000000
20
839.590000000000
30
0.0
11
1303.160000000000
21
842.410000000000
31
0.0
0
LINE
5
441
100
AcDbEntity
8
0-0
6
CONTINUOUS
62
7
100
AcDbLine
10
1307.780000000000
20
826.520000000000
30
0.0
11
1293.170000000000
21
826.520000000000
31
0.0
0
LINE
5
442
100
AcDbEntity
8
0-0
6
CONTINUOUS
62
7
100
AcDbLine
10
1307.780000000000
20
825.520000000000
30
0.0
11
1293.170000000000
21
825.520000000000
31
0.0
0
LINE
5
443
100
AcDbEntity
8
0-0
6
CONTINUOUS
62
7
100
AcDbLine
10
1031.440000000000
20
825.520000000000
30
0.0
11
1026.920000000000
21
825.520000000000
31
0.0
0
LINE
5
444
100
AcDbEntity
8
0-0
6
CONTINUOUS
62
7
100
AcDbLine
10
1031.440000000000
20
826.520000000000
30
0.0
11
1026.920000000000
21
826.520000000000
31
0.0
0
LINE
5
445
100
AcDbEntity
8
0-0
6
CONTINUOUS
62
7
100
AcDbLine
10
1032.170000000000
20
825.200000000000
30
0.0
11
1110.310000000000
21
741.160000000000
31
0.0
0
LINE
5
446
100
AcDbEntity
8
0-0
6
CONTINUOUS
62
7
100
AcDbLine
10
1032.910000000000
20
825.880000000000
30
0.0
11
1111.050000000000
21
741.830000000000
31
0.0
0
LINE
5
447
100
AcDbEntity
8
0-0
6
CONTINUOUS
62
7
100
AcDbLine
10
1327.040000000000
20
842.140000000000
30
0.0
11
1327.260000000000
21
837.820000000000
31
0.0
0
POLYLINE
5
448
100
AcDbEntity
8
0-0
6
CONTINUOUS
62
  7
100
AcDb2dPolyline
66
1
10
0.0
20
0.0
30
0.0
70
0
0
VERTEX
5
449
100
AcDbEntity
8
0-0
6
CONTINUOUS
62
  7
100
AcDbVertex
100
AcDb2dVertex
10
1328.040000000000
20
842.190000000000
30
0.0
0
VERTEX
5
44a
100
AcDbEntity
8
0-0
6
CONTINUOUS
62
  7
100
AcDbVertex
100
AcDb2dVertex
10
1328.260000000000
20
837.870000000000
30
0.0
0
VERTEX
5
44b
100
AcDbEntity
8
0-0
6
CONTINUOUS
62
  7
100
AcDbVertex
100
AcDb2dVertex
10
1327.260000000000
20
837.820000000000
30
0.0
0
SEQEND
5
44c
100
AcDbEntity
8
0-0
0
LINE
5
44d
100
AcDbEntity
8
0-0
6
CONTINUOUS
62
7
100
AcDbLine
10
1325.320000000000
20
850.590000000000
30
0.0
11
1328.590000000000
21
849.420000000000
31
0.0
0
POLYLINE
5
44e
100
AcDbEntity
8
0-0
6
CONTINUOUS
62
  7
100
AcDb2dPolyline
66
1
10
0.0
20
0.0
30
0.0
70
0
0
VERTEX
5
44f
100
AcDbEntity
8
0-0
6
CONTINUOUS
62
  7
100
AcDbVertex
100
AcDb2dVertex
10
1325.100000000000
20
849.620000000000
30
0.0
0
VERTEX
5
450
100
AcDbEntity
8
0-0
6
CONTINUOUS
62
  7
100
AcDbVertex
100
AcDb2dVertex
10
1327.820000000000
20
848.770000000000
30
0.0
0
VERTEX
5
451
100
AcDbEntity
8
0-0
6
CONTINUOUS
62
  7
100
AcDbVertex
100
AcDb2dVertex
10
1328.320000000000
20
848.180000000000
30
0.0
0
SEQEND
5
452
100
AcDbEntity
8
0-0
0
LINE
5
453
100
AcDbEntity
8
0-0
6
CONTINUOUS
62
7
100
AcDbLine
10
997.690000000000
20
826.520000000000
30
0.0
11
1007.310000000000
21
833.000000000000
31
0.0
0
LINE
5
454
100
AcDbEntity
8
0-0
6
CONTINUOUS
62
7
100
AcDbLine
10
998.210000000000
20
825.660000000000
30
0.0
11
1007.930000000000
21
832.210000000000
31
0.0
0
LINE
5
455
100
AcDbEntity
8
0-0
6
CONTINUOUS
62
7
100
AcDbLine
10
1026.920000000000
20
826.520000000000
30
0.0
11
1017.310000000000
21
833.000000000000
31
0.0
0
LINE
5
456
100
AcDbEntity
8
0-0
6
CONTINUOUS
62
7
100
AcDbLine
10
1026.400000000000
20
825.660000000000
30
0.0
11
1016.700000000000
21
832.200000000000
31
0.0
0
LINE
5
457
100
AcDbEntity
8
0-2
6
CONTINUOUS
62
7
100
AcDbLine
10
1075.230000000000
20
385.620000000000
30
0.0
11
1099.680000000000
21
385.620000000000
31
0.0
0
LINE
5
458
100
AcDbEntity
8
0-2
6
CONTINUOUS
62
7
100
AcDbLine
10
1075.230000000000
20
385.620000000000
30
0.0
11
1075.230000000000
21
370.520000000000
31
0.0
0
LINE
5
459
100
AcDbEntity
8
0-2
6
CONTINUOUS
62
7
100
AcDbLine
10
1183.310000000000
20
476.670000000000
30
0.0
11
1239.150000000000
21
476.670000000000
31
0.0
0
LINE
5
45a
100
AcDbEntity
8
0-2
6
CONTINUOUS
62
7
100
AcDbLine
10
1183.310000000000
20
502.670000000000
30
0.0
11
1239.150000000000
21
502.670000000000
31
0.0
0
LINE
5
45b
100
AcDbEntity
8
0-2
6
CONTINUOUS
62
7
100
AcDbLine
10
1183.310000000000
20
502.670000000000
30
0.0
11
1183.310000000000
21
386.520000000000
31
0.0
0
LINE
5
45c
100
AcDbEntity
8
0-0
6
CONTINUOUS
62
4
100
AcDbLine
10
1183.390000000000
20
826.670000000000
30
0.0
11
1239.230000000000
21
826.670000000000
31
0.0
0
LINE
5
45d
100
AcDbEntity
8
0-0
6
CONTINUOUS
62
4
100
AcDbLine
10
1183.390000000000
20
826.670000000000
30
0.0
11
1183.390000000000
21
736.520000000000
31
0.0
0
LINE
5
45e
100
AcDbEntity
8
0-0
6
CONTINUOUS
62
4
100
AcDbLine
10
1012.310000000000
20
901.970000000000
30
0.0
11
1312.310000000000
21
901.970000000000
31
0.0
0
LINE
5
45f
100
AcDbEntity
8
0-0
6
CONTINUOUS
62
4
100
AcDbLine
10
1012.310000000000
20
901.970000000000
30
0.0
11
712.310000000000
21
901.970000000000
31
0.0
0
LINE
5
460
100
AcDbEntity
8
0-0
6
CONTINUOUS
62
4
100
AcDbLine
10
1110.310000000000
20
696.520000000000
30
0.0
11
1110.310000000000
21
720.520000000000
31
0.0
0
LINE
5
461
100
AcDbEntity
8
0-0
6
CONTINUOUS
62
4
100
AcDbLine
10
1214.310000000000
20
696.520000000000
30
0.0
11
1110.310000000000
21
696.520000000000
31
0.0
0
LINE
5
462
100
AcDbEntity
8
0-0
6
CONTINUOUS
62
4
100
AcDbLine
10
1214.310000000000
20
696.520000000000
30
0.0
11
1214.310000000000
21
720.530000000000
31
0.0
0
LINE
5
463
100
AcDbEntity
8
0-1
6
CONTINUOUS
62
7
100
AcDbLine
10
215.270000000000
20
501.550000000000
30
0.0
11
215.270000000000
21
476.660000000000
31
0.0
0
LINE
5
464
100
AcDbEntity
8
0-1
6
CONTINUOUS
62
7
100
AcDbLine
10
230.270000000000
20
501.550000000000
30
0.0
11
215.270000000000
21
501.550000000000
31
0.0
0
LINE
5
465
100
AcDbEntity
8
0-1
6
CONTINUOUS
62
7
100
AcDbLine
10
230.270000000000
20
475.520000000000
30
0.0
11
215.270000000000
21
475.520000000000
31
0.0
0
LINE
5
466
100
AcDbEntity
8
0-1
6
CONTINUOUS
62
7
100
AcDbLine
10
230.270000000000
20
385.520000000000
30
0.0
11
215.270000000000
21
385.520000000000
31
0.0
0
LINE
5
467
100
AcDbEntity
8
0-1
6
CONTINUOUS
62
7
100
AcDbLine
10
215.270000000000
20
386.520000000000
30
0.0
11
215.270000000000
21
370.520000000000
31
0.0
0
POLYLINE
5
468
100
AcDbEntity
8
0-1
6
CONTINUOUS
62
  3
100
AcDb2dPolyline
66
1
10
0.0
20
0.0
30
0.0
70
0
0
VERTEX
5
469
100
AcDbEntity
8
0-1
6
CONTINUOUS
62
  3
100
AcDbVertex
100
AcDb2dVertex
10
325.270000000000
20
370.520000000000
30
0.0
0
VERTEX
5
46a
100
AcDbEntity
8
0-1
6
CONTINUOUS
62
  3
100
AcDbVertex
100
AcDb2dVertex
10
325.270000000000
20
362.520000000000
30
0.0
0
VERTEX
5
46b
100
AcDbEntity
8
0-1
6
CONTINUOUS
62
  3
100
AcDbVertex
100
AcDb2dVertex
10
359.520000000000
20
362.520000000000
30
0.0
0
SEQEND
5
46c
100
AcDbEntity
8
0-1
0
LINE
5
46d
100
AcDbEntity
8
0-1
6
CONTINUOUS
62
3
100
AcDbLine
10
367.520000000000
20
283.020000000000
30
0.0
11
367.520000000000
21
354.520000000000
31
0.0
0
POLYLINE
5
46e
100
AcDbEntity
8
0-1
6
CONTINUOUS
62
  3
100
AcDb2dPolyline
66
1
10
0.0
20
0.0
30
0.0
70
0
0
VERTEX
5
46f
100
AcDbEntity
8
0-1
6
CONTINUOUS
62
  3
100
AcDbVertex
100
AcDb2dVertex
10
415.270000000000
20
370.520000000000
30
0.0
0
VERTEX
5
470
100
AcDbEntity
8
0-1
6
CONTINUOUS
62
  3
100
AcDbVertex
100
AcDb2dVertex
10
415.270000000000
20
362.520000000000
30
0.0
0
VERTEX
5
471
100
AcDbEntity
8
0-1
6
CONTINUOUS
62
  3
100
AcDbVertex
100
AcDb2dVertex
10
381.020000000000
20
362.520000000000
30
0.0
0
SEQEND
5
472
100
AcDbEntity
8
0-1
0
LINE
5
473
100
AcDbEntity
8
0-1
6
CONTINUOUS
62
3
100
AcDbLine
10
415.270000000000
20
370.520000000000
30
0.0
11
327.570000000000
21
370.520000000000
31
0.0
0
LINE
5
474
100
AcDbEntity
8
0-1
6
CONTINUOUS
62
3
100
AcDbLine
10
373.020000000000
20
283.020000000000
30
0.0
11
373.020000000000
21
354.520000000000
31
0.0
0
LINE
5
475
100
AcDbEntity
8
F-E_J_ADD
6
HIDDEN
62
3
100
AcDbLine
10
327.570000000000
20
370.520000000000
30
0.0
11
323.170000000000
21
370.520000000000
31
0.0
0
LINE
5
476
100
AcDbEntity
8
0-1
6
CONTINUOUS
62
7
100
AcDbLine
10
310.750000000000
20
511.550000000000
30
0.0
11
310.750000000000
21
526.550000000000
31
0.0
0
LINE
5
477
100
AcDbEntity
8
0-1
6
CONTINUOUS
62
7
100
AcDbLine
10
429.750000000000
20
511.550000000000
30
0.0
11
429.750000000000
21
526.550000000000
31
0.0
0
LINE
5
478
100
AcDbEntity
8
0-1
6
CONTINUOUS
62
7
100
AcDbLine
10
352.770000000000
20
401.630000000000
30
0.0
11
387.770000000000
21
401.630000000000
31
0.0
0
LINE
5
479
100
AcDbEntity
8
0-1
6
CONTINUOUS
62
7
100
AcDbLine
10
215.270000000000
20
476.660000000000
30
0.0
11
215.270000000000
21
370.520000000000
31
0.0
0
LINE
5
47a
100
AcDbEntity
8
0-1
6
CONTINUOUS
62
7
100
AcDbLine
10
230.270000000000
20
370.520000000000
30
0.0
11
215.270000000000
21
370.520000000000
31
0.0
0
LINE
5
47b
100
AcDbEntity
8
0-1
6
CONTINUOUS
62
7
100
AcDbLine
10
406.630000000000
20
472.470000000000
30
0.0
11
408.780000000000
21
464.470000000000
31
0.0
0
LINE
5
47c
100
AcDbEntity
8
0-1
6
CONTINUOUS
62
7
100
AcDbLine
10
406.630000000000
20
472.470000000000
30
0.0
11
412.490000000000
21
466.610000000000
31
0.0
0
LINE
5
47d
100
AcDbEntity
8
0-1
6
CONTINUOUS
62
7
100
AcDbLine
10
406.630000000000
20
472.470000000000
30
0.0
11
419.620000000000
21
449.970000000000
31
0.0
0
LINE
5
47e
100
AcDbEntity
8
0-1
6
CONTINUOUS
62
7
100
AcDbLine
10
352.770000000000
20
388.920000000000
30
0.0
11
350.620000000000
21
396.930000000000
31
0.0
0
LINE
5
47f
100
AcDbEntity
8
0-1
6
CONTINUOUS
62
7
100
AcDbLine
10
352.770000000000
20
388.920000000000
30
0.0
11
346.910000000000
21
394.780000000000
31
0.0
0
LINE
5
480
100
AcDbEntity
8
0-1
6
CONTINUOUS
62
7
100
AcDbLine
10
352.770000000000
20
388.920000000000
30
0.0
11
339.780000000000
21
411.420000000000
31
0.0
0
LINE
5
481
100
AcDbEntity
8
0-2
6
CONTINUOUS
62
7
100
AcDbLine
10
716.220000000000
20
498.140000000000
30
0.0
11
718.360000000000
21
506.140000000000
31
0.0
0
LINE
5
482
100
AcDbEntity
8
0-2
6
CONTINUOUS
62
7
100
AcDbLine
10
716.220000000000
20
498.140000000000
30
0.0
11
722.070000000000
21
504.000000000000
31
0.0
0
LINE
5
483
100
AcDbEntity
8
F-F
6
CONTINUOUS
62
2
100
AcDbLine
10
54.760000000000
20
23.630000000000
30
0.0
11
54.760000000000
21
1143.640000000000
31
0.0
0
LINE
5
484
100
AcDbEntity
8
F-F
6
CONTINUOUS
62
2
100
AcDbLine
10
1284.760000000000
20
82.890000000000
30
0.0
11
1284.760000000000
21
23.630000000000
31
0.0
0
LINE
5
485
100
AcDbEntity
8
F-F
6
CONTINUOUS
62
2
100
AcDbLine
10
1214.540000000000
20
82.890000000000
30
0.0
11
1214.540000000000
21
23.630000000000
31
0.0
0
LINE
5
486
100
AcDbEntity
8
F-F
6
CONTINUOUS
62
2
100
AcDbLine
10
1537.120000000000
20
23.630000000000
30
0.0
11
1537.120000000000
21
82.890000000000
31
0.0
0
LINE
5
487
100
AcDbEntity
8
F-F
6
CONTINUOUS
62
2
100
AcDbLine
10
806.890000000000
20
82.890000000000
30
0.0
11
806.890000000000
21
23.630000000000
31
0.0
0
LINE
5
488
100
AcDbEntity
8
F-F
6
CONTINUOUS
62
2
100
AcDbLine
10
1009.740000000000
20
82.890000000000
30
0.0
11
1009.740000000000
21
23.630000000000
31
0.0
0
LINE
5
489
100
AcDbEntity
8
F-F
6
CONTINUOUS
62
2
100
AcDbLine
10
806.890000000000
20
63.140000000000
30
0.0
11
369.760000000000
21
63.140000000000
31
0.0
0
LINE
5
48a
100
AcDbEntity
8
F-F
6
CONTINUOUS
62
2
100
AcDbLine
10
806.890000000000
20
43.390000000000
30
0.0
11
369.760000000000
21
43.390000000000
31
0.0
0
LINE
5
48b
100
AcDbEntity
8
F-F
6
CONTINUOUS
62
2
100
AcDbLine
10
806.890000000000
20
33.510000000000
30
0.0
11
369.760000000000
21
33.510000000000
31
0.0
0
LINE
5
48c
100
AcDbEntity
8
F-F
6
CONTINUOUS
62
2
100
AcDbLine
10
806.890000000000
20
73.020000000000
30
0.0
11
369.760000000000
21
73.020000000000
31
0.0
0
LINE
5
48d
100
AcDbEntity
8
F-F
6
CONTINUOUS
62
2
100
AcDbLine
10
422.420000000000
20
82.890000000000
30
0.0
11
422.420000000000
21
23.630000000000
31
0.0
0
LINE
5
48e
100
AcDbEntity
8
F-F
6
CONTINUOUS
62
2
100
AcDbLine
10
369.760000000000
20
82.890000000000
30
0.0
11
369.760000000000
21
23.630000000000
31
0.0
0
LINE
5
48f
100
AcDbEntity
8
F-F
6
CONTINUOUS
62
2
100
AcDbLine
10
1631.650000000000
20
23.630000000000
30
0.0
11
1631.650000000000
21
1143.640000000000
31
0.0
0
LINE
5
490
100
AcDbEntity
8
F-F
6
CONTINUOUS
62
2
100
AcDbLine
10
54.760000000000
20
1143.640000000000
30
0.0
11
1631.650000000000
21
1143.640000000000
31
0.0
0
LINE
5
491
100
AcDbEntity
8
F-F
6
CONTINUOUS
62
2
100
AcDbLine
10
54.760000000000
20
23.630000000000
30
0.0
11
1631.650000000000
21
23.630000000000
31
0.0
0
LINE
5
492
100
AcDbEntity
8
F-F
6
CONTINUOUS
62
2
100
AcDbLine
10
1631.650000000000
20
82.890000000000
30
0.0
11
54.760000000000
21
82.890000000000
31
0.0
0
LINE
5
493
100
AcDbEntity
8
F-F
6
CONTINUOUS
62
2
100
AcDbLine
10
369.760000000000
20
53.260000000000
30
0.0
11
1631.650000000000
21
53.260000000000
31
0.0
0
LINE
5
494
100
AcDbEntity
8
0-2
6
CONTINUOUS
62
7
100
AcDbLine
10
771.910000000000
20
417.540000000000
30
0.0
11
769.770000000000
21
409.540000000000
31
0.0
0
LINE
5
495
100
AcDbEntity
8
0-2
6
CONTINUOUS
62
7
100
AcDbLine
10
771.910000000000
20
417.540000000000
30
0.0
11
766.060000000000
21
411.690000000000
31
0.0
0
LINE
5
496
100
AcDbEntity
8
0-2
6
CONTINUOUS
62
7
100
AcDbLine
10
756.530000000000
20
511.950000000000
30
0.0
11
724.190000000000
21
511.950000000000
31
0.0
0
LINE
5
497
100
AcDbEntity
8
0-2
6
CONTINUOUS
62
7
100
AcDbLine
10
716.220000000000
20
498.140000000000
30
0.0
11
724.190000000000
21
511.950000000000
31
0.0
0
LINE
5
498
100
AcDbEntity
8
0-2
6
CONTINUOUS
62
7
100
AcDbLine
10
761.540000000000
20
444.460000000000
30
0.0
11
763.690000000000
21
452.460000000000
31
0.0
0
LINE
5
499
100
AcDbEntity
8
0-2
6
CONTINUOUS
62
7
100
AcDbLine
10
761.540000000000
20
444.460000000000
30
0.0
11
767.400000000000
21
450.310000000000
31
0.0
0
LINE
5
49a
100
AcDbEntity
8
0-2
6
CONTINUOUS
62
7
100
AcDbLine
10
761.540000000000
20
444.460000000000
30
0.0
11
774.350000000000
21
466.630000000000
31
0.0
0
LINE
5
49b
100
AcDbEntity
8
0-0
6
CONTINUOUS
62
4
100
AcDbLine
10
810.310000000000
20
696.520000000000
30
0.0
11
810.310000000000
21
720.520000000000
31
0.0
0
LINE
5
49c
100
AcDbEntity
8
0-0
6
CONTINUOUS
62
4
100
AcDbLine
10
914.310000000000
20
696.520000000000
30
0.0
11
810.310000000000
21
696.520000000000
31
0.0
0
LINE
5
49d
100
AcDbEntity
8
0-0
6
CONTINUOUS
62
4
100
AcDbLine
10
914.310000000000
20
696.520000000000
30
0.0
11
914.310000000000
21
720.530000000000
31
0.0
0
POLYLINE
5
49e
100
AcDbEntity
8
0-0
6
CONTINUOUS
62
  4
100
AcDb2dPolyline
66
1
10
0.0
20
0.0
30
0.0
70
0
0
VERTEX
5
49f
100
AcDbEntity
8
0-0
6
CONTINUOUS
62
  4
100
AcDbVertex
100
AcDb2dVertex
10
1012.310000000000
20
931.970000000000
30
0.0
0
VERTEX
5
4a0
100
AcDbEntity
8
0-0
6
CONTINUOUS
62
  4
100
AcDbVertex
100
AcDb2dVertex
10
712.310000000000
20
931.970000000000
30
0.0
0
VERTEX
5
4a1
100
AcDbEntity
8
0-0
6
CONTINUOUS
62
  4
100
AcDbVertex
100
AcDb2dVertex
10
712.310000000000
20
856.970000000000
30
0.0
0
SEQEND
5
4a2
100
AcDbEntity
8
0-0
0
LINE
5
4a3
100
AcDbEntity
8
0-0
6
CONTINUOUS
62
4
100
AcDbLine
10
732.310000000000
20
871.970000000000
30
0.0
11
712.310000000000
21
871.970000000000
31
0.0
0
LINE
5
4a4
100
AcDbEntity
8
0-0
6
CONTINUOUS
62
4
100
AcDbLine
10
732.310000000000
20
871.970000000000
30
0.0
11
732.310000000000
21
856.970000000000
31
0.0
0
POLYLINE
5
4a5
100
AcDbEntity
8
0-0
6
CONTINUOUS
62
  4
100
AcDb2dPolyline
66
1
10
0.0
20
0.0
30
0.0
70
0
0
VERTEX
5
4a6
100
AcDbEntity
8
0-0
6
CONTINUOUS
62
  4
100
AcDbVertex
100
AcDb2dVertex
10
1012.310000000000
20
931.970000000000
30
0.0
0
VERTEX
5
4a7
100
AcDbEntity
8
0-0
6
CONTINUOUS
62
  4
100
AcDbVertex
100
AcDb2dVertex
10
1312.310000000000
20
931.970000000000
30
0.0
0
VERTEX
5
4a8
100
AcDbEntity
8
0-0
6
CONTINUOUS
62
  4
100
AcDbVertex
100
AcDb2dVertex
10
1312.310000000000
20
856.970000000000
30
0.0
0
SEQEND
5
4a9
100
AcDbEntity
8
0-0
0
LINE
5
4aa
100
AcDbEntity
8
0-0
6
CONTINUOUS
62
4
100
AcDbLine
10
1292.310000000000
20
871.970000000000
30
0.0
11
1312.310000000000
21
871.970000000000
31
0.0
0
LINE
5
4ab
100
AcDbEntity
8
0-0
6
CONTINUOUS
62
4
100
AcDbLine
10
1292.310000000000
20
871.970000000000
30
0.0
11
1292.310000000000
21
856.970000000000
31
0.0
0
LINE
5
4ac
100
AcDbEntity
8
0-0
6
CENTER2
62
4
100
AcDbLine
10
1012.310000000000
20
901.970000000000
30
0.0
11
1012.310000000000
21
856.970000000000
31
0.0
0
POLYLINE
5
4ad
100
AcDbEntity
8
F-F
6
CONTINUOUS
62
  3
100
AcDb2dPolyline
66
1
10
0.0
20
0.0
30
0.0
70
0
0
VERTEX
5
4ae
100
AcDbEntity
8
F-F
6
CONTINUOUS
62
  3
100
AcDbVertex
100
AcDb2dVertex
10
71.720000000000
20
59.100000000000
30
0.0
0
VERTEX
5
4af
100
AcDbEntity
8
F-F
6
CONTINUOUS
62
  3
100
AcDbVertex
100
AcDb2dVertex
10
71.720000000000
20
75.100000000000
30
0.0
0
VERTEX
5
4b0
100
AcDbEntity
8
F-F
6
CONTINUOUS
62
  3
100
AcDbVertex
100
AcDb2dVertex
10
87.720000000000
20
75.100000000000
30
0.0
0
VERTEX
5
4b1
100
AcDbEntity
8
F-F
6
CONTINUOUS
62
  3
100
AcDbVertex
100
AcDb2dVertex
10
87.720000000000
20
59.100000000000
30
0.0
0
VERTEX
5
4b2
100
AcDbEntity
8
F-F
6
CONTINUOUS
62
  3
100
AcDbVertex
100
AcDb2dVertex
10
71.720000000000
20
59.100000000000
30
0.0
0
SEQEND
5
4b3
100
AcDbEntity
8
F-F
0
LINE
5
4b4
100
AcDbEntity
8
F-F
6
CONTINUOUS
62
3
100
AcDbLine
10
73.320000000000
20
61.260000000000
30
0.0
11
73.320000000000
21
73.500000000000
31
0.0
0
LINE
5
4b5
100
AcDbEntity
8
F-F
6
CONTINUOUS
62
3
100
AcDbLine
10
86.120000000000
20
60.700000000000
30
0.0
11
73.880000000000
21
60.700000000000
31
0.0
0
POLYLINE
5
4b6
100
AcDbEntity
8
F-F
6
CONTINUOUS
62
  3
100
AcDb2dPolyline
66
1
10
0.0
20
0.0
30
0.0
70
0
0
VERTEX
5
4b7
100
AcDbEntity
8
F-F
6
CONTINUOUS
62
  3
100
AcDbVertex
100
AcDb2dVertex
10
73.320000000000
20
73.500000000000
30
0.0
0
VERTEX
5
4b8
100
AcDbEntity
8
F-F
6
CONTINUOUS
62
  3
100
AcDbVertex
100
AcDb2dVertex
10
85.550000000000
20
73.500000000000
30
0.0
0
VERTEX
5
4b9
100
AcDbEntity
8
F-F
6
CONTINUOUS
62
  3
100
AcDbVertex
100
AcDb2dVertex
10
73.320000000000
20
61.260000000000
30
0.0
0
SEQEND
5
4ba
100
AcDbEntity
8
F-F
0
LINE
5
4bb
100
AcDbEntity
8
F-F
6
CONTINUOUS
62
3
100
AcDbLine
10
86.120000000000
20
72.930000000000
30
0.0
11
73.880000000000
21
60.700000000000
31
0.0
0
LINE
5
4bc
100
AcDbEntity
8
F-F
6
CONTINUOUS
62
3
100
AcDbLine
10
86.120000000000
20
72.930000000000
30
0.0
11
86.120000000000
21
60.700000000000
31
0.0
0
LINE
5
4bd
100
AcDbEntity
8
F-F
6
CONTINUOUS
62
4
100
AcDbLine
10
71.720000000000
20
74.940000000000
30
0.0
11
87.720000000000
21
74.940000000000
31
0.0
0
LINE
5
4be
100
AcDbEntity
8
F-F
6
CONTINUOUS
62
4
100
AcDbLine
10
71.720000000000
20
74.620000000000
30
0.0
11
87.720000000000
21
74.620000000000
31
0.0
0
LINE
5
4bf
100
AcDbEntity
8
F-F
6
CONTINUOUS
62
4
100
AcDbLine
10
71.720000000000
20
74.300000000000
30
0.0
11
87.720000000000
21
74.300000000000
31
0.0
0
LINE
5
4c0
100
AcDbEntity
8
F-F
6
CONTINUOUS
62
4
100
AcDbLine
10
71.720000000000
20
73.980000000000
30
0.0
11
87.720000000000
21
73.980000000000
31
0.0
0
LINE
5
4c1
100
AcDbEntity
8
F-F
6
CONTINUOUS
62
4
100
AcDbLine
10
71.720000000000
20
73.660000000000
30
0.0
11
87.720000000000
21
73.660000000000
31
0.0
0
LINE
5
4c2
100
AcDbEntity
8
F-F
6
CONTINUOUS
62
4
100
AcDbLine
10
71.720000000000
20
60.540000000000
30
0.0
11
87.720000000000
21
60.540000000000
31
0.0
0
LINE
5
4c3
100
AcDbEntity
8
F-F
6
CONTINUOUS
62
4
100
AcDbLine
10
71.720000000000
20
60.220000000000
30
0.0
11
87.720000000000
21
60.220000000000
31
0.0
0
LINE
5
4c4
100
AcDbEntity
8
F-F
6
CONTINUOUS
62
4
100
AcDbLine
10
71.720000000000
20
59.900000000000
30
0.0
11
87.720000000000
21
59.900000000000
31
0.0
0
LINE
5
4c5
100
AcDbEntity
8
F-F
6
CONTINUOUS
62
4
100
AcDbLine
10
71.720000000000
20
59.580000000000
30
0.0
11
87.720000000000
21
59.580000000000
31
0.0
0
LINE
5
4c6
100
AcDbEntity
8
F-F
6
CONTINUOUS
62
4
100
AcDbLine
10
71.720000000000
20
59.260000000000
30
0.0
11
87.720000000000
21
59.260000000000
31
0.0
0
LINE
5
4c7
100
AcDbEntity
8
F-F
6
CONTINUOUS
62
4
100
AcDbLine
10
71.720000000000
20
61.500000000000
30
0.0
11
73.320000000000
21
61.500000000000
31
0.0
0
LINE
5
4c8
100
AcDbEntity
8
F-F
6
CONTINUOUS
62
4
100
AcDbLine
10
71.720000000000
20
61.820000000000
30
0.0
11
73.320000000000
21
61.820000000000
31
0.0
0
LINE
5
4c9
100
AcDbEntity
8
F-F
6
CONTINUOUS
62
4
100
AcDbLine
10
71.720000000000
20
62.140000000000
30
0.0
11
73.320000000000
21
62.140000000000
31
0.0
0
LINE
5
4ca
100
AcDbEntity
8
F-F
6
CONTINUOUS
62
4
100
AcDbLine
10
71.720000000000
20
62.460000000000
30
0.0
11
73.320000000000
21
62.460000000000
31
0.0
0
LINE
5
4cb
100
AcDbEntity
8
F-F
6
CONTINUOUS
62
4
100
AcDbLine
10
71.720000000000
20
62.780000000000
30
0.0
11
73.320000000000
21
62.780000000000
31
0.0
0
LINE
5
4cc
100
AcDbEntity
8
F-F
6
CONTINUOUS
62
4
100
AcDbLine
10
71.720000000000
20
63.100000000000
30
0.0
11
73.320000000000
21
63.100000000000
31
0.0
0
LINE
5
4cd
100
AcDbEntity
8
F-F
6
CONTINUOUS
62
4
100
AcDbLine
10
71.720000000000
20
63.420000000000
30
0.0
11
73.320000000000
21
63.420000000000
31
0.0
0
LINE
5
4ce
100
AcDbEntity
8
F-F
6
CONTINUOUS
62
4
100
AcDbLine
10
71.720000000000
20
63.740000000000
30
0.0
11
73.320000000000
21
63.740000000000
31
0.0
0
LINE
5
4cf
100
AcDbEntity
8
F-F
6
CONTINUOUS
62
4
100
AcDbLine
10
71.720000000000
20
64.060000000000
30
0.0
11
73.320000000000
21
64.060000000000
31
0.0
0
LINE
5
4d0
100
AcDbEntity
8
F-F
6
CONTINUOUS
62
4
100
AcDbLine
10
71.720000000000
20
64.380000000000
30
0.0
11
73.320000000000
21
64.380000000000
31
0.0
0
LINE
5
4d1
100
AcDbEntity
8
F-F
6
CONTINUOUS
62
4
100
AcDbLine
10
71.720000000000
20
64.700000000000
30
0.0
11
73.320000000000
21
64.700000000000
31
0.0
0
LINE
5
4d2
100
AcDbEntity
8
F-F
6
CONTINUOUS
62
4
100
AcDbLine
10
71.720000000000
20
65.020000000000
30
0.0
11
73.320000000000
21
65.020000000000
31
0.0
0
LINE
5
4d3
100
AcDbEntity
8
F-F
6
CONTINUOUS
62
4
100
AcDbLine
10
71.720000000000
20
65.340000000000
30
0.0
11
73.320000000000
21
65.340000000000
31
0.0
0
LINE
5
4d4
100
AcDbEntity
8
F-F
6
CONTINUOUS
62
4
100
AcDbLine
10
71.720000000000
20
65.660000000000
30
0.0
11
73.320000000000
21
65.660000000000
31
0.0
0
LINE
5
4d5
100
AcDbEntity
8
F-F
6
CONTINUOUS
62
4
100
AcDbLine
10
71.720000000000
20
65.980000000000
30
0.0
11
73.320000000000
21
65.980000000000
31
0.0
0
LINE
5
4d6
100
AcDbEntity
8
F-F
6
CONTINUOUS
62
4
100
AcDbLine
10
71.720000000000
20
66.300000000000
30
0.0
11
73.320000000000
21
66.300000000000
31
0.0
0
LINE
5
4d7
100
AcDbEntity
8
F-F
6
CONTINUOUS
62
4
100
AcDbLine
10
71.720000000000
20
66.620000000000
30
0.0
11
73.320000000000
21
66.620000000000
31
0.0
0
LINE
5
4d8
100
AcDbEntity
8
F-F
6
CONTINUOUS
62
4
100
AcDbLine
10
71.720000000000
20
66.940000000000
30
0.0
11
73.320000000000
21
66.940000000000
31
0.0
0
LINE
5
4d9
100
AcDbEntity
8
F-F
6
CONTINUOUS
62
4
100
AcDbLine
10
71.720000000000
20
67.260000000000
30
0.0
11
73.320000000000
21
67.260000000000
31
0.0
0
LINE
5
4da
100
AcDbEntity
8
F-F
6
CONTINUOUS
62
4
100
AcDbLine
10
71.720000000000
20
67.580000000000
30
0.0
11
73.320000000000
21
67.580000000000
31
0.0
0
LINE
5
4db
100
AcDbEntity
8
F-F
6
CONTINUOUS
62
4
100
AcDbLine
10
71.720000000000
20
67.900000000000
30
0.0
11
73.320000000000
21
67.900000000000
31
0.0
0
LINE
5
4dc
100
AcDbEntity
8
F-F
6
CONTINUOUS
62
4
100
AcDbLine
10
71.720000000000
20
68.220000000000
30
0.0
11
73.320000000000
21
68.220000000000
31
0.0
0
LINE
5
4dd
100
AcDbEntity
8
F-F
6
CONTINUOUS
62
4
100
AcDbLine
10
71.720000000000
20
68.540000000000
30
0.0
11
73.320000000000
21
68.540000000000
31
0.0
0
LINE
5
4de
100
AcDbEntity
8
F-F
6
CONTINUOUS
62
4
100
AcDbLine
10
71.720000000000
20
68.860000000000
30
0.0
11
73.320000000000
21
68.860000000000
31
0.0
0
LINE
5
4df
100
AcDbEntity
8
F-F
6
CONTINUOUS
62
4
100
AcDbLine
10
71.720000000000
20
69.820000000000
30
0.0
11
73.320000000000
21
69.820000000000
31
0.0
0
LINE
5
4e0
100
AcDbEntity
8
F-F
6
CONTINUOUS
62
4
100
AcDbLine
10
71.720000000000
20
70.780000000000
30
0.0
11
73.320000000000
21
70.780000000000
31
0.0
0
LINE
5
4e1
100
AcDbEntity
8
F-F
6
CONTINUOUS
62
4
100
AcDbLine
10
71.720000000000
20
71.100000000000
30
0.0
11
73.320000000000
21
71.100000000000
31
0.0
0
LINE
5
4e2
100
AcDbEntity
8
F-F
6
CONTINUOUS
62
4
100
AcDbLine
10
71.720000000000
20
71.420000000000
30
0.0
11
73.320000000000
21
71.420000000000
31
0.0
0
LINE
5
4e3
100
AcDbEntity
8
F-F
6
CONTINUOUS
62
4
100
AcDbLine
10
71.720000000000
20
71.740000000000
30
0.0
11
73.320000000000
21
71.740000000000
31
0.0
0
LINE
5
4e4
100
AcDbEntity
8
F-F
6
CONTINUOUS
62
4
100
AcDbLine
10
71.720000000000
20
73.340000000000
30
0.0
11
73.320000000000
21
73.340000000000
31
0.0
0
LINE
5
4e5
100
AcDbEntity
8
F-F
6
CONTINUOUS
62
4
100
AcDbLine
10
71.720000000000
20
73.020000000000
30
0.0
11
73.320000000000
21
73.020000000000
31
0.0
0
LINE
5
4e6
100
AcDbEntity
8
F-F
6
CONTINUOUS
62
4
100
AcDbLine
10
71.720000000000
20
72.700000000000
30
0.0
11
73.320000000000
21
72.700000000000
31
0.0
0
LINE
5
4e7
100
AcDbEntity
8
F-F
6
CONTINUOUS
62
4
100
AcDbLine
10
71.720000000000
20
72.380000000000
30
0.0
11
73.320000000000
21
72.380000000000
31
0.0
0
LINE
5
4e8
100
AcDbEntity
8
F-F
6
CONTINUOUS
62
4
100
AcDbLine
10
71.720000000000
20
72.060000000000
30
0.0
11
73.320000000000
21
72.060000000000
31
0.0
0
LINE
5
4e9
100
AcDbEntity
8
F-F
6
CONTINUOUS
62
4
100
AcDbLine
10
71.720000000000
20
70.140000000000
30
0.0
11
73.320000000000
21
70.140000000000
31
0.0
0
LINE
5
4ea
100
AcDbEntity
8
F-F
6
CONTINUOUS
62
4
100
AcDbLine
10
71.720000000000
20
70.460000000000
30
0.0
11
73.320000000000
21
70.460000000000
31
0.0
0
LINE
5
4eb
100
AcDbEntity
8
F-F
6
CONTINUOUS
62
4
100
AcDbLine
10
71.720000000000
20
69.500000000000
30
0.0
11
73.320000000000
21
69.500000000000
31
0.0
0
LINE
5
4ec
100
AcDbEntity
8
F-F
6
CONTINUOUS
62
4
100
AcDbLine
10
71.720000000000
20
69.180000000000
30
0.0
11
73.320000000000
21
69.180000000000
31
0.0
0
LINE
5
4ed
100
AcDbEntity
8
F-F
6
CONTINUOUS
62
4
100
AcDbLine
10
73.870000000000
20
61.820000000000
30
0.0
11
75.000000000000
21
61.820000000000
31
0.0
0
LINE
5
4ee
100
AcDbEntity
8
F-F
6
CONTINUOUS
62
4
100
AcDbLine
10
73.550000000000
20
61.500000000000
30
0.0
11
74.680000000000
21
61.500000000000
31
0.0
0
LINE
5
4ef
100
AcDbEntity
8
F-F
6
CONTINUOUS
62
4
100
AcDbLine
10
71.720000000000
20
61.180000000000
30
0.0
11
74.360000000000
21
61.180000000000
31
0.0
0
LINE
5
4f0
100
AcDbEntity
8
F-F
6
CONTINUOUS
62
4
100
AcDbLine
10
71.720000000000
20
60.860000000000
30
0.0
11
74.040000000000
21
60.860000000000
31
0.0
0
LINE
5
4f1
100
AcDbEntity
8
F-F
6
CONTINUOUS
62
4
100
AcDbLine
10
75.790000000000
20
63.740000000000
30
0.0
11
76.920000000000
21
63.740000000000
31
0.0
0
LINE
5
4f2
100
AcDbEntity
8
F-F
6
CONTINUOUS
62
4
100
AcDbLine
10
75.470000000000
20
63.420000000000
30
0.0
11
76.600000000000
21
63.420000000000
31
0.0
0
LINE
5
4f3
100
AcDbEntity
8
F-F
6
CONTINUOUS
62
4
100
AcDbLine
10
75.150000000000
20
63.100000000000
30
0.0
11
76.280000000000
21
63.100000000000
31
0.0
0
LINE
5
4f4
100
AcDbEntity
8
F-F
6
CONTINUOUS
62
4
100
AcDbLine
10
74.830000000000
20
62.780000000000
30
0.0
11
75.960000000000
21
62.780000000000
31
0.0
0
LINE
5
4f5
100
AcDbEntity
8
F-F
6
CONTINUOUS
62
4
100
AcDbLine
10
74.510000000000
20
62.460000000000
30
0.0
11
75.640000000000
21
62.460000000000
31
0.0
0
LINE
5
4f6
100
AcDbEntity
8
F-F
6
CONTINUOUS
62
4
100
AcDbLine
10
74.190000000000
20
62.140000000000
30
0.0
11
75.320000000000
21
62.140000000000
31
0.0
0
LINE
5
4f7
100
AcDbEntity
8
F-F
6
CONTINUOUS
62
4
100
AcDbLine
10
73.320000000000
20
73.500000000000
30
0.0
11
73.320000000000
21
73.820000000000
31
0.0
0
LINE
5
4f8
100
AcDbEntity
8
F-F
6
CONTINUOUS
62
4
100
AcDbLine
10
86.120000000000
20
61.500000000000
30
0.0
11
87.720000000000
21
61.500000000000
31
0.0
0
LINE
5
4f9
100
AcDbEntity
8
F-F
6
CONTINUOUS
62
4
100
AcDbLine
10
86.120000000000
20
61.820000000000
30
0.0
11
87.720000000000
21
61.820000000000
31
0.0
0
LINE
5
4fa
100
AcDbEntity
8
F-F
6
CONTINUOUS
62
4
100
AcDbLine
10
86.120000000000
20
62.140000000000
30
0.0
11
87.720000000000
21
62.140000000000
31
0.0
0
LINE
5
4fb
100
AcDbEntity
8
F-F
6
CONTINUOUS
62
4
100
AcDbLine
10
86.120000000000
20
62.460000000000
30
0.0
11
87.720000000000
21
62.460000000000
31
0.0
0
LINE
5
4fc
100
AcDbEntity
8
F-F
6
CONTINUOUS
62
4
100
AcDbLine
10
86.120000000000
20
62.780000000000
30
0.0
11
87.720000000000
21
62.780000000000
31
0.0
0
LINE
5
4fd
100
AcDbEntity
8
F-F
6
CONTINUOUS
62
4
100
AcDbLine
10
86.120000000000
20
63.100000000000
30
0.0
11
87.720000000000
21
63.100000000000
31
0.0
0
LINE
5
4fe
100
AcDbEntity
8
F-F
6
CONTINUOUS
62
4
100
AcDbLine
10
86.120000000000
20
63.420000000000
30
0.0
11
87.720000000000
21
63.420000000000
31
0.0
0
LINE
5
4ff
100
AcDbEntity
8
F-F
6
CONTINUOUS
62
4
100
AcDbLine
10
86.120000000000
20
63.740000000000
30
0.0
11
87.720000000000
21
63.740000000000
31
0.0
0
LINE
5
500
100
AcDbEntity
8
F-F
6
CONTINUOUS
62
4
100
AcDbLine
10
86.120000000000
20
64.060000000000
30
0.0
11
87.720000000000
21
64.060000000000
31
0.0
0
LINE
5
501
100
AcDbEntity
8
F-F
6
CONTINUOUS
62
4
100
AcDbLine
10
86.120000000000
20
64.380000000000
30
0.0
11
87.720000000000
21
64.380000000000
31
0.0
0
LINE
5
502
100
AcDbEntity
8
F-F
6
CONTINUOUS
62
4
100
AcDbLine
10
86.120000000000
20
64.700000000000
30
0.0
11
87.720000000000
21
64.700000000000
31
0.0
0
LINE
5
503
100
AcDbEntity
8
F-F
6
CONTINUOUS
62
4
100
AcDbLine
10
86.120000000000
20
65.020000000000
30
0.0
11
87.720000000000
21
65.020000000000
31
0.0
0
LINE
5
504
100
AcDbEntity
8
F-F
6
CONTINUOUS
62
4
100
AcDbLine
10
86.120000000000
20
65.340000000000
30
0.0
11
87.720000000000
21
65.340000000000
31
0.0
0
LINE
5
505
100
AcDbEntity
8
F-F
6
CONTINUOUS
62
4
100
AcDbLine
10
86.120000000000
20
65.980000000000
30
0.0
11
87.720000000000
21
65.980000000000
31
0.0
0
LINE
5
506
100
AcDbEntity
8
F-F
6
CONTINUOUS
62
4
100
AcDbLine
10
86.120000000000
20
66.300000000000
30
0.0
11
87.720000000000
21
66.300000000000
31
0.0
0
LINE
5
507
100
AcDbEntity
8
F-F
6
CONTINUOUS
62
4
100
AcDbLine
10
86.120000000000
20
66.620000000000
30
0.0
11
87.720000000000
21
66.620000000000
31
0.0
0
LINE
5
508
100
AcDbEntity
8
F-F
6
CONTINUOUS
62
4
100
AcDbLine
10
86.120000000000
20
66.940000000000
30
0.0
11
87.720000000000
21
66.940000000000
31
0.0
0
LINE
5
509
100
AcDbEntity
8
F-F
6
CONTINUOUS
62
4
100
AcDbLine
10
86.120000000000
20
67.260000000000
30
0.0
11
87.720000000000
21
67.260000000000
31
0.0
0
LINE
5
50a
100
AcDbEntity
8
F-F
6
CONTINUOUS
62
4
100
AcDbLine
10
86.120000000000
20
67.580000000000
30
0.0
11
87.720000000000
21
67.580000000000
31
0.0
0
LINE
5
50b
100
AcDbEntity
8
F-F
6
CONTINUOUS
62
4
100
AcDbLine
10
86.120000000000
20
67.900000000000
30
0.0
11
87.720000000000
21
67.900000000000
31
0.0
0
LINE
5
50c
100
AcDbEntity
8
F-F
6
CONTINUOUS
62
4
100
AcDbLine
10
86.120000000000
20
68.220000000000
30
0.0
11
87.720000000000
21
68.220000000000
31
0.0
0
LINE
5
50d
100
AcDbEntity
8
F-F
6
CONTINUOUS
62
4
100
AcDbLine
10
86.120000000000
20
68.540000000000
30
0.0
11
87.720000000000
21
68.540000000000
31
0.0
0
LINE
5
50e
100
AcDbEntity
8
F-F
6
CONTINUOUS
62
4
100
AcDbLine
10
86.120000000000
20
68.860000000000
30
0.0
11
87.720000000000
21
68.860000000000
31
0.0
0
LINE
5
50f
100
AcDbEntity
8
F-F
6
CONTINUOUS
62
4
100
AcDbLine
10
86.120000000000
20
69.820000000000
30
0.0
11
87.720000000000
21
69.820000000000
31
0.0
0
LINE
5
510
100
AcDbEntity
8
F-F
6
CONTINUOUS
62
4
100
AcDbLine
10
86.120000000000
20
70.780000000000
30
0.0
11
87.720000000000
21
70.780000000000
31
0.0
0
LINE
5
511
100
AcDbEntity
8
F-F
6
CONTINUOUS
62
4
100
AcDbLine
10
86.120000000000
20
71.100000000000
30
0.0
11
87.720000000000
21
71.100000000000
31
0.0
0
LINE
5
512
100
AcDbEntity
8
F-F
6
CONTINUOUS
62
4
100
AcDbLine
10
86.120000000000
20
71.420000000000
30
0.0
11
87.720000000000
21
71.420000000000
31
0.0
0
LINE
5
513
100
AcDbEntity
8
F-F
6
CONTINUOUS
62
4
100
AcDbLine
10
86.120000000000
20
71.740000000000
30
0.0
11
87.720000000000
21
71.740000000000
31
0.0
0
LINE
5
514
100
AcDbEntity
8
F-F
6
CONTINUOUS
62
4
100
AcDbLine
10
86.120000000000
20
72.700000000000
30
0.0
11
87.720000000000
21
72.700000000000
31
0.0
0
LINE
5
515
100
AcDbEntity
8
F-F
6
CONTINUOUS
62
4
100
AcDbLine
10
86.120000000000
20
72.380000000000
30
0.0
11
87.720000000000
21
72.380000000000
31
0.0
0
LINE
5
516
100
AcDbEntity
8
F-F
6
CONTINUOUS
62
4
100
AcDbLine
10
86.120000000000
20
72.060000000000
30
0.0
11
87.720000000000
21
72.060000000000
31
0.0
0
LINE
5
517
100
AcDbEntity
8
F-F
6
CONTINUOUS
62
4
100
AcDbLine
10
86.120000000000
20
70.140000000000
30
0.0
11
87.720000000000
21
70.140000000000
31
0.0
0
LINE
5
518
100
AcDbEntity
8
F-F
6
CONTINUOUS
62
4
100
AcDbLine
10
86.120000000000
20
70.460000000000
30
0.0
11
87.720000000000
21
70.460000000000
31
0.0
0
LINE
5
519
100
AcDbEntity
8
F-F
6
CONTINUOUS
62
4
100
AcDbLine
10
86.120000000000
20
69.500000000000
30
0.0
11
87.720000000000
21
69.500000000000
31
0.0
0
LINE
5
51a
100
AcDbEntity
8
F-F
6
CONTINUOUS
62
4
100
AcDbLine
10
86.120000000000
20
69.180000000000
30
0.0
11
87.720000000000
21
69.180000000000
31
0.0
0
LINE
5
51b
100
AcDbEntity
8
F-F
6
CONTINUOUS
62
4
100
AcDbLine
10
86.120000000000
20
60.860000000000
30
0.0
11
87.720000000000
21
60.860000000000
31
0.0
0
LINE
5
51c
100
AcDbEntity
8
F-F
6
CONTINUOUS
62
4
100
AcDbLine
10
86.120000000000
20
61.180000000000
30
0.0
11
87.720000000000
21
61.180000000000
31
0.0
0
LINE
5
51d
100
AcDbEntity
8
F-F
6
CONTINUOUS
62
4
100
AcDbLine
10
85.390000000000
20
73.340000000000
30
0.0
11
87.720000000000
21
73.340000000000
31
0.0
0
LINE
5
51e
100
AcDbEntity
8
F-F
6
CONTINUOUS
62
4
100
AcDbLine
10
85.070000000000
20
73.020000000000
30
0.0
11
87.720000000000
21
73.020000000000
31
0.0
0
LINE
5
51f
100
AcDbEntity
8
F-F
6
CONTINUOUS
62
4
100
AcDbLine
10
77.070000000000
20
65.020000000000
30
0.0
11
78.200000000000
21
65.020000000000
31
0.0
0
LINE
5
520
100
AcDbEntity
8
F-F
6
CONTINUOUS
62
4
100
AcDbLine
10
76.750000000000
20
64.700000000000
30
0.0
11
77.880000000000
21
64.700000000000
31
0.0
0
LINE
5
521
100
AcDbEntity
8
F-F
6
CONTINUOUS
62
4
100
AcDbLine
10
76.430000000000
20
64.380000000000
30
0.0
11
77.560000000000
21
64.380000000000
31
0.0
0
LINE
5
522
100
AcDbEntity
8
F-F
6
CONTINUOUS
62
4
100
AcDbLine
10
76.110000000000
20
64.060000000000
30
0.0
11
77.240000000000
21
64.060000000000
31
0.0
0
LINE
5
523
100
AcDbEntity
8
F-F
6
CONTINUOUS
62
4
100
AcDbLine
10
78.350000000000
20
66.300000000000
30
0.0
11
79.480000000000
21
66.300000000000
31
0.0
0
LINE
5
524
100
AcDbEntity
8
F-F
6
CONTINUOUS
62
4
100
AcDbLine
10
78.030000000000
20
65.980000000000
30
0.0
11
79.160000000000
21
65.980000000000
31
0.0
0
LINE
5
525
100
AcDbEntity
8
F-F
6
CONTINUOUS
62
4
100
AcDbLine
10
77.710000000000
20
65.660000000000
30
0.0
11
78.840000000000
21
65.660000000000
31
0.0
0
LINE
5
526
100
AcDbEntity
8
F-F
6
CONTINUOUS
62
4
100
AcDbLine
10
77.390000000000
20
65.340000000000
30
0.0
11
78.520000000000
21
65.340000000000
31
0.0
0
LINE
5
527
100
AcDbEntity
8
F-F
6
CONTINUOUS
62
4
100
AcDbLine
10
79.630000000000
20
67.580000000000
30
0.0
11
80.760000000000
21
67.580000000000
31
0.0
0
LINE
5
528
100
AcDbEntity
8
F-F
6
CONTINUOUS
62
4
100
AcDbLine
10
79.310000000000
20
67.260000000000
30
0.0
11
80.440000000000
21
67.260000000000
31
0.0
0
LINE
5
529
100
AcDbEntity
8
F-F
6
CONTINUOUS
62
4
100
AcDbLine
10
78.990000000000
20
66.940000000000
30
0.0
11
80.120000000000
21
66.940000000000
31
0.0
0
LINE
5
52a
100
AcDbEntity
8
F-F
6
CONTINUOUS
62
4
100
AcDbLine
10
78.670000000000
20
66.620000000000
30
0.0
11
79.800000000000
21
66.620000000000
31
0.0
0
LINE
5
52b
100
AcDbEntity
8
F-F
6
CONTINUOUS
62
4
100
AcDbLine
10
80.910000000000
20
68.860000000000
30
0.0
11
82.040000000000
21
68.860000000000
31
0.0
0
LINE
5
52c
100
AcDbEntity
8
F-F
6
CONTINUOUS
62
4
100
AcDbLine
10
80.590000000000
20
68.540000000000
30
0.0
11
81.720000000000
21
68.540000000000
31
0.0
0
LINE
5
52d
100
AcDbEntity
8
F-F
6
CONTINUOUS
62
4
100
AcDbLine
10
80.270000000000
20
68.220000000000
30
0.0
11
81.400000000000
21
68.220000000000
31
0.0
0
LINE
5
52e
100
AcDbEntity
8
F-F
6
CONTINUOUS
62
4
100
AcDbLine
10
79.950000000000
20
67.900000000000
30
0.0
11
81.080000000000
21
67.900000000000
31
0.0
0
LINE
5
52f
100
AcDbEntity
8
F-F
6
CONTINUOUS
62
4
100
AcDbLine
10
82.190000000000
20
70.140000000000
30
0.0
11
83.320000000000
21
70.140000000000
31
0.0
0
LINE
5
530
100
AcDbEntity
8
F-F
6
CONTINUOUS
62
4
100
AcDbLine
10
81.870000000000
20
69.820000000000
30
0.0
11
83.000000000000
21
69.820000000000
31
0.0
0
LINE
5
531
100
AcDbEntity
8
F-F
6
CONTINUOUS
62
4
100
AcDbLine
10
81.550000000000
20
69.500000000000
30
0.0
11
82.680000000000
21
69.500000000000
31
0.0
0
LINE
5
532
100
AcDbEntity
8
F-F
6
CONTINUOUS
62
4
100
AcDbLine
10
81.230000000000
20
69.180000000000
30
0.0
11
82.360000000000
21
69.180000000000
31
0.0
0
LINE
5
533
100
AcDbEntity
8
F-F
6
CONTINUOUS
62
4
100
AcDbLine
10
83.470000000000
20
71.420000000000
30
0.0
11
84.600000000000
21
71.420000000000
31
0.0
0
LINE
5
534
100
AcDbEntity
8
F-F
6
CONTINUOUS
62
4
100
AcDbLine
10
83.150000000000
20
71.100000000000
30
0.0
11
84.280000000000
21
71.100000000000
31
0.0
0
LINE
5
535
100
AcDbEntity
8
F-F
6
CONTINUOUS
62
4
100
AcDbLine
10
82.830000000000
20
70.780000000000
30
0.0
11
83.960000000000
21
70.780000000000
31
0.0
0
LINE
5
536
100
AcDbEntity
8
F-F
6
CONTINUOUS
62
4
100
AcDbLine
10
82.510000000000
20
70.460000000000
30
0.0
11
83.640000000000
21
70.460000000000
31
0.0
0
LINE
5
537
100
AcDbEntity
8
F-F
6
CONTINUOUS
62
4
100
AcDbLine
10
84.750000000000
20
72.700000000000
30
0.0
11
85.880000000000
21
72.700000000000
31
0.0
0
LINE
5
538
100
AcDbEntity
8
F-F
6
CONTINUOUS
62
4
100
AcDbLine
10
84.430000000000
20
72.380000000000
30
0.0
11
85.560000000000
21
72.380000000000
31
0.0
0
LINE
5
539
100
AcDbEntity
8
F-F
6
CONTINUOUS
62
4
100
AcDbLine
10
84.110000000000
20
72.060000000000
30
0.0
11
85.240000000000
21
72.060000000000
31
0.0
0
LINE
5
53a
100
AcDbEntity
8
F-F
6
CONTINUOUS
62
4
100
AcDbLine
10
83.790000000000
20
71.740000000000
30
0.0
11
84.920000000000
21
71.740000000000
31
0.0
0
LINE
5
53b
100
AcDbEntity
8
F-F
6
CONTINUOUS
62
4
100
AcDbLine
10
86.120000000000
20
65.660000000000
30
0.0
11
87.720000000000
21
65.660000000000
31
0.0
0
LINE
5
53c
100
AcDbEntity
8
0-1
6
CONTINUOUS
62
3
100
AcDbLine
10
263.910000000000
20
501.520000000000
30
0.0
11
476.620000000000
21
501.520000000000
31
0.0
0
LINE
5
53d
100
AcDbEntity
8
0-1
6
CONTINUOUS
62
3
100
AcDbLine
10
263.910000000000
20
475.520000000000
30
0.0
11
476.620000000000
21
475.520000000000
31
0.0
0
LINE
5
53e
100
AcDbEntity
8
0-1
6
CONTINUOUS
62
3
100
AcDbLine
10
263.910000000000
20
385.520000000000
30
0.0
11
476.620000000000
21
385.520000000000
31
0.0
0
POLYLINE
5
53f
100
AcDbEntity
8
0-1
6
CONTINUOUS
62
  7
100
AcDb2dPolyline
66
1
10
0.0
20
0.0
30
0.0
70
0
0
VERTEX
5
540
100
AcDbEntity
8
0-1
6
CONTINUOUS
62
  7
100
AcDbVertex
100
AcDb2dVertex
10
215.270000000000
20
501.550000000000
30
0.0
0
VERTEX
5
541
100
AcDbEntity
8
0-1
6
CONTINUOUS
62
  7
100
AcDbVertex
100
AcDb2dVertex
10
200.270000000000
20
501.550000000000
30
0.0
0
VERTEX
5
542
100
AcDbEntity
8
0-1
6
CONTINUOUS
62
  7
100
AcDbVertex
100
AcDb2dVertex
10
185.270000000000
20
501.550000000000
30
0.0
0
SEQEND
5
543
100
AcDbEntity
8
0-1
0
POLYLINE
5
544
100
AcDbEntity
8
0-1
6
CONTINUOUS
62
  7
100
AcDb2dPolyline
66
1
10
0.0
20
0.0
30
0.0
70
0
0
VERTEX
5
545
100
AcDbEntity
8
0-1
6
CONTINUOUS
62
  7
100
AcDbVertex
100
AcDb2dVertex
10
215.270000000000
20
370.520000000000
30
0.0
0
VERTEX
5
546
100
AcDbEntity
8
0-1
6
CONTINUOUS
62
  7
100
AcDbVertex
100
AcDb2dVertex
10
200.270000000000
20
370.520000000000
30
0.0
0
VERTEX
5
547
100
AcDbEntity
8
0-1
6
CONTINUOUS
62
  7
100
AcDbVertex
100
AcDb2dVertex
10
185.270000000000
20
370.520000000000
30
0.0
0
SEQEND
5
548
100
AcDbEntity
8
0-1
0
LINE
5
549
100
AcDbEntity
8
0-1
6
CONTINUOUS
62
7
100
AcDbLine
10
185.270000000000
20
370.520000000000
30
0.0
11
185.270000000000
21
501.550000000000
31
0.0
0
LINE
5
54a
100
AcDbEntity
8
0-1
6
CENTER2
62
7
100
AcDbLine
10
370.270000000000
20
394.970000000000
30
0.0
11
370.270000000000
21
283.020000000000
31
0.0
0
LINE
5
54b
100
AcDbEntity
8
0-2
6
CONTINUOUS
62
7
100
AcDbLine
10
1029.520000000000
20
468.520000000000
30
0.0
11
1033.150000000000
21
468.520000000000
31
0.0
0
LINE
5
54c
100
AcDbEntity
8
0-2
6
CONTINUOUS
62
7
100
AcDbLine
10
1029.480000000000
20
470.520000000000
30
0.0
11
1015.830000000000
21
470.520000000000
31
0.0
0
LINE
5
54d
100
AcDbEntity
8
0-2
6
CONTINUOUS
62
7
100
AcDbLine
10
1315.850000000000
20
374.790000000000
30
0.0
11
1315.850000000000
21
465.480000000000
31
0.0
0
LINE
5
54e
100
AcDbEntity
8
0-2
6
CONTINUOUS
62
7
100
AcDbLine
10
1313.550000000000
20
377.540000000000
30
0.0
11
1313.550000000000
21
470.540000000000
31
0.0
0
LINE
5
54f
100
AcDbEntity
8
0-2
6
CONTINUOUS
62
7
100
AcDbLine
10
1015.850000000000
20
375.220000000000
30
0.0
11
1015.850000000000
21
465.520000000000
31
0.0
0
LINE
5
550
100
AcDbEntity
8
0-2
6
CONTINUOUS
62
7
100
AcDbLine
10
1313.550000000000
20
377.530000000000
30
0.0
11
1313.550000000000
21
375.610000000000
31
0.0
0
LINE
5
551
100
AcDbEntity
8
0-2
6
CONTINUOUS
62
7
100
AcDbLine
10
1309.160000000000
20
372.840000000000
30
0.0
11
1311.300000000000
21
372.840000000000
31
0.0
0
LINE
5
552
100
AcDbEntity
8
0-2
6
CONTINUOUS
62
7
100
AcDbLine
10
1013.590000000000
20
377.430000000000
30
0.0
11
1013.590000000000
21
375.410000000000
31
0.0
0
LINE
5
553
100
AcDbEntity
8
0-2
6
CONTINUOUS
62
7
100
AcDbLine
10
1012.310000000000
20
486.030000000000
30
0.0
11
1012.310000000000
21
432.830000000000
31
0.0
0
LINE
5
554
100
AcDbEntity
8
0-2
6
CONTINUOUS
62
7
100
AcDbLine
10
1414.800000000000
20
371.380000000000
30
0.0
11
1415.530000000000
21
370.530000000000
31
0.0
0
LINE
5
555
100
AcDbEntity
8
0-2
6
CONTINUOUS
62
7
100
AcDbLine
10
1029.490000000000
20
470.520000000000
30
0.0
11
1031.360000000000
21
470.520000000000
31
0.0
0
LINE
5
556
100
AcDbEntity
8
0-2
6
CONTINUOUS
62
7
100
AcDbLine
10
1309.140000000000
20
372.820000000000
30
0.0
11
1116.450000000000
21
372.820000000000
31
0.0
0
LINE
5
557
100
AcDbEntity
8
0-2
6
CONTINUOUS
62
7
100
AcDbLine
10
1114.710000000000
20
371.340000000000
30
0.0
11
1115.370000000000
21
370.520000000000
31
0.0
0
LINE
5
558
100
AcDbEntity
8
0-2
6
CONTINUOUS
62
7
100
AcDbLine
10
1311.190000000000
20
370.520000000000
30
0.0
11
1115.370000000000
21
370.520000000000
31
0.0
0
LINE
5
559
100
AcDbEntity
8
0-2
6
CONTINUOUS
62
7
100
AcDbLine
10
868.550000000000
20
372.820000000000
30
0.0
11
868.550000000000
21
370.530000000000
31
0.0
0
LINE
5
55a
100
AcDbEntity
8
0-2
6
CONTINUOUS
62
7
100
AcDbLine
10
1009.820000000000
20
372.820000000000
30
0.0
11
868.520000000000
21
372.820000000000
31
0.0
0
LINE
5
55b
100
AcDbEntity
8
0-2
6
CONTINUOUS
62
7
100
AcDbLine
10
1029.480000000000
20
468.520000000000
30
0.0
11
1015.830000000000
21
468.520000000000
31
0.0
0
LINE
5
55c
100
AcDbEntity
8
0-2
6
CONTINUOUS
62
7
100
AcDbLine
10
1444.550000000000
20
375.820000000000
30
0.0
11
1449.550000000000
21
372.820000000000
31
0.0
0
LINE
5
55d
100
AcDbEntity
8
0-2
6
CONTINUOUS
62
7
100
AcDbLine
10
1444.430000000000
20
375.820000000000
30
0.0
11
1416.580000000000
21
375.820000000000
31
0.0
0
LINE
5
55e
100
AcDbEntity
8
0-2
6
CONTINUOUS
62
7
100
AcDbLine
10
1411.130000000000
20
375.820000000000
30
0.0
11
1408.540000000000
21
375.820000000000
31
0.0
0
LINE
5
55f
100
AcDbEntity
8
0-2
6
CONTINUOUS
62
7
100
AcDbLine
10
1330.770000000000
20
468.150000000000
30
0.0
11
1408.500000000000
21
375.740000000000
31
0.0
0
LINE
5
560
100
AcDbEntity
8
0-2
6
CONTINUOUS
62
7
100
AcDbLine
10
1333.340000000000
20
468.210000000000
30
0.0
11
1414.790000000000
21
371.370000000000
31
0.0
0
LINE
5
561
100
AcDbEntity
8
0-2
6
CONTINUOUS
62
7
100
AcDbLine
10
1334.410000000000
20
470.520000000000
30
0.0
11
1416.550000000000
21
372.850000000000
31
0.0
0
LINE
5
562
100
AcDbEntity
8
0-2
6
CONTINUOUS
62
7
100
AcDbLine
10
1031.450000000000
20
470.530000000000
30
0.0
11
1029.570000000000
21
472.810000000000
31
0.0
0
LINE
5
563
100
AcDbEntity
8
0-2
6
CONTINUOUS
62
7
100
AcDbLine
10
1031.360000000000
20
470.520000000000
30
0.0
11
1034.470000000000
21
470.520000000000
31
0.0
0
LINE
5
564
100
AcDbEntity
8
0-2
6
CONTINUOUS
62
7
100
AcDbLine
10
1116.460000000000
20
372.840000000000
30
0.0
11
1034.460000000000
21
470.520000000000
31
0.0
0
LINE
5
565
100
AcDbEntity
8
0-2
6
CONTINUOUS
62
7
100
AcDbLine
10
1029.580000000000
20
472.820000000000
30
0.0
11
1015.880000000000
21
472.820000000000
31
0.0
0
LINE
5
566
100
AcDbEntity
8
0-2
6
CONTINUOUS
62
7
100
AcDbLine
10
1111.790000000000
20
371.720000000000
30
0.0
11
1030.510000000000
21
468.540000000000
31
0.0
0
LINE
5
567
100
AcDbEntity
8
0-2
6
CONTINUOUS
62
7
100
AcDbLine
10
1114.700000000000
20
371.360000000000
30
0.0
11
1033.150000000000
21
468.510000000000
31
0.0
0
LINE
5
568
100
AcDbEntity
8
0-2
6
CONTINUOUS
62
7
100
AcDbLine
10
1015.850000000000
20
465.530000000000
30
0.0
11
1015.850000000000
21
468.490000000000
31
0.0
0
LINE
5
569
100
AcDbEntity
8
0-2
6
CONTINUOUS
62
7
100
AcDbLine
10
888.460000000000
20
375.730000000000
30
0.0
11
883.780000000000
21
373.010000000000
31
0.0
0
LINE
5
56a
100
AcDbEntity
8
0-2
6
CONTINUOUS
62
7
100
AcDbLine
10
1318.850000000000
20
380.890000000000
30
0.0
11
1318.850000000000
21
434.280000000000
31
0.0
0
LINE
5
56b
100
AcDbEntity
8
0-2
6
CONTINUOUS
62
7
100
AcDbLine
10
1018.850000000000
20
465.530000000000
30
0.0
11
1018.850000000000
21
468.520000000000
31
0.0
0
LINE
5
56c
100
AcDbEntity
8
0-2
6
CONTINUOUS
62
7
100
AcDbLine
10
1021.880000000000
20
441.820000000000
30
0.0
11
1018.840000000000
21
441.820000000000
31
0.0
0
LINE
5
56d
100
AcDbEntity
8
0-2
6
CONTINUOUS
62
7
100
AcDbLine
10
1021.810000000000
20
441.790000000000
30
0.0
11
1018.920000000000
21
433.860000000000
31
0.0
0
LINE
5
56e
100
AcDbEntity
8
0-2
6
CONTINUOUS
62
7
100
AcDbLine
10
1018.850000000000
20
380.840000000000
30
0.0
11
1018.850000000000
21
434.010000000000
31
0.0
0
LINE
5
56f
100
AcDbEntity
8
0-2
6
CONTINUOUS
62
7
100
AcDbLine
10
1018.850000000000
20
441.860000000000
30
0.0
11
1018.850000000000
21
465.520000000000
31
0.0
0
LINE
5
570
100
AcDbEntity
8
0-2
6
CONTINUOUS
62
7
100
AcDbLine
10
1307.070000000000
20
375.820000000000
30
0.0
11
1116.450000000000
21
375.820000000000
31
0.0
0
LINE
5
571
100
AcDbEntity
8
0-2
6
CONTINUOUS
62
7
100
AcDbLine
10
1307.110000000000
20
375.870000000000
30
0.0
11
1313.540000000000
21
387.100000000000
31
0.0
0
LINE
5
572
100
AcDbEntity
8
0-2
6
CONTINUOUS
62
7
100
AcDbLine
10
1007.530000000000
20
375.820000000000
30
0.0
11
888.370000000000
21
375.820000000000
31
0.0
0
LINE
5
573
100
AcDbEntity
8
0-2
6
CONTINUOUS
62
7
100
AcDbLine
10
1013.520000000000
20
387.100000000000
30
0.0
11
1007.520000000000
21
375.870000000000
31
0.0
0
LINE
5
574
100
AcDbEntity
8
0-2
6
CONTINUOUS
62
7
100
AcDbLine
10
1116.430000000000
20
375.810000000000
30
0.0
11
1116.410000000000
21
375.810000000000
31
0.0
0
LINE
5
575
100
AcDbEntity
8
0-2
6
CONTINUOUS
62
7
100
AcDbLine
10
1116.340000000000
20
375.800000000000
30
0.0
11
1105.310000000000
21
386.100000000000
31
0.0
0
LINE
5
576
100
AcDbEntity
8
0-2
6
CONTINUOUS
62
7
100
AcDbLine
10
1405.680000000000
20
385.860000000000
30
0.0
11
1416.430000000000
21
375.900000000000
31
0.0
0
LINE
5
577
100
AcDbEntity
8
0-2
6
CONTINUOUS
62
7
100
AcDbLine
10
1416.580000000000
20
375.820000000000
30
0.0
11
1416.510000000000
21
375.820000000000
31
0.0
0
LINE
5
578
100
AcDbEntity
8
0-2
6
CONTINUOUS
62
7
100
AcDbLine
10
715.850000000000
20
374.790000000000
30
0.0
11
715.850000000000
21
465.480000000000
31
0.0
0
LINE
5
579
100
AcDbEntity
8
0-2
6
CONTINUOUS
62
7
100
AcDbLine
10
713.550000000000
20
377.540000000000
30
0.0
11
713.550000000000
21
470.540000000000
31
0.0
0
LINE
5
57a
100
AcDbEntity
8
0-2
6
CONTINUOUS
62
7
100
AcDbLine
10
713.550000000000
20
377.530000000000
30
0.0
11
713.550000000000
21
375.610000000000
31
0.0
0
LINE
5
57b
100
AcDbEntity
8
0-2
6
CONTINUOUS
62
7
100
AcDbLine
10
709.160000000000
20
372.840000000000
30
0.0
11
711.300000000000
21
372.840000000000
31
0.0
0
LINE
5
57c
100
AcDbEntity
8
0-2
6
CONTINUOUS
62
7
100
AcDbLine
10
729.360000000000
20
470.520000000000
30
0.0
11
713.560000000000
21
470.520000000000
31
0.0
0
LINE
5
57d
100
AcDbEntity
8
0-2
6
CONTINUOUS
62
7
100
AcDbLine
10
863.550000000000
20
372.820000000000
30
0.0
11
816.580000000000
21
372.820000000000
31
0.0
0
LINE
5
57e
100
AcDbEntity
8
0-2
6
CONTINUOUS
62
7
100
AcDbLine
10
814.800000000000
20
371.380000000000
30
0.0
11
815.530000000000
21
370.530000000000
31
0.0
0
LINE
5
57f
100
AcDbEntity
8
0-2
6
CONTINUOUS
62
7
100
AcDbLine
10
863.550000000000
20
370.520000000000
30
0.0
11
815.530000000000
21
370.520000000000
31
0.0
0
LINE
5
580
100
AcDbEntity
8
0-2
6
CONTINUOUS
62
7
100
AcDbLine
10
866.550000000000
20
372.740000000000
30
0.0
11
866.550000000000
21
370.580000000000
31
0.0
0
LINE
5
581
100
AcDbEntity
8
0-2
6
CONTINUOUS
62
7
100
AcDbLine
10
863.550000000000
20
372.820000000000
30
0.0
11
866.550000000000
21
372.820000000000
31
0.0
0
LINE
5
582
100
AcDbEntity
8
0-2
6
CONTINUOUS
62
7
100
AcDbLine
10
863.550000000000
20
370.520000000000
30
0.0
11
866.550000000000
21
370.520000000000
31
0.0
0
LINE
5
583
100
AcDbEntity
8
0-2
6
CONTINUOUS
62
7
100
AcDbLine
10
844.550000000000
20
375.820000000000
30
0.0
11
849.550000000000
21
372.820000000000
31
0.0
0
LINE
5
584
100
AcDbEntity
8
0-2
6
CONTINUOUS
62
7
100
AcDbLine
10
844.430000000000
20
375.820000000000
30
0.0
11
816.580000000000
21
375.820000000000
31
0.0
0
LINE
5
585
100
AcDbEntity
8
0-2
6
CONTINUOUS
62
7
100
AcDbLine
10
811.130000000000
20
375.820000000000
30
0.0
11
808.540000000000
21
375.820000000000
31
0.0
0
LINE
5
586
100
AcDbEntity
8
0-2
6
CONTINUOUS
62
7
100
AcDbLine
10
729.380000000000
20
470.520000000000
30
0.0
11
731.400000000000
21
470.520000000000
31
0.0
0
LINE
5
587
100
AcDbEntity
8
0-2
6
CONTINUOUS
62
7
100
AcDbLine
10
731.400000000000
20
470.520000000000
30
0.0
11
734.400000000000
21
470.520000000000
31
0.0
0
LINE
5
588
100
AcDbEntity
8
0-2
6
CONTINUOUS
62
7
100
AcDbLine
10
726.980000000000
20
472.820000000000
30
0.0
11
715.850000000000
21
472.820000000000
31
0.0
0
LINE
5
589
100
AcDbEntity
8
0-2
6
CONTINUOUS
62
7
100
AcDbLine
10
729.380000000000
20
468.220000000000
30
0.0
11
731.400000000000
21
468.220000000000
31
0.0
0
LINE
5
58a
100
AcDbEntity
8
0-2
6
CONTINUOUS
62
7
100
AcDbLine
10
729.360000000000
20
468.220000000000
30
0.0
11
718.880000000000
21
468.220000000000
31
0.0
0
LINE
5
58b
100
AcDbEntity
8
0-2
6
CONTINUOUS
62
7
100
AcDbLine
10
730.770000000000
20
468.150000000000
30
0.0
11
808.500000000000
21
375.740000000000
31
0.0
0
LINE
5
58c
100
AcDbEntity
8
0-2
6
CONTINUOUS
62
7
100
AcDbLine
10
733.340000000000
20
468.210000000000
30
0.0
11
814.790000000000
21
371.370000000000
31
0.0
0
LINE
5
58d
100
AcDbEntity
8
0-2
6
CONTINUOUS
62
7
100
AcDbLine
10
731.400000000000
20
468.220000000000
30
0.0
11
733.340000000000
21
468.220000000000
31
0.0
0
LINE
5
58e
100
AcDbEntity
8
0-2
6
CONTINUOUS
62
7
100
AcDbLine
10
715.850000000000
20
472.800000000000
30
0.0
11
713.560000000000
21
470.530000000000
31
0.0
0
LINE
5
58f
100
AcDbEntity
8
0-2
6
CONTINUOUS
62
7
100
AcDbLine
10
726.980000000000
20
472.820000000000
30
0.0
11
729.420000000000
21
472.820000000000
31
0.0
0
LINE
5
590
100
AcDbEntity
8
0-2
6
CONTINUOUS
62
7
100
AcDbLine
10
731.390000000000
20
470.520000000000
30
0.0
11
729.430000000000
21
472.830000000000
31
0.0
0
LINE
5
591
100
AcDbEntity
8
0-2
6
CONTINUOUS
62
7
100
AcDbLine
10
734.410000000000
20
470.520000000000
30
0.0
11
816.550000000000
21
372.850000000000
31
0.0
0
LINE
5
592
100
AcDbEntity
8
0-2
6
CONTINUOUS
62
7
100
AcDbLine
10
721.850000000000
20
441.810000000000
30
0.0
11
718.860000000000
21
433.830000000000
31
0.0
0
LINE
5
593
100
AcDbEntity
8
0-2
6
CONTINUOUS
62
7
100
AcDbLine
10
718.850000000000
20
380.890000000000
30
0.0
11
718.850000000000
21
434.280000000000
31
0.0
0
LINE
5
594
100
AcDbEntity
8
0-2
6
CONTINUOUS
62
7
100
AcDbLine
10
707.110000000000
20
375.870000000000
30
0.0
11
713.540000000000
21
387.100000000000
31
0.0
0
LINE
5
595
100
AcDbEntity
8
0-2
6
CONTINUOUS
62
7
100
AcDbLine
10
805.680000000000
20
385.860000000000
30
0.0
11
816.430000000000
21
375.900000000000
31
0.0
0
LINE
5
596
100
AcDbEntity
8
0-2
6
CONTINUOUS
62
7
100
AcDbLine
10
816.580000000000
20
375.820000000000
30
0.0
11
816.510000000000
21
375.820000000000
31
0.0
0
LINE
5
597
100
AcDbEntity
8
0-2
6
CONTINUOUS
62
7
100
AcDbLine
10
1026.930000000000
20
476.620000000000
30
0.0
11
1014.980000000000
21
484.670000000000
31
0.0
0
LINE
5
598
100
AcDbEntity
8
0-2
6
CONTINUOUS
62
7
100
AcDbLine
10
1014.870000000000
20
487.540000000000
30
0.0
11
1018.440000000000
21
487.800000000000
31
0.0
0
LINE
5
599
100
AcDbEntity
8
0-2
6
CONTINUOUS
62
7
100
AcDbLine
10
1018.440000000000
20
486.790000000000
30
0.0
11
1015.140000000000
21
486.570000000000
31
0.0
0
LINE
5
59a
100
AcDbEntity
8
0-2
6
CONTINUOUS
62
7
100
AcDbLine
10
1020.490000000000
20
492.540000000000
30
0.0
11
1020.450000000000
21
489.810000000000
31
0.0
0
LINE
5
59b
100
AcDbEntity
8
0-2
6
CONTINUOUS
62
7
100
AcDbLine
10
1021.490000000000
20
492.530000000000
30
0.0
11
1021.460000000000
21
489.810000000000
31
0.0
0
LINE
5
59c
100
AcDbEntity
8
0-2
6
CONTINUOUS
62
7
100
AcDbLine
10
1003.130000000000
20
492.530000000000
30
0.0
11
1003.160000000000
21
489.810000000000
31
0.0
0
LINE
5
59d
100
AcDbEntity
8
0-2
6
CONTINUOUS
62
7
100
AcDbLine
10
1004.130000000000
20
492.540000000000
30
0.0
11
1004.170000000000
21
489.810000000000
31
0.0
0
LINE
5
59e
100
AcDbEntity
8
0-2
6
CONTINUOUS
62
7
100
AcDbLine
10
1006.180000000000
20
486.790000000000
30
0.0
11
1009.490000000000
21
486.570000000000
31
0.0
0
LINE
5
59f
100
AcDbEntity
8
0-2
6
CONTINUOUS
62
7
100
AcDbLine
10
1009.750000000000
20
487.540000000000
30
0.0
11
1006.180000000000
21
487.800000000000
31
0.0
0
LINE
5
5a0
100
AcDbEntity
8
0-2
6
CONTINUOUS
62
7
100
AcDbLine
10
811.320000000000
20
386.620000000000
30
0.0
11
811.320000000000
21
391.270000000000
31
0.0
0
LINE
5
5a1
100
AcDbEntity
8
0-2
6
CONTINUOUS
62
7
100
AcDbLine
10
913.310000000000
20
386.620000000000
30
0.0
11
913.310000000000
21
391.270000000000
31
0.0
0
LINE
5
5a2
100
AcDbEntity
8
0-2
6
CONTINUOUS
62
7
100
AcDbLine
10
810.310000000000
20
386.620000000000
30
0.0
11
810.310000000000
21
391.270000000000
31
0.0
0
LINE
5
5a3
100
AcDbEntity
8
0-2
6
CONTINUOUS
62
7
100
AcDbLine
10
914.310000000000
20
386.620000000000
30
0.0
11
914.310000000000
21
391.270000000000
31
0.0
0
LINE
5
5a4
100
AcDbEntity
8
0-2
6
CONTINUOUS
62
7
100
AcDbLine
10
714.240000000000
20
497.450000000000
30
0.0
11
714.180000000000
21
496.730000000000
31
0.0
0
LINE
5
5a5
100
AcDbEntity
8
0-2
6
CONTINUOUS
62
7
100
AcDbLine
10
718.200000000000
20
488.690000000000
30
0.0
11
716.490000000000
21
488.690000000000
31
0.0
0
LINE
5
5a6
100
AcDbEntity
8
0-2
6
CONTINUOUS
62
7
100
AcDbLine
10
718.200000000000
20
487.680000000000
30
0.0
11
716.490000000000
21
487.680000000000
31
0.0
0
LINE
5
5a7
100
AcDbEntity
8
0-2
6
CONTINUOUS
62
7
100
AcDbLine
10
713.470000000000
20
479.640000000000
30
0.0
11
713.470000000000
21
485.670000000000
31
0.0
0
LINE
5
5a8
100
AcDbEntity
8
0-2
6
CONTINUOUS
62
7
100
AcDbLine
10
998.220000000000
20
475.760000000000
30
0.0
11
1010.250000000000
21
483.870000000000
31
0.0
0
LINE
5
5a9
100
AcDbEntity
8
0-2
6
CONTINUOUS
62
7
100
AcDbLine
10
997.690000000000
20
476.620000000000
30
0.0
11
1009.640000000000
21
484.670000000000
31
0.0
0
LINE
5
5aa
100
AcDbEntity
8
0-2
6
CONTINUOUS
62
7
100
AcDbLine
10
711.460000000000
20
479.640000000000
30
0.0
11
711.460000000000
21
484.670000000000
31
0.0
0
LINE
5
5ab
100
AcDbEntity
8
0-2
6
CONTINUOUS
62
7
100
AcDbLine
10
709.450000000000
20
486.680000000000
30
0.0
11
706.840000000000
21
486.680000000000
31
0.0
0
LINE
5
5ac
100
AcDbEntity
8
0-2
6
CONTINUOUS
62
7
100
AcDbLine
10
709.450000000000
20
487.680000000000
30
0.0
11
706.840000000000
21
487.680000000000
31
0.0
0
LINE
5
5ad
100
AcDbEntity
8
0-2
6
CONTINUOUS
62
7
100
AcDbLine
10
704.830000000000
20
489.690000000000
30
0.0
11
704.830000000000
21
492.510000000000
31
0.0
0
LINE
5
5ae
100
AcDbEntity
8
0-2
6
CONTINUOUS
62
7
100
AcDbLine
10
703.820000000000
20
489.690000000000
30
0.0
11
703.820000000000
21
492.510000000000
31
0.0
0
LINE
5
5af
100
AcDbEntity
8
0-2
6
CONTINUOUS
62
7
100
AcDbLine
10
722.120000000000
20
491.590000000000
30
0.0
11
722.120000000000
21
492.510000000000
31
0.0
0
LINE
5
5b0
100
AcDbEntity
8
0-2
6
CONTINUOUS
62
7
100
AcDbLine
10
716.820000000000
20
486.310000000000
30
0.0
11
714.640000000000
21
482.550000000000
31
0.0
0
POLYLINE
5
5b1
100
AcDbEntity
8
0-2
6
CONTINUOUS
62
  7
100
AcDb2dPolyline
66
1
10
0.0
20
0.0
30
0.0
70
0
0
VERTEX
5
5b2
100
AcDbEntity
8
0-2
6
CONTINUOUS
62
  7
100
AcDbVertex
100
AcDb2dVertex
10
717.690000000000
20
485.800000000000
30
0.0
0
VERTEX
5
5b3
100
AcDbEntity
8
0-2
6
CONTINUOUS
62
  7
100
AcDbVertex
100
AcDb2dVertex
10
715.510000000000
20
482.040000000000
30
0.0
0
VERTEX
5
5b4
100
AcDbEntity
8
0-2
6
CONTINUOUS
62
  7
100
AcDbVertex
100
AcDb2dVertex
10
714.640000000000
20
482.550000000000
30
0.0
0
SEQEND
5
5b5
100
AcDbEntity
8
0-2
0
LINE
5
5b6
100
AcDbEntity
8
0-2
6
CONTINUOUS
62
7
100
AcDbLine
10
721.110000000000
20
492.510000000000
30
0.0
11
721.110000000000
21
491.470000000000
31
0.0
0
LINE
5
5b7
100
AcDbEntity
8
0-2
6
CONTINUOUS
62
7
100
AcDbLine
10
913.310000000000
20
386.620000000000
30
0.0
11
811.320000000000
21
386.620000000000
31
0.0
0
LINE
5
5b8
100
AcDbEntity
8
0-2
6
CONTINUOUS
62
7
100
AcDbLine
10
913.310000000000
20
385.620000000000
30
0.0
11
811.320000000000
21
385.620000000000
31
0.0
0
LINE
5
5b9
100
AcDbEntity
8
0-2
6
CONTINUOUS
62
7
100
AcDbLine
10
993.180000000000
20
475.620000000000
30
0.0
11
997.700000000000
21
475.620000000000
31
0.0
0
LINE
5
5ba
100
AcDbEntity
8
0-2
6
CONTINUOUS
62
7
100
AcDbLine
10
992.450000000000
20
475.300000000000
30
0.0
11
914.290000000000
21
391.260000000000
31
0.0
0
LINE
5
5bb
100
AcDbEntity
8
0-2
6
CONTINUOUS
62
7
100
AcDbLine
10
997.690000000000
20
476.620000000000
30
0.0
11
993.180000000000
21
476.620000000000
31
0.0
0
LINE
5
5bc
100
AcDbEntity
8
0-2
6
CONTINUOUS
62
7
100
AcDbLine
10
991.710000000000
20
475.980000000000
30
0.0
11
913.560000000000
21
391.940000000000
31
0.0
0
LINE
5
5bd
100
AcDbEntity
8
0-2
6
CONTINUOUS
62
7
100
AcDbLine
10
1213.310000000000
20
386.620000000000
30
0.0
11
1213.310000000000
21
391.270000000000
31
0.0
0
LINE
5
5be
100
AcDbEntity
8
0-2
6
CONTINUOUS
62
7
100
AcDbLine
10
1111.320000000000
20
386.620000000000
30
0.0
11
1111.320000000000
21
391.270000000000
31
0.0
0
LINE
5
5bf
100
AcDbEntity
8
0-2
6
CONTINUOUS
62
7
100
AcDbLine
10
1214.310000000000
20
386.620000000000
30
0.0
11
1214.310000000000
21
391.270000000000
31
0.0
0
LINE
5
5c0
100
AcDbEntity
8
0-2
6
CONTINUOUS
62
7
100
AcDbLine
10
1111.320000000000
20
386.620000000000
30
0.0
11
1213.310000000000
21
386.620000000000
31
0.0
0
LINE
5
5c1
100
AcDbEntity
8
0-2
6
CONTINUOUS
62
7
100
AcDbLine
10
1111.320000000000
20
385.620000000000
30
0.0
11
1213.700000000000
21
385.620000000000
31
0.0
0
LINE
5
5c2
100
AcDbEntity
8
0-2
6
CONTINUOUS
62
7
100
AcDbLine
10
1110.310000000000
20
386.620000000000
30
0.0
11
1110.310000000000
21
391.260000000000
31
0.0
0
LINE
5
5c3
100
AcDbEntity
8
0-2
6
CONTINUOUS
62
7
100
AcDbLine
10
732.330000000000
20
475.620000000000
30
0.0
11
716.820000000000
21
475.620000000000
31
0.0
0
LINE
5
5c4
100
AcDbEntity
8
0-2
6
CONTINUOUS
62
7
100
AcDbLine
10
732.100000000000
20
476.620000000000
30
0.0
11
717.490000000000
21
476.620000000000
31
0.0
0
LINE
5
5c5
100
AcDbEntity
8
0-2
6
CONTINUOUS
62
7
100
AcDbLine
10
708.450000000000
20
476.620000000000
30
0.0
11
693.840000000000
21
476.620000000000
31
0.0
0
LINE
5
5c6
100
AcDbEntity
8
0-2
6
CONTINUOUS
62
7
100
AcDbLine
10
708.450000000000
20
475.620000000000
30
0.0
11
693.840000000000
21
475.620000000000
31
0.0
0
LINE
5
5c7
100
AcDbEntity
8
0-2
6
CONTINUOUS
62
7
100
AcDbLine
10
1031.450000000000
20
476.620000000000
30
0.0
11
1026.930000000000
21
476.620000000000
31
0.0
0
LINE
5
5c8
100
AcDbEntity
8
0-2
6
CONTINUOUS
62
7
100
AcDbLine
10
1032.180000000000
20
475.300000000000
30
0.0
11
1110.310000000000
21
391.260000000000
31
0.0
0
LINE
5
5c9
100
AcDbEntity
8
0-2
6
CONTINUOUS
62
7
100
AcDbLine
10
1032.910000000000
20
475.980000000000
30
0.0
11
1111.060000000000
21
391.930000000000
31
0.0
0
LINE
5
5ca
100
AcDbEntity
8
0-2
6
CONTINUOUS
62
4
100
AcDbLine
10
913.310000000000
20
380.620000000000
30
0.0
11
811.320000000000
21
380.620000000000
31
0.0
0
LINE
5
5cb
100
AcDbEntity
8
0-2
6
CONTINUOUS
62
4
100
AcDbLine
10
805.310000000000
20
386.620000000000
30
0.0
11
805.310000000000
21
389.310000000000
31
0.0
0
LINE
5
5cc
100
AcDbEntity
8
0-2
6
CONTINUOUS
62
4
100
AcDbLine
10
996.110000000000
20
471.890000000000
30
0.0
11
919.310000000000
21
389.310000000000
31
0.0
0
LINE
5
5cd
100
AcDbEntity
8
0-2
6
CONTINUOUS
62
4
100
AcDbLine
10
919.310000000000
20
386.620000000000
30
0.0
11
919.310000000000
21
389.310000000000
31
0.0
0
LINE
5
5ce
100
AcDbEntity
8
0-2
6
CONTINUOUS
62
4
100
AcDbLine
10
913.890000000000
20
380.650000000000
30
0.0
11
919.280000000000
21
386.040000000000
31
0.0
0
LINE
5
5cf
100
AcDbEntity
8
0-2
6
CONTINUOUS
62
4
100
AcDbLine
10
908.210000000000
20
380.620000000000
30
0.0
11
913.210000000000
21
385.620000000000
31
0.0
0
LINE
5
5d0
100
AcDbEntity
8
0-2
6
CONTINUOUS
62
4
100
AcDbLine
10
914.310000000000
20
386.720000000000
30
0.0
11
951.300000000000
21
423.710000000000
31
0.0
0
LINE
5
5d1
100
AcDbEntity
8
0-2
6
CONTINUOUS
62
4
100
AcDbLine
10
902.550000000000
20
380.620000000000
30
0.0
11
907.550000000000
21
385.620000000000
31
0.0
0
LINE
5
5d2
100
AcDbEntity
8
0-2
6
CONTINUOUS
62
4
100
AcDbLine
10
896.900000000000
20
380.620000000000
30
0.0
11
901.900000000000
21
385.620000000000
31
0.0
0
LINE
5
5d3
100
AcDbEntity
8
0-2
6
CONTINUOUS
62
4
100
AcDbLine
10
891.240000000000
20
380.620000000000
30
0.0
11
896.240000000000
21
385.620000000000
31
0.0
0
LINE
5
5d4
100
AcDbEntity
8
0-2
6
CONTINUOUS
62
4
100
AcDbLine
10
885.580000000000
20
380.620000000000
30
0.0
11
890.580000000000
21
385.620000000000
31
0.0
0
LINE
5
5d5
100
AcDbEntity
8
0-2
6
CONTINUOUS
62
4
100
AcDbLine
10
879.920000000000
20
380.620000000000
30
0.0
11
884.920000000000
21
385.620000000000
31
0.0
0
LINE
5
5d6
100
AcDbEntity
8
0-2
6
CONTINUOUS
62
4
100
AcDbLine
10
874.270000000000
20
380.620000000000
30
0.0
11
879.270000000000
21
385.620000000000
31
0.0
0
LINE
5
5d7
100
AcDbEntity
8
0-2
6
CONTINUOUS
62
4
100
AcDbLine
10
868.610000000000
20
380.620000000000
30
0.0
11
873.610000000000
21
385.620000000000
31
0.0
0
LINE
5
5d8
100
AcDbEntity
8
0-2
6
CONTINUOUS
62
4
100
AcDbLine
10
862.950000000000
20
380.620000000000
30
0.0
11
867.950000000000
21
385.620000000000
31
0.0
0
LINE
5
5d9
100
AcDbEntity
8
0-2
6
CONTINUOUS
62
4
100
AcDbLine
10
857.300000000000
20
380.620000000000
30
0.0
11
862.300000000000
21
385.620000000000
31
0.0
0
LINE
5
5da
100
AcDbEntity
8
0-2
6
CONTINUOUS
62
4
100
AcDbLine
10
851.640000000000
20
380.620000000000
30
0.0
11
856.640000000000
21
385.620000000000
31
0.0
0
LINE
5
5db
100
AcDbEntity
8
0-2
6
CONTINUOUS
62
4
100
AcDbLine
10
845.980000000000
20
380.620000000000
30
0.0
11
850.980000000000
21
385.620000000000
31
0.0
0
LINE
5
5dc
100
AcDbEntity
8
0-2
6
CONTINUOUS
62
4
100
AcDbLine
10
840.330000000000
20
380.620000000000
30
0.0
11
845.330000000000
21
385.620000000000
31
0.0
0
LINE
5
5dd
100
AcDbEntity
8
0-2
6
CONTINUOUS
62
4
100
AcDbLine
10
834.670000000000
20
380.620000000000
30
0.0
11
839.670000000000
21
385.620000000000
31
0.0
0
LINE
5
5de
100
AcDbEntity
8
0-2
6
CONTINUOUS
62
4
100
AcDbLine
10
829.010000000000
20
380.620000000000
30
0.0
11
834.010000000000
21
385.620000000000
31
0.0
0
LINE
5
5df
100
AcDbEntity
8
0-2
6
CONTINUOUS
62
4
100
AcDbLine
10
823.360000000000
20
380.620000000000
30
0.0
11
828.360000000000
21
385.620000000000
31
0.0
0
LINE
5
5e0
100
AcDbEntity
8
0-2
6
CONTINUOUS
62
4
100
AcDbLine
10
817.700000000000
20
380.620000000000
30
0.0
11
822.700000000000
21
385.620000000000
31
0.0
0
LINE
5
5e1
100
AcDbEntity
8
0-2
6
CONTINUOUS
62
4
100
AcDbLine
10
812.040000000000
20
380.620000000000
30
0.0
11
817.040000000000
21
385.620000000000
31
0.0
0
LINE
5
5e2
100
AcDbEntity
8
0-2
6
CONTINUOUS
62
4
100
AcDbLine
10
807.640000000000
20
381.870000000000
30
0.0
11
811.390000000000
21
385.620000000000
31
0.0
0
LINE
5
5e3
100
AcDbEntity
8
0-2
6
CONTINUOUS
62
4
100
AcDbLine
10
805.450000000000
20
385.340000000000
30
0.0
11
810.310000000000
21
390.200000000000
31
0.0
0
LINE
5
5e4
100
AcDbEntity
8
0-2
6
CONTINUOUS
62
4
100
AcDbLine
10
804.570000000000
20
390.110000000000
30
0.0
11
808.100000000000
21
393.650000000000
31
0.0
0
LINE
5
5e5
100
AcDbEntity
8
0-2
6
CONTINUOUS
62
4
100
AcDbLine
10
801.840000000000
20
393.040000000000
30
0.0
11
805.380000000000
21
396.580000000000
31
0.0
0
LINE
5
5e6
100
AcDbEntity
8
0-2
6
CONTINUOUS
62
4
100
AcDbLine
10
799.110000000000
20
395.970000000000
30
0.0
11
802.650000000000
21
399.510000000000
31
0.0
0
LINE
5
5e7
100
AcDbEntity
8
0-2
6
CONTINUOUS
62
4
100
AcDbLine
10
796.390000000000
20
398.910000000000
30
0.0
11
799.930000000000
21
402.440000000000
31
0.0
0
LINE
5
5e8
100
AcDbEntity
8
0-2
6
CONTINUOUS
62
4
100
AcDbLine
10
793.660000000000
20
401.840000000000
30
0.0
11
797.200000000000
21
405.370000000000
31
0.0
0
LINE
5
5e9
100
AcDbEntity
8
0-2
6
CONTINUOUS
62
4
100
AcDbLine
10
790.940000000000
20
404.770000000000
30
0.0
11
794.470000000000
21
408.310000000000
31
0.0
0
LINE
5
5ea
100
AcDbEntity
8
0-2
6
CONTINUOUS
62
4
100
AcDbLine
10
788.210000000000
20
407.700000000000
30
0.0
11
791.750000000000
21
411.240000000000
31
0.0
0
LINE
5
5eb
100
AcDbEntity
8
0-2
6
CONTINUOUS
62
4
100
AcDbLine
10
785.490000000000
20
410.630000000000
30
0.0
11
789.020000000000
21
414.170000000000
31
0.0
0
LINE
5
5ec
100
AcDbEntity
8
0-2
6
CONTINUOUS
62
4
100
AcDbLine
10
782.760000000000
20
413.560000000000
30
0.0
11
786.300000000000
21
417.100000000000
31
0.0
0
LINE
5
5ed
100
AcDbEntity
8
0-2
6
CONTINUOUS
62
4
100
AcDbLine
10
780.030000000000
20
416.490000000000
30
0.0
11
783.570000000000
21
420.030000000000
31
0.0
0
LINE
5
5ee
100
AcDbEntity
8
0-2
6
CONTINUOUS
62
4
100
AcDbLine
10
777.310000000000
20
419.420000000000
30
0.0
11
780.850000000000
21
422.960000000000
31
0.0
0
LINE
5
5ef
100
AcDbEntity
8
0-2
6
CONTINUOUS
62
4
100
AcDbLine
10
774.580000000000
20
422.360000000000
30
0.0
11
778.120000000000
21
425.890000000000
31
0.0
0
LINE
5
5f0
100
AcDbEntity
8
0-2
6
CONTINUOUS
62
4
100
AcDbLine
10
771.860000000000
20
425.290000000000
30
0.0
11
775.400000000000
21
428.820000000000
31
0.0
0
LINE
5
5f1
100
AcDbEntity
8
0-2
6
CONTINUOUS
62
4
100
AcDbLine
10
769.170000000000
20
428.260000000000
30
0.0
11
772.670000000000
21
431.760000000000
31
0.0
0
LINE
5
5f2
100
AcDbEntity
8
0-2
6
CONTINUOUS
62
4
100
AcDbLine
10
805.310000000000
20
388.970000000000
30
0.0
11
813.670000000000
21
380.620000000000
31
0.0
0
LINE
5
5f3
100
AcDbEntity
8
0-2
6
CONTINUOUS
62
4
100
AcDbLine
10
814.320000000000
20
385.620000000000
30
0.0
11
819.320000000000
21
380.620000000000
31
0.0
0
LINE
5
5f4
100
AcDbEntity
8
0-2
6
CONTINUOUS
62
4
100
AcDbLine
10
819.980000000000
20
385.620000000000
30
0.0
11
824.980000000000
21
380.620000000000
31
0.0
0
LINE
5
5f5
100
AcDbEntity
8
0-2
6
CONTINUOUS
62
4
100
AcDbLine
10
825.640000000000
20
385.620000000000
30
0.0
11
830.640000000000
21
380.620000000000
31
0.0
0
LINE
5
5f6
100
AcDbEntity
8
0-2
6
CONTINUOUS
62
4
100
AcDbLine
10
831.290000000000
20
385.620000000000
30
0.0
11
836.290000000000
21
380.620000000000
31
0.0
0
LINE
5
5f7
100
AcDbEntity
8
0-2
6
CONTINUOUS
62
4
100
AcDbLine
10
836.950000000000
20
385.620000000000
30
0.0
11
841.950000000000
21
380.620000000000
31
0.0
0
LINE
5
5f8
100
AcDbEntity
8
0-2
6
CONTINUOUS
62
4
100
AcDbLine
10
842.610000000000
20
385.620000000000
30
0.0
11
847.610000000000
21
380.620000000000
31
0.0
0
LINE
5
5f9
100
AcDbEntity
8
0-2
6
CONTINUOUS
62
4
100
AcDbLine
10
848.260000000000
20
385.620000000000
30
0.0
11
853.260000000000
21
380.620000000000
31
0.0
0
LINE
5
5fa
100
AcDbEntity
8
0-2
6
CONTINUOUS
62
4
100
AcDbLine
10
853.920000000000
20
385.620000000000
30
0.0
11
858.920000000000
21
380.620000000000
31
0.0
0
LINE
5
5fb
100
AcDbEntity
8
0-2
6
CONTINUOUS
62
4
100
AcDbLine
10
859.580000000000
20
385.620000000000
30
0.0
11
864.580000000000
21
380.620000000000
31
0.0
0
LINE
5
5fc
100
AcDbEntity
8
0-2
6
CONTINUOUS
62
4
100
AcDbLine
10
865.230000000000
20
385.620000000000
30
0.0
11
870.230000000000
21
380.620000000000
31
0.0
0
LINE
5
5fd
100
AcDbEntity
8
0-2
6
CONTINUOUS
62
4
100
AcDbLine
10
870.890000000000
20
385.620000000000
30
0.0
11
875.890000000000
21
380.620000000000
31
0.0
0
LINE
5
5fe
100
AcDbEntity
8
0-2
6
CONTINUOUS
62
4
100
AcDbLine
10
876.550000000000
20
385.620000000000
30
0.0
11
881.550000000000
21
380.620000000000
31
0.0
0
LINE
5
5ff
100
AcDbEntity
8
0-2
6
CONTINUOUS
62
4
100
AcDbLine
10
882.210000000000
20
385.620000000000
30
0.0
11
887.210000000000
21
380.620000000000
31
0.0
0
LINE
5
600
100
AcDbEntity
8
0-2
6
CONTINUOUS
62
4
100
AcDbLine
10
887.860000000000
20
385.620000000000
30
0.0
11
892.860000000000
21
380.620000000000
31
0.0
0
LINE
5
601
100
AcDbEntity
8
0-2
6
CONTINUOUS
62
4
100
AcDbLine
10
893.520000000000
20
385.620000000000
30
0.0
11
898.520000000000
21
380.620000000000
31
0.0
0
LINE
5
602
100
AcDbEntity
8
0-2
6
CONTINUOUS
62
4
100
AcDbLine
10
899.180000000000
20
385.620000000000
30
0.0
11
904.180000000000
21
380.620000000000
31
0.0
0
LINE
5
603
100
AcDbEntity
8
0-2
6
CONTINUOUS
62
4
100
AcDbLine
10
904.830000000000
20
385.620000000000
30
0.0
11
909.830000000000
21
380.620000000000
31
0.0
0
LINE
5
604
100
AcDbEntity
8
0-2
6
CONTINUOUS
62
4
100
AcDbLine
10
910.490000000000
20
385.620000000000
30
0.0
11
915.190000000000
21
380.920000000000
31
0.0
0
LINE
5
605
100
AcDbEntity
8
0-2
6
CONTINUOUS
62
4
100
AcDbLine
10
914.310000000000
20
387.450000000000
30
0.0
11
918.370000000000
21
383.400000000000
31
0.0
0
LINE
5
606
100
AcDbEntity
8
0-2
6
CONTINUOUS
62
4
100
AcDbLine
10
915.200000000000
20
392.230000000000
30
0.0
11
919.310000000000
21
388.110000000000
31
0.0
0
LINE
5
607
100
AcDbEntity
8
0-2
6
CONTINUOUS
62
4
100
AcDbLine
10
917.920000000000
20
395.160000000000
30
0.0
11
921.460000000000
21
391.620000000000
31
0.0
0
LINE
5
608
100
AcDbEntity
8
0-2
6
CONTINUOUS
62
4
100
AcDbLine
10
920.650000000000
20
398.090000000000
30
0.0
11
924.180000000000
21
394.550000000000
31
0.0
0
LINE
5
609
100
AcDbEntity
8
0-2
6
CONTINUOUS
62
4
100
AcDbLine
10
923.370000000000
20
401.020000000000
30
0.0
11
926.910000000000
21
397.480000000000
31
0.0
0
LINE
5
60a
100
AcDbEntity
8
0-2
6
CONTINUOUS
62
4
100
AcDbLine
10
926.100000000000
20
403.950000000000
30
0.0
11
929.640000000000
21
400.410000000000
31
0.0
0
LINE
5
60b
100
AcDbEntity
8
0-2
6
CONTINUOUS
62
4
100
AcDbLine
10
928.820000000000
20
406.880000000000
30
0.0
11
932.360000000000
21
403.340000000000
31
0.0
0
LINE
5
60c
100
AcDbEntity
8
0-2
6
CONTINUOUS
62
4
100
AcDbLine
10
931.550000000000
20
409.810000000000
30
0.0
11
935.090000000000
21
406.280000000000
31
0.0
0
LINE
5
60d
100
AcDbEntity
8
0-2
6
CONTINUOUS
62
4
100
AcDbLine
10
934.280000000000
20
412.740000000000
30
0.0
11
937.810000000000
21
409.210000000000
31
0.0
0
LINE
5
60e
100
AcDbEntity
8
0-2
6
CONTINUOUS
62
4
100
AcDbLine
10
937.000000000000
20
415.680000000000
30
0.0
11
940.540000000000
21
412.140000000000
31
0.0
0
LINE
5
60f
100
AcDbEntity
8
0-2
6
CONTINUOUS
62
4
100
AcDbLine
10
939.730000000000
20
418.610000000000
30
0.0
11
943.260000000000
21
415.070000000000
31
0.0
0
LINE
5
610
100
AcDbEntity
8
0-2
6
CONTINUOUS
62
4
100
AcDbLine
10
942.450000000000
20
421.540000000000
30
0.0
11
945.990000000000
21
418.000000000000
31
0.0
0
LINE
5
611
100
AcDbEntity
8
0-2
6
CONTINUOUS
62
4
100
AcDbLine
10
945.180000000000
20
424.470000000000
30
0.0
11
948.720000000000
21
420.930000000000
31
0.0
0
LINE
5
612
100
AcDbEntity
8
0-2
6
CONTINUOUS
62
4
100
AcDbLine
10
947.900000000000
20
427.400000000000
30
0.0
11
951.440000000000
21
423.860000000000
31
0.0
0
LINE
5
613
100
AcDbEntity
8
0-2
6
CONTINUOUS
62
4
100
AcDbLine
10
950.630000000000
20
430.330000000000
30
0.0
11
954.170000000000
21
426.790000000000
31
0.0
0
LINE
5
614
100
AcDbEntity
8
0-2
6
CONTINUOUS
62
4
100
AcDbLine
10
953.360000000000
20
433.260000000000
30
0.0
11
956.890000000000
21
429.730000000000
31
0.0
0
LINE
5
615
100
AcDbEntity
8
0-2
6
CONTINUOUS
62
4
100
AcDbLine
10
956.080000000000
20
436.190000000000
30
0.0
11
959.620000000000
21
432.660000000000
31
0.0
0
LINE
5
616
100
AcDbEntity
8
0-2
6
CONTINUOUS
62
4
100
AcDbLine
10
958.810000000000
20
439.130000000000
30
0.0
11
962.340000000000
21
435.590000000000
31
0.0
0
LINE
5
617
100
AcDbEntity
8
0-2
6
CONTINUOUS
62
4
100
AcDbLine
10
961.530000000000
20
442.060000000000
30
0.0
11
965.070000000000
21
438.520000000000
31
0.0
0
LINE
5
618
100
AcDbEntity
8
0-2
6
CONTINUOUS
62
4
100
AcDbLine
10
964.260000000000
20
444.990000000000
30
0.0
11
967.800000000000
21
441.450000000000
31
0.0
0
LINE
5
619
100
AcDbEntity
8
0-2
6
CONTINUOUS
62
4
100
AcDbLine
10
966.980000000000
20
447.920000000000
30
0.0
11
970.520000000000
21
444.380000000000
31
0.0
0
LINE
5
61a
100
AcDbEntity
8
0-2
6
CONTINUOUS
62
4
100
AcDbLine
10
969.710000000000
20
450.850000000000
30
0.0
11
973.250000000000
21
447.310000000000
31
0.0
0
LINE
5
61b
100
AcDbEntity
8
0-2
6
CONTINUOUS
62
4
100
AcDbLine
10
972.440000000000
20
453.780000000000
30
0.0
11
975.970000000000
21
450.240000000000
31
0.0
0
LINE
5
61c
100
AcDbEntity
8
0-2
6
CONTINUOUS
62
4
100
AcDbLine
10
975.160000000000
20
456.710000000000
30
0.0
11
978.700000000000
21
453.170000000000
31
0.0
0
LINE
5
61d
100
AcDbEntity
8
0-2
6
CONTINUOUS
62
4
100
AcDbLine
10
977.890000000000
20
459.640000000000
30
0.0
11
981.420000000000
21
456.110000000000
31
0.0
0
LINE
5
61e
100
AcDbEntity
8
0-2
6
CONTINUOUS
62
4
100
AcDbLine
10
980.610000000000
20
462.570000000000
30
0.0
11
984.150000000000
21
459.040000000000
31
0.0
0
LINE
5
61f
100
AcDbEntity
8
0-2
6
CONTINUOUS
62
4
100
AcDbLine
10
983.340000000000
20
465.510000000000
30
0.0
11
986.880000000000
21
461.970000000000
31
0.0
0
LINE
5
620
100
AcDbEntity
8
0-2
6
CONTINUOUS
62
4
100
AcDbLine
10
986.060000000000
20
468.440000000000
30
0.0
11
989.600000000000
21
464.900000000000
31
0.0
0
LINE
5
621
100
AcDbEntity
8
0-2
6
CONTINUOUS
62
4
100
AcDbLine
10
988.790000000000
20
471.370000000000
30
0.0
11
992.330000000000
21
467.830000000000
31
0.0
0
LINE
5
622
100
AcDbEntity
8
0-2
6
CONTINUOUS
62
4
100
AcDbLine
10
991.520000000000
20
474.300000000000
30
0.0
11
995.050000000000
21
470.760000000000
31
0.0
0
LINE
5
623
100
AcDbEntity
8
0-2
6
CONTINUOUS
62
4
100
AcDbLine
10
1213.700000000000
20
380.620000000000
30
0.0
11
1111.720000000000
21
380.620000000000
31
0.0
0
LINE
5
624
100
AcDbEntity
8
0-2
6
CONTINUOUS
62
4
100
AcDbLine
10
1105.710000000000
20
386.620000000000
30
0.0
11
1105.710000000000
21
389.310000000000
31
0.0
0
LINE
5
625
100
AcDbEntity
8
0-2
6
CONTINUOUS
62
4
100
AcDbLine
10
1219.710000000000
20
386.620000000000
30
0.0
11
1219.710000000000
21
389.310000000000
31
0.0
0
LINE
5
626
100
AcDbEntity
8
0-2
6
CONTINUOUS
62
4
100
AcDbLine
10
1214.290000000000
20
380.650000000000
30
0.0
11
1219.680000000000
21
386.040000000000
31
0.0
0
LINE
5
627
100
AcDbEntity
8
0-2
6
CONTINUOUS
62
4
100
AcDbLine
10
1208.610000000000
20
380.620000000000
30
0.0
11
1213.610000000000
21
385.620000000000
31
0.0
0
LINE
5
628
100
AcDbEntity
8
0-2
6
CONTINUOUS
62
4
100
AcDbLine
10
1214.710000000000
20
386.720000000000
30
0.0
11
1251.690000000000
21
423.710000000000
31
0.0
0
LINE
5
629
100
AcDbEntity
8
0-2
6
CONTINUOUS
62
4
100
AcDbLine
10
1202.950000000000
20
380.620000000000
30
0.0
11
1207.950000000000
21
385.620000000000
31
0.0
0
LINE
5
62a
100
AcDbEntity
8
0-2
6
CONTINUOUS
62
4
100
AcDbLine
10
1197.290000000000
20
380.620000000000
30
0.0
11
1202.290000000000
21
385.620000000000
31
0.0
0
LINE
5
62b
100
AcDbEntity
8
0-2
6
CONTINUOUS
62
4
100
AcDbLine
10
1191.640000000000
20
380.620000000000
30
0.0
11
1196.640000000000
21
385.620000000000
31
0.0
0
LINE
5
62c
100
AcDbEntity
8
0-2
6
CONTINUOUS
62
4
100
AcDbLine
10
1185.980000000000
20
380.620000000000
30
0.0
11
1190.980000000000
21
385.620000000000
31
0.0
0
LINE
5
62d
100
AcDbEntity
8
0-2
6
CONTINUOUS
62
4
100
AcDbLine
10
1180.320000000000
20
380.620000000000
30
0.0
11
1185.320000000000
21
385.620000000000
31
0.0
0
LINE
5
62e
100
AcDbEntity
8
0-2
6
CONTINUOUS
62
4
100
AcDbLine
10
1174.670000000000
20
380.620000000000
30
0.0
11
1179.670000000000
21
385.620000000000
31
0.0
0
LINE
5
62f
100
AcDbEntity
8
0-2
6
CONTINUOUS
62
4
100
AcDbLine
10
1169.010000000000
20
380.620000000000
30
0.0
11
1174.010000000000
21
385.620000000000
31
0.0
0
LINE
5
630
100
AcDbEntity
8
0-2
6
CONTINUOUS
62
4
100
AcDbLine
10
1163.350000000000
20
380.620000000000
30
0.0
11
1168.350000000000
21
385.620000000000
31
0.0
0
LINE
5
631
100
AcDbEntity
8
0-2
6
CONTINUOUS
62
4
100
AcDbLine
10
1157.700000000000
20
380.620000000000
30
0.0
11
1162.700000000000
21
385.620000000000
31
0.0
0
LINE
5
632
100
AcDbEntity
8
0-2
6
CONTINUOUS
62
4
100
AcDbLine
10
1152.040000000000
20
380.620000000000
30
0.0
11
1157.040000000000
21
385.620000000000
31
0.0
0
LINE
5
633
100
AcDbEntity
8
0-2
6
CONTINUOUS
62
4
100
AcDbLine
10
1146.380000000000
20
380.620000000000
30
0.0
11
1151.380000000000
21
385.620000000000
31
0.0
0
LINE
5
634
100
AcDbEntity
8
0-2
6
CONTINUOUS
62
4
100
AcDbLine
10
1140.730000000000
20
380.620000000000
30
0.0
11
1145.730000000000
21
385.620000000000
31
0.0
0
LINE
5
635
100
AcDbEntity
8
0-2
6
CONTINUOUS
62
4
100
AcDbLine
10
1135.070000000000
20
380.620000000000
30
0.0
11
1140.070000000000
21
385.620000000000
31
0.0
0
LINE
5
636
100
AcDbEntity
8
0-2
6
CONTINUOUS
62
4
100
AcDbLine
10
1129.410000000000
20
380.620000000000
30
0.0
11
1134.410000000000
21
385.620000000000
31
0.0
0
LINE
5
637
100
AcDbEntity
8
0-2
6
CONTINUOUS
62
4
100
AcDbLine
10
1123.750000000000
20
380.620000000000
30
0.0
11
1128.750000000000
21
385.620000000000
31
0.0
0
LINE
5
638
100
AcDbEntity
8
0-2
6
CONTINUOUS
62
4
100
AcDbLine
10
1118.100000000000
20
380.620000000000
30
0.0
11
1123.100000000000
21
385.620000000000
31
0.0
0
LINE
5
639
100
AcDbEntity
8
0-2
6
CONTINUOUS
62
4
100
AcDbLine
10
1112.440000000000
20
380.620000000000
30
0.0
11
1117.440000000000
21
385.620000000000
31
0.0
0
LINE
5
63a
100
AcDbEntity
8
0-2
6
CONTINUOUS
62
4
100
AcDbLine
10
1108.040000000000
20
381.870000000000
30
0.0
11
1111.780000000000
21
385.620000000000
31
0.0
0
LINE
5
63b
100
AcDbEntity
8
0-2
6
CONTINUOUS
62
4
100
AcDbLine
10
1105.710000000000
20
388.970000000000
30
0.0
11
1114.060000000000
21
380.620000000000
31
0.0
0
LINE
5
63c
100
AcDbEntity
8
0-2
6
CONTINUOUS
62
4
100
AcDbLine
10
1114.720000000000
20
385.620000000000
30
0.0
11
1119.720000000000
21
380.620000000000
31
0.0
0
LINE
5
63d
100
AcDbEntity
8
0-2
6
CONTINUOUS
62
4
100
AcDbLine
10
1120.380000000000
20
385.620000000000
30
0.0
11
1125.380000000000
21
380.620000000000
31
0.0
0
LINE
5
63e
100
AcDbEntity
8
0-2
6
CONTINUOUS
62
4
100
AcDbLine
10
1126.040000000000
20
385.620000000000
30
0.0
11
1131.040000000000
21
380.620000000000
31
0.0
0
LINE
5
63f
100
AcDbEntity
8
0-2
6
CONTINUOUS
62
4
100
AcDbLine
10
1131.690000000000
20
385.620000000000
30
0.0
11
1136.690000000000
21
380.620000000000
31
0.0
0
LINE
5
640
100
AcDbEntity
8
0-2
6
CONTINUOUS
62
4
100
AcDbLine
10
1137.350000000000
20
385.620000000000
30
0.0
11
1142.350000000000
21
380.620000000000
31
0.0
0
LINE
5
641
100
AcDbEntity
8
0-2
6
CONTINUOUS
62
4
100
AcDbLine
10
1143.010000000000
20
385.620000000000
30
0.0
11
1148.010000000000
21
380.620000000000
31
0.0
0
LINE
5
642
100
AcDbEntity
8
0-2
6
CONTINUOUS
62
4
100
AcDbLine
10
1148.660000000000
20
385.620000000000
30
0.0
11
1153.660000000000
21
380.620000000000
31
0.0
0
LINE
5
643
100
AcDbEntity
8
0-2
6
CONTINUOUS
62
4
100
AcDbLine
10
1154.320000000000
20
385.620000000000
30
0.0
11
1159.320000000000
21
380.620000000000
31
0.0
0
LINE
5
644
100
AcDbEntity
8
0-2
6
CONTINUOUS
62
4
100
AcDbLine
10
1159.980000000000
20
385.620000000000
30
0.0
11
1164.980000000000
21
380.620000000000
31
0.0
0
LINE
5
645
100
AcDbEntity
8
0-2
6
CONTINUOUS
62
4
100
AcDbLine
10
1165.630000000000
20
385.620000000000
30
0.0
11
1170.630000000000
21
380.620000000000
31
0.0
0
LINE
5
646
100
AcDbEntity
8
0-2
6
CONTINUOUS
62
4
100
AcDbLine
10
1171.290000000000
20
385.620000000000
30
0.0
11
1176.290000000000
21
380.620000000000
31
0.0
0
LINE
5
647
100
AcDbEntity
8
0-2
6
CONTINUOUS
62
4
100
AcDbLine
10
1176.950000000000
20
385.620000000000
30
0.0
11
1181.950000000000
21
380.620000000000
31
0.0
0
LINE
5
648
100
AcDbEntity
8
0-2
6
CONTINUOUS
62
4
100
AcDbLine
10
1182.600000000000
20
385.620000000000
30
0.0
11
1187.600000000000
21
380.620000000000
31
0.0
0
LINE
5
649
100
AcDbEntity
8
0-2
6
CONTINUOUS
62
4
100
AcDbLine
10
1188.260000000000
20
385.620000000000
30
0.0
11
1193.260000000000
21
380.620000000000
31
0.0
0
LINE
5
64a
100
AcDbEntity
8
0-2
6
CONTINUOUS
62
4
100
AcDbLine
10
1193.920000000000
20
385.620000000000
30
0.0
11
1198.920000000000
21
380.620000000000
31
0.0
0
LINE
5
64b
100
AcDbEntity
8
0-2
6
CONTINUOUS
62
4
100
AcDbLine
10
1199.570000000000
20
385.620000000000
30
0.0
11
1204.570000000000
21
380.620000000000
31
0.0
0
LINE
5
64c
100
AcDbEntity
8
0-2
6
CONTINUOUS
62
4
100
AcDbLine
10
1205.230000000000
20
385.620000000000
30
0.0
11
1210.230000000000
21
380.620000000000
31
0.0
0
LINE
5
64d
100
AcDbEntity
8
0-2
6
CONTINUOUS
62
4
100
AcDbLine
10
1210.890000000000
20
385.620000000000
30
0.0
11
1215.590000000000
21
380.920000000000
31
0.0
0
LINE
5
64e
100
AcDbEntity
8
0-2
6
CONTINUOUS
62
4
100
AcDbLine
10
1214.710000000000
20
387.450000000000
30
0.0
11
1218.770000000000
21
383.400000000000
31
0.0
0
LINE
5
64f
100
AcDbEntity
8
0-2
6
CONTINUOUS
62
4
100
AcDbLine
10
1215.590000000000
20
392.230000000000
30
0.0
11
1219.710000000000
21
388.110000000000
31
0.0
0
LINE
5
650
100
AcDbEntity
8
0-2
6
CONTINUOUS
62
4
100
AcDbLine
10
1218.320000000000
20
395.160000000000
30
0.0
11
1221.860000000000
21
391.620000000000
31
0.0
0
LINE
5
651
100
AcDbEntity
8
0-2
6
CONTINUOUS
62
4
100
AcDbLine
10
1221.050000000000
20
398.090000000000
30
0.0
11
1224.580000000000
21
394.550000000000
31
0.0
0
LINE
5
652
100
AcDbEntity
8
0-2
6
CONTINUOUS
62
4
100
AcDbLine
10
1223.770000000000
20
401.020000000000
30
0.0
11
1227.310000000000
21
397.480000000000
31
0.0
0
LINE
5
653
100
AcDbEntity
8
0-2
6
CONTINUOUS
62
4
100
AcDbLine
10
1226.500000000000
20
403.950000000000
30
0.0
11
1230.030000000000
21
400.410000000000
31
0.0
0
LINE
5
654
100
AcDbEntity
8
0-2
6
CONTINUOUS
62
4
100
AcDbLine
10
1229.220000000000
20
406.880000000000
30
0.0
11
1232.760000000000
21
403.340000000000
31
0.0
0
LINE
5
655
100
AcDbEntity
8
0-2
6
CONTINUOUS
62
4
100
AcDbLine
10
1231.950000000000
20
409.810000000000
30
0.0
11
1235.490000000000
21
406.280000000000
31
0.0
0
LINE
5
656
100
AcDbEntity
8
0-2
6
CONTINUOUS
62
4
100
AcDbLine
10
1234.670000000000
20
412.740000000000
30
0.0
11
1238.210000000000
21
409.210000000000
31
0.0
0
LINE
5
657
100
AcDbEntity
8
0-2
6
CONTINUOUS
62
4
100
AcDbLine
10
1237.400000000000
20
415.680000000000
30
0.0
11
1240.940000000000
21
412.140000000000
31
0.0
0
LINE
5
658
100
AcDbEntity
8
0-2
6
CONTINUOUS
62
4
100
AcDbLine
10
1240.130000000000
20
418.610000000000
30
0.0
11
1243.660000000000
21
415.070000000000
31
0.0
0
LINE
5
659
100
AcDbEntity
8
0-2
6
CONTINUOUS
62
4
100
AcDbLine
10
1242.850000000000
20
421.540000000000
30
0.0
11
1246.390000000000
21
418.000000000000
31
0.0
0
LINE
5
65a
100
AcDbEntity
8
0-2
6
CONTINUOUS
62
4
100
AcDbLine
10
1245.580000000000
20
424.470000000000
30
0.0
11
1249.110000000000
21
420.930000000000
31
0.0
0
LINE
5
65b
100
AcDbEntity
8
0-2
6
CONTINUOUS
62
4
100
AcDbLine
10
1248.300000000000
20
427.400000000000
30
0.0
11
1251.840000000000
21
423.860000000000
31
0.0
0
LINE
5
65c
100
AcDbEntity
8
0-2
6
CONTINUOUS
62
4
100
AcDbLine
10
1251.030000000000
20
430.330000000000
30
0.0
11
1254.570000000000
21
426.790000000000
31
0.0
0
LINE
5
65d
100
AcDbEntity
8
0-2
6
CONTINUOUS
62
4
100
AcDbLine
10
1253.750000000000
20
433.260000000000
30
0.0
11
1257.290000000000
21
429.730000000000
31
0.0
0
LINE
5
65e
100
AcDbEntity
8
0-2
6
CONTINUOUS
62
4
100
AcDbLine
10
1256.480000000000
20
436.190000000000
30
0.0
11
1260.020000000000
21
432.660000000000
31
0.0
0
LINE
5
65f
100
AcDbEntity
8
0-2
6
CONTINUOUS
62
4
100
AcDbLine
10
1259.210000000000
20
439.130000000000
30
0.0
11
1262.740000000000
21
435.590000000000
31
0.0
0
LINE
5
660
100
AcDbEntity
8
0-2
6
CONTINUOUS
62
4
100
AcDbLine
10
1261.930000000000
20
442.060000000000
30
0.0
11
1265.470000000000
21
438.520000000000
31
0.0
0
LINE
5
661
100
AcDbEntity
8
0-2
6
CONTINUOUS
62
4
100
AcDbLine
10
1264.660000000000
20
444.990000000000
30
0.0
11
1268.190000000000
21
441.450000000000
31
0.0
0
LINE
5
662
100
AcDbEntity
8
0-2
6
CONTINUOUS
62
4
100
AcDbLine
10
1267.380000000000
20
447.920000000000
30
0.0
11
1270.920000000000
21
444.380000000000
31
0.0
0
LINE
5
663
100
AcDbEntity
8
0-2
6
CONTINUOUS
62
4
100
AcDbLine
10
1270.110000000000
20
450.850000000000
30
0.0
11
1273.650000000000
21
447.310000000000
31
0.0
0
LINE
5
664
100
AcDbEntity
8
0-2
6
CONTINUOUS
62
4
100
AcDbLine
10
1272.830000000000
20
453.780000000000
30
0.0
11
1276.370000000000
21
450.240000000000
31
0.0
0
LINE
5
665
100
AcDbEntity
8
0-2
6
CONTINUOUS
62
4
100
AcDbLine
10
1275.560000000000
20
456.710000000000
30
0.0
11
1279.100000000000
21
453.170000000000
31
0.0
0
LINE
5
666
100
AcDbEntity
8
0-2
6
CONTINUOUS
62
4
100
AcDbLine
10
1278.290000000000
20
459.640000000000
30
0.0
11
1281.820000000000
21
456.110000000000
31
0.0
0
LINE
5
667
100
AcDbEntity
8
0-2
6
CONTINUOUS
62
4
100
AcDbLine
10
1281.010000000000
20
462.570000000000
30
0.0
11
1284.550000000000
21
459.040000000000
31
0.0
0
LINE
5
668
100
AcDbEntity
8
0-2
6
CONTINUOUS
62
4
100
AcDbLine
10
1289.190000000000
20
471.370000000000
30
0.0
11
1292.730000000000
21
467.830000000000
31
0.0
0
LINE
5
669
100
AcDbEntity
8
0-2
6
CONTINUOUS
62
4
100
AcDbLine
10
1291.910000000000
20
474.300000000000
30
0.0
11
1295.450000000000
21
470.760000000000
31
0.0
0
LINE
5
66a
100
AcDbEntity
8
0-2
6
CONTINUOUS
62
4
100
AcDbLine
10
1105.850000000000
20
385.340000000000
30
0.0
11
1110.310000000000
21
389.800000000000
31
0.0
0
LINE
5
66b
100
AcDbEntity
8
0-2
6
CONTINUOUS
62
4
100
AcDbLine
10
1104.960000000000
20
390.110000000000
30
0.0
11
1108.290000000000
21
393.440000000000
31
0.0
0
LINE
5
66c
100
AcDbEntity
8
0-2
6
CONTINUOUS
62
4
100
AcDbLine
10
1102.240000000000
20
393.040000000000
30
0.0
11
1105.560000000000
21
396.370000000000
31
0.0
0
LINE
5
66d
100
AcDbEntity
8
0-2
6
CONTINUOUS
62
4
100
AcDbLine
10
1099.510000000000
20
395.970000000000
30
0.0
11
1102.840000000000
21
399.300000000000
31
0.0
0
LINE
5
66e
100
AcDbEntity
8
0-2
6
CONTINUOUS
62
4
100
AcDbLine
10
1096.790000000000
20
398.910000000000
30
0.0
11
1100.110000000000
21
402.230000000000
31
0.0
0
LINE
5
66f
100
AcDbEntity
8
0-2
6
CONTINUOUS
62
4
100
AcDbLine
10
1094.060000000000
20
401.840000000000
30
0.0
11
1097.390000000000
21
405.160000000000
31
0.0
0
LINE
5
670
100
AcDbEntity
8
0-2
6
CONTINUOUS
62
4
100
AcDbLine
10
1091.340000000000
20
404.770000000000
30
0.0
11
1094.660000000000
21
408.090000000000
31
0.0
0
LINE
5
671
100
AcDbEntity
8
0-2
6
CONTINUOUS
62
4
100
AcDbLine
10
1088.610000000000
20
407.700000000000
30
0.0
11
1091.940000000000
21
411.020000000000
31
0.0
0
LINE
5
672
100
AcDbEntity
8
0-2
6
CONTINUOUS
62
4
100
AcDbLine
10
1085.880000000000
20
410.630000000000
30
0.0
11
1089.210000000000
21
413.960000000000
31
0.0
0
LINE
5
673
100
AcDbEntity
8
0-2
6
CONTINUOUS
62
4
100
AcDbLine
10
1083.160000000000
20
413.560000000000
30
0.0
11
1086.480000000000
21
416.890000000000
31
0.0
0
LINE
5
674
100
AcDbEntity
8
0-2
6
CONTINUOUS
62
4
100
AcDbLine
10
1080.430000000000
20
416.490000000000
30
0.0
11
1083.760000000000
21
419.820000000000
31
0.0
0
LINE
5
675
100
AcDbEntity
8
0-2
6
CONTINUOUS
62
4
100
AcDbLine
10
1077.710000000000
20
419.420000000000
30
0.0
11
1081.030000000000
21
422.750000000000
31
0.0
0
LINE
5
676
100
AcDbEntity
8
0-2
6
CONTINUOUS
62
4
100
AcDbLine
10
1074.980000000000
20
422.360000000000
30
0.0
11
1078.310000000000
21
425.680000000000
31
0.0
0
LINE
5
677
100
AcDbEntity
8
0-2
6
CONTINUOUS
62
4
100
AcDbLine
10
1072.260000000000
20
425.290000000000
30
0.0
11
1075.580000000000
21
428.610000000000
31
0.0
0
LINE
5
678
100
AcDbEntity
8
0-2
6
CONTINUOUS
62
4
100
AcDbLine
10
1030.380000000000
20
475.620000000000
30
0.0
11
1051.760000000000
21
454.240000000000
31
0.0
0
LINE
5
679
100
AcDbEntity
8
0-2
6
CONTINUOUS
62
4
100
AcDbLine
10
1064.300000000000
20
434.300000000000
30
0.0
11
1067.410000000000
21
437.410000000000
31
0.0
0
LINE
5
67a
100
AcDbEntity
8
0-2
6
CONTINUOUS
62
4
100
AcDbLine
10
1066.820000000000
20
431.170000000000
30
0.0
11
1070.130000000000
21
434.480000000000
31
0.0
0
LINE
5
67b
100
AcDbEntity
8
0-2
6
CONTINUOUS
62
4
100
AcDbLine
10
1069.530000000000
20
428.220000000000
30
0.0
11
1072.860000000000
21
431.540000000000
31
0.0
0
LINE
5
67c
100
AcDbEntity
8
0-2
6
CONTINUOUS
62
4
100
AcDbLine
10
1349.070000000000
20
450.880000000000
30
0.0
11
1410.310000000000
21
389.630000000000
31
0.0
0
LINE
5
67d
100
AcDbEntity
8
0-2
6
CONTINUOUS
62
4
100
AcDbLine
10
1283.740000000000
20
465.510000000000
30
0.0
11
1287.270000000000
21
461.970000000000
31
0.0
0
LINE
5
67e
100
AcDbEntity
8
0-2
6
CONTINUOUS
62
4
100
AcDbLine
10
1286.460000000000
20
468.440000000000
30
0.0
11
1290.000000000000
21
464.900000000000
31
0.0
0
LINE
5
67f
100
AcDbEntity
8
0-2
6
CONTINUOUS
62
4
100
AcDbLine
10
1047.810000000000
20
452.530000000000
30
0.0
11
1110.310000000000
21
390.030000000000
31
0.0
0
LINE
5
680
100
AcDbEntity
8
0-2
6
CONTINUOUS
62
4
100
AcDbLine
10
1061.350000000000
20
437.010000000000
30
0.0
11
1064.680000000000
21
440.340000000000
31
0.0
0
LINE
5
681
100
AcDbEntity
8
0-2
6
CONTINUOUS
62
4
100
AcDbLine
10
1058.630000000000
20
439.940000000000
30
0.0
11
1061.960000000000
21
443.270000000000
31
0.0
0
LINE
5
682
100
AcDbEntity
8
0-2
6
CONTINUOUS
62
4
100
AcDbLine
10
1055.900000000000
20
442.870000000000
30
0.0
11
1059.230000000000
21
446.200000000000
31
0.0
0
LINE
5
683
100
AcDbEntity
8
0-2
6
CONTINUOUS
62
4
100
AcDbLine
10
1053.180000000000
20
445.800000000000
30
0.0
11
1056.500000000000
21
449.130000000000
31
0.0
0
LINE
5
684
100
AcDbEntity
8
0-2
6
CONTINUOUS
62
4
100
AcDbLine
10
1050.450000000000
20
448.740000000000
30
0.0
11
1053.780000000000
21
452.060000000000
31
0.0
0
LINE
5
685
100
AcDbEntity
8
0-2
6
CONTINUOUS
62
4
100
AcDbLine
10
1048.150000000000
20
452.090000000000
30
0.0
11
1051.050000000000
21
455.000000000000
31
0.0
0
LINE
5
686
100
AcDbEntity
8
0-2
6
CONTINUOUS
62
4
100
AcDbLine
10
1045.700000000000
20
455.300000000000
30
0.0
11
1048.330000000000
21
457.930000000000
31
0.0
0
LINE
5
687
100
AcDbEntity
8
0-2
6
CONTINUOUS
62
4
100
AcDbLine
10
1043.260000000000
20
458.520000000000
30
0.0
11
1045.600000000000
21
460.860000000000
31
0.0
0
LINE
5
688
100
AcDbEntity
8
0-2
6
CONTINUOUS
62
4
100
AcDbLine
10
1040.820000000000
20
461.730000000000
30
0.0
11
1042.880000000000
21
463.790000000000
31
0.0
0
LINE
5
689
100
AcDbEntity
8
0-2
6
CONTINUOUS
62
4
100
AcDbLine
10
1038.380000000000
20
464.950000000000
30
0.0
11
1040.150000000000
21
466.720000000000
31
0.0
0
LINE
5
68a
100
AcDbEntity
8
0-2
6
CONTINUOUS
62
4
100
AcDbLine
10
1035.940000000000
20
468.160000000000
30
0.0
11
1037.430000000000
21
469.650000000000
31
0.0
0
LINE
5
68b
100
AcDbEntity
8
0-2
6
CONTINUOUS
62
4
100
AcDbLine
10
1033.490000000000
20
471.380000000000
30
0.0
11
1034.700000000000
21
472.580000000000
31
0.0
0
LINE
5
68c
100
AcDbEntity
8
0-2
6
CONTINUOUS
62
4
100
AcDbLine
10
1029.780000000000
20
473.320000000000
30
0.0
11
1031.980000000000
21
475.520000000000
31
0.0
0
LINE
5
68d
100
AcDbEntity
8
0-2
6
CONTINUOUS
62
7
100
AcDbLine
10
1411.320000000000
20
386.620000000000
30
0.0
11
1411.320000000000
21
391.270000000000
31
0.0
0
LINE
5
68e
100
AcDbEntity
8
0-2
6
CONTINUOUS
62
7
100
AcDbLine
10
1410.310000000000
20
386.620000000000
30
0.0
11
1410.310000000000
21
391.270000000000
31
0.0
0
LINE
5
68f
100
AcDbEntity
8
0-2
6
CONTINUOUS
62
4
100
AcDbLine
10
1405.310000000000
20
386.620000000000
30
0.0
11
1405.310000000000
21
389.310000000000
31
0.0
0
LINE
5
690
100
AcDbEntity
8
0-2
6
CONTINUOUS
62
4
100
AcDbLine
10
1451.640000000000
20
380.620000000000
30
0.0
11
1456.640000000000
21
385.620000000000
31
0.0
0
LINE
5
691
100
AcDbEntity
8
0-2
6
CONTINUOUS
62
4
100
AcDbLine
10
1445.980000000000
20
380.620000000000
30
0.0
11
1450.980000000000
21
385.620000000000
31
0.0
0
LINE
5
692
100
AcDbEntity
8
0-2
6
CONTINUOUS
62
4
100
AcDbLine
10
1440.330000000000
20
380.620000000000
30
0.0
11
1445.330000000000
21
385.620000000000
31
0.0
0
LINE
5
693
100
AcDbEntity
8
0-2
6
CONTINUOUS
62
4
100
AcDbLine
10
1434.670000000000
20
380.620000000000
30
0.0
11
1439.670000000000
21
385.620000000000
31
0.0
0
LINE
5
694
100
AcDbEntity
8
0-2
6
CONTINUOUS
62
4
100
AcDbLine
10
1429.010000000000
20
380.620000000000
30
0.0
11
1434.010000000000
21
385.620000000000
31
0.0
0
LINE
5
695
100
AcDbEntity
8
0-2
6
CONTINUOUS
62
4
100
AcDbLine
10
1423.360000000000
20
380.620000000000
30
0.0
11
1428.360000000000
21
385.620000000000
31
0.0
0
LINE
5
696
100
AcDbEntity
8
0-2
6
CONTINUOUS
62
4
100
AcDbLine
10
1417.700000000000
20
380.620000000000
30
0.0
11
1422.700000000000
21
385.620000000000
31
0.0
0
LINE
5
697
100
AcDbEntity
8
0-2
6
CONTINUOUS
62
4
100
AcDbLine
10
1412.040000000000
20
380.620000000000
30
0.0
11
1417.040000000000
21
385.620000000000
31
0.0
0
LINE
5
698
100
AcDbEntity
8
0-2
6
CONTINUOUS
62
4
100
AcDbLine
10
1407.640000000000
20
381.870000000000
30
0.0
11
1411.390000000000
21
385.620000000000
31
0.0
0
LINE
5
699
100
AcDbEntity
8
0-2
6
CONTINUOUS
62
4
100
AcDbLine
10
1405.450000000000
20
385.340000000000
30
0.0
11
1410.310000000000
21
390.200000000000
31
0.0
0
LINE
5
69a
100
AcDbEntity
8
0-2
6
CONTINUOUS
62
4
100
AcDbLine
10
1404.570000000000
20
390.110000000000
30
0.0
11
1408.100000000000
21
393.650000000000
31
0.0
0
LINE
5
69b
100
AcDbEntity
8
0-2
6
CONTINUOUS
62
4
100
AcDbLine
10
1401.840000000000
20
393.040000000000
30
0.0
11
1405.380000000000
21
396.580000000000
31
0.0
0
LINE
5
69c
100
AcDbEntity
8
0-2
6
CONTINUOUS
62
4
100
AcDbLine
10
1399.110000000000
20
395.970000000000
30
0.0
11
1402.650000000000
21
399.510000000000
31
0.0
0
LINE
5
69d
100
AcDbEntity
8
0-2
6
CONTINUOUS
62
4
100
AcDbLine
10
1396.390000000000
20
398.910000000000
30
0.0
11
1399.930000000000
21
402.440000000000
31
0.0
0
LINE
5
69e
100
AcDbEntity
8
0-2
6
CONTINUOUS
62
4
100
AcDbLine
10
1393.660000000000
20
401.840000000000
30
0.0
11
1397.200000000000
21
405.370000000000
31
0.0
0
LINE
5
69f
100
AcDbEntity
8
0-2
6
CONTINUOUS
62
4
100
AcDbLine
10
1405.310000000000
20
388.970000000000
30
0.0
11
1413.670000000000
21
380.620000000000
31
0.0
0
LINE
5
6a0
100
AcDbEntity
8
0-2
6
CONTINUOUS
62
4
100
AcDbLine
10
1414.320000000000
20
385.620000000000
30
0.0
11
1419.320000000000
21
380.620000000000
31
0.0
0
LINE
5
6a1
100
AcDbEntity
8
0-2
6
CONTINUOUS
62
4
100
AcDbLine
10
1419.980000000000
20
385.620000000000
30
0.0
11
1424.980000000000
21
380.620000000000
31
0.0
0
LINE
5
6a2
100
AcDbEntity
8
0-2
6
CONTINUOUS
62
4
100
AcDbLine
10
1425.640000000000
20
385.620000000000
30
0.0
11
1430.640000000000
21
380.620000000000
31
0.0
0
LINE
5
6a3
100
AcDbEntity
8
0-2
6
CONTINUOUS
62
4
100
AcDbLine
10
1431.290000000000
20
385.620000000000
30
0.0
11
1436.290000000000
21
380.620000000000
31
0.0
0
LINE
5
6a4
100
AcDbEntity
8
0-2
6
CONTINUOUS
62
4
100
AcDbLine
10
1436.950000000000
20
385.620000000000
30
0.0
11
1441.950000000000
21
380.620000000000
31
0.0
0
LINE
5
6a5
100
AcDbEntity
8
0-2
6
CONTINUOUS
62
4
100
AcDbLine
10
1442.610000000000
20
385.620000000000
30
0.0
11
1447.610000000000
21
380.620000000000
31
0.0
0
LINE
5
6a6
100
AcDbEntity
8
0-2
6
CONTINUOUS
62
4
100
AcDbLine
10
1448.260000000000
20
385.620000000000
30
0.0
11
1453.260000000000
21
380.620000000000
31
0.0
0
LINE
5
6a7
100
AcDbEntity
8
0-2
6
CONTINUOUS
62
4
100
AcDbLine
10
1390.940000000000
20
404.770000000000
30
0.0
11
1394.470000000000
21
408.310000000000
31
0.0
0
LINE
5
6a8
100
AcDbEntity
8
0-2
6
CONTINUOUS
62
4
100
AcDbLine
10
1388.210000000000
20
407.700000000000
30
0.0
11
1391.750000000000
21
411.240000000000
31
0.0
0
LINE
5
6a9
100
AcDbEntity
8
0-2
6
CONTINUOUS
62
4
100
AcDbLine
10
1385.490000000000
20
410.630000000000
30
0.0
11
1389.020000000000
21
414.170000000000
31
0.0
0
LINE
5
6aa
100
AcDbEntity
8
0-2
6
CONTINUOUS
62
4
100
AcDbLine
10
1382.760000000000
20
413.560000000000
30
0.0
11
1386.300000000000
21
417.100000000000
31
0.0
0
LINE
5
6ab
100
AcDbEntity
8
0-2
6
CONTINUOUS
62
4
100
AcDbLine
10
1380.030000000000
20
416.490000000000
30
0.0
11
1383.570000000000
21
420.030000000000
31
0.0
0
LINE
5
6ac
100
AcDbEntity
8
0-2
6
CONTINUOUS
62
4
100
AcDbLine
10
1377.310000000000
20
419.420000000000
30
0.0
11
1380.850000000000
21
422.960000000000
31
0.0
0
LINE
5
6ad
100
AcDbEntity
8
0-2
6
CONTINUOUS
62
4
100
AcDbLine
10
1374.580000000000
20
422.360000000000
30
0.0
11
1378.120000000000
21
425.890000000000
31
0.0
0
POLYLINE
5
6ae
100
AcDbEntity
8
0-2
6
CONTINUOUS
62
  4
100
AcDb2dPolyline
66
1
10
0.0
20
0.0
30
0.0
70
0
0
VERTEX
5
6af
100
AcDbEntity
8
0-2
6
CONTINUOUS
62
  4
100
AcDbVertex
100
AcDb2dVertex
10
1371.860000000000
20
425.290000000000
30
0.0
0
VERTEX
5
6b0
100
AcDbEntity
8
0-2
6
CONTINUOUS
62
  4
100
AcDbVertex
100
AcDb2dVertex
10
1371.950000000000
20
425.380000000000
30
0.0
0
VERTEX
5
6b1
100
AcDbEntity
8
0-2
6
CONTINUOUS
62
  4
100
AcDbVertex
100
AcDb2dVertex
10
1375.400000000000
20
428.820000000000
30
0.0
0
SEQEND
5
6b2
100
AcDbEntity
8
0-2
0
POLYLINE
5
6b3
100
AcDbEntity
8
0-2
6
CONTINUOUS
62
  4
100
AcDb2dPolyline
66
1
10
0.0
20
0.0
30
0.0
70
0
0
VERTEX
5
6b4
100
AcDbEntity
8
0-2
6
CONTINUOUS
62
  4
100
AcDbVertex
100
AcDb2dVertex
10
1369.130000000000
20
428.220000000000
30
0.0
0
VERTEX
5
6b5
100
AcDbEntity
8
0-2
6
CONTINUOUS
62
  4
100
AcDbVertex
100
AcDb2dVertex
10
1369.220000000000
20
428.310000000000
30
0.0
0
VERTEX
5
6b6
100
AcDbEntity
8
0-2
6
CONTINUOUS
62
  4
100
AcDbVertex
100
AcDb2dVertex
10
1372.670000000000
20
431.760000000000
30
0.0
0
SEQEND
5
6b7
100
AcDbEntity
8
0-2
0
POLYLINE
5
6b8
100
AcDbEntity
8
0-2
6
CONTINUOUS
62
  4
100
AcDb2dPolyline
66
1
10
0.0
20
0.0
30
0.0
70
0
0
VERTEX
5
6b9
100
AcDbEntity
8
0-2
6
CONTINUOUS
62
  4
100
AcDbVertex
100
AcDb2dVertex
10
1366.410000000000
20
431.150000000000
30
0.0
0
VERTEX
5
6ba
100
AcDbEntity
8
0-2
6
CONTINUOUS
62
  4
100
AcDbVertex
100
AcDb2dVertex
10
1366.500000000000
20
431.240000000000
30
0.0
0
VERTEX
5
6bb
100
AcDbEntity
8
0-2
6
CONTINUOUS
62
  4
100
AcDbVertex
100
AcDb2dVertex
10
1369.940000000000
20
434.690000000000
30
0.0
0
SEQEND
5
6bc
100
AcDbEntity
8
0-2
0
POLYLINE
5
6bd
100
AcDbEntity
8
0-2
6
CONTINUOUS
62
  4
100
AcDb2dPolyline
66
1
10
0.0
20
0.0
30
0.0
70
0
0
VERTEX
5
6be
100
AcDbEntity
8
0-2
6
CONTINUOUS
62
  4
100
AcDbVertex
100
AcDb2dVertex
10
1363.680000000000
20
434.080000000000
30
0.0
0
VERTEX
5
6bf
100
AcDbEntity
8
0-2
6
CONTINUOUS
62
  4
100
AcDbVertex
100
AcDb2dVertex
10
1363.770000000000
20
434.170000000000
30
0.0
0
VERTEX
5
6c0
100
AcDbEntity
8
0-2
6
CONTINUOUS
62
  4
100
AcDbVertex
100
AcDb2dVertex
10
1367.220000000000
20
437.620000000000
30
0.0
0
SEQEND
5
6c1
100
AcDbEntity
8
0-2
0
LINE
5
6c2
100
AcDbEntity
8
0-2
6
CONTINUOUS
62
4
100
AcDbLine
10
1360.950000000000
20
437.010000000000
30
0.0
11
1364.490000000000
21
440.550000000000
31
0.0
0
LINE
5
6c3
100
AcDbEntity
8
0-2
6
CONTINUOUS
62
4
100
AcDbLine
10
1358.230000000000
20
439.940000000000
30
0.0
11
1361.770000000000
21
443.480000000000
31
0.0
0
LINE
5
6c4
100
AcDbEntity
8
0-2
6
CONTINUOUS
62
4
100
AcDbLine
10
1355.500000000000
20
442.870000000000
30
0.0
11
1359.040000000000
21
446.410000000000
31
0.0
0
LINE
5
6c5
100
AcDbEntity
8
0-2
6
CONTINUOUS
62
4
100
AcDbLine
10
1352.780000000000
20
445.800000000000
30
0.0
11
1356.320000000000
21
449.340000000000
31
0.0
0
LINE
5
6c6
100
AcDbEntity
8
0-2
6
CONTINUOUS
62
4
100
AcDbLine
10
1345.530000000000
20
455.530000000000
30
0.0
11
1348.140000000000
21
458.140000000000
31
0.0
0
LINE
5
6c7
100
AcDbEntity
8
0-2
6
CONTINUOUS
62
4
100
AcDbLine
10
1347.970000000000
20
452.310000000000
30
0.0
11
1350.860000000000
21
455.200000000000
31
0.0
0
LINE
5
6c8
100
AcDbEntity
8
0-2
6
CONTINUOUS
62
4
100
AcDbLine
10
1350.420000000000
20
449.100000000000
30
0.0
11
1353.590000000000
21
452.270000000000
31
0.0
0
LINE
5
6c9
100
AcDbEntity
8
0-2
6
CONTINUOUS
62
4
100
AcDbLine
10
1343.090000000000
20
458.740000000000
30
0.0
11
1345.410000000000
21
461.070000000000
31
0.0
0
LINE
5
6ca
100
AcDbEntity
8
0-2
6
CONTINUOUS
62
4
100
AcDbLine
10
1340.650000000000
20
461.960000000000
30
0.0
11
1342.690000000000
21
464.000000000000
31
0.0
0
LINE
5
6cb
100
AcDbEntity
8
0-2
6
CONTINUOUS
62
4
100
AcDbLine
10
1338.210000000000
20
465.170000000000
30
0.0
11
1339.960000000000
21
466.930000000000
31
0.0
0
LINE
5
6cc
100
AcDbEntity
8
0-2
6
CONTINUOUS
62
4
100
AcDbLine
10
1335.760000000000
20
468.390000000000
30
0.0
11
1337.240000000000
21
469.860000000000
31
0.0
0
LINE
5
6cd
100
AcDbEntity
8
0-2
6
CONTINUOUS
62
4
100
AcDbLine
10
1333.320000000000
20
471.600000000000
30
0.0
11
1334.510000000000
21
472.790000000000
31
0.0
0
LINE
5
6ce
100
AcDbEntity
8
0-2
6
CONTINUOUS
62
4
100
AcDbLine
10
1329.980000000000
20
475.620000000000
30
0.0
11
1357.100000000000
21
448.500000000000
31
0.0
0
LINE
5
6cf
100
AcDbEntity
8
0-2
6
CONTINUOUS
62
4
100
AcDbLine
10
1453.920000000000
20
385.620000000000
30
0.0
11
1458.920000000000
21
380.620000000000
31
0.0
0
LINE
5
6d0
100
AcDbEntity
8
0-2
6
CONTINUOUS
62
7
100
AcDbLine
10
1462.310000000000
20
386.620000000000
30
0.0
11
1411.320000000000
21
386.620000000000
31
0.0
0
LINE
5
6d1
100
AcDbEntity
8
0-2
6
CONTINUOUS
62
7
100
AcDbLine
10
1462.310000000000
20
385.620000000000
30
0.0
11
1411.320000000000
21
385.620000000000
31
0.0
0
LINE
5
6d2
100
AcDbEntity
8
0-2
6
CONTINUOUS
62
4
100
AcDbLine
10
1462.310000000000
20
380.620000000000
30
0.0
11
1411.320000000000
21
380.620000000000
31
0.0
0
LINE
5
6d3
100
AcDbEntity
8
0-2
6
CONTINUOUS
62
4
100
AcDbLine
10
1457.300000000000
20
380.620000000000
30
0.0
11
1462.310000000000
21
385.630000000000
31
0.0
0
LINE
5
6d4
100
AcDbEntity
8
0-2
6
CONTINUOUS
62
4
100
AcDbLine
10
1459.580000000000
20
385.620000000000
30
0.0
11
1462.310000000000
21
382.880000000000
31
0.0
0
LINE
5
6d5
100
AcDbEntity
8
0-2
6
CONTINUOUS
62
7
100
AcDbLine
10
613.310000000000
20
386.620000000000
30
0.0
11
613.310000000000
21
391.270000000000
31
0.0
0
LINE
5
6d6
100
AcDbEntity
8
0-2
6
CONTINUOUS
62
7
100
AcDbLine
10
614.310000000000
20
386.620000000000
30
0.0
11
614.310000000000
21
391.270000000000
31
0.0
0
LINE
5
6d7
100
AcDbEntity
8
0-2
6
CONTINUOUS
62
4
100
AcDbLine
10
619.710000000000
20
386.620000000000
30
0.0
11
619.710000000000
21
389.310000000000
31
0.0
0
LINE
5
6d8
100
AcDbEntity
8
0-2
6
CONTINUOUS
62
4
100
AcDbLine
10
614.290000000000
20
380.650000000000
30
0.0
11
619.680000000000
21
386.040000000000
31
0.0
0
LINE
5
6d9
100
AcDbEntity
8
0-2
6
CONTINUOUS
62
4
100
AcDbLine
10
608.610000000000
20
380.620000000000
30
0.0
11
613.610000000000
21
385.620000000000
31
0.0
0
LINE
5
6da
100
AcDbEntity
8
0-2
6
CONTINUOUS
62
4
100
AcDbLine
10
614.710000000000
20
386.720000000000
30
0.0
11
651.690000000000
21
423.710000000000
31
0.0
0
LINE
5
6db
100
AcDbEntity
8
0-2
6
CONTINUOUS
62
4
100
AcDbLine
10
602.950000000000
20
380.620000000000
30
0.0
11
607.950000000000
21
385.620000000000
31
0.0
0
LINE
5
6dc
100
AcDbEntity
8
0-2
6
CONTINUOUS
62
4
100
AcDbLine
10
597.290000000000
20
380.620000000000
30
0.0
11
602.290000000000
21
385.620000000000
31
0.0
0
LINE
5
6dd
100
AcDbEntity
8
0-2
6
CONTINUOUS
62
4
100
AcDbLine
10
591.640000000000
20
380.620000000000
30
0.0
11
596.640000000000
21
385.620000000000
31
0.0
0
LINE
5
6de
100
AcDbEntity
8
0-2
6
CONTINUOUS
62
4
100
AcDbLine
10
585.980000000000
20
380.620000000000
30
0.0
11
590.980000000000
21
385.620000000000
31
0.0
0
LINE
5
6df
100
AcDbEntity
8
0-2
6
CONTINUOUS
62
4
100
AcDbLine
10
580.320000000000
20
380.620000000000
30
0.0
11
585.320000000000
21
385.620000000000
31
0.0
0
LINE
5
6e0
100
AcDbEntity
8
0-2
6
CONTINUOUS
62
4
100
AcDbLine
10
574.670000000000
20
380.620000000000
30
0.0
11
579.670000000000
21
385.620000000000
31
0.0
0
LINE
5
6e1
100
AcDbEntity
8
0-2
6
CONTINUOUS
62
4
100
AcDbLine
10
569.010000000000
20
380.620000000000
30
0.0
11
574.010000000000
21
385.620000000000
31
0.0
0
LINE
5
6e2
100
AcDbEntity
8
0-2
6
CONTINUOUS
62
4
100
AcDbLine
10
563.350000000000
20
380.620000000000
30
0.0
11
568.350000000000
21
385.620000000000
31
0.0
0
LINE
5
6e3
100
AcDbEntity
8
0-2
6
CONTINUOUS
62
4
100
AcDbLine
10
565.630000000000
20
385.620000000000
30
0.0
11
570.630000000000
21
380.620000000000
31
0.0
0
LINE
5
6e4
100
AcDbEntity
8
0-2
6
CONTINUOUS
62
4
100
AcDbLine
10
571.290000000000
20
385.620000000000
30
0.0
11
576.290000000000
21
380.620000000000
31
0.0
0
LINE
5
6e5
100
AcDbEntity
8
0-2
6
CONTINUOUS
62
4
100
AcDbLine
10
576.950000000000
20
385.620000000000
30
0.0
11
581.950000000000
21
380.620000000000
31
0.0
0
LINE
5
6e6
100
AcDbEntity
8
0-2
6
CONTINUOUS
62
4
100
AcDbLine
10
582.600000000000
20
385.620000000000
30
0.0
11
587.600000000000
21
380.620000000000
31
0.0
0
LINE
5
6e7
100
AcDbEntity
8
0-2
6
CONTINUOUS
62
4
100
AcDbLine
10
588.260000000000
20
385.620000000000
30
0.0
11
593.260000000000
21
380.620000000000
31
0.0
0
LINE
5
6e8
100
AcDbEntity
8
0-2
6
CONTINUOUS
62
4
100
AcDbLine
10
593.920000000000
20
385.620000000000
30
0.0
11
598.920000000000
21
380.620000000000
31
0.0
0
LINE
5
6e9
100
AcDbEntity
8
0-2
6
CONTINUOUS
62
4
100
AcDbLine
10
599.570000000000
20
385.620000000000
30
0.0
11
604.570000000000
21
380.620000000000
31
0.0
0
LINE
5
6ea
100
AcDbEntity
8
0-2
6
CONTINUOUS
62
4
100
AcDbLine
10
605.230000000000
20
385.620000000000
30
0.0
11
610.230000000000
21
380.620000000000
31
0.0
0
LINE
5
6eb
100
AcDbEntity
8
0-2
6
CONTINUOUS
62
4
100
AcDbLine
10
610.890000000000
20
385.620000000000
30
0.0
11
615.590000000000
21
380.920000000000
31
0.0
0
LINE
5
6ec
100
AcDbEntity
8
0-2
6
CONTINUOUS
62
4
100
AcDbLine
10
614.710000000000
20
387.450000000000
30
0.0
11
618.770000000000
21
383.400000000000
31
0.0
0
LINE
5
6ed
100
AcDbEntity
8
0-2
6
CONTINUOUS
62
4
100
AcDbLine
10
615.590000000000
20
392.230000000000
30
0.0
11
619.710000000000
21
388.110000000000
31
0.0
0
LINE
5
6ee
100
AcDbEntity
8
0-2
6
CONTINUOUS
62
4
100
AcDbLine
10
618.320000000000
20
395.160000000000
30
0.0
11
621.860000000000
21
391.620000000000
31
0.0
0
LINE
5
6ef
100
AcDbEntity
8
0-2
6
CONTINUOUS
62
4
100
AcDbLine
10
621.050000000000
20
398.090000000000
30
0.0
11
624.580000000000
21
394.550000000000
31
0.0
0
LINE
5
6f0
100
AcDbEntity
8
0-2
6
CONTINUOUS
62
4
100
AcDbLine
10
678.590000000000
20
452.620000000000
30
0.0
11
619.710000000000
21
389.310000000000
31
0.0
0
LINE
5
6f1
100
AcDbEntity
8
0-2
6
CONTINUOUS
62
4
100
AcDbLine
10
659.030000000000
20
439.370000000000
30
0.0
11
662.810000000000
21
435.590000000000
31
0.0
0
LINE
5
6f2
100
AcDbEntity
8
0-2
6
CONTINUOUS
62
4
100
AcDbLine
10
661.760000000000
20
442.300000000000
30
0.0
11
665.540000000000
21
438.520000000000
31
0.0
0
LINE
5
6f3
100
AcDbEntity
8
0-2
6
CONTINUOUS
62
4
100
AcDbLine
10
664.480000000000
20
445.230000000000
30
0.0
11
668.260000000000
21
441.450000000000
31
0.0
0
LINE
5
6f4
100
AcDbEntity
8
0-2
6
CONTINUOUS
62
4
100
AcDbLine
10
667.210000000000
20
448.160000000000
30
0.0
11
670.990000000000
21
444.380000000000
31
0.0
0
LINE
5
6f5
100
AcDbEntity
8
0-2
6
CONTINUOUS
62
4
100
AcDbLine
10
669.930000000000
20
451.090000000000
30
0.0
11
673.710000000000
21
447.310000000000
31
0.0
0
LINE
5
6f6
100
AcDbEntity
8
0-2
6
CONTINUOUS
62
4
100
AcDbLine
10
672.660000000000
20
454.020000000000
30
0.0
11
676.440000000000
21
450.240000000000
31
0.0
0
LINE
5
6f7
100
AcDbEntity
8
0-2
6
CONTINUOUS
62
4
100
AcDbLine
10
678.110000000000
20
459.880000000000
30
0.0
11
681.890000000000
21
456.110000000000
31
0.0
0
LINE
5
6f8
100
AcDbEntity
8
0-2
6
CONTINUOUS
62
4
100
AcDbLine
10
675.390000000000
20
456.950000000000
30
0.0
11
679.160000000000
21
453.170000000000
31
0.0
0
LINE
5
6f9
100
AcDbEntity
8
0-2
6
CONTINUOUS
62
4
100
AcDbLine
10
680.840000000000
20
462.820000000000
30
0.0
11
684.620000000000
21
459.040000000000
31
0.0
0
LINE
5
6fa
100
AcDbEntity
8
0-2
6
CONTINUOUS
62
4
100
AcDbLine
10
683.560000000000
20
465.750000000000
30
0.0
11
687.340000000000
21
461.970000000000
31
0.0
0
LINE
5
6fb
100
AcDbEntity
8
0-2
6
CONTINUOUS
62
4
100
AcDbLine
10
686.290000000000
20
468.680000000000
30
0.0
11
690.070000000000
21
464.900000000000
31
0.0
0
LINE
5
6fc
100
AcDbEntity
8
0-2
6
CONTINUOUS
62
4
100
AcDbLine
10
689.010000000000
20
471.610000000000
30
0.0
11
692.790000000000
21
467.830000000000
31
0.0
0
LINE
5
6fd
100
AcDbEntity
8
0-2
6
CONTINUOUS
62
4
100
AcDbLine
10
691.740000000000
20
474.540000000000
30
0.0
11
695.520000000000
21
470.760000000000
31
0.0
0
LINE
5
6fe
100
AcDbEntity
8
0-2
6
CONTINUOUS
62
4
100
AcDbLine
10
613.700000000000
20
380.620000000000
30
0.0
11
562.310000000000
21
380.620000000000
31
0.0
0
LINE
5
6ff
100
AcDbEntity
8
0-2
6
CONTINUOUS
62
4
100
AcDbLine
10
562.310000000000
20
383.280000000000
30
0.0
11
564.980000000000
21
380.620000000000
31
0.0
0
LINE
5
700
100
AcDbEntity
8
0-2
6
CONTINUOUS
62
4
100
AcDbLine
10
562.310000000000
20
385.230000000000
30
0.0
11
562.700000000000
21
385.620000000000
31
0.0
0
LINE
5
701
100
AcDbEntity
8
0-2
6
CONTINUOUS
62
4
100
AcDbLine
10
1296.250000000000
20
471.620000000000
30
0.0
11
1219.710000000000
21
389.310000000000
31
0.0
0
LINE
5
702
100
AcDbEntity
8
0-2
6
CONTINUOUS
62
4
100
AcDbLine
10
1229.330000000000
20
407.000000000000
30
0.0
11
1297.950000000000
21
475.620000000000
31
0.0
0
LINE
5
703
100
AcDbEntity
8
0-2
6
CONTINUOUS
62
4
100
AcDbLine
10
1296.250000000000
20
475.620000000000
30
0.0
11
1300.250000000000
21
471.620000000000
31
0.0
0
LINE
5
704
100
AcDbEntity
8
0-2
6
CONTINUOUS
62
4
100
AcDbLine
10
1301.910000000000
20
475.620000000000
30
0.0
11
1305.910000000000
21
471.620000000000
31
0.0
0
LINE
5
705
100
AcDbEntity
8
0-2
6
CONTINUOUS
62
4
100
AcDbLine
10
1307.570000000000
20
475.620000000000
30
0.0
11
1311.570000000000
21
471.620000000000
31
0.0
0
LINE
5
706
100
AcDbEntity
8
0-2
6
CONTINUOUS
62
4
100
AcDbLine
10
1329.380000000000
20
473.320000000000
30
0.0
11
1331.660000000000
21
475.600000000000
31
0.0
0
LINE
5
707
100
AcDbEntity
8
0-2
6
CONTINUOUS
62
4
100
AcDbLine
10
1324.380000000000
20
473.320000000000
30
0.0
11
1326.660000000000
21
475.600000000000
31
0.0
0
LINE
5
708
100
AcDbEntity
8
0-2
6
CONTINUOUS
62
4
100
AcDbLine
10
1319.380000000000
20
473.320000000000
30
0.0
11
1321.660000000000
21
475.600000000000
31
0.0
0
LINE
5
709
100
AcDbEntity
8
0-2
6
CONTINUOUS
62
4
100
AcDbLine
10
1312.910000000000
20
471.850000000000
30
0.0
11
1316.660000000000
21
475.600000000000
31
0.0
0
LINE
5
70a
100
AcDbEntity
8
0-2
6
CONTINUOUS
62
4
100
AcDbLine
10
999.160000000000
20
471.570000000000
30
0.0
11
1012.480000000000
21
480.560000000000
31
0.0
0
LINE
5
70b
100
AcDbEntity
8
0-2
6
CONTINUOUS
62
4
100
AcDbLine
10
928.940000000000
20
407.000000000000
30
0.0
11
997.550000000000
21
475.620000000000
31
0.0
0
LINE
5
70c
100
AcDbEntity
8
0-2
6
CONTINUOUS
62
4
100
AcDbLine
10
995.850000000000
20
475.620000000000
30
0.0
11
999.600000000000
21
471.870000000000
31
0.0
0
LINE
5
70d
100
AcDbEntity
8
0-2
6
CONTINUOUS
62
4
100
AcDbLine
10
1000.100000000000
20
477.030000000000
30
0.0
11
1002.980000000000
21
474.150000000000
31
0.0
0
LINE
5
70e
100
AcDbEntity
8
0-2
6
CONTINUOUS
62
4
100
AcDbLine
10
1003.480000000000
20
479.310000000000
30
0.0
11
1006.360000000000
21
476.430000000000
31
0.0
0
LINE
5
70f
100
AcDbEntity
8
0-2
6
CONTINUOUS
62
4
100
AcDbLine
10
1006.860000000000
20
481.590000000000
30
0.0
11
1009.740000000000
21
478.700000000000
31
0.0
0
LINE
5
710
100
AcDbEntity
8
0-2
6
CONTINUOUS
62
7
100
AcDbLine
10
1026.370000000000
20
475.790000000000
30
0.0
11
1014.420000000000
21
483.850000000000
31
0.0
0
LINE
5
711
100
AcDbEntity
8
0-2
6
CONTINUOUS
62
4
100
AcDbLine
10
1013.480000000000
20
479.650000000000
30
0.0
11
1016.370000000000
21
482.540000000000
31
0.0
0
LINE
5
712
100
AcDbEntity
8
0-2
6
CONTINUOUS
62
4
100
AcDbLine
10
1016.860000000000
20
477.370000000000
30
0.0
11
1019.750000000000
21
480.260000000000
31
0.0
0
LINE
5
713
100
AcDbEntity
8
0-2
6
CONTINUOUS
62
4
100
AcDbLine
10
1020.240000000000
20
475.090000000000
30
0.0
11
1023.130000000000
21
477.980000000000
31
0.0
0
LINE
5
714
100
AcDbEntity
8
0-2
6
CONTINUOUS
62
4
100
AcDbLine
10
1024.120000000000
20
473.320000000000
30
0.0
11
1026.510000000000
21
475.700000000000
31
0.0
0
LINE
5
715
100
AcDbEntity
8
0-2
6
CONTINUOUS
62
4
100
AcDbLine
10
735.760000000000
20
468.390000000000
30
0.0
11
737.240000000000
21
469.860000000000
31
0.0
0
LINE
5
716
100
AcDbEntity
8
0-2
6
CONTINUOUS
62
4
100
AcDbLine
10
733.320000000000
20
471.600000000000
30
0.0
11
734.510000000000
21
472.790000000000
31
0.0
0
LINE
5
717
100
AcDbEntity
8
0-2
6
CONTINUOUS
62
4
100
AcDbLine
10
738.210000000000
20
465.170000000000
30
0.0
11
739.960000000000
21
466.930000000000
31
0.0
0
LINE
5
718
100
AcDbEntity
8
0-2
6
CONTINUOUS
62
4
100
AcDbLine
10
740.650000000000
20
461.960000000000
30
0.0
11
742.690000000000
21
464.000000000000
31
0.0
0
LINE
5
719
100
AcDbEntity
8
0-2
6
CONTINUOUS
62
4
100
AcDbLine
10
743.090000000000
20
458.740000000000
30
0.0
11
745.410000000000
21
461.070000000000
31
0.0
0
LINE
5
71a
100
AcDbEntity
8
0-2
6
CONTINUOUS
62
4
100
AcDbLine
10
745.530000000000
20
455.530000000000
30
0.0
11
748.140000000000
21
458.140000000000
31
0.0
0
LINE
5
71b
100
AcDbEntity
8
0-2
6
CONTINUOUS
62
4
100
AcDbLine
10
747.970000000000
20
452.310000000000
30
0.0
11
750.860000000000
21
455.200000000000
31
0.0
0
LINE
5
71c
100
AcDbEntity
8
0-2
6
CONTINUOUS
62
4
100
AcDbLine
10
750.420000000000
20
449.100000000000
30
0.0
11
753.590000000000
21
452.270000000000
31
0.0
0
LINE
5
71d
100
AcDbEntity
8
0-2
6
CONTINUOUS
62
4
100
AcDbLine
10
752.860000000000
20
445.880000000000
30
0.0
11
756.320000000000
21
449.340000000000
31
0.0
0
LINE
5
71e
100
AcDbEntity
8
0-2
6
CONTINUOUS
62
4
100
AcDbLine
10
755.500000000000
20
442.870000000000
30
0.0
11
759.040000000000
21
446.410000000000
31
0.0
0
LINE
5
71f
100
AcDbEntity
8
0-2
6
CONTINUOUS
62
4
100
AcDbLine
10
758.230000000000
20
439.940000000000
30
0.0
11
761.770000000000
21
443.480000000000
31
0.0
0
LINE
5
720
100
AcDbEntity
8
0-2
6
CONTINUOUS
62
4
100
AcDbLine
10
760.950000000000
20
437.010000000000
30
0.0
11
764.490000000000
21
440.550000000000
31
0.0
0
LINE
5
721
100
AcDbEntity
8
0-2
6
CONTINUOUS
62
4
100
AcDbLine
10
763.680000000000
20
434.080000000000
30
0.0
11
767.220000000000
21
437.620000000000
31
0.0
0
LINE
5
722
100
AcDbEntity
8
0-2
6
CONTINUOUS
62
4
100
AcDbLine
10
766.410000000000
20
431.150000000000
30
0.0
11
769.940000000000
21
434.690000000000
31
0.0
0
LINE
5
723
100
AcDbEntity
8
0-2
6
CONTINUOUS
62
4
100
AcDbLine
10
749.070000000000
20
450.880000000000
30
0.0
11
810.310000000000
21
389.630000000000
31
0.0
0
LINE
5
724
100
AcDbEntity
8
0-2
6
CONTINUOUS
62
4
100
AcDbLine
10
623.770000000000
20
401.020000000000
30
0.0
11
627.310000000000
21
397.480000000000
31
0.0
0
LINE
5
725
100
AcDbEntity
8
0-2
6
CONTINUOUS
62
4
100
AcDbLine
10
626.500000000000
20
403.950000000000
30
0.0
11
630.030000000000
21
400.410000000000
31
0.0
0
LINE
5
726
100
AcDbEntity
8
0-2
6
CONTINUOUS
62
4
100
AcDbLine
10
629.220000000000
20
406.880000000000
30
0.0
11
632.760000000000
21
403.340000000000
31
0.0
0
LINE
5
727
100
AcDbEntity
8
0-2
6
CONTINUOUS
62
4
100
AcDbLine
10
631.950000000000
20
409.810000000000
30
0.0
11
635.490000000000
21
406.280000000000
31
0.0
0
LINE
5
728
100
AcDbEntity
8
0-2
6
CONTINUOUS
62
4
100
AcDbLine
10
634.670000000000
20
412.740000000000
30
0.0
11
638.210000000000
21
409.210000000000
31
0.0
0
LINE
5
729
100
AcDbEntity
8
0-2
6
CONTINUOUS
62
4
100
AcDbLine
10
637.400000000000
20
415.680000000000
30
0.0
11
640.940000000000
21
412.140000000000
31
0.0
0
LINE
5
72a
100
AcDbEntity
8
0-2
6
CONTINUOUS
62
4
100
AcDbLine
10
640.130000000000
20
418.610000000000
30
0.0
11
643.660000000000
21
415.070000000000
31
0.0
0
LINE
5
72b
100
AcDbEntity
8
0-2
6
CONTINUOUS
62
4
100
AcDbLine
10
642.850000000000
20
421.540000000000
30
0.0
11
646.390000000000
21
418.000000000000
31
0.0
0
LINE
5
72c
100
AcDbEntity
8
0-2
6
CONTINUOUS
62
4
100
AcDbLine
10
645.580000000000
20
424.470000000000
30
0.0
11
649.110000000000
21
420.930000000000
31
0.0
0
LINE
5
72d
100
AcDbEntity
8
0-2
6
CONTINUOUS
62
4
100
AcDbLine
10
648.300000000000
20
427.400000000000
30
0.0
11
651.840000000000
21
423.860000000000
31
0.0
0
LINE
5
72e
100
AcDbEntity
8
0-2
6
CONTINUOUS
62
4
100
AcDbLine
10
651.030000000000
20
430.330000000000
30
0.0
11
654.570000000000
21
426.790000000000
31
0.0
0
LINE
5
72f
100
AcDbEntity
8
0-2
6
CONTINUOUS
62
4
100
AcDbLine
10
653.750000000000
20
433.260000000000
30
0.0
11
657.290000000000
21
429.720000000000
31
0.0
0
LINE
5
730
100
AcDbEntity
8
0-2
6
CONTINUOUS
62
4
100
AcDbLine
10
656.480000000000
20
436.190000000000
30
0.0
11
660.020000000000
21
432.660000000000
31
0.0
0
LINE
5
731
100
AcDbEntity
8
0-2
6
CONTINUOUS
62
4
100
AcDbLine
10
696.250000000000
20
475.620000000000
30
0.0
11
700.250000000000
21
471.620000000000
31
0.0
0
LINE
5
732
100
AcDbEntity
8
0-2
6
CONTINUOUS
62
4
100
AcDbLine
10
701.910000000000
20
475.620000000000
30
0.0
11
705.910000000000
21
471.620000000000
31
0.0
0
LINE
5
733
100
AcDbEntity
8
0-2
6
CONTINUOUS
62
4
100
AcDbLine
10
707.570000000000
20
475.620000000000
30
0.0
11
711.570000000000
21
471.620000000000
31
0.0
0
LINE
5
734
100
AcDbEntity
8
0-2
6
CONTINUOUS
62
4
100
AcDbLine
10
729.380000000000
20
473.320000000000
30
0.0
11
731.660000000000
21
475.600000000000
31
0.0
0
LINE
5
735
100
AcDbEntity
8
0-2
6
CONTINUOUS
62
4
100
AcDbLine
10
724.380000000000
20
473.320000000000
30
0.0
11
726.660000000000
21
475.600000000000
31
0.0
0
LINE
5
736
100
AcDbEntity
8
0-2
6
CONTINUOUS
62
4
100
AcDbLine
10
719.380000000000
20
473.320000000000
30
0.0
11
721.660000000000
21
475.600000000000
31
0.0
0
LINE
5
737
100
AcDbEntity
8
0-2
6
CONTINUOUS
62
4
100
AcDbLine
10
712.910000000000
20
471.850000000000
30
0.0
11
716.660000000000
21
475.600000000000
31
0.0
0
LINE
5
738
100
AcDbEntity
8
0-2
6
CONTINUOUS
62
4
100
AcDbLine
10
622.760000000000
20
400.370000000000
30
0.0
11
698.020000000000
21
475.620000000000
31
0.0
0
LINE
5
739
100
AcDbEntity
8
0-2
6
CONTINUOUS
62
4
100
AcDbLine
10
729.980000000000
20
475.620000000000
30
0.0
11
757.100000000000
21
448.500000000000
31
0.0
0
LINE
5
73a
100
AcDbEntity
8
0-2
6
CONTINUOUS
62
7
100
AcDbLine
10
1026.930000000000
20
475.620000000000
30
0.0
11
1031.450000000000
21
475.620000000000
31
0.0
0
LINE
5
73b
100
AcDbEntity
8
0-2
6
CONTINUOUS
62
7
100
AcDbLine
10
704.470000000000
20
435.820000000000
30
0.0
11
704.470000000000
21
434.820000000000
31
0.0
0
LINE
5
73c
100
AcDbEntity
8
0-2
6
CONTINUOUS
62
7
100
AcDbLine
10
713.460000000000
20
461.820000000000
30
0.0
11
712.470000000000
21
461.820000000000
31
0.0
0
LINE
5
73d
100
AcDbEntity
8
0-2
6
CONTINUOUS
62
7
100
AcDbLine
10
713.460000000000
20
448.820000000000
30
0.0
11
712.470000000000
21
448.820000000000
31
0.0
0
LINE
5
73e
100
AcDbEntity
8
0-2
6
CONTINUOUS
62
7
100
AcDbLine
10
711.570000000000
20
488.390000000000
30
0.0
11
711.800000000000
21
488.360000000000
31
0.0
0
LINE
5
73f
100
AcDbEntity
8
0-2
6
CONTINUOUS
62
7
100
AcDbLine
10
1012.310000000000
20
486.710000000000
30
0.0
11
1012.310000000000
21
425.300000000000
31
0.0
0
LINE
5
740
100
AcDbEntity
8
0-2
6
CONTINUOUS
62
7
100
AcDbLine
10
1011.310000000000
20
460.800000000000
30
0.0
11
1012.310000000000
21
460.800000000000
31
0.0
0
LINE
5
741
100
AcDbEntity
8
0-2
6
CONTINUOUS
62
7
100
AcDbLine
10
1011.310000000000
20
449.800000000000
30
0.0
11
1012.310000000000
21
449.800000000000
31
0.0
0
LINE
5
742
100
AcDbEntity
8
0-2
6
CONTINUOUS
62
7
100
AcDbLine
10
1013.310000000000
20
486.710000000000
30
0.0
11
1013.310000000000
21
425.300000000000
31
0.0
0
LINE
5
743
100
AcDbEntity
8
0-2
6
CONTINUOUS
62
7
100
AcDbLine
10
1013.310000000000
20
460.800000000000
30
0.0
11
1012.310000000000
21
460.800000000000
31
0.0
0
LINE
5
744
100
AcDbEntity
8
0-2
6
CONTINUOUS
62
7
100
AcDbLine
10
1013.310000000000
20
449.800000000000
30
0.0
11
1012.310000000000
21
449.800000000000
31
0.0
0
LINE
5
745
100
AcDbEntity
8
0-2
6
CONTINUOUS
62
7
100
AcDbLine
10
1013.310000000000
20
425.300000000000
30
0.0
11
1012.310000000000
21
425.300000000000
31
0.0
0
LINE
5
746
100
AcDbEntity
8
0-2
6
CONTINUOUS
62
7
100
AcDbLine
10
1012.280000000000
20
500.240000000000
30
0.0
11
1011.400000000000
21
500.710000000000
31
0.0
0
LINE
5
747
100
AcDbEntity
8
0-2
6
CONTINUOUS
62
7
100
AcDbLine
10
1006.880000000000
20
490.080000000000
30
0.0
11
1012.280000000000
21
500.240000000000
31
0.0
0
LINE
5
748
100
AcDbEntity
8
0-2
6
CONTINUOUS
62
7
100
AcDbLine
10
1005.980000000000
20
490.510000000000
30
0.0
11
1011.400000000000
21
500.710000000000
31
0.0
0
LINE
5
749
100
AcDbEntity
8
0-2
6
CONTINUOUS
62
7
100
AcDbLine
10
1007.810000000000
20
488.710000000000
30
0.0
11
1010.310000000000
21
488.710000000000
31
0.0
0
LINE
5
74a
100
AcDbEntity
8
0-2
6
CONTINUOUS
62
7
100
AcDbLine
10
1010.310000000000
20
487.710000000000
30
0.0
11
1007.810000000000
21
487.710000000000
31
0.0
0
LINE
5
74b
100
AcDbEntity
8
0-2
6
CONTINUOUS
62
7
100
AcDbLine
10
1012.340000000000
20
500.240000000000
30
0.0
11
1013.230000000000
21
500.710000000000
31
0.0
0
LINE
5
74c
100
AcDbEntity
8
0-2
6
CONTINUOUS
62
7
100
AcDbLine
10
1017.740000000000
20
490.080000000000
30
0.0
11
1012.340000000000
21
500.240000000000
31
0.0
0
LINE
5
74d
100
AcDbEntity
8
0-2
6
CONTINUOUS
62
7
100
AcDbLine
10
1018.650000000000
20
490.510000000000
30
0.0
11
1013.230000000000
21
500.710000000000
31
0.0
0
LINE
5
74e
100
AcDbEntity
8
0-2
6
CONTINUOUS
62
7
100
AcDbLine
10
1016.810000000000
20
488.710000000000
30
0.0
11
1014.310000000000
21
488.710000000000
31
0.0
0
LINE
5
74f
100
AcDbEntity
8
0-2
6
CONTINUOUS
62
7
100
AcDbLine
10
1014.310000000000
20
487.710000000000
30
0.0
11
1016.810000000000
21
487.710000000000
31
0.0
0
LINE
5
750
100
AcDbEntity
8
0-2
6
CONTINUOUS
62
7
100
AcDbLine
10
998.910000000000
20
451.050000000000
30
0.0
11
999.660000000000
21
450.300000000000
31
0.0
0
LINE
5
751
100
AcDbEntity
8
0-2
6
CONTINUOUS
62
7
100
AcDbLine
10
999.660000000000
20
460.300000000000
30
0.0
11
998.910000000000
21
459.550000000000
31
0.0
0
LINE
5
752
100
AcDbEntity
8
0-2
6
CONTINUOUS
62
7
100
AcDbLine
10
999.660000000000
20
460.300000000000
30
0.0
11
999.660000000000
21
450.300000000000
31
0.0
0
LINE
5
753
100
AcDbEntity
8
0-2
6
CONTINUOUS
62
7
100
AcDbLine
10
998.910000000000
20
459.550000000000
30
0.0
11
998.910000000000
21
451.050000000000
31
0.0
0
LINE
5
754
100
AcDbEntity
8
0-2
6
CONTINUOUS
62
7
100
AcDbLine
10
1025.350000000000
20
447.050000000000
30
0.0
11
1025.350000000000
21
463.550000000000
31
0.0
0
LINE
5
755
100
AcDbEntity
8
0-2
6
CONTINUOUS
62
7
100
AcDbLine
10
1024.450000000000
20
465.110000000000
30
0.0
11
1025.350000000000
21
463.550000000000
31
0.0
0
LINE
5
756
100
AcDbEntity
8
0-2
6
CONTINUOUS
62
7
100
AcDbLine
10
1024.450000000000
20
445.480000000000
30
0.0
11
1025.350000000000
21
447.050000000000
31
0.0
0
LINE
5
757
100
AcDbEntity
8
0-2
6
CONTINUOUS
62
7
100
AcDbLine
10
1018.850000000000
20
450.390000000000
30
0.0
11
1024.450000000000
21
450.390000000000
31
0.0
0
LINE
5
758
100
AcDbEntity
8
0-2
6
CONTINUOUS
62
7
100
AcDbLine
10
1018.850000000000
20
460.210000000000
30
0.0
11
1024.450000000000
21
460.210000000000
31
0.0
0
LINE
5
759
100
AcDbEntity
8
0-2
6
CONTINUOUS
62
7
100
AcDbLine
10
1018.850000000000
20
445.480000000000
30
0.0
11
1024.450000000000
21
445.480000000000
31
0.0
0
POLYLINE
5
75a
100
AcDbEntity
8
0-2
6
CONTINUOUS
62
  7
100
AcDb2dPolyline
66
1
10
0.0
20
0.0
30
0.0
70
0
0
VERTEX
5
75b
100
AcDbEntity
8
0-2
6
CONTINUOUS
62
  7
100
AcDbVertex
100
AcDb2dVertex
10
1018.850000000000
20
445.480000000000
30
0.0
0
VERTEX
5
75c
100
AcDbEntity
8
0-2
6
CONTINUOUS
62
  7
100
AcDbVertex
100
AcDb2dVertex
10
1018.850000000000
20
465.110000000000
30
0.0
0
VERTEX
5
75d
100
AcDbEntity
8
0-2
6
CONTINUOUS
62
  7
100
AcDbVertex
100
AcDb2dVertex
10
1024.450000000000
20
465.110000000000
30
0.0
0
SEQEND
5
75e
100
AcDbEntity
8
0-2
0
LINE
5
75f
100
AcDbEntity
8
0-2
6
CONTINUOUS
62
7
100
AcDbLine
10
1002.310000000000
20
447.050000000000
30
0.0
11
1002.310000000000
21
463.550000000000
31
0.0
0
LINE
5
760
100
AcDbEntity
8
0-2
6
CONTINUOUS
62
7
100
AcDbLine
10
1003.210000000000
20
465.110000000000
30
0.0
11
1002.310000000000
21
463.550000000000
31
0.0
0
LINE
5
761
100
AcDbEntity
8
0-2
6
CONTINUOUS
62
7
100
AcDbLine
10
1003.210000000000
20
445.480000000000
30
0.0
11
1002.310000000000
21
447.050000000000
31
0.0
0
LINE
5
762
100
AcDbEntity
8
0-2
6
CONTINUOUS
62
7
100
AcDbLine
10
1008.810000000000
20
450.390000000000
30
0.0
11
1003.210000000000
21
450.390000000000
31
0.0
0
LINE
5
763
100
AcDbEntity
8
0-2
6
CONTINUOUS
62
7
100
AcDbLine
10
1008.810000000000
20
460.210000000000
30
0.0
11
1003.210000000000
21
460.210000000000
31
0.0
0
LINE
5
764
100
AcDbEntity
8
0-2
6
CONTINUOUS
62
7
100
AcDbLine
10
1008.810000000000
20
445.480000000000
30
0.0
11
1003.210000000000
21
445.480000000000
31
0.0
0
POLYLINE
5
765
100
AcDbEntity
8
0-2
6
CONTINUOUS
62
  7
100
AcDb2dPolyline
66
1
10
0.0
20
0.0
30
0.0
70
0
0
VERTEX
5
766
100
AcDbEntity
8
0-2
6
CONTINUOUS
62
  7
100
AcDbVertex
100
AcDb2dVertex
10
1008.810000000000
20
445.480000000000
30
0.0
0
VERTEX
5
767
100
AcDbEntity
8
0-2
6
CONTINUOUS
62
  7
100
AcDbVertex
100
AcDb2dVertex
10
1008.810000000000
20
465.110000000000
30
0.0
0
VERTEX
5
768
100
AcDbEntity
8
0-2
6
CONTINUOUS
62
  7
100
AcDbVertex
100
AcDb2dVertex
10
1003.210000000000
20
465.110000000000
30
0.0
0
SEQEND
5
769
100
AcDbEntity
8
0-2
0
LINE
5
76a
100
AcDbEntity
8
0-2
6
CONTINUOUS
62
7
100
AcDbLine
10
999.660000000000
20
460.300000000000
30
0.0
11
1002.310000000000
21
460.300000000000
31
0.0
0
LINE
5
76b
100
AcDbEntity
8
0-2
6
CONTINUOUS
62
7
100
AcDbLine
10
998.910000000000
20
459.550000000000
30
0.0
11
1002.310000000000
21
459.550000000000
31
0.0
0
LINE
5
76c
100
AcDbEntity
8
0-2
6
CONTINUOUS
62
7
100
AcDbLine
10
998.910000000000
20
451.050000000000
30
0.0
11
1002.310000000000
21
451.050000000000
31
0.0
0
LINE
5
76d
100
AcDbEntity
8
0-2
6
CONTINUOUS
62
7
100
AcDbLine
10
999.660000000000
20
450.300000000000
30
0.0
11
1002.310000000000
21
450.300000000000
31
0.0
0
LINE
5
76e
100
AcDbEntity
8
0-2
6
CONTINUOUS
62
7
100
AcDbLine
10
712.470000000000
20
484.670000000000
30
0.0
11
712.470000000000
21
479.640000000000
31
0.0
0
LINE
5
76f
100
AcDbEntity
8
0-2
6
CONTINUOUS
62
7
100
AcDbLine
10
733.570000000000
20
475.980000000000
30
0.0
11
811.060000000000
21
391.940000000000
31
0.0
0
LINE
5
770
100
AcDbEntity
8
0-2
6
CONTINUOUS
62
7
100
AcDbLine
10
810.310000000000
20
391.270000000000
30
0.0
11
732.840000000000
21
475.300000000000
31
0.0
0
LINE
5
771
100
AcDbEntity
8
0-2
6
CONTINUOUS
62
7
100
AcDbLine
10
693.100000000000
20
475.300000000000
30
0.0
11
614.310000000000
21
391.270000000000
31
0.0
0
LINE
5
772
100
AcDbEntity
8
0-2
6
CONTINUOUS
62
7
100
AcDbLine
10
613.560000000000
20
391.940000000000
30
0.0
11
692.370000000000
21
475.980000000000
31
0.0
0
LINE
5
773
100
AcDbEntity
8
0-2
6
CONTINUOUS
62
7
100
AcDbLine
10
706.840000000000
20
492.510000000000
30
0.0
11
705.830000000000
21
492.510000000000
31
0.0
0
LINE
5
774
100
AcDbEntity
8
0-2
6
CONTINUOUS
62
7
100
AcDbLine
10
697.470000000000
20
473.820000000000
30
0.0
11
697.470000000000
21
471.520000000000
31
0.0
0
LINE
5
775
100
AcDbEntity
8
0-2
6
CONTINUOUS
62
7
100
AcDbLine
10
708.670000000000
20
471.520000000000
30
0.0
11
697.470000000000
21
471.520000000000
31
0.0
0
LINE
5
776
100
AcDbEntity
8
0-2
6
CONTINUOUS
62
7
100
AcDbLine
10
697.470000000000
20
473.820000000000
30
0.0
11
708.670000000000
21
473.820000000000
31
0.0
0
LINE
5
777
100
AcDbEntity
8
0-2
6
DOT
62
7
100
AcDbLine
10
710.170000000000
20
460.820000000000
30
0.0
11
712.470000000000
21
460.820000000000
31
0.0
0
LINE
5
778
100
AcDbEntity
8
0-2
6
DOT
62
7
100
AcDbLine
10
710.170000000000
20
449.820000000000
30
0.0
11
712.470000000000
21
449.820000000000
31
0.0
0
LINE
5
779
100
AcDbEntity
8
0-2
6
CONTINUOUS
62
7
100
AcDbLine
10
710.170000000000
20
470.020000000000
30
0.0
11
710.170000000000
21
435.820000000000
31
0.0
0
LINE
5
77a
100
AcDbEntity
8
0-2
6
CONTINUOUS
62
7
100
AcDbLine
10
996.310000000000
20
473.800000000000
30
0.0
11
996.310000000000
21
471.500000000000
31
0.0
0
LINE
5
77b
100
AcDbEntity
8
0-2
6
CONTINUOUS
62
7
100
AcDbLine
10
1007.510000000000
20
471.500000000000
30
0.0
11
996.310000000000
21
471.500000000000
31
0.0
0
LINE
5
77c
100
AcDbEntity
8
0-2
6
CONTINUOUS
62
7
100
AcDbLine
10
996.310000000000
20
473.800000000000
30
0.0
11
1007.510000000000
21
473.800000000000
31
0.0
0
LINE
5
77d
100
AcDbEntity
8
0-2
6
DOT
62
7
100
AcDbLine
10
1009.010000000000
20
460.800000000000
30
0.0
11
1011.310000000000
21
460.800000000000
31
0.0
0
LINE
5
77e
100
AcDbEntity
8
0-2
6
DOT
62
7
100
AcDbLine
10
1009.010000000000
20
449.800000000000
30
0.0
11
1011.310000000000
21
449.800000000000
31
0.0
0
LINE
5
77f
100
AcDbEntity
8
0-2
6
CONTINUOUS
62
7
100
AcDbLine
10
1000.310000000000
20
435.800000000000
30
0.0
11
1000.310000000000
21
434.800000000000
31
0.0
0
LINE
5
780
100
AcDbEntity
8
0-2
6
CONTINUOUS
62
7
100
AcDbLine
10
1010.810000000000
20
435.800000000000
30
0.0
11
1000.310000000000
21
435.800000000000
31
0.0
0
LINE
5
781
100
AcDbEntity
8
0-2
6
CONTINUOUS
62
7
100
AcDbLine
10
1010.810000000000
20
434.800000000000
30
0.0
11
1000.310000000000
21
434.800000000000
31
0.0
0
LINE
5
782
100
AcDbEntity
8
0-2
6
CONTINUOUS
62
7
100
AcDbLine
10
1009.010000000000
20
470.000000000000
30
0.0
11
1009.010000000000
21
435.800000000000
31
0.0
0
LINE
5
783
100
AcDbEntity
8
0-2
6
CONTINUOUS
62
7
100
AcDbLine
10
1009.010000000000
20
434.800000000000
30
0.0
11
1010.810000000000
21
434.800000000000
31
0.0
0
LINE
5
784
100
AcDbEntity
8
0-2
6
CONTINUOUS
62
7
100
AcDbLine
10
1011.310000000000
20
486.710000000000
30
0.0
11
1011.310000000000
21
436.300000000000
31
0.0
0
POLYLINE
5
785
100
AcDbEntity
8
0-2
6
CONTINUOUS
62
  4
100
AcDb2dPolyline
66
1
10
0.0
20
0.0
30
0.0
70
0
0
VERTEX
5
786
100
AcDbEntity
8
0-2
6
CONTINUOUS
62
  4
100
AcDbVertex
100
AcDb2dVertex
10
697.470000000000
20
471.620000000000
30
0.0
0
VERTEX
5
787
100
AcDbEntity
8
0-2
6
CONTINUOUS
62
  4
100
AcDbVertex
100
AcDb2dVertex
10
696.320000000000
20
471.620000000000
30
0.0
0
VERTEX
5
788
100
AcDbEntity
8
0-2
6
CONTINUOUS
62
  4
100
AcDbVertex
100
AcDb2dVertex
10
662.310000000000
20
435.050000000000
30
0.0
0
SEQEND
5
789
100
AcDbEntity
8
0-2
0
LINE
5
78a
100
AcDbEntity
8
0-2
6
CONTINUOUS
62
7
100
AcDbLine
10
562.310000000000
20
386.620000000000
30
0.0
11
613.310000000000
21
386.620000000000
31
0.0
0
LINE
5
78b
100
AcDbEntity
8
0-2
6
CONTINUOUS
62
7
100
AcDbLine
10
562.310000000000
20
385.620000000000
30
0.0
11
613.310000000000
21
385.620000000000
31
0.0
0
LINE
5
78c
100
AcDbEntity
8
0-2
6
CONTINUOUS
62
7
100
AcDbLine
10
707.070000000000
20
375.820000000000
30
0.0
11
562.310000000000
21
375.820000000000
31
0.0
0
LINE
5
78d
100
AcDbEntity
8
0-2
6
CONTINUOUS
62
7
100
AcDbLine
10
709.140000000000
20
372.820000000000
30
0.0
11
562.310000000000
21
372.820000000000
31
0.0
0
LINE
5
78e
100
AcDbEntity
8
0-2
6
CONTINUOUS
62
7
100
AcDbLine
10
1462.310000000000
20
372.820000000000
30
0.0
11
1416.580000000000
21
372.820000000000
31
0.0
0
LINE
5
78f
100
AcDbEntity
8
0-2
6
CONTINUOUS
62
7
100
AcDbLine
10
1462.310000000000
20
370.520000000000
30
0.0
11
1415.530000000000
21
370.520000000000
31
0.0
0
LINE
5
790
100
AcDbEntity
8
0-2
6
CONTINUOUS
62
7
100
AcDbLine
10
718.850000000000
20
441.820000000000
30
0.0
11
718.850000000000
21
468.210000000000
31
0.0
0
LINE
5
791
100
AcDbEntity
8
0-2
6
CONTINUOUS
62
7
100
AcDbLine
10
721.760000000000
20
441.820000000000
30
0.0
11
718.850000000000
21
441.820000000000
31
0.0
0
LINE
5
792
100
AcDbEntity
8
0-2
6
CONTINUOUS
62
7
100
AcDbLine
10
1015.860000000000
20
472.820000000000
30
0.0
11
1013.550000000000
21
470.510000000000
31
0.0
0
LINE
5
793
100
AcDbEntity
8
0-2
6
CONTINUOUS
62
7
100
AcDbLine
10
1015.820000000000
20
470.520000000000
30
0.0
11
1013.550000000000
21
470.520000000000
31
0.0
0
LINE
5
794
100
AcDbEntity
8
0-2
6
CONTINUOUS
62
7
100
AcDbLine
10
1013.550000000000
20
377.490000000000
30
0.0
11
1013.550000000000
21
470.520000000000
31
0.0
0
LINE
5
795
100
AcDbEntity
8
0-2
6
CONTINUOUS
62
7
100
AcDbLine
10
718.880000000000
20
468.220000000000
30
0.0
11
715.850000000000
21
468.220000000000
31
0.0
0
LINE
5
796
100
AcDbEntity
8
0-2
6
CONTINUOUS
62
7
100
AcDbLine
10
715.850000000000
20
465.480000000000
30
0.0
11
715.850000000000
21
468.220000000000
31
0.0
0
LINE
5
797
100
AcDbEntity
8
0-2
6
CONTINUOUS
62
7
100
AcDbLine
10
698.910000000000
20
451.070000000000
30
0.0
11
699.660000000000
21
450.320000000000
31
0.0
0
LINE
5
798
100
AcDbEntity
8
0-2
6
CONTINUOUS
62
7
100
AcDbLine
10
699.660000000000
20
460.320000000000
30
0.0
11
698.910000000000
21
459.570000000000
31
0.0
0
LINE
5
799
100
AcDbEntity
8
0-2
6
CONTINUOUS
62
7
100
AcDbLine
10
699.660000000000
20
460.320000000000
30
0.0
11
699.660000000000
21
450.320000000000
31
0.0
0
LINE
5
79a
100
AcDbEntity
8
0-2
6
CONTINUOUS
62
7
100
AcDbLine
10
698.910000000000
20
459.570000000000
30
0.0
11
698.910000000000
21
451.070000000000
31
0.0
0
LINE
5
79b
100
AcDbEntity
8
0-2
6
CONTINUOUS
62
7
100
AcDbLine
10
725.350000000000
20
447.070000000000
30
0.0
11
725.350000000000
21
463.570000000000
31
0.0
0
LINE
5
79c
100
AcDbEntity
8
0-2
6
CONTINUOUS
62
7
100
AcDbLine
10
724.450000000000
20
465.140000000000
30
0.0
11
725.350000000000
21
463.570000000000
31
0.0
0
LINE
5
79d
100
AcDbEntity
8
0-2
6
CONTINUOUS
62
7
100
AcDbLine
10
724.450000000000
20
445.510000000000
30
0.0
11
725.350000000000
21
447.070000000000
31
0.0
0
LINE
5
79e
100
AcDbEntity
8
0-2
6
CONTINUOUS
62
7
100
AcDbLine
10
718.850000000000
20
450.410000000000
30
0.0
11
724.450000000000
21
450.410000000000
31
0.0
0
LINE
5
79f
100
AcDbEntity
8
0-2
6
CONTINUOUS
62
7
100
AcDbLine
10
718.850000000000
20
460.230000000000
30
0.0
11
724.450000000000
21
460.230000000000
31
0.0
0
LINE
5
7a0
100
AcDbEntity
8
0-2
6
CONTINUOUS
62
7
100
AcDbLine
10
718.850000000000
20
445.510000000000
30
0.0
11
724.450000000000
21
445.510000000000
31
0.0
0
POLYLINE
5
7a1
100
AcDbEntity
8
0-2
6
CONTINUOUS
62
  7
100
AcDb2dPolyline
66
1
10
0.0
20
0.0
30
0.0
70
0
0
VERTEX
5
7a2
100
AcDbEntity
8
0-2
6
CONTINUOUS
62
  7
100
AcDbVertex
100
AcDb2dVertex
10
718.850000000000
20
445.510000000000
30
0.0
0
VERTEX
5
7a3
100
AcDbEntity
8
0-2
6
CONTINUOUS
62
  7
100
AcDbVertex
100
AcDb2dVertex
10
718.850000000000
20
465.140000000000
30
0.0
0
VERTEX
5
7a4
100
AcDbEntity
8
0-2
6
CONTINUOUS
62
  7
100
AcDbVertex
100
AcDb2dVertex
10
724.450000000000
20
465.140000000000
30
0.0
0
SEQEND
5
7a5
100
AcDbEntity
8
0-2
0
LINE
5
7a6
100
AcDbEntity
8
0-2
6
CONTINUOUS
62
7
100
AcDbLine
10
703.670000000000
20
447.070000000000
30
0.0
11
703.670000000000
21
463.570000000000
31
0.0
0
LINE
5
7a7
100
AcDbEntity
8
0-2
6
CONTINUOUS
62
7
100
AcDbLine
10
704.570000000000
20
465.140000000000
30
0.0
11
703.670000000000
21
463.570000000000
31
0.0
0
LINE
5
7a8
100
AcDbEntity
8
0-2
6
CONTINUOUS
62
7
100
AcDbLine
10
704.570000000000
20
445.510000000000
30
0.0
11
703.670000000000
21
447.070000000000
31
0.0
0
LINE
5
7a9
100
AcDbEntity
8
0-2
6
CONTINUOUS
62
7
100
AcDbLine
10
710.170000000000
20
450.410000000000
30
0.0
11
704.570000000000
21
450.410000000000
31
0.0
0
LINE
5
7aa
100
AcDbEntity
8
0-2
6
CONTINUOUS
62
7
100
AcDbLine
10
710.170000000000
20
460.230000000000
30
0.0
11
704.570000000000
21
460.230000000000
31
0.0
0
LINE
5
7ab
100
AcDbEntity
8
0-2
6
CONTINUOUS
62
7
100
AcDbLine
10
710.170000000000
20
445.510000000000
30
0.0
11
704.570000000000
21
445.510000000000
31
0.0
0
POLYLINE
5
7ac
100
AcDbEntity
8
0-2
6
CONTINUOUS
62
  7
100
AcDb2dPolyline
66
1
10
0.0
20
0.0
30
0.0
70
0
0
VERTEX
5
7ad
100
AcDbEntity
8
0-2
6
CONTINUOUS
62
  7
100
AcDbVertex
100
AcDb2dVertex
10
710.170000000000
20
445.510000000000
30
0.0
0
VERTEX
5
7ae
100
AcDbEntity
8
0-2
6
CONTINUOUS
62
  7
100
AcDbVertex
100
AcDb2dVertex
10
710.170000000000
20
465.140000000000
30
0.0
0
VERTEX
5
7af
100
AcDbEntity
8
0-2
6
CONTINUOUS
62
  7
100
AcDbVertex
100
AcDb2dVertex
10
704.570000000000
20
465.140000000000
30
0.0
0
SEQEND
5
7b0
100
AcDbEntity
8
0-2
0
LINE
5
7b1
100
AcDbEntity
8
0-2
6
CONTINUOUS
62
7
100
AcDbLine
10
699.660000000000
20
460.320000000000
30
0.0
11
703.670000000000
21
460.320000000000
31
0.0
0
LINE
5
7b2
100
AcDbEntity
8
0-2
6
CONTINUOUS
62
7
100
AcDbLine
10
698.910000000000
20
459.570000000000
30
0.0
11
703.670000000000
21
459.570000000000
31
0.0
0
LINE
5
7b3
100
AcDbEntity
8
0-2
6
CONTINUOUS
62
7
100
AcDbLine
10
698.910000000000
20
451.070000000000
30
0.0
11
703.670000000000
21
451.070000000000
31
0.0
0
LINE
5
7b4
100
AcDbEntity
8
0-2
6
CONTINUOUS
62
7
100
AcDbLine
10
699.660000000000
20
450.320000000000
30
0.0
11
703.670000000000
21
450.320000000000
31
0.0
0
LINE
5
7b5
100
AcDbEntity
8
0-2
6
CONTINUOUS
62
7
100
AcDbLine
10
712.470000000000
20
486.390000000000
30
0.0
11
712.470000000000
21
436.320000000000
31
0.0
0
LINE
5
7b6
100
AcDbEntity
8
0-2
6
CONTINUOUS
62
7
100
AcDbLine
10
711.970000000000
20
435.820000000000
30
0.0
11
704.470000000000
21
435.820000000000
31
0.0
0
LINE
5
7b7
100
AcDbEntity
8
0-2
6
CONTINUOUS
62
7
100
AcDbLine
10
712.470000000000
20
470.020000000000
30
0.0
11
712.470000000000
21
436.320000000000
31
0.0
0
LINE
5
7b8
100
AcDbEntity
8
0-2
6
CONTINUOUS
62
7
100
AcDbLine
10
711.970000000000
20
434.820000000000
30
0.0
11
704.470000000000
21
434.820000000000
31
0.0
0
LINE
5
7b9
100
AcDbEntity
8
0-2
6
CONTINUOUS
62
7
100
AcDbLine
10
713.470000000000
20
486.820000000000
30
0.0
11
713.470000000000
21
436.320000000000
31
0.0
0
LINE
5
7ba
100
AcDbEntity
8
0-2
6
CONTINUOUS
62
7
100
AcDbLine
10
710.170000000000
20
434.820000000000
30
0.0
11
711.970000000000
21
434.820000000000
31
0.0
0
LINE
5
7bb
100
AcDbEntity
8
0-2
6
CONTINUOUS
62
7
100
AcDbLine
10
714.480000000000
20
479.640000000000
30
0.0
11
714.480000000000
21
485.670000000000
31
0.0
0
LINE
5
7bc
100
AcDbEntity
8
0-2
6
CONTINUOUS
62
7
100
AcDbLine
10
1329.360000000000
20
470.520000000000
30
0.0
11
1313.560000000000
21
470.520000000000
31
0.0
0
LINE
5
7bd
100
AcDbEntity
8
0-2
6
CONTINUOUS
62
7
100
AcDbLine
10
1329.380000000000
20
470.520000000000
30
0.0
11
1331.400000000000
21
470.520000000000
31
0.0
0
LINE
5
7be
100
AcDbEntity
8
0-2
6
CONTINUOUS
62
7
100
AcDbLine
10
1331.400000000000
20
470.520000000000
30
0.0
11
1334.400000000000
21
470.520000000000
31
0.0
0
LINE
5
7bf
100
AcDbEntity
8
0-2
6
CONTINUOUS
62
7
100
AcDbLine
10
1326.980000000000
20
472.820000000000
30
0.0
11
1315.850000000000
21
472.820000000000
31
0.0
0
LINE
5
7c0
100
AcDbEntity
8
0-2
6
CONTINUOUS
62
7
100
AcDbLine
10
1329.380000000000
20
468.220000000000
30
0.0
11
1331.400000000000
21
468.220000000000
31
0.0
0
LINE
5
7c1
100
AcDbEntity
8
0-2
6
CONTINUOUS
62
7
100
AcDbLine
10
1329.360000000000
20
468.220000000000
30
0.0
11
1318.880000000000
21
468.220000000000
31
0.0
0
LINE
5
7c2
100
AcDbEntity
8
0-2
6
CONTINUOUS
62
7
100
AcDbLine
10
1331.400000000000
20
468.220000000000
30
0.0
11
1333.340000000000
21
468.220000000000
31
0.0
0
LINE
5
7c3
100
AcDbEntity
8
0-2
6
CONTINUOUS
62
7
100
AcDbLine
10
1315.850000000000
20
472.800000000000
30
0.0
11
1313.560000000000
21
470.530000000000
31
0.0
0
LINE
5
7c4
100
AcDbEntity
8
0-2
6
CONTINUOUS
62
7
100
AcDbLine
10
1326.980000000000
20
472.820000000000
30
0.0
11
1329.420000000000
21
472.820000000000
31
0.0
0
LINE
5
7c5
100
AcDbEntity
8
0-2
6
CONTINUOUS
62
7
100
AcDbLine
10
1331.390000000000
20
470.520000000000
30
0.0
11
1329.430000000000
21
472.830000000000
31
0.0
0
LINE
5
7c6
100
AcDbEntity
8
0-2
6
CONTINUOUS
62
7
100
AcDbLine
10
1321.850000000000
20
441.810000000000
30
0.0
11
1318.860000000000
21
433.830000000000
31
0.0
0
LINE
5
7c7
100
AcDbEntity
8
0-2
6
CONTINUOUS
62
7
100
AcDbLine
10
1314.240000000000
20
497.450000000000
30
0.0
11
1314.180000000000
21
496.730000000000
31
0.0
0
LINE
5
7c8
100
AcDbEntity
8
0-2
6
CONTINUOUS
62
7
100
AcDbLine
10
1318.200000000000
20
488.690000000000
30
0.0
11
1316.490000000000
21
488.690000000000
31
0.0
0
LINE
5
7c9
100
AcDbEntity
8
0-2
6
CONTINUOUS
62
7
100
AcDbLine
10
1318.200000000000
20
487.680000000000
30
0.0
11
1316.490000000000
21
487.680000000000
31
0.0
0
LINE
5
7ca
100
AcDbEntity
8
0-2
6
CONTINUOUS
62
7
100
AcDbLine
10
1313.470000000000
20
479.640000000000
30
0.0
11
1313.470000000000
21
485.670000000000
31
0.0
0
LINE
5
7cb
100
AcDbEntity
8
0-2
6
CONTINUOUS
62
7
100
AcDbLine
10
1311.460000000000
20
479.640000000000
30
0.0
11
1311.460000000000
21
484.670000000000
31
0.0
0
LINE
5
7cc
100
AcDbEntity
8
0-2
6
CONTINUOUS
62
7
100
AcDbLine
10
1309.450000000000
20
486.680000000000
30
0.0
11
1306.840000000000
21
486.680000000000
31
0.0
0
LINE
5
7cd
100
AcDbEntity
8
0-2
6
CONTINUOUS
62
7
100
AcDbLine
10
1309.450000000000
20
487.680000000000
30
0.0
11
1306.840000000000
21
487.680000000000
31
0.0
0
LINE
5
7ce
100
AcDbEntity
8
0-2
6
CONTINUOUS
62
7
100
AcDbLine
10
1304.830000000000
20
489.690000000000
30
0.0
11
1304.830000000000
21
492.510000000000
31
0.0
0
LINE
5
7cf
100
AcDbEntity
8
0-2
6
CONTINUOUS
62
7
100
AcDbLine
10
1303.820000000000
20
489.690000000000
30
0.0
11
1303.820000000000
21
492.510000000000
31
0.0
0
LINE
5
7d0
100
AcDbEntity
8
0-2
6
CONTINUOUS
62
7
100
AcDbLine
10
1322.120000000000
20
491.590000000000
30
0.0
11
1322.120000000000
21
492.510000000000
31
0.0
0
LINE
5
7d1
100
AcDbEntity
8
0-2
6
CONTINUOUS
62
7
100
AcDbLine
10
1316.820000000000
20
486.310000000000
30
0.0
11
1314.640000000000
21
482.550000000000
31
0.0
0
POLYLINE
5
7d2
100
AcDbEntity
8
0-2
6
CONTINUOUS
62
  7
100
AcDb2dPolyline
66
1
10
0.0
20
0.0
30
0.0
70
0
0
VERTEX
5
7d3
100
AcDbEntity
8
0-2
6
CONTINUOUS
62
  7
100
AcDbVertex
100
AcDb2dVertex
10
1317.690000000000
20
485.800000000000
30
0.0
0
VERTEX
5
7d4
100
AcDbEntity
8
0-2
6
CONTINUOUS
62
  7
100
AcDbVertex
100
AcDb2dVertex
10
1315.510000000000
20
482.040000000000
30
0.0
0
VERTEX
5
7d5
100
AcDbEntity
8
0-2
6
CONTINUOUS
62
  7
100
AcDbVertex
100
AcDb2dVertex
10
1314.640000000000
20
482.550000000000
30
0.0
0
SEQEND
5
7d6
100
AcDbEntity
8
0-2
0
LINE
5
7d7
100
AcDbEntity
8
0-2
6
CONTINUOUS
62
7
100
AcDbLine
10
1321.110000000000
20
492.510000000000
30
0.0
11
1321.110000000000
21
491.470000000000
31
0.0
0
LINE
5
7d8
100
AcDbEntity
8
0-2
6
CONTINUOUS
62
7
100
AcDbLine
10
1316.210000000000
20
497.090000000000
30
0.0
11
1315.200000000000
21
497.090000000000
31
0.0
0
LINE
5
7d9
100
AcDbEntity
8
0-2
6
CONTINUOUS
62
7
100
AcDbLine
10
1332.330000000000
20
475.620000000000
30
0.0
11
1316.820000000000
21
475.620000000000
31
0.0
0
LINE
5
7da
100
AcDbEntity
8
0-2
6
CONTINUOUS
62
7
100
AcDbLine
10
1332.100000000000
20
476.620000000000
30
0.0
11
1317.490000000000
21
476.620000000000
31
0.0
0
LINE
5
7db
100
AcDbEntity
8
0-2
6
CONTINUOUS
62
7
100
AcDbLine
10
1308.450000000000
20
476.620000000000
30
0.0
11
1293.840000000000
21
476.620000000000
31
0.0
0
LINE
5
7dc
100
AcDbEntity
8
0-2
6
CONTINUOUS
62
7
100
AcDbLine
10
1308.450000000000
20
475.620000000000
30
0.0
11
1293.840000000000
21
475.620000000000
31
0.0
0
LINE
5
7dd
100
AcDbEntity
8
0-2
6
CONTINUOUS
62
7
100
AcDbLine
10
1304.470000000000
20
435.820000000000
30
0.0
11
1304.470000000000
21
434.820000000000
31
0.0
0
LINE
5
7de
100
AcDbEntity
8
0-2
6
CONTINUOUS
62
7
100
AcDbLine
10
1313.460000000000
20
461.820000000000
30
0.0
11
1312.470000000000
21
461.820000000000
31
0.0
0
LINE
5
7df
100
AcDbEntity
8
0-2
6
CONTINUOUS
62
7
100
AcDbLine
10
1313.460000000000
20
448.820000000000
30
0.0
11
1312.470000000000
21
448.820000000000
31
0.0
0
LINE
5
7e0
100
AcDbEntity
8
0-2
6
CONTINUOUS
62
7
100
AcDbLine
10
1311.570000000000
20
488.390000000000
30
0.0
11
1311.800000000000
21
488.360000000000
31
0.0
0
LINE
5
7e1
100
AcDbEntity
8
0-2
6
CONTINUOUS
62
7
100
AcDbLine
10
1312.470000000000
20
484.670000000000
30
0.0
11
1312.470000000000
21
479.640000000000
31
0.0
0
LINE
5
7e2
100
AcDbEntity
8
0-2
6
CONTINUOUS
62
7
100
AcDbLine
10
1333.570000000000
20
475.980000000000
30
0.0
11
1411.060000000000
21
391.940000000000
31
0.0
0
LINE
5
7e3
100
AcDbEntity
8
0-2
6
CONTINUOUS
62
7
100
AcDbLine
10
1410.310000000000
20
391.270000000000
30
0.0
11
1332.840000000000
21
475.300000000000
31
0.0
0
LINE
5
7e4
100
AcDbEntity
8
0-2
6
CONTINUOUS
62
7
100
AcDbLine
10
1293.100000000000
20
475.300000000000
30
0.0
11
1214.310000000000
21
391.270000000000
31
0.0
0
LINE
5
7e5
100
AcDbEntity
8
0-2
6
CONTINUOUS
62
7
100
AcDbLine
10
1213.560000000000
20
391.940000000000
30
0.0
11
1292.370000000000
21
475.980000000000
31
0.0
0
LINE
5
7e6
100
AcDbEntity
8
0-2
6
CONTINUOUS
62
7
100
AcDbLine
10
1306.840000000000
20
492.510000000000
30
0.0
11
1305.830000000000
21
492.510000000000
31
0.0
0
LINE
5
7e7
100
AcDbEntity
8
0-2
6
CONTINUOUS
62
7
100
AcDbLine
10
1297.470000000000
20
473.820000000000
30
0.0
11
1297.470000000000
21
471.520000000000
31
0.0
0
LINE
5
7e8
100
AcDbEntity
8
0-2
6
CONTINUOUS
62
7
100
AcDbLine
10
1308.670000000000
20
471.520000000000
30
0.0
11
1297.470000000000
21
471.520000000000
31
0.0
0
LINE
5
7e9
100
AcDbEntity
8
0-2
6
CONTINUOUS
62
7
100
AcDbLine
10
1297.470000000000
20
473.820000000000
30
0.0
11
1308.670000000000
21
473.820000000000
31
0.0
0
LINE
5
7ea
100
AcDbEntity
8
0-2
6
DOT
62
7
100
AcDbLine
10
1310.170000000000
20
460.820000000000
30
0.0
11
1312.470000000000
21
460.820000000000
31
0.0
0
LINE
5
7eb
100
AcDbEntity
8
0-2
6
DOT
62
7
100
AcDbLine
10
1310.170000000000
20
449.820000000000
30
0.0
11
1312.470000000000
21
449.820000000000
31
0.0
0
LINE
5
7ec
100
AcDbEntity
8
0-2
6
CONTINUOUS
62
7
100
AcDbLine
10
1310.170000000000
20
470.020000000000
30
0.0
11
1310.170000000000
21
435.820000000000
31
0.0
0
LINE
5
7ed
100
AcDbEntity
8
0-2
6
CONTINUOUS
62
7
100
AcDbLine
10
1318.850000000000
20
441.820000000000
30
0.0
11
1318.850000000000
21
468.210000000000
31
0.0
0
LINE
5
7ee
100
AcDbEntity
8
0-2
6
CONTINUOUS
62
7
100
AcDbLine
10
1321.760000000000
20
441.820000000000
30
0.0
11
1318.850000000000
21
441.820000000000
31
0.0
0
LINE
5
7ef
100
AcDbEntity
8
0-2
6
CONTINUOUS
62
7
100
AcDbLine
10
1318.880000000000
20
468.220000000000
30
0.0
11
1315.850000000000
21
468.220000000000
31
0.0
0
LINE
5
7f0
100
AcDbEntity
8
0-2
6
CONTINUOUS
62
7
100
AcDbLine
10
1315.850000000000
20
465.480000000000
30
0.0
11
1315.850000000000
21
468.220000000000
31
0.0
0
LINE
5
7f1
100
AcDbEntity
8
0-2
6
CONTINUOUS
62
7
100
AcDbLine
10
1298.910000000000
20
451.070000000000
30
0.0
11
1299.660000000000
21
450.320000000000
31
0.0
0
LINE
5
7f2
100
AcDbEntity
8
0-2
6
CONTINUOUS
62
7
100
AcDbLine
10
1299.660000000000
20
460.320000000000
30
0.0
11
1298.910000000000
21
459.570000000000
31
0.0
0
LINE
5
7f3
100
AcDbEntity
8
0-2
6
CONTINUOUS
62
7
100
AcDbLine
10
1299.660000000000
20
460.320000000000
30
0.0
11
1299.660000000000
21
450.320000000000
31
0.0
0
LINE
5
7f4
100
AcDbEntity
8
0-2
6
CONTINUOUS
62
7
100
AcDbLine
10
1298.910000000000
20
459.570000000000
30
0.0
11
1298.910000000000
21
451.070000000000
31
0.0
0
LINE
5
7f5
100
AcDbEntity
8
0-2
6
CONTINUOUS
62
7
100
AcDbLine
10
1325.350000000000
20
447.070000000000
30
0.0
11
1325.350000000000
21
463.570000000000
31
0.0
0
LINE
5
7f6
100
AcDbEntity
8
0-2
6
CONTINUOUS
62
7
100
AcDbLine
10
1324.450000000000
20
465.140000000000
30
0.0
11
1325.350000000000
21
463.570000000000
31
0.0
0
LINE
5
7f7
100
AcDbEntity
8
0-2
6
CONTINUOUS
62
7
100
AcDbLine
10
1324.450000000000
20
445.510000000000
30
0.0
11
1325.350000000000
21
447.070000000000
31
0.0
0
LINE
5
7f8
100
AcDbEntity
8
0-2
6
CONTINUOUS
62
7
100
AcDbLine
10
1318.850000000000
20
450.410000000000
30
0.0
11
1324.450000000000
21
450.410000000000
31
0.0
0
LINE
5
7f9
100
AcDbEntity
8
0-2
6
CONTINUOUS
62
7
100
AcDbLine
10
1318.850000000000
20
460.230000000000
30
0.0
11
1324.450000000000
21
460.230000000000
31
0.0
0
LINE
5
7fa
100
AcDbEntity
8
0-2
6
CONTINUOUS
62
7
100
AcDbLine
10
1318.850000000000
20
445.510000000000
30
0.0
11
1324.450000000000
21
445.510000000000
31
0.0
0
POLYLINE
5
7fb
100
AcDbEntity
8
0-2
6
CONTINUOUS
62
  7
100
AcDb2dPolyline
66
1
10
0.0
20
0.0
30
0.0
70
0
0
VERTEX
5
7fc
100
AcDbEntity
8
0-2
6
CONTINUOUS
62
  7
100
AcDbVertex
100
AcDb2dVertex
10
1318.850000000000
20
445.510000000000
30
0.0
0
VERTEX
5
7fd
100
AcDbEntity
8
0-2
6
CONTINUOUS
62
  7
100
AcDbVertex
100
AcDb2dVertex
10
1318.850000000000
20
465.140000000000
30
0.0
0
VERTEX
5
7fe
100
AcDbEntity
8
0-2
6
CONTINUOUS
62
  7
100
AcDbVertex
100
AcDb2dVertex
10
1324.450000000000
20
465.140000000000
30
0.0
0
SEQEND
5
7ff
100
AcDbEntity
8
0-2
0
LINE
5
800
100
AcDbEntity
8
0-2
6
CONTINUOUS
62
7
100
AcDbLine
10
1303.670000000000
20
447.070000000000
30
0.0
11
1303.670000000000
21
463.570000000000
31
0.0
0
LINE
5
801
100
AcDbEntity
8
0-2
6
CONTINUOUS
62
7
100
AcDbLine
10
1304.570000000000
20
465.140000000000
30
0.0
11
1303.670000000000
21
463.570000000000
31
0.0
0
LINE
5
802
100
AcDbEntity
8
0-2
6
CONTINUOUS
62
7
100
AcDbLine
10
1304.570000000000
20
445.510000000000
30
0.0
11
1303.670000000000
21
447.070000000000
31
0.0
0
LINE
5
803
100
AcDbEntity
8
0-2
6
CONTINUOUS
62
7
100
AcDbLine
10
1310.170000000000
20
450.410000000000
30
0.0
11
1304.570000000000
21
450.410000000000
31
0.0
0
LINE
5
804
100
AcDbEntity
8
0-2
6
CONTINUOUS
62
7
100
AcDbLine
10
1310.170000000000
20
460.230000000000
30
0.0
11
1304.570000000000
21
460.230000000000
31
0.0
0
LINE
5
805
100
AcDbEntity
8
0-2
6
CONTINUOUS
62
7
100
AcDbLine
10
1310.170000000000
20
445.510000000000
30
0.0
11
1304.570000000000
21
445.510000000000
31
0.0
0
POLYLINE
5
806
100
AcDbEntity
8
0-2
6
CONTINUOUS
62
  7
100
AcDb2dPolyline
66
1
10
0.0
20
0.0
30
0.0
70
0
0
VERTEX
5
807
100
AcDbEntity
8
0-2
6
CONTINUOUS
62
  7
100
AcDbVertex
100
AcDb2dVertex
10
1310.170000000000
20
445.510000000000
30
0.0
0
VERTEX
5
808
100
AcDbEntity
8
0-2
6
CONTINUOUS
62
  7
100
AcDbVertex
100
AcDb2dVertex
10
1310.170000000000
20
465.140000000000
30
0.0
0
VERTEX
5
809
100
AcDbEntity
8
0-2
6
CONTINUOUS
62
  7
100
AcDbVertex
100
AcDb2dVertex
10
1304.570000000000
20
465.140000000000
30
0.0
0
SEQEND
5
80a
100
AcDbEntity
8
0-2
0
LINE
5
80b
100
AcDbEntity
8
0-2
6
CONTINUOUS
62
7
100
AcDbLine
10
1299.660000000000
20
460.320000000000
30
0.0
11
1303.670000000000
21
460.320000000000
31
0.0
0
LINE
5
80c
100
AcDbEntity
8
0-2
6
CONTINUOUS
62
7
100
AcDbLine
10
1298.910000000000
20
459.570000000000
30
0.0
11
1303.670000000000
21
459.570000000000
31
0.0
0
LINE
5
80d
100
AcDbEntity
8
0-2
6
CONTINUOUS
62
7
100
AcDbLine
10
1298.910000000000
20
451.070000000000
30
0.0
11
1303.670000000000
21
451.070000000000
31
0.0
0
LINE
5
80e
100
AcDbEntity
8
0-2
6
CONTINUOUS
62
7
100
AcDbLine
10
1299.660000000000
20
450.320000000000
30
0.0
11
1303.670000000000
21
450.320000000000
31
0.0
0
LINE
5
80f
100
AcDbEntity
8
0-2
6
CONTINUOUS
62
7
100
AcDbLine
10
1312.470000000000
20
486.390000000000
30
0.0
11
1312.470000000000
21
436.320000000000
31
0.0
0
LINE
5
810
100
AcDbEntity
8
0-2
6
CONTINUOUS
62
7
100
AcDbLine
10
1311.970000000000
20
435.820000000000
30
0.0
11
1304.470000000000
21
435.820000000000
31
0.0
0
LINE
5
811
100
AcDbEntity
8
0-2
6
CONTINUOUS
62
7
100
AcDbLine
10
1312.470000000000
20
470.020000000000
30
0.0
11
1312.470000000000
21
436.320000000000
31
0.0
0
LINE
5
812
100
AcDbEntity
8
0-2
6
CONTINUOUS
62
7
100
AcDbLine
10
1311.970000000000
20
434.820000000000
30
0.0
11
1304.470000000000
21
434.820000000000
31
0.0
0
LINE
5
813
100
AcDbEntity
8
0-2
6
CONTINUOUS
62
7
100
AcDbLine
10
1313.470000000000
20
486.820000000000
30
0.0
11
1313.470000000000
21
436.320000000000
31
0.0
0
LINE
5
814
100
AcDbEntity
8
0-2
6
CONTINUOUS
62
7
100
AcDbLine
10
1310.170000000000
20
434.820000000000
30
0.0
11
1311.970000000000
21
434.820000000000
31
0.0
0
LINE
5
815
100
AcDbEntity
8
0-2
6
CONTINUOUS
62
7
100
AcDbLine
10
1314.480000000000
20
479.640000000000
30
0.0
11
1314.480000000000
21
485.670000000000
31
0.0
0
LINE
5
816
100
AcDbEntity
8
0-2
6
CONTINUOUS
62
7
100
AcDbLine
10
1009.830000000000
20
372.820000000000
30
0.0
11
1011.740000000000
21
372.820000000000
31
0.0
0
LINE
5
817
100
AcDbEntity
8
0-2
6
CONTINUOUS
62
7
100
AcDbLine
10
562.310000000000
20
551.640000000000
30
0.0
11
571.970000000000
21
554.230000000000
31
0.0
0
LINE
5
818
100
AcDbEntity
8
0-2
6
CONTINUOUS
62
7
100
AcDbLine
10
562.310000000000
20
551.640000000000
30
0.0
11
571.970000000000
21
549.050000000000
31
0.0
0
LINE
5
819
100
AcDbEntity
8
0-2
6
CONTINUOUS
62
7
100
AcDbLine
10
712.310000000000
20
526.600000000000
30
0.0
11
1312.310000000000
21
526.600000000000
31
0.0
0
POLYLINE
5
81a
100
AcDbEntity
8
0-2
6
CONTINUOUS
62
  7
100
AcDb2dPolyline
66
1
10
0.0
20
0.0
30
0.0
70
0
0
VERTEX
5
81b
100
AcDbEntity
8
0-2
6
CONTINUOUS
62
  7
100
AcDbVertex
100
AcDb2dVertex
10
562.310000000000
20
551.640000000000
30
0.0
0
VERTEX
5
81c
100
AcDbEntity
8
0-2
6
CONTINUOUS
62
  7
100
AcDbVertex
100
AcDb2dVertex
10
1463.160000000000
20
551.640000000000
30
0.0
0
VERTEX
5
81d
100
AcDbEntity
8
0-2
6
CONTINUOUS
62
  7
100
AcDbVertex
100
AcDb2dVertex
10
1453.500000000000
20
554.230000000000
30
0.0
0
SEQEND
5
81e
100
AcDbEntity
8
0-2
0
LINE
5
81f
100
AcDbEntity
8
0-2
6
CONTINUOUS
62
7
100
AcDbLine
10
1463.160000000000
20
551.640000000000
30
0.0
11
1453.500000000000
21
549.050000000000
31
0.0
0
LINE
5
820
100
AcDbEntity
8
0-2
6
CONTINUOUS
62
7
100
AcDbLine
10
1012.060000000000
20
370.520000000000
30
0.0
11
868.540000000000
21
370.520000000000
31
0.0
0
LINE
5
821
100
AcDbEntity
8
0-2
6
CONTINUOUS
62
7
100
AcDbLine
10
710.830000000000
20
370.500000000000
30
0.0
11
562.310000000000
21
370.500000000000
31
0.0
0
LINE
5
822
100
AcDbEntity
8
0-2
6
CENTER2
62
7
100
AcDbLine
10
1012.310000000000
20
473.800000000000
30
0.0
11
1012.310000000000
21
526.600000000000
31
0.0
0
LINE
5
823
100
AcDbEntity
8
0-2
6
CENTER2
62
7
100
AcDbLine
10
1312.310000000000
20
473.800000000000
30
0.0
11
1312.310000000000
21
551.640000000000
31
0.0
0
LINE
5
824
100
AcDbEntity
8
0-2
6
CONTINUOUS
62
4
100
AcDbLine
10
1328.770000000000
20
471.620000000000
30
0.0
11
1296.250000000000
21
471.620000000000
31
0.0
0
LINE
5
825
100
AcDbEntity
8
0-2
6
CONTINUOUS
62
4
100
AcDbLine
10
1328.770000000000
20
471.620000000000
30
0.0
11
1405.310000000000
21
389.310000000000
31
0.0
0
LINE
5
826
100
AcDbEntity
8
0-2
6
CONTINUOUS
62
3
100
AcDbLine
10
562.310000000000
20
362.520000000000
30
0.0
11
1463.160000000000
21
362.520000000000
31
0.0
0
LINE
5
827
100
AcDbEntity
8
0-2
6
CONTINUOUS
62
3
100
AcDbLine
10
1463.160000000000
20
370.520000000000
30
0.0
11
562.310000000000
21
370.520000000000
31
0.0
0
LINE
5
828
100
AcDbEntity
8
0-2
6
CONTINUOUS
62
4
100
AcDbLine
10
728.770000000000
20
471.620000000000
30
0.0
11
697.470000000000
21
471.620000000000
31
0.0
0
LINE
5
829
100
AcDbEntity
8
0-2
6
CONTINUOUS
62
4
100
AcDbLine
10
728.770000000000
20
471.620000000000
30
0.0
11
805.310000000000
21
389.310000000000
31
0.0
0
LINE
5
82a
100
AcDbEntity
8
0-2
6
CONTINUOUS
62
4
100
AcDbLine
10
1026.870000000000
20
470.620000000000
30
0.0
11
1012.140000000000
21
480.560000000000
31
0.0
0
POLYLINE
5
82b
100
AcDbEntity
8
0-2
6
CONTINUOUS
62
  4
100
AcDb2dPolyline
66
1
10
0.0
20
0.0
30
0.0
70
0
0
VERTEX
5
82c
100
AcDbEntity
8
0-2
6
CONTINUOUS
62
  4
100
AcDbVertex
100
AcDb2dVertex
10
1026.870000000000
20
470.620000000000
30
0.0
0
VERTEX
5
82d
100
AcDbEntity
8
0-2
6
CONTINUOUS
62
  4
100
AcDbVertex
100
AcDb2dVertex
10
1030.100000000000
20
470.620000000000
30
0.0
0
VERTEX
5
82e
100
AcDbEntity
8
0-2
6
CONTINUOUS
62
  4
100
AcDbVertex
100
AcDb2dVertex
10
1105.710000000000
20
389.310000000000
30
0.0
0
SEQEND
5
82f
100
AcDbEntity
8
0-2
0
LINE
5
830
100
AcDbEntity
8
0-2
6
CONTINUOUS
62
4
100
AcDbLine
10
997.750000000000
20
470.620000000000
30
0.0
11
994.520000000000
21
470.620000000000
31
0.0
0
LINE
5
831
100
AcDbEntity
8
0-1
6
CONTINUOUS
62
7
100
AcDbLine
10
352.770000000000
20
370.520000000000
30
0.0
11
387.770000000000
21
370.520000000000
31
0.0
0
LINE
5
832
100
AcDbEntity
8
0-1
6
CONTINUOUS
62
7
100
AcDbLine
10
352.770000000000
20
370.520000000000
30
0.0
11
352.770000000000
21
422.420000000000
31
0.0
0
LINE
5
833
100
AcDbEntity
8
0-1
6
CONTINUOUS
62
7
100
AcDbLine
10
352.770000000000
20
372.820000000000
30
0.0
11
387.770000000000
21
372.820000000000
31
0.0
0
LINE
5
834
100
AcDbEntity
8
0-1
6
CONTINUOUS
62
7
100
AcDbLine
10
387.770000000000
20
370.520000000000
30
0.0
11
387.770000000000
21
422.390000000000
31
0.0
0
LINE
5
835
100
AcDbEntity
8
0-1
6
CONTINUOUS
62
7
100
AcDbLine
10
385.270000000000
20
462.490000000000
30
0.0
11
385.270000000000
21
472.490000000000
31
0.0
0
LINE
5
836
100
AcDbEntity
8
0-1
6
CONTINUOUS
62
7
100
AcDbLine
10
355.270000000000
20
462.490000000000
30
0.0
11
355.270000000000
21
472.490000000000
31
0.0
0
LINE
5
837
100
AcDbEntity
8
0-1
6
CONTINUOUS
62
7
100
AcDbLine
10
355.400000000000
20
470.170000000000
30
0.0
11
385.230000000000
21
470.170000000000
31
0.0
0
LINE
5
838
100
AcDbEntity
8
0-1
6
CONTINUOUS
62
7
100
AcDbLine
10
355.310000000000
20
472.470000000000
30
0.0
11
385.230000000000
21
472.470000000000
31
0.0
0
LINE
5
839
100
AcDbEntity
8
0-1
6
CONTINUOUS
62
7
100
AcDbLine
10
364.760000000000
20
375.830000000000
30
0.0
11
358.770000000000
21
372.810000000000
31
0.0
0
LINE
5
83a
100
AcDbEntity
8
0-1
6
CONTINUOUS
62
7
100
AcDbLine
10
375.780000000000
20
375.810000000000
30
0.0
11
381.770000000000
21
372.820000000000
31
0.0
0
LINE
5
83b
100
AcDbEntity
8
0-1
6
CONTINUOUS
62
7
100
AcDbLine
10
364.810000000000
20
375.820000000000
30
0.0
11
375.800000000000
21
375.820000000000
31
0.0
0
LINE
5
83c
100
AcDbEntity
8
0-1
6
CONTINUOUS
62
7
100
AcDbLine
10
358.770000000000
20
372.790000000000
30
0.0
11
358.770000000000
21
422.420000000000
31
0.0
0
LINE
5
83d
100
AcDbEntity
8
0-1
6
CONTINUOUS
62
7
100
AcDbLine
10
381.770000000000
20
372.790000000000
30
0.0
11
381.770000000000
21
422.390000000000
31
0.0
0
LINE
5
83e
100
AcDbEntity
8
0-1
6
CONTINUOUS
62
7
100
AcDbLine
10
365.450000000000
20
463.720000000000
30
0.0
11
374.990000000000
21
463.720000000000
31
0.0
0
LINE
5
83f
100
AcDbEntity
8
0-1
6
CONTINUOUS
62
7
100
AcDbLine
10
365.440000000000
20
446.840000000000
30
0.0
11
375.370000000000
21
446.840000000000
31
0.0
0
LINE
5
840
100
AcDbEntity
8
0-1
6
CONTINUOUS
62
7
100
AcDbLine
10
365.440000000000
20
463.720000000000
30
0.0
11
360.570000000000
21
455.460000000000
31
0.0
0
LINE
5
841
100
AcDbEntity
8
0-1
6
CONTINUOUS
62
7
100
AcDbLine
10
360.580000000000
20
455.280000000000
30
0.0
11
365.440000000000
21
446.840000000000
31
0.0
0
POLYLINE
5
842
100
AcDbEntity
8
0-1
6
CONTINUOUS
62
  7
100
AcDb2dPolyline
66
1
10
0.0
20
0.0
30
0.0
70
0
0
VERTEX
5
843
100
AcDbEntity
8
0-1
6
CONTINUOUS
62
  7
100
AcDbVertex
100
AcDb2dVertex
10
375.210000000000
20
446.840000000000
30
0.0
0
VERTEX
5
844
100
AcDbEntity
8
0-1
6
CONTINUOUS
62
  7
100
AcDbVertex
100
AcDb2dVertex
10
380.070000000000
20
455.280000000000
30
0.0
0
VERTEX
5
845
100
AcDbEntity
8
0-1
6
CONTINUOUS
62
  7
100
AcDbVertex
100
AcDb2dVertex
10
375.200000000000
20
463.710000000000
30
0.0
0
SEQEND
5
846
100
AcDbEntity
8
0-1
0
LINE
5
847
100
AcDbEntity
8
0-2
6
CONTINUOUS
62
7
100
AcDbLine
10
716.210000000000
20
497.090000000000
30
0.0
11
715.200000000000
21
497.090000000000
31
0.0
0
LINE
5
848
100
AcDbEntity
8
0-1
6
CONTINUOUS
62
7
100
AcDbLine
10
350.250000000000
20
434.820000000000
30
0.0
11
390.250000000000
21
434.820000000000
31
0.0
0
LINE
5
849
100
AcDbEntity
8
0-1
6
CONTINUOUS
62
7
100
AcDbLine
10
350.250000000000
20
435.820000000000
30
0.0
11
390.250000000000
21
435.820000000000
31
0.0
0
LINE
5
84a
100
AcDbEntity
8
0-1
6
CONTINUOUS
62
7
100
AcDbLine
10
355.270000000000
20
435.820000000000
30
0.0
11
355.270000000000
21
462.490000000000
31
0.0
0
LINE
5
84b
100
AcDbEntity
8
0-1
6
CONTINUOUS
62
7
100
AcDbLine
10
385.270000000000
20
435.820000000000
30
0.0
11
385.270000000000
21
462.490000000000
31
0.0
0
LINE
5
84c
100
AcDbEntity
8
0-1
6
CONTINUOUS
62
7
100
AcDbLine
10
364.770000000000
20
375.730000000000
30
0.0
11
364.770000000000
21
399.990000000000
31
0.0
0
LINE
5
84d
100
AcDbEntity
8
0-1
6
CONTINUOUS
62
7
100
AcDbLine
10
375.770000000000
20
375.930000000000
30
0.0
11
375.770000000000
21
399.990000000000
31
0.0
0
LINE
5
84e
100
AcDbEntity
8
0-2
6
CONTINUOUS
62
7
100
AcDbLine
10
771.910000000000
20
417.540000000000
30
0.0
11
736.490000000000
21
356.200000000000
31
0.0
0
LINE
5
84f
100
AcDbEntity
8
0-1
6
CONTINUOUS
62
7
100
AcDbLine
10
345.250000000000
20
472.020000000000
30
0.0
11
315.750000000000
21
472.020000000000
31
0.0
0
LINE
5
850
100
AcDbEntity
8
0-1
6
CONTINUOUS
62
7
100
AcDbLine
10
395.250000000000
20
472.020000000000
30
0.0
11
424.750000000000
21
472.020000000000
31
0.0
0
LINE
5
851
100
AcDbEntity
8
0-1
6
CONTINUOUS
62
7
100
AcDbLine
10
310.750000000000
20
500.620000000000
30
0.0
11
310.750000000000
21
477.020000000000
31
0.0
0
LINE
5
852
100
AcDbEntity
8
0-1
6
CONTINUOUS
62
7
100
AcDbLine
10
429.750000000000
20
500.620000000000
30
0.0
11
310.750000000000
21
500.620000000000
31
0.0
0
LINE
5
853
100
AcDbEntity
8
0-1
6
CONTINUOUS
62
7
100
AcDbLine
10
429.750000000000
20
477.020000000000
30
0.0
11
429.750000000000
21
500.620000000000
31
0.0
0
LINE
5
854
100
AcDbEntity
8
0-2
6
CENTER2
62
7
100
AcDbLine
10
712.310000000000
20
473.800000000000
30
0.0
11
712.310000000000
21
551.640000000000
31
0.0
0
LINE
5
855
100
AcDbEntity
8
0-1
6
CONTINUOUS
62
7
100
AcDbLine
10
429.750000000000
20
486.390000000000
30
0.0
11
310.750000000000
21
486.390000000000
31
0.0
0
LINE
5
856
100
AcDbEntity
8
0-1
6
CONTINUOUS
62
7
100
AcDbLine
10
429.750000000000
20
487.380000000000
30
0.0
11
310.750000000000
21
487.380000000000
31
0.0
0
LINE
5
857
100
AcDbEntity
8
0-1
6
CONTINUOUS
62
7
100
AcDbLine
10
350.250000000000
20
467.020000000000
30
0.0
11
350.250000000000
21
434.820000000000
31
0.0
0
LINE
5
858
100
AcDbEntity
8
0-1
6
CONTINUOUS
62
7
100
AcDbLine
10
390.250000000000
20
467.020000000000
30
0.0
11
390.250000000000
21
434.820000000000
31
0.0
0
LINE
5
859
100
AcDbEntity
8
0-1
6
CONTINUOUS
62
7
100
AcDbLine
10
387.770000000000
20
422.470000000000
30
0.0
11
387.770000000000
21
434.820000000000
31
0.0
0
LINE
5
85a
100
AcDbEntity
8
0-1
6
CONTINUOUS
62
7
100
AcDbLine
10
381.770000000000
20
422.470000000000
30
0.0
11
381.770000000000
21
434.820000000000
31
0.0
0
LINE
5
85b
100
AcDbEntity
8
0-1
6
CONTINUOUS
62
7
100
AcDbLine
10
375.770000000000
20
422.470000000000
30
0.0
11
375.770000000000
21
434.820000000000
31
0.0
0
LINE
5
85c
100
AcDbEntity
8
0-1
6
CONTINUOUS
62
7
100
AcDbLine
10
364.770000000000
20
422.470000000000
30
0.0
11
364.770000000000
21
434.820000000000
31
0.0
0
LINE
5
85d
100
AcDbEntity
8
0-1
6
CONTINUOUS
62
7
100
AcDbLine
10
358.770000000000
20
422.470000000000
30
0.0
11
358.770000000000
21
434.820000000000
31
0.0
0
LINE
5
85e
100
AcDbEntity
8
0-1
6
CONTINUOUS
62
7
100
AcDbLine
10
352.770000000000
20
422.470000000000
30
0.0
11
352.770000000000
21
434.820000000000
31
0.0
0
LINE
5
85f
100
AcDbEntity
8
0-1
6
CENTER2
62
7
100
AcDbLine
10
370.270000000000
20
511.550000000000
30
0.0
11
370.270000000000
21
420.740000000000
31
0.0
0
LINE
5
860
100
AcDbEntity
8
0-1
6
CONTINUOUS
62
7
100
AcDbLine
10
310.750000000000
20
526.550000000000
30
0.0
11
429.750000000000
21
526.550000000000
31
0.0
0
ARC
5
861
100
AcDbEntity
8
0-0
6
CONTINUOUS
62
7
100
AcDbCircle
10
716.830000000000
20
829.540000000000
30
0.0
40
4.021233873015
100
AcDbArc
50
180.000000000000
51
270.000000000000
0
ARC
5
862
100
AcDbEntity
8
0-0
6
CONTINUOUS
62
7
100
AcDbCircle
10
913.300000000000
20
736.520000000000
30
0.0
40
1.005308468254
100
AcDbArc
50
270.000000000000
51
360.000000000000
0
ARC
5
863
100
AcDbEntity
8
0-0
6
CONTINUOUS
62
7
100
AcDbCircle
10
914.310000000000
20
741.170000000000
30
0.0
40
1.005308468254
100
AcDbArc
50
138.387390136719
51
180.000000000000
0
ARC
5
864
100
AcDbEntity
8
0-0
6
CONTINUOUS
62
7
100
AcDbCircle
10
810.310000000000
20
741.170000000000
30
0.0
40
1.005308468254
100
AcDbArc
50
360.000000000000
51
401.612625122070
0
ARC
5
865
100
AcDbEntity
8
0-0
6
CONTINUOUS
62
7
100
AcDbCircle
10
811.310000000000
20
736.520000000000
30
0.0
40
1.005308468254
100
AcDbArc
50
180.000000000000
51
-90.000000000000
0
ARC
5
866
100
AcDbEntity
8
0-0
6
CONTINUOUS
62
7
100
AcDbCircle
10
717.540000000000
20
846.630000000000
30
0.0
40
3.015925404761
100
AcDbArc
50
169.720016479492
51
-90.000000000000
0
ARC
5
867
100
AcDbEntity
8
0-0
6
CONTINUOUS
62
7
100
AcDbCircle
10
717.540000000000
20
846.630000000000
30
0.0
40
4.021233873015
100
AcDbArc
50
180.000000000000
51
270.000000000000
0
ARC
5
868
100
AcDbEntity
8
0-0
6
CONTINUOUS
62
7
100
AcDbCircle
10
712.590000000000
20
847.530000000000
30
0.0
40
2.010616936507
100
AcDbArc
50
349.720016479492
51
446.849822998047
0
ARC
5
869
100
AcDbEntity
8
0-0
6
CONTINUOUS
62
7
100
AcDbCircle
10
712.590000000000
20
847.530000000000
30
0.0
40
1.005308468254
100
AcDbArc
50
349.720016479492
51
466.275909423828
0
ARC
5
86a
100
AcDbEntity
8
0-0
6
CONTINUOUS
62
7
100
AcDbCircle
10
712.310000000000
20
842.410000000000
30
0.0
40
7.137689118180
100
AcDbArc
50
86.849822998047
51
-180.000000000000
0
ARC
5
86b
100
AcDbEntity
8
0-0
6
CONTINUOUS
62
7
100
AcDbCircle
10
717.540000000000
20
840.600000000000
30
0.0
40
3.015925404761
100
AcDbArc
50
360.000000000000
51
450.000000000000
0
ARC
5
86c
100
AcDbEntity
8
0-0
6
CONTINUOUS
62
7
100
AcDbCircle
10
717.540000000000
20
840.600000000000
30
0.0
40
2.010616936507
100
AcDbArc
50
360.000000000000
51
450.000000000000
0
ARC
5
86d
100
AcDbEntity
8
0-0
6
CONTINUOUS
62
7
100
AcDbCircle
10
717.540000000000
20
840.600000000000
30
0.0
40
3.015925404761
100
AcDbArc
50
270.000000000000
51
360.000000000000
0
ARC
5
86e
100
AcDbEntity
8
0-0
6
CONTINUOUS
62
7
100
AcDbCircle
10
717.540000000000
20
840.600000000000
30
0.0
40
2.010616936507
100
AcDbArc
50
270.000000000000
51
360.000000000000
0
ARC
5
86f
100
AcDbEntity
8
0-0
6
CONTINUOUS
62
7
100
AcDbCircle
10
715.830000000000
20
835.570000000000
30
0.0
40
3.015925404761
100
AcDbArc
50
90.000000000000
51
180.000000000000
0
ARC
5
870
100
AcDbEntity
8
0-0
6
CONTINUOUS
62
7
100
AcDbCircle
10
715.830000000000
20
835.570000000000
30
0.0
40
2.010616936507
100
AcDbArc
50
90.000000000000
51
180.000000000000
0
ARC
5
871
100
AcDbEntity
8
0-0
6
CONTINUOUS
62
7
100
AcDbCircle
10
997.700000000000
20
826.520000000000
30
0.0
40
1.005308468254
100
AcDbArc
50
270.000000000000
51
300.723556518555
0
ARC
5
872
100
AcDbEntity
8
0-0
6
CONTINUOUS
62
7
100
AcDbCircle
10
1006.800000000000
20
833.920000000000
30
0.0
40
1.044388761474
100
AcDbArc
50
299.181228637695
51
430.185562133789
0
ARC
5
873
100
AcDbEntity
8
0-0
6
CONTINUOUS
62
7
100
AcDbCircle
10
1026.920000000000
20
826.520000000000
30
0.0
40
1.005308468254
100
AcDbArc
50
233.023895263672
51
270.000000000000
0
ARC
5
874
100
AcDbEntity
8
0-0
6
CONTINUOUS
62
7
100
AcDbCircle
10
716.830000000000
20
829.540000000000
30
0.0
40
3.015925404761
100
AcDbArc
50
180.000000000000
51
270.000000000000
0
ARC
5
875
100
AcDbEntity
8
0-0
6
CONTINUOUS
62
7
100
AcDbCircle
10
712.310000000000
20
842.410000000000
30
0.0
40
6.132380649927
100
AcDbArc
50
90.000000000000
51
-180.000000000000
0
ARC
5
876
100
AcDbEntity
8
0-0
6
CONTINUOUS
62
7
100
AcDbCircle
10
993.170000000000
20
824.520000000000
30
0.0
40
0.999999984825
100
AcDbArc
50
90.000000000000
51
137.076217651367
0
ARC
5
877
100
AcDbEntity
8
0-0
6
CONTINUOUS
62
7
100
AcDbCircle
10
993.170000000000
20
824.520000000000
30
0.0
40
2.004999946349
100
AcDbArc
50
90.000000000000
51
137.076217651367
0
ARC
5
878
100
AcDbEntity
8
0-0
6
CONTINUOUS
62
7
100
AcDbCircle
10
1111.310000000000
20
736.520000000000
30
0.0
40
1.005308468254
100
AcDbArc
50
180.000000000000
51
270.000000000000
0
ARC
5
879
100
AcDbEntity
8
0-0
6
CONTINUOUS
62
7
100
AcDbCircle
10
1110.310000000000
20
741.170000000000
30
0.0
40
1.005308468254
100
AcDbArc
50
360.000000000000
51
401.612609863281
0
ARC
5
87a
100
AcDbEntity
8
0-0
6
CONTINUOUS
62
7
100
AcDbCircle
10
1214.310000000000
20
741.170000000000
30
0.0
40
1.005308468254
100
AcDbArc
50
138.387374877930
51
180.000000000000
0
ARC
5
87b
100
AcDbEntity
8
0-0
6
CONTINUOUS
62
7
100
AcDbCircle
10
1213.300000000000
20
736.520000000000
30
0.0
40
1.005308468254
100
AcDbArc
50
270.000000000000
51
0.000000000000
0
ARC
5
87c
100
AcDbEntity
8
0-0
6
CONTINUOUS
62
7
100
AcDbCircle
10
1293.170000000000
20
824.520000000000
30
0.0
40
0.999999984825
100
AcDbArc
50
90.000000000000
51
137.080078125000
0
ARC
5
87d
100
AcDbEntity
8
0-0
6
CONTINUOUS
62
7
100
AcDbCircle
10
1293.170000000000
20
824.520000000000
30
0.0
40
2.004999946349
100
AcDbArc
50
90.000000000000
51
137.080078125000
0
ARC
5
87e
100
AcDbEntity
8
0-0
6
CONTINUOUS
62
7
100
AcDbCircle
10
731.440000000000
20
824.520000000000
30
0.0
40
0.999999984825
100
AcDbArc
50
42.919921875000
51
90.000000000000
0
ARC
5
87f
100
AcDbEntity
8
0-0
6
CONTINUOUS
62
7
100
AcDbCircle
10
731.440000000000
20
824.520000000000
30
0.0
40
2.004999946349
100
AcDbArc
50
42.919921875000
51
90.000000000000
0
ARC
5
880
100
AcDbEntity
8
0-0
6
CONTINUOUS
62
7
100
AcDbCircle
10
1307.780000000000
20
829.540000000000
30
0.0
40
4.021233873015
100
AcDbArc
50
270.000000000000
51
360.000000000000
0
ARC
5
881
100
AcDbEntity
8
0-0
6
CONTINUOUS
62
7
100
AcDbCircle
10
1307.780000000000
20
829.540000000000
30
0.0
40
3.015925404761
100
AcDbArc
50
270.000000000000
51
360.000000000000
0
ARC
5
882
100
AcDbEntity
8
0-0
6
CONTINUOUS
62
7
100
AcDbCircle
10
1308.790000000000
20
834.560000000000
30
0.0
40
2.010616936507
100
AcDbArc
50
360.000000000000
51
450.000000000000
0
ARC
5
883
100
AcDbEntity
8
0-0
6
CONTINUOUS
62
7
100
AcDbCircle
10
1308.790000000000
20
834.560000000000
30
0.0
40
3.015925404761
100
AcDbArc
50
360.000000000000
51
450.000000000000
0
ARC
5
884
100
AcDbEntity
8
0-0
6
CONTINUOUS
62
7
100
AcDbCircle
10
1306.170000000000
20
839.590000000000
30
0.0
40
3.015925404761
100
AcDbArc
50
180.000000000000
51
-90.000000000000
0
ARC
5
885
100
AcDbEntity
8
0-0
6
CONTINUOUS
62
7
100
AcDbCircle
10
1306.170000000000
20
839.590000000000
30
0.0
40
2.010616936507
100
AcDbArc
50
180.000000000000
51
-90.000000000000
0
ARC
5
886
100
AcDbEntity
8
0-0
6
CONTINUOUS
62
7
100
AcDbCircle
10
1293.170000000000
20
824.520000000000
30
0.0
40
0.999999984825
100
AcDbArc
50
90.000000000000
51
137.080078125000
0
ARC
5
887
100
AcDbEntity
8
0-0
6
CONTINUOUS
62
7
100
AcDbCircle
10
1293.170000000000
20
824.520000000000
30
0.0
40
2.004999946349
100
AcDbArc
50
90.000000000000
51
137.080078125000
0
ARC
5
888
100
AcDbEntity
8
0-0
6
CONTINUOUS
62
7
100
AcDbCircle
10
1031.440000000000
20
824.520000000000
30
0.0
40
0.999999984825
100
AcDbArc
50
42.923782348633
51
90.000000000000
0
ARC
5
889
100
AcDbEntity
8
0-0
6
CONTINUOUS
62
7
100
AcDbCircle
10
1031.440000000000
20
824.520000000000
30
0.0
40
2.004999946349
100
AcDbArc
50
42.923782348633
51
90.000000000000
0
ARC
5
88a
100
AcDbEntity
8
0-0
6
CONTINUOUS
62
7
100
AcDbCircle
10
1325.810000000000
20
846.550000000000
30
0.0
40
3.999771559161
100
AcDbArc
50
314.800338745117
51
393.012496948242
0
ARC
5
88b
100
AcDbEntity
8
0-0
6
CONTINUOUS
62
7
100
AcDbCircle
10
1330.030000000000
20
842.290000000000
30
0.0
40
2.999829056455
100
AcDbArc
50
134.800201416016
51
182.912597656250
0
ARC
5
88c
100
AcDbEntity
8
0-0
6
CONTINUOUS
62
7
100
AcDbCircle
10
1330.030000000000
20
842.290000000000
30
0.0
40
1.999885779580
100
AcDbArc
50
134.798385620117
51
182.910781860352
0
ARC
5
88d
100
AcDbEntity
8
0-0
6
CONTINUOUS
62
7
100
AcDbCircle
10
1325.810000000000
20
846.550000000000
30
0.0
40
2.999771767878
100
AcDbArc
50
314.800201416016
51
393.012359619141
0
ARC
5
88e
100
AcDbEntity
8
0-0
6
CONTINUOUS
62
7
100
AcDbCircle
10
1315.640000000000
20
807.860000000000
30
0.0
40
42.819185759504
100
AcDbArc
50
77.227188110352
51
94.457366943359
0
ARC
5
88f
100
AcDbEntity
8
0-0
6
CONTINUOUS
62
7
100
AcDbCircle
10
1315.640000000000
20
807.860000000000
30
0.0
40
43.819190389348
100
AcDbArc
50
77.227172851563
51
94.457366943359
0
ARC
5
890
100
AcDbEntity
8
0-0
6
CONTINUOUS
62
7
100
AcDbCircle
10
1325.810000000000
20
846.550000000000
30
0.0
40
3.999771559161
100
AcDbArc
50
33.012496948242
51
45.851715087891
0
ARC
5
891
100
AcDbEntity
8
0-0
6
CONTINUOUS
62
7
100
AcDbCircle
10
1312.310000000000
20
842.410000000000
30
0.0
40
9.148306054688
100
AcDbArc
50
90.000000000000
51
-180.000000000000
0
ARC
5
892
100
AcDbEntity
8
0-0
6
CONTINUOUS
62
7
100
AcDbCircle
10
1312.310000000000
20
842.410000000000
30
0.0
40
8.142998360604
100
AcDbArc
50
90.000000000000
51
-180.000000000000
0
ARC
5
893
100
AcDbEntity
8
0-0
6
CONTINUOUS
62
7
100
AcDbCircle
10
1012.290000000000
20
841.010000000000
30
0.0
40
10.509330911212
100
AcDbArc
50
89.921661376953
51
179.929000854492
0
ARC
5
894
100
AcDbEntity
8
0-0
6
CONTINUOUS
62
7
100
AcDbCircle
10
1008.580000000000
20
841.570000000000
30
0.0
40
6.822369692693
100
AcDbArc
50
184.606277465820
51
257.885253906250
0
ARC
5
895
100
AcDbEntity
8
0-0
6
CONTINUOUS
62
7
100
AcDbCircle
10
1012.290000000000
20
841.010000000000
30
0.0
40
9.504331336773
100
AcDbArc
50
89.921661376953
51
179.929000854492
0
ARC
5
896
100
AcDbEntity
8
0-0
6
CONTINUOUS
62
7
100
AcDbCircle
10
1017.820000000000
20
833.920000000000
30
0.0
40
1.044388761474
100
AcDbArc
50
109.814437866211
51
240.818771362305
0
ARC
5
897
100
AcDbEntity
8
0-0
6
CONTINUOUS
62
7
100
AcDbCircle
10
1012.320000000000
20
841.010000000000
30
0.0
40
10.509330911212
100
AcDbArc
50
0.070999145508
51
90.078338623047
0
ARC
5
898
100
AcDbEntity
8
0-0
6
CONTINUOUS
62
7
100
AcDbCircle
10
1016.030000000000
20
841.570000000000
30
0.0
40
6.822369692693
100
AcDbArc
50
282.114746093750
51
355.393722534180
0
ARC
5
899
100
AcDbEntity
8
0-0
6
CONTINUOUS
62
7
100
AcDbCircle
10
1012.320000000000
20
841.010000000000
30
0.0
40
9.504331336773
100
AcDbArc
50
0.070999145508
51
90.078338623047
0
ARC
5
89a
100
AcDbEntity
8
0-0
6
CONTINUOUS
62
7
100
AcDbCircle
10
1016.030000000000
20
841.570000000000
30
0.0
40
5.817369731169
100
AcDbArc
50
282.539718627930
51
355.393722534180
0
ARC
5
89b
100
AcDbEntity
8
0-0
6
CONTINUOUS
62
7
100
AcDbCircle
10
1017.730000000000
20
833.930000000000
30
0.0
40
2.010616936507
100
AcDbArc
50
102.540603637695
51
239.276443481445
0
ARC
5
89c
100
AcDbEntity
8
0-0
6
CONTINUOUS
62
7
100
AcDbCircle
10
1008.580000000000
20
841.570000000000
30
0.0
40
5.817369731169
100
AcDbArc
50
184.606277465820
51
257.460281372070
0
ARC
5
89d
100
AcDbEntity
8
0-0
6
CONTINUOUS
62
7
100
AcDbCircle
10
1006.890000000000
20
833.930000000000
30
0.0
40
2.010616936507
100
AcDbArc
50
300.723556518555
51
437.459396362305
0
ARC
5
89e
100
AcDbEntity
8
0-1
6
CONTINUOUS
62
3
100
AcDbCircle
10
359.520000000000
20
354.520000000000
30
0.0
40
7.999947235041
100
AcDbArc
50
359.999740600586
51
89.999740600586
0
ARC
5
89f
100
AcDbEntity
8
0-1
6
CONTINUOUS
62
3
100
AcDbCircle
10
381.020000000000
20
354.520000000000
30
0.0
40
7.999947235041
100
AcDbArc
50
89.999740600586
51
179.999740600586
0
CIRCLE
5
8a0
100
AcDbEntity
8
F-F
6
CONTINUOUS
62
3
100
AcDbCircle
10
79.720000000000
20
67.100000000000
30
0.0
40
11.313709759210
0
CIRCLE
5
8a1
100
AcDbEntity
8
F-F
6
CONTINUOUS
62
3
100
AcDbCircle
10
79.720000000000
20
67.100000000000
30
0.0
40
12.913709270428
0
CIRCLE
5
8a2
100
AcDbEntity
8
F-F
6
CONTINUOUS
62
4
100
AcDbCircle
10
79.720000000000
20
67.100000000000
30
0.0
40
11.473710561919
0
CIRCLE
5
8a3
100
AcDbEntity
8
F-F
6
CONTINUOUS
62
4
100
AcDbCircle
10
79.720000000000
20
67.100000000000
30
0.0
40
11.793707522317
0
CIRCLE
5
8a4
100
AcDbEntity
8
F-F
6
CONTINUOUS
62
4
100
AcDbCircle
10
79.720000000000
20
67.100000000000
30
0.0
40
12.113709127734
0
CIRCLE
5
8a5
100
AcDbEntity
8
F-F
6
CONTINUOUS
62
4
100
AcDbCircle
10
79.720000000000
20
67.100000000000
30
0.0
40
12.433706862302
0
CIRCLE
5
8a6
100
AcDbEntity
8
F-F
6
CONTINUOUS
62
4
100
AcDbCircle
10
79.720000000000
20
67.100000000000
30
0.0
40
12.753706145210
0
ARC
5
8a7
100
AcDbEntity
8
0-1
6
CONTINUOUS
62
7
100
AcDbCircle
10
352.770000000000
20
370.520000000000
30
0.0
40
0.199999987288
100
AcDbArc
50
90.000000000000
51
-180.000000000000
0
ARC
5
8a8
100
AcDbEntity
8
0-1
6
CONTINUOUS
62
7
100
AcDbCircle
10
352.770000000000
20
370.520000000000
30
0.0
40
0.699999979700
100
AcDbArc
50
90.000000000000
51
-180.000000000000
0
ARC
5
8a9
100
AcDbEntity
8
0-1
6
CONTINUOUS
62
7
100
AcDbCircle
10
352.770000000000
20
370.520000000000
30
0.0
40
1.200000020498
100
AcDbArc
50
90.000000000000
51
-180.000000000000
0
ARC
5
8aa
100
AcDbEntity
8
0-1
6
CONTINUOUS
62
7
100
AcDbCircle
10
352.770000000000
20
370.520000000000
30
0.0
40
1.700000012911
100
AcDbArc
50
90.000000000000
51
-180.000000000000
0
ARC
5
8ab
100
AcDbEntity
8
0-1
6
CONTINUOUS
62
7
100
AcDbCircle
10
352.770000000000
20
370.520000000000
30
0.0
40
2.199999811781
100
AcDbArc
50
90.000000000000
51
-180.000000000000
0
ARC
5
8ac
100
AcDbEntity
8
0-1
6
CONTINUOUS
62
7
100
AcDbCircle
10
387.770000000000
20
370.520000000000
30
0.0
40
2.199999811781
100
AcDbArc
50
360.000000000000
51
450.000000000000
0
ARC
5
8ad
100
AcDbEntity
8
0-1
6
CONTINUOUS
62
7
100
AcDbCircle
10
387.770000000000
20
370.520000000000
30
0.0
40
1.700000012911
100
AcDbArc
50
360.000000000000
51
450.000000000000
0
ARC
5
8ae
100
AcDbEntity
8
0-1
6
CONTINUOUS
62
7
100
AcDbCircle
10
387.770000000000
20
370.520000000000
30
0.0
40
1.200000020498
100
AcDbArc
50
360.000000000000
51
450.000000000000
0
ARC
5
8af
100
AcDbEntity
8
0-1
6
CONTINUOUS
62
7
100
AcDbCircle
10
387.770000000000
20
370.520000000000
30
0.0
40
0.699999979700
100
AcDbArc
50
360.000000000000
51
450.000000000000
0
ARC
5
8b0
100
AcDbEntity
8
0-1
6
CONTINUOUS
62
7
100
AcDbCircle
10
387.770000000000
20
370.520000000000
30
0.0
40
0.199999987288
100
AcDbArc
50
360.000000000000
51
450.000000000000
0
CIRCLE
5
8b1
100
AcDbEntity
8
0-1
6
CONTINUOUS
62
3
100
AcDbCircle
10
370.270000000000
20
370.520000000000
30
0.0
40
2.500000155605
0
ARC
5
8b2
100
AcDbEntity
8
0-2
6
CONTINUOUS
62
7
100
AcDbCircle
10
1310.830000000000
20
375.500000000000
30
0.0
40
5.000000311209
100
AcDbArc
50
270.000000000000
51
2.027328491211
0
ARC
5
8b3
100
AcDbEntity
8
0-2
6
CONTINUOUS
62
7
100
AcDbCircle
10
1310.830000000000
20
375.500000000000
30
0.0
40
2.700000191278
100
AcDbArc
50
270.000000000000
51
2.027328491211
0
ARC
5
8b4
100
AcDbEntity
8
0-2
6
CONTINUOUS
62
7
100
AcDbCircle
10
1313.820000000000
20
380.890000000000
30
0.0
40
5.000000311209
100
AcDbArc
50
292.782409667969
51
8.130111694336
0
ARC
5
8b5
100
AcDbEntity
8
0-2
6
CONTINUOUS
62
7
100
AcDbCircle
10
1115.060000000000
20
375.440000000000
30
0.0
40
5.000000311209
100
AcDbArc
50
218.541198730469
51
276.581954956055
0
ARC
5
8b6
100
AcDbEntity
8
0-2
6
CONTINUOUS
62
7
100
AcDbCircle
10
1013.870000000000
20
380.840000000000
30
0.0
40
5.000000311209
100
AcDbArc
50
292.340652465820
51
3.667800903320
0
ARC
5
8b7
100
AcDbEntity
8
0-2
6
CONTINUOUS
62
7
100
AcDbCircle
10
710.830000000000
20
375.500000000000
30
0.0
40
5.000000311209
100
AcDbArc
50
270.000000000000
51
2.027328491211
0
ARC
5
8b8
100
AcDbEntity
8
0-2
6
CONTINUOUS
62
7
100
AcDbCircle
10
710.830000000000
20
375.500000000000
30
0.0
40
2.700000191278
100
AcDbArc
50
270.000000000000
51
2.027328491211
0
ARC
5
8b9
100
AcDbEntity
8
0-2
6
CONTINUOUS
62
7
100
AcDbCircle
10
713.820000000000
20
380.890000000000
30
0.0
40
5.000000311209
100
AcDbArc
50
292.782409667969
51
8.130111694336
0
ARC
5
8ba
100
AcDbEntity
8
0-2
6
CONTINUOUS
62
7
100
AcDbCircle
10
717.490000000000
20
479.640000000000
30
0.0
40
4.021233873015
100
AcDbArc
50
180.000000000000
51
270.000000000000
0
ARC
5
8bb
100
AcDbEntity
8
0-2
6
CONTINUOUS
62
7
100
AcDbCircle
10
1015.490000000000
20
485.590000000000
30
0.0
40
1.044388761474
100
AcDbArc
50
109.814453125000
51
240.818786621094
0
ARC
5
8bc
100
AcDbEntity
8
0-2
6
CONTINUOUS
62
7
100
AcDbCircle
10
1018.440000000000
20
489.810000000000
30
0.0
40
2.010616936507
100
AcDbArc
50
270.000000000000
51
360.000000000000
0
ARC
5
8bd
100
AcDbEntity
8
0-2
6
CONTINUOUS
62
7
100
AcDbCircle
10
1018.440000000000
20
489.810000000000
30
0.0
40
3.015925404761
100
AcDbArc
50
270.000000000000
51
360.000000000000
0
ARC
5
8be
100
AcDbEntity
8
0-2
6
CONTINUOUS
62
7
100
AcDbCircle
10
1006.180000000000
20
489.810000000000
30
0.0
40
3.015925404761
100
AcDbArc
50
180.000000000000
51
270.000000000000
0
ARC
5
8bf
100
AcDbEntity
8
0-2
6
CONTINUOUS
62
7
100
AcDbCircle
10
1006.180000000000
20
489.810000000000
30
0.0
40
2.010616936507
100
AcDbArc
50
180.000000000000
51
270.000000000000
0
ARC
5
8c0
100
AcDbEntity
8
0-2
6
CONTINUOUS
62
7
100
AcDbCircle
10
913.310000000000
20
386.620000000000
30
0.0
40
1.005308468254
100
AcDbArc
50
270.000000000000
51
360.000000000000
0
ARC
5
8c1
100
AcDbEntity
8
0-2
6
CONTINUOUS
62
7
100
AcDbCircle
10
914.310000000000
20
391.270000000000
30
0.0
40
1.005308468254
100
AcDbArc
50
138.387390136719
51
180.000000000000
0
ARC
5
8c2
100
AcDbEntity
8
0-2
6
CONTINUOUS
62
7
100
AcDbCircle
10
810.310000000000
20
391.270000000000
30
0.0
40
1.005308468254
100
AcDbArc
50
360.000000000000
51
41.612625122070
0
ARC
5
8c3
100
AcDbEntity
8
0-2
6
CONTINUOUS
62
7
100
AcDbCircle
10
811.320000000000
20
386.620000000000
30
0.0
40
1.005308468254
100
AcDbArc
50
180.000000000000
51
270.000000000000
0
ARC
5
8c4
100
AcDbEntity
8
0-2
6
CONTINUOUS
62
7
100
AcDbCircle
10
718.200000000000
20
496.730000000000
30
0.0
40
3.015925404761
100
AcDbArc
50
169.720016479492
51
270.000000000000
0
ARC
5
8c5
100
AcDbEntity
8
0-2
6
CONTINUOUS
62
7
100
AcDbCircle
10
718.200000000000
20
496.730000000000
30
0.0
40
4.021233873015
100
AcDbArc
50
180.000000000000
51
270.000000000000
0
ARC
5
8c6
100
AcDbEntity
8
0-2
6
CONTINUOUS
62
7
100
AcDbCircle
10
713.250000000000
20
497.630000000000
30
0.0
40
2.010616936507
100
AcDbArc
50
349.720016479492
51
86.849822998047
0
ARC
5
8c7
100
AcDbEntity
8
0-2
6
CONTINUOUS
62
7
100
AcDbCircle
10
713.250000000000
20
497.630000000000
30
0.0
40
1.005308468254
100
AcDbArc
50
349.720016479492
51
106.275909423828
0
ARC
5
8c8
100
AcDbEntity
8
0-2
6
CONTINUOUS
62
7
100
AcDbCircle
10
712.970000000000
20
492.510000000000
30
0.0
40
7.137689118180
100
AcDbArc
50
86.849822998047
51
180.000000000000
0
ARC
5
8c9
100
AcDbEntity
8
0-2
6
CONTINUOUS
62
7
100
AcDbCircle
10
718.200000000000
20
490.700000000000
30
0.0
40
3.015925404761
100
AcDbArc
50
270.000000000000
51
90.000000000000
0
ARC
5
8ca
100
AcDbEntity
8
0-2
6
CONTINUOUS
62
7
100
AcDbCircle
10
718.200000000000
20
490.700000000000
30
0.0
40
2.010616936507
100
AcDbArc
50
270.000000000000
51
90.000000000000
0
ARC
5
8cb
100
AcDbEntity
8
0-2
6
CONTINUOUS
62
7
100
AcDbCircle
10
716.490000000000
20
485.670000000000
30
0.0
40
3.015925404761
100
AcDbArc
50
90.000000000000
51
180.000000000000
0
ARC
5
8cc
100
AcDbEntity
8
0-2
6
CONTINUOUS
62
7
100
AcDbCircle
10
716.490000000000
20
485.670000000000
30
0.0
40
2.010616936507
100
AcDbArc
50
90.000000000000
51
180.000000000000
0
ARC
5
8cd
100
AcDbEntity
8
0-2
6
CONTINUOUS
62
7
100
AcDbCircle
10
1009.220000000000
20
485.600000000000
30
0.0
40
2.010616936507
100
AcDbArc
50
300.723556518555
51
74.577438354492
0
ARC
5
8ce
100
AcDbEntity
8
0-2
6
CONTINUOUS
62
7
100
AcDbCircle
10
997.700000000000
20
476.620000000000
30
0.0
40
1.005308468254
100
AcDbArc
50
270.000000000000
51
300.723556518555
0
ARC
5
8cf
100
AcDbEntity
8
0-2
6
CONTINUOUS
62
7
100
AcDbCircle
10
1009.130000000000
20
485.590000000000
30
0.0
40
1.044388761474
100
AcDbArc
50
299.181228637695
51
70.185562133789
0
ARC
5
8d0
100
AcDbEntity
8
0-2
6
CONTINUOUS
62
7
100
AcDbCircle
10
1026.930000000000
20
476.620000000000
30
0.0
40
1.005308468254
100
AcDbArc
50
233.023895263672
51
270.000000000000
0
ARC
5
8d1
100
AcDbEntity
8
0-2
6
CONTINUOUS
62
7
100
AcDbCircle
10
717.490000000000
20
479.640000000000
30
0.0
40
3.015925404761
100
AcDbArc
50
180.000000000000
51
270.000000000000
0
ARC
5
8d2
100
AcDbEntity
8
0-2
6
CONTINUOUS
62
7
100
AcDbCircle
10
708.450000000000
20
479.640000000000
30
0.0
40
4.021233873015
100
AcDbArc
50
270.000000000000
51
360.000000000000
0
ARC
5
8d3
100
AcDbEntity
8
0-2
6
CONTINUOUS
62
7
100
AcDbCircle
10
708.450000000000
20
479.640000000000
30
0.0
40
3.015925404761
100
AcDbArc
50
270.000000000000
51
360.000000000000
0
ARC
5
8d4
100
AcDbEntity
8
0-2
6
CONTINUOUS
62
7
100
AcDbCircle
10
709.450000000000
20
484.670000000000
30
0.0
40
2.010616936507
100
AcDbArc
50
360.000000000000
51
90.000000000000
0
ARC
5
8d5
100
AcDbEntity
8
0-2
6
CONTINUOUS
62
7
100
AcDbCircle
10
709.450000000000
20
484.670000000000
30
0.0
40
3.015925404761
100
AcDbArc
50
360.000000000000
51
90.000000000000
0
ARC
5
8d6
100
AcDbEntity
8
0-2
6
CONTINUOUS
62
7
100
AcDbCircle
10
706.840000000000
20
489.690000000000
30
0.0
40
3.015925404761
100
AcDbArc
50
180.000000000000
51
270.000000000000
0
ARC
5
8d7
100
AcDbEntity
8
0-2
6
CONTINUOUS
62
7
100
AcDbCircle
10
706.840000000000
20
489.690000000000
30
0.0
40
2.010616936507
100
AcDbArc
50
180.000000000000
51
270.000000000000
0
ARC
5
8d8
100
AcDbEntity
8
0-2
6
CONTINUOUS
62
7
100
AcDbCircle
10
712.970000000000
20
492.510000000000
30
0.0
40
8.142998360604
100
AcDbArc
50
360.000000000000
51
180.000000000000
0
ARC
5
8d9
100
AcDbEntity
8
0-2
6
CONTINUOUS
62
7
100
AcDbCircle
10
712.970000000000
20
492.510000000000
30
0.0
40
9.148304506348
100
AcDbArc
50
360.000000000000
51
180.000000000000
0
ARC
5
8da
100
AcDbEntity
8
0-2
6
CONTINUOUS
62
7
100
AcDbCircle
10
718.200000000000
20
490.700000000000
30
0.0
40
4.021233873015
100
AcDbArc
50
281.787841796875
51
12.838577270508
0
ARC
5
8db
100
AcDbEntity
8
0-2
6
CONTINUOUS
62
7
100
AcDbCircle
10
718.200000000000
20
490.700000000000
30
0.0
40
3.015925404761
100
AcDbArc
50
281.219482421875
51
14.835113525391
0
ARC
5
8dc
100
AcDbEntity
8
0-2
6
CONTINUOUS
62
7
100
AcDbCircle
10
719.430000000000
20
484.790000000000
30
0.0
40
3.015925404761
100
AcDbArc
50
101.787841796875
51
149.900238037109
0
ARC
5
8dd
100
AcDbEntity
8
0-2
6
CONTINUOUS
62
7
100
AcDbCircle
10
719.430000000000
20
484.790000000000
30
0.0
40
2.010616936507
100
AcDbArc
50
101.787841796875
51
149.900238037109
0
ARC
5
8de
100
AcDbEntity
8
0-2
6
CONTINUOUS
62
7
100
AcDbCircle
10
993.180000000000
20
474.620000000000
30
0.0
40
0.999999984825
100
AcDbArc
50
90.000000000000
51
137.076217651367
0
ARC
5
8df
100
AcDbEntity
8
0-2
6
CONTINUOUS
62
7
100
AcDbCircle
10
993.180000000000
20
474.620000000000
30
0.0
40
2.004999752806
100
AcDbArc
50
90.000000000000
51
137.076217651367
0
ARC
5
8e0
100
AcDbEntity
8
0-2
6
CONTINUOUS
62
7
100
AcDbCircle
10
1111.320000000000
20
386.620000000000
30
0.0
40
1.005308468254
100
AcDbArc
50
180.000000000000
51
270.000000000000
0
ARC
5
8e1
100
AcDbEntity
8
0-2
6
CONTINUOUS
62
7
100
AcDbCircle
10
1110.310000000000
20
391.270000000000
30
0.0
40
1.005308468254
100
AcDbArc
50
360.000000000000
51
401.612609863281
0
ARC
5
8e2
100
AcDbEntity
8
0-2
6
CONTINUOUS
62
7
100
AcDbCircle
10
1214.310000000000
20
391.270000000000
30
0.0
40
1.005308468254
100
AcDbArc
50
138.387374877930
51
180.000000000000
0
ARC
5
8e3
100
AcDbEntity
8
0-2
6
CONTINUOUS
62
7
100
AcDbCircle
10
1213.310000000000
20
386.620000000000
30
0.0
40
1.005308468254
100
AcDbArc
50
270.000000000000
51
0.000000000000
0
ARC
5
8e4
100
AcDbEntity
8
0-2
6
CONTINUOUS
62
7
100
AcDbCircle
10
732.100000000000
20
474.620000000000
30
0.0
40
0.999999984825
100
AcDbArc
50
42.919921875000
51
90.000000000000
0
ARC
5
8e5
100
AcDbEntity
8
0-2
6
CONTINUOUS
62
7
100
AcDbCircle
10
732.100000000000
20
474.620000000000
30
0.0
40
2.004999752806
100
AcDbArc
50
42.919921875000
51
90.000000000000
0
ARC
5
8e6
100
AcDbEntity
8
0-2
6
CONTINUOUS
62
7
100
AcDbCircle
10
693.840000000000
20
474.620000000000
30
0.0
40
0.999999984825
100
AcDbArc
50
90.000000000000
51
137.080078125000
0
ARC
5
8e7
100
AcDbEntity
8
0-2
6
CONTINUOUS
62
7
100
AcDbCircle
10
693.840000000000
20
474.620000000000
30
0.0
40
2.004999752806
100
AcDbArc
50
90.000000000000
51
137.080078125000
0
ARC
5
8e8
100
AcDbEntity
8
0-2
6
CONTINUOUS
62
7
100
AcDbCircle
10
1031.450000000000
20
474.620000000000
30
0.0
40
0.999999984825
100
AcDbArc
50
42.923782348633
51
90.000000000000
0
ARC
5
8e9
100
AcDbEntity
8
0-2
6
CONTINUOUS
62
7
100
AcDbCircle
10
1031.450000000000
20
474.620000000000
30
0.0
40
2.004999752806
100
AcDbArc
50
42.923782348633
51
90.000000000000
0
ARC
5
8ea
100
AcDbEntity
8
0-2
6
CONTINUOUS
62
4
100
AcDbCircle
10
811.320000000000
20
386.620000000000
30
0.0
40
6.005308392378
100
AcDbArc
50
180.000000000000
51
270.000000000000
0
ARC
5
8eb
100
AcDbEntity
8
0-2
6
CONTINUOUS
62
4
100
AcDbCircle
10
913.310000000000
20
386.620000000000
30
0.0
40
6.005308392378
100
AcDbArc
50
270.000000000000
51
360.000000000000
0
ARC
5
8ec
100
AcDbEntity
8
0-2
6
CONTINUOUS
62
4
100
AcDbCircle
10
1111.720000000000
20
386.620000000000
30
0.0
40
6.005308392378
100
AcDbArc
50
180.000000000000
51
270.000000000000
0
ARC
5
8ed
100
AcDbEntity
8
0-2
6
CONTINUOUS
62
4
100
AcDbCircle
10
1213.700000000000
20
386.620000000000
30
0.0
40
6.005308392378
100
AcDbArc
50
270.000000000000
51
360.000000000000
0
ARC
5
8ee
100
AcDbEntity
8
0-2
6
CONTINUOUS
62
7
100
AcDbCircle
10
1410.310000000000
20
391.270000000000
30
0.0
40
1.005308468254
100
AcDbArc
50
360.000000000000
51
41.612625122070
0
ARC
5
8ef
100
AcDbEntity
8
0-2
6
CONTINUOUS
62
7
100
AcDbCircle
10
1411.320000000000
20
386.620000000000
30
0.0
40
1.005308468254
100
AcDbArc
50
180.000000000000
51
270.000000000000
0
ARC
5
8f0
100
AcDbEntity
8
0-2
6
CONTINUOUS
62
4
100
AcDbCircle
10
1411.320000000000
20
386.620000000000
30
0.0
40
6.005308392378
100
AcDbArc
50
180.000000000000
51
270.000000000000
0
ARC
5
8f1
100
AcDbEntity
8
0-2
6
CONTINUOUS
62
7
100
AcDbCircle
10
614.310000000000
20
391.270000000000
30
0.0
40
1.005308468254
100
AcDbArc
50
138.387374877930
51
180.000000000000
0
ARC
5
8f2
100
AcDbEntity
8
0-2
6
CONTINUOUS
62
7
100
AcDbCircle
10
613.310000000000
20
386.620000000000
30
0.0
40
1.005308468254
100
AcDbArc
50
270.000000000000
51
0.000000000000
0
ARC
5
8f3
100
AcDbEntity
8
0-2
6
CONTINUOUS
62
4
100
AcDbCircle
10
613.700000000000
20
386.620000000000
30
0.0
40
6.005308392378
100
AcDbArc
50
270.000000000000
51
360.000000000000
0
ARC
5
8f4
100
AcDbEntity
8
0-2
6
CONTINUOUS
62
7
100
AcDbCircle
10
1015.400000000000
20
485.600000000000
30
0.0
40
2.010616936507
100
AcDbArc
50
105.422576904297
51
239.276458740234
0
ARC
5
8f5
100
AcDbEntity
8
0-2
6
CONTINUOUS
62
7
100
AcDbCircle
10
711.470000000000
20
486.390000000000
30
0.0
40
0.999999984825
100
AcDbArc
50
360.000000000000
51
443.786636352539
0
ARC
5
8f6
100
AcDbEntity
8
0-2
6
CONTINUOUS
62
7
100
AcDbCircle
10
711.470000000000
20
486.390000000000
30
0.0
40
1.999999969650
100
AcDbArc
50
360.000000000000
51
440.487396240234
0
ARC
5
8f7
100
AcDbEntity
8
0-2
6
CONTINUOUS
62
7
100
AcDbCircle
10
1010.310000000000
20
486.710000000000
30
0.0
40
0.999999984825
100
AcDbArc
50
360.000000000000
51
450.000000000000
0
ARC
5
8f8
100
AcDbEntity
8
0-2
6
CONTINUOUS
62
7
100
AcDbCircle
10
1010.310000000000
20
486.710000000000
30
0.0
40
1.999999969650
100
AcDbArc
50
360.000000000000
51
450.000000000000
0
ARC
5
8f9
100
AcDbEntity
8
0-2
6
CONTINUOUS
62
7
100
AcDbCircle
10
1014.310000000000
20
486.710000000000
30
0.0
40
0.999999984825
100
AcDbArc
50
90.000000000000
51
180.000000000000
0
ARC
5
8fa
100
AcDbEntity
8
0-2
6
CONTINUOUS
62
7
100
AcDbCircle
10
1014.310000000000
20
486.710000000000
30
0.0
40
1.999999969650
100
AcDbArc
50
90.000000000000
51
180.000000000000
0
ARC
5
8fb
100
AcDbEntity
8
0-2
6
CONTINUOUS
62
7
100
AcDbCircle
10
1007.810000000000
20
489.710000000000
30
0.0
40
0.999999984825
100
AcDbArc
50
158.336166381836
51
270.000000000000
0
ARC
5
8fc
100
AcDbEntity
8
0-2
6
CONTINUOUS
62
7
100
AcDbCircle
10
1007.810000000000
20
489.710000000000
30
0.0
40
1.999999969650
100
AcDbArc
50
156.480834960938
51
270.000000000000
0
ARC
5
8fd
100
AcDbEntity
8
0-2
6
CONTINUOUS
62
7
100
AcDbCircle
10
1016.810000000000
20
489.710000000000
30
0.0
40
0.999999984825
100
AcDbArc
50
270.000000000000
51
381.663833618164
0
ARC
5
8fe
100
AcDbEntity
8
0-2
6
CONTINUOUS
62
7
100
AcDbCircle
10
1016.810000000000
20
489.710000000000
30
0.0
40
1.999999969650
100
AcDbArc
50
270.000000000000
51
383.519165039063
0
ARC
5
8ff
100
AcDbEntity
8
0-2
6
CONTINUOUS
62
7
100
AcDbCircle
10
1020.200000000000
20
462.660000000000
30
0.0
40
4.907479646146
100
AcDbArc
50
329.999984741211
51
389.999984741211
0
ARC
5
900
100
AcDbEntity
8
0-2
6
CONTINUOUS
62
7
100
AcDbCircle
10
1020.200000000000
20
447.940000000000
30
0.0
40
4.907479646146
100
AcDbArc
50
329.999984741211
51
389.999984741211
0
ARC
5
901
100
AcDbEntity
8
0-2
6
CONTINUOUS
62
7
100
AcDbCircle
10
1011.570000000000
20
455.300000000000
30
0.0
40
13.779200321050
100
AcDbArc
50
339.135986328125
51
380.863998413086
0
ARC
5
902
100
AcDbEntity
8
0-2
6
CONTINUOUS
62
7
100
AcDbCircle
10
1007.460000000000
20
462.660000000000
30
0.0
40
4.907479646146
100
AcDbArc
50
150.000015258789
51
210.000015258789
0
ARC
5
903
100
AcDbEntity
8
0-2
6
CONTINUOUS
62
7
100
AcDbCircle
10
1007.460000000000
20
447.940000000000
30
0.0
40
4.907479646146
100
AcDbArc
50
150.000015258789
51
210.000015258789
0
ARC
5
904
100
AcDbEntity
8
0-2
6
CONTINUOUS
62
7
100
AcDbCircle
10
1016.090000000000
20
455.300000000000
30
0.0
40
13.779200321050
100
AcDbArc
50
159.136001586914
51
200.864013671875
0
ARC
5
905
100
AcDbEntity
8
0-2
6
CONTINUOUS
62
7
100
AcDbCircle
10
712.970000000000
20
492.510000000000
30
0.0
40
6.132379875757
100
AcDbArc
50
90.000000000000
51
180.000000000000
0
ARC
5
906
100
AcDbEntity
8
0-2
6
CONTINUOUS
62
7
100
AcDbCircle
10
711.880000000000
20
494.870000000000
30
0.0
40
6.490011947598
100
AcDbArc
50
201.352462768555
51
267.280883789063
0
ARC
5
907
100
AcDbEntity
8
0-2
6
CONTINUOUS
62
7
100
AcDbCircle
10
711.880000000000
20
494.870000000000
30
0.0
40
7.490012319508
100
AcDbArc
50
199.781402587891
51
267.280883789063
0
ARC
5
908
100
AcDbEntity
8
0-2
6
CONTINUOUS
62
7
100
AcDbCircle
10
708.670000000000
20
470.020000000000
30
0.0
40
1.499999977237
100
AcDbArc
50
360.000000000000
51
450.000000000000
0
ARC
5
909
100
AcDbEntity
8
0-2
6
CONTINUOUS
62
7
100
AcDbCircle
10
708.670000000000
20
470.020000000000
30
0.0
40
3.800000097168
100
AcDbArc
50
360.000000000000
51
450.000000000000
0
ARC
5
90a
100
AcDbEntity
8
0-2
6
CONTINUOUS
62
7
100
AcDbCircle
10
1007.510000000000
20
470.000000000000
30
0.0
40
1.499999977237
100
AcDbArc
50
360.000000000000
51
450.000000000000
0
ARC
5
90b
100
AcDbEntity
8
0-2
6
CONTINUOUS
62
7
100
AcDbCircle
10
1007.510000000000
20
470.000000000000
30
0.0
40
3.800000097168
100
AcDbArc
50
360.000000000000
51
450.000000000000
0
ARC
5
90c
100
AcDbEntity
8
0-2
6
CONTINUOUS
62
7
100
AcDbCircle
10
1010.810000000000
20
436.300000000000
30
0.0
40
0.499999992412
100
AcDbArc
50
270.000000000000
51
0.000000000000
0
ARC
5
90d
100
AcDbEntity
8
0-2
6
CONTINUOUS
62
7
100
AcDbCircle
10
1010.810000000000
20
436.300000000000
30
0.0
40
1.499999977237
100
AcDbArc
50
270.000000000000
51
0.000000000000
0
ARC
5
90e
100
AcDbEntity
8
0-2
6
CONTINUOUS
62
7
100
AcDbCircle
10
720.200000000000
20
462.680000000000
30
0.0
40
4.907479646146
100
AcDbArc
50
329.999984741211
51
389.999984741211
0
ARC
5
90f
100
AcDbEntity
8
0-2
6
CONTINUOUS
62
7
100
AcDbCircle
10
720.200000000000
20
447.960000000000
30
0.0
40
4.907479646146
100
AcDbArc
50
329.999984741211
51
389.999984741211
0
ARC
5
910
100
AcDbEntity
8
0-2
6
CONTINUOUS
62
7
100
AcDbCircle
10
711.570000000000
20
455.320000000000
30
0.0
40
13.779200321050
100
AcDbArc
50
339.135986328125
51
380.863998413086
0
ARC
5
911
100
AcDbEntity
8
0-2
6
CONTINUOUS
62
7
100
AcDbCircle
10
708.820000000000
20
462.680000000000
30
0.0
40
4.907479646146
100
AcDbArc
50
150.000015258789
51
210.000015258789
0
ARC
5
912
100
AcDbEntity
8
0-2
6
CONTINUOUS
62
7
100
AcDbCircle
10
708.820000000000
20
447.960000000000
30
0.0
40
4.907479646146
100
AcDbArc
50
150.000015258789
51
210.000015258789
0
ARC
5
913
100
AcDbEntity
8
0-2
6
CONTINUOUS
62
7
100
AcDbCircle
10
717.450000000000
20
455.320000000000
30
0.0
40
13.779200321050
100
AcDbArc
50
159.136001586914
51
200.864013671875
0
ARC
5
914
100
AcDbEntity
8
0-2
6
CONTINUOUS
62
7
100
AcDbCircle
10
711.970000000000
20
436.320000000000
30
0.0
40
0.499999992412
100
AcDbArc
50
270.000000000000
51
0.000000000000
0
ARC
5
915
100
AcDbEntity
8
0-2
6
CONTINUOUS
62
7
100
AcDbCircle
10
711.970000000000
20
436.320000000000
30
0.0
40
1.499999977237
100
AcDbArc
50
270.000000000000
51
0.000000000000
0
ARC
5
916
100
AcDbEntity
8
0-2
6
CONTINUOUS
62
7
100
AcDbCircle
10
1317.490000000000
20
479.640000000000
30
0.0
40
4.021233873015
100
AcDbArc
50
180.000000000000
51
270.000000000000
0
ARC
5
917
100
AcDbEntity
8
0-2
6
CONTINUOUS
62
7
100
AcDbCircle
10
1318.200000000000
20
496.730000000000
30
0.0
40
3.015925404761
100
AcDbArc
50
169.720016479492
51
270.000000000000
0
ARC
5
918
100
AcDbEntity
8
0-2
6
CONTINUOUS
62
7
100
AcDbCircle
10
1318.200000000000
20
496.730000000000
30
0.0
40
4.021233873015
100
AcDbArc
50
180.000000000000
51
270.000000000000
0
ARC
5
919
100
AcDbEntity
8
0-2
6
CONTINUOUS
62
7
100
AcDbCircle
10
1313.250000000000
20
497.630000000000
30
0.0
40
2.010616936507
100
AcDbArc
50
349.720016479492
51
86.849822998047
0
ARC
5
91a
100
AcDbEntity
8
0-2
6
CONTINUOUS
62
7
100
AcDbCircle
10
1313.250000000000
20
497.630000000000
30
0.0
40
1.005308468254
100
AcDbArc
50
349.720016479492
51
106.275909423828
0
ARC
5
91b
100
AcDbEntity
8
0-2
6
CONTINUOUS
62
7
100
AcDbCircle
10
1312.970000000000
20
492.510000000000
30
0.0
40
7.137689118180
100
AcDbArc
50
86.849822998047
51
180.000000000000
0
ARC
5
91c
100
AcDbEntity
8
0-2
6
CONTINUOUS
62
7
100
AcDbCircle
10
1318.200000000000
20
490.700000000000
30
0.0
40
3.015925404761
100
AcDbArc
50
270.000000000000
51
90.000000000000
0
ARC
5
91d
100
AcDbEntity
8
0-2
6
CONTINUOUS
62
7
100
AcDbCircle
10
1318.200000000000
20
490.700000000000
30
0.0
40
2.010616936507
100
AcDbArc
50
270.000000000000
51
90.000000000000
0
ARC
5
91e
100
AcDbEntity
8
0-2
6
CONTINUOUS
62
7
100
AcDbCircle
10
1316.490000000000
20
485.670000000000
30
0.0
40
3.015925404761
100
AcDbArc
50
90.000000000000
51
180.000000000000
0
ARC
5
91f
100
AcDbEntity
8
0-2
6
CONTINUOUS
62
7
100
AcDbCircle
10
1316.490000000000
20
485.670000000000
30
0.0
40
2.010616936507
100
AcDbArc
50
90.000000000000
51
180.000000000000
0
ARC
5
920
100
AcDbEntity
8
0-2
6
CONTINUOUS
62
7
100
AcDbCircle
10
1317.490000000000
20
479.640000000000
30
0.0
40
3.015925404761
100
AcDbArc
50
180.000000000000
51
270.000000000000
0
ARC
5
921
100
AcDbEntity
8
0-2
6
CONTINUOUS
62
7
100
AcDbCircle
10
1308.450000000000
20
479.640000000000
30
0.0
40
4.021233873015
100
AcDbArc
50
270.000000000000
51
360.000000000000
0
ARC
5
922
100
AcDbEntity
8
0-2
6
CONTINUOUS
62
7
100
AcDbCircle
10
1308.450000000000
20
479.640000000000
30
0.0
40
3.015925404761
100
AcDbArc
50
270.000000000000
51
360.000000000000
0
ARC
5
923
100
AcDbEntity
8
0-2
6
CONTINUOUS
62
7
100
AcDbCircle
10
1309.450000000000
20
484.670000000000
30
0.0
40
2.010616936507
100
AcDbArc
50
360.000000000000
51
90.000000000000
0
ARC
5
924
100
AcDbEntity
8
0-2
6
CONTINUOUS
62
7
100
AcDbCircle
10
1309.450000000000
20
484.670000000000
30
0.0
40
3.015925404761
100
AcDbArc
50
360.000000000000
51
90.000000000000
0
ARC
5
925
100
AcDbEntity
8
0-2
6
CONTINUOUS
62
7
100
AcDbCircle
10
1306.840000000000
20
489.690000000000
30
0.0
40
3.015925404761
100
AcDbArc
50
180.000000000000
51
270.000000000000
0
ARC
5
926
100
AcDbEntity
8
0-2
6
CONTINUOUS
62
7
100
AcDbCircle
10
1306.840000000000
20
489.690000000000
30
0.0
40
2.010616936507
100
AcDbArc
50
180.000000000000
51
270.000000000000
0
ARC
5
927
100
AcDbEntity
8
0-2
6
CONTINUOUS
62
7
100
AcDbCircle
10
1312.970000000000
20
492.510000000000
30
0.0
40
8.142998360604
100
AcDbArc
50
360.000000000000
51
180.000000000000
0
ARC
5
928
100
AcDbEntity
8
0-2
6
CONTINUOUS
62
7
100
AcDbCircle
10
1312.970000000000
20
492.510000000000
30
0.0
40
9.148304506348
100
AcDbArc
50
360.000000000000
51
180.000000000000
0
ARC
5
929
100
AcDbEntity
8
0-2
6
CONTINUOUS
62
7
100
AcDbCircle
10
1318.200000000000
20
490.700000000000
30
0.0
40
4.021233873015
100
AcDbArc
50
281.787841796875
51
12.838577270508
0
ARC
5
92a
100
AcDbEntity
8
0-2
6
CONTINUOUS
62
7
100
AcDbCircle
10
1318.200000000000
20
490.700000000000
30
0.0
40
3.015925404761
100
AcDbArc
50
281.219482421875
51
14.835113525391
0
ARC
5
92b
100
AcDbEntity
8
0-2
6
CONTINUOUS
62
7
100
AcDbCircle
10
1319.430000000000
20
484.790000000000
30
0.0
40
3.015925404761
100
AcDbArc
50
101.787841796875
51
149.900238037109
0
ARC
5
92c
100
AcDbEntity
8
0-2
6
CONTINUOUS
62
7
100
AcDbCircle
10
1319.430000000000
20
484.790000000000
30
0.0
40
2.010616936507
100
AcDbArc
50
101.787841796875
51
149.900238037109
0
ARC
5
92d
100
AcDbEntity
8
0-2
6
CONTINUOUS
62
7
100
AcDbCircle
10
1313.250000000000
20
497.630000000000
30
0.0
40
3.010616727790
100
AcDbArc
50
349.720016479492
51
86.849822998047
0
ARC
5
92e
100
AcDbEntity
8
0-2
6
CONTINUOUS
62
7
100
AcDbCircle
10
1332.100000000000
20
474.620000000000
30
0.0
40
0.999999984825
100
AcDbArc
50
42.919921875000
51
90.000000000000
0
ARC
5
92f
100
AcDbEntity
8
0-2
6
CONTINUOUS
62
7
100
AcDbCircle
10
1332.100000000000
20
474.620000000000
30
0.0
40
2.004999752806
100
AcDbArc
50
42.919921875000
51
90.000000000000
0
ARC
5
930
100
AcDbEntity
8
0-2
6
CONTINUOUS
62
7
100
AcDbCircle
10
1293.840000000000
20
474.620000000000
30
0.0
40
0.999999984825
100
AcDbArc
50
90.000000000000
51
137.080078125000
0
ARC
5
931
100
AcDbEntity
8
0-2
6
CONTINUOUS
62
7
100
AcDbCircle
10
1293.840000000000
20
474.620000000000
30
0.0
40
2.004999752806
100
AcDbArc
50
90.000000000000
51
137.080078125000
0
ARC
5
932
100
AcDbEntity
8
0-2
6
CONTINUOUS
62
7
100
AcDbCircle
10
1311.470000000000
20
486.390000000000
30
0.0
40
0.999999984825
100
AcDbArc
50
360.000000000000
51
443.786636352539
0
ARC
5
933
100
AcDbEntity
8
0-2
6
CONTINUOUS
62
7
100
AcDbCircle
10
1311.470000000000
20
486.390000000000
30
0.0
40
1.999999969650
100
AcDbArc
50
360.000000000000
51
440.487396240234
0
ARC
5
934
100
AcDbEntity
8
0-2
6
CONTINUOUS
62
7
100
AcDbCircle
10
1312.970000000000
20
492.510000000000
30
0.0
40
6.132379875757
100
AcDbArc
50
90.000000000000
51
180.000000000000
0
ARC
5
935
100
AcDbEntity
8
0-2
6
CONTINUOUS
62
7
100
AcDbCircle
10
1311.880000000000
20
494.870000000000
30
0.0
40
6.490011947598
100
AcDbArc
50
201.352462768555
51
267.280883789063
0
ARC
5
936
100
AcDbEntity
8
0-2
6
CONTINUOUS
62
7
100
AcDbCircle
10
1311.880000000000
20
494.870000000000
30
0.0
40
7.490012319508
100
AcDbArc
50
199.781402587891
51
267.280883789063
0
ARC
5
937
100
AcDbEntity
8
0-2
6
CONTINUOUS
62
7
100
AcDbCircle
10
1308.670000000000
20
470.020000000000
30
0.0
40
1.499999977237
100
AcDbArc
50
360.000000000000
51
450.000000000000
0
ARC
5
938
100
AcDbEntity
8
0-2
6
CONTINUOUS
62
7
100
AcDbCircle
10
1308.670000000000
20
470.020000000000
30
0.0
40
3.800000097168
100
AcDbArc
50
360.000000000000
51
450.000000000000
0
ARC
5
939
100
AcDbEntity
8
0-2
6
CONTINUOUS
62
7
100
AcDbCircle
10
1320.200000000000
20
462.680000000000
30
0.0
40
4.907479646146
100
AcDbArc
50
329.999984741211
51
389.999984741211
0
ARC
5
93a
100
AcDbEntity
8
0-2
6
CONTINUOUS
62
7
100
AcDbCircle
10
1320.200000000000
20
447.960000000000
30
0.0
40
4.907479646146
100
AcDbArc
50
329.999984741211
51
389.999984741211
0
ARC
5
93b
100
AcDbEntity
8
0-2
6
CONTINUOUS
62
7
100
AcDbCircle
10
1311.570000000000
20
455.320000000000
30
0.0
40
13.779200321050
100
AcDbArc
50
339.135986328125
51
380.863998413086
0
ARC
5
93c
100
AcDbEntity
8
0-2
6
CONTINUOUS
62
7
100
AcDbCircle
10
1308.820000000000
20
462.680000000000
30
0.0
40
4.907479646146
100
AcDbArc
50
150.000015258789
51
210.000015258789
0
ARC
5
93d
100
AcDbEntity
8
0-2
6
CONTINUOUS
62
7
100
AcDbCircle
10
1308.820000000000
20
447.960000000000
30
0.0
40
4.907479646146
100
AcDbArc
50
150.000015258789
51
210.000015258789
0
ARC
5
93e
100
AcDbEntity
8
0-2
6
CONTINUOUS
62
7
100
AcDbCircle
10
1317.450000000000
20
455.320000000000
30
0.0
40
13.779200321050
100
AcDbArc
50
159.136001586914
51
200.864013671875
0
ARC
5
93f
100
AcDbEntity
8
0-2
6
CONTINUOUS
62
7
100
AcDbCircle
10
1311.970000000000
20
436.320000000000
30
0.0
40
0.499999992412
100
AcDbArc
50
270.000000000000
51
0.000000000000
0
ARC
5
940
100
AcDbEntity
8
0-2
6
CONTINUOUS
62
7
100
AcDbCircle
10
1311.970000000000
20
436.320000000000
30
0.0
40
1.499999977237
100
AcDbArc
50
270.000000000000
51
0.000000000000
0
ARC
5
941
100
AcDbEntity
8
0-2
6
CONTINUOUS
62
7
100
AcDbCircle
10
1012.350000000000
20
492.610000000000
30
0.0
40
9.148304506348
100
AcDbArc
50
359.495635986328
51
90.240798950195
0
ARC
5
942
100
AcDbEntity
8
0-2
6
CONTINUOUS
62
7
100
AcDbCircle
10
1012.280000000000
20
492.610000000000
30
0.0
40
9.148304506348
100
AcDbArc
50
89.805130004883
51
180.504379272461
0
ARC
5
943
100
AcDbEntity
8
0-2
6
CONTINUOUS
62
7
100
AcDbCircle
10
1012.280000000000
20
492.610000000000
30
0.0
40
8.142998360604
100
AcDbArc
50
89.781066894531
51
180.504379272461
0
ARC
5
944
100
AcDbEntity
8
0-2
6
CONTINUOUS
62
7
100
AcDbCircle
10
1012.350000000000
20
492.610000000000
30
0.0
40
8.142998360604
100
AcDbArc
50
359.495635986328
51
90.270538330078
0
ARC
5
945
100
AcDbEntity
8
0-2
6
CONTINUOUS
62
7
100
AcDbCircle
10
1010.890000000000
20
375.390000000000
30
0.0
40
2.700000191278
100
AcDbArc
50
288.372436523438
51
0.127700805664
0
ARC
5
946
100
AcDbEntity
8
0-2
6
CONTINUOUS
62
7
100
AcDbCircle
10
1010.890000000000
20
375.390000000000
30
0.0
40
5.000000311209
100
AcDbArc
50
283.459121704102
51
0.127700805664
0
CIRCLE
5
947
100
AcDbEntity
8
0-1
6
CONTINUOUS
62
7
100
AcDbCircle
10
370.270000000000
20
455.320000000000
30
0.0
40
5.000000311209
0
ARC
5
948
100
AcDbEntity
8
0-2
6
CONTINUOUS
62
7
100
AcDbCircle
10
713.250000000000
20
497.630000000000
30
0.0
40
3.010616727790
100
AcDbArc
50
349.717758178711
51
86.849822998047
0
ARC
5
949
100
AcDbEntity
8
0-1
6
CONTINUOUS
62
7
100
AcDbCircle
10
424.750000000000
20
477.020000000000
30
0.0
40
4.999999924124
100
AcDbArc
50
270.000000000000
51
0.000000000000
0
ARC
5
94a
100
AcDbEntity
8
0-1
6
CONTINUOUS
62
7
100
AcDbCircle
10
395.250000000000
20
467.020000000000
30
0.0
40
4.999999924124
100
AcDbArc
50
90.000000000000
51
180.000000000000
0
ARC
5
94b
100
AcDbEntity
8
0-1
6
CONTINUOUS
62
7
100
AcDbCircle
10
315.750000000000
20
477.020000000000
30
0.0
40
4.999999924124
100
AcDbArc
50
180.000000000000
51
-90.000000000000
0
ARC
5
94c
100
AcDbEntity
8
0-1
6
CONTINUOUS
62
7
100
AcDbCircle
10
345.250000000000
20
467.020000000000
30
0.0
40
4.999999924124
100
AcDbArc
50
360.000000000000
51
450.000000000000
0
TEXT
5
94d
100
AcDbEntity
8
0-0
62
3
370
-3
100
AcDbText
10
718.432
20
877.361
30
0.0
40
13.127
41
0.597
50
0.000
1
20
72
1
11
727.207
21
875.902
31
0.0
100
AcDbText
73
1
0
TEXT
5
94e
100
AcDbEntity
8
0-0
62
3
370
-3
100
AcDbText
10
1290.431
20
877.361
30
0.0
40
13.127
41
0.597
50
0.000
1
20
72
1
11
1299.206
21
875.902
31
0.0
100
AcDbText
73
1
0
TEXT
5
94f
100
AcDbEntity
8
0-0
62
3
370
-3
100
AcDbText
10
1149.931
20
701.920
30
0.0
40
13.127
41
0.736
50
0.005
1
104
72
1
11
1163.094
21
700.463
31
0.0
100
AcDbText
73
1
0
TEXT
5
950
100
AcDbEntity
8
0-1
62
3
370
-3
100
AcDbText
10
209.874
20
481.229
30
0.0
40
13.127
41
0.542
50
90.000
1
26
72
1
11
211.332
21
490.004
31
0.0
100
AcDbText
73
1
0
TEXT
5
951
100
AcDbEntity
8
0-1
62
3
370
-3
100
AcDbText
10
209.874
20
370.646
30
0.0
40
13.127
41
0.712
50
90.000
1
15
72
1
11
211.332
21
379.421
31
0.0
100
AcDbText
73
1
0
TEXT
5
952
100
AcDbEntity
8
0-1
62
3
370
-3
100
AcDbText
10
362.392
20
407.029
30
0.0
40
13.127
41
0.572
50
0.000
1
35
72
1
11
371.167
21
405.571
31
0.0
100
AcDbText
73
1
0
TEXT
5
953
100
AcDbEntity
8
0-1
62
3
370
-3
100
AcDbText
10
209.874
20
423.713
30
0.0
40
13.127
41
0.657
50
90.000
1
90
72
1
11
211.332
21
432.488
31
0.0
100
AcDbText
73
1
0
TEXT
5
954
100
AcDbEntity
8
0-1
62
3
370
-3
100
AcDbText
10
414.368
20
433.860
30
0.0
40
11.486
1
吊子
41
0.979
50
0.000
100
AcDbText
0
TEXT
5
955
100
AcDbEntity
8
0-1
62
3
370
-3
100
AcDbText
10
239.404
20
416.046
30
0.0
40
11.486
1
タイトフレーム
41
0.979
50
0.000
100
AcDbText
0
TEXT
5
956
100
AcDbEntity
8
0-2
62
3
370
-3
100
AcDbText
10
761.519
20
506.088
30
0.0
40
11.486
1
吊子
41
0.979
50
0.000
100
AcDbText
0
TEXT
5
957
100
AcDbEntity
8
F-F
62
3
370
-3
100
AcDbText
10
532.090
20
75.752
30
0.0
40
4.923
1
変　　　　　　更　　　　　　記　　　　　　事
41
0.999
50
0.000
100
AcDbText
0
TEXT
5
958
100
AcDbEntity
8
F-F
62
3
370
-3
100
AcDbText
10
815.825
20
74.952
30
0.0
40
4.923
1
受領　　日附
41
0.999
50
0.000
100
AcDbText
0
TEXT
5
959
100
AcDbEntity
8
F-F
62
3
370
-3
100
AcDbText
10
1014.042
20
45.520
30
0.0
40
4.923
1
施工者
41
0.999
50
0.000
100
AcDbText
0
TEXT
5
95a
100
AcDbEntity
8
F-F
62
3
370
-3
100
AcDbText
10
1014.042
20
75.150
30
0.0
40
4.923
1
設計者
41
0.999
50
0.000
100
AcDbText
0
TEXT
5
95b
100
AcDbEntity
8
F-F
62
3
370
-3
100
AcDbText
10
1219.525
20
44.977
30
0.0
40
4.923
1
作図
41
0.999
50
0.000
100
AcDbText
0
TEXT
5
95c
100
AcDbEntity
8
F-F
62
3
370
-3
100
AcDbText
10
1291.352
20
45.508
30
0.0
40
4.923
1
図面名
41
0.999
50
0.000
100
AcDbText
0
TEXT
5
95d
100
AcDbEntity
8
F-F
62
3
370
-3
100
AcDbText
10
1219.525
20
74.607
30
0.0
40
4.923
1
日附
41
0.999
50
0.000
100
AcDbText
0
TEXT
5
95e
100
AcDbEntity
8
F-F
62
3
370
-3
100
AcDbText
10
1291.352
20
75.137
30
0.0
40
4.923
1
工事件名
41
0.999
50
0.000
100
AcDbText
0
TEXT
5
95f
100
AcDbEntity
8
F-F
62
3
370
-3
100
AcDbText
10
1241.661
20
74.355
30
0.0
40
4.923
1
年　月　日
41
0.999
50
0.000
100
AcDbText
0
TEXT
5
960
100
AcDbEntity
8
F-F
62
3
370
-3
100
AcDbText
10
1241.661
20
44.726
30
0.0
40
4.923
1
年　月　日
41
0.999
50
0.000
100
AcDbText
0
TEXT
5
961
100
AcDbEntity
8
F-F
62
3
370
-3
100
AcDbText
10
1543.695
20
75.137
30
0.0
40
4.923
1
設計番号
41
0.999
50
0.000
100
AcDbText
0
MTEXT
5
962
100
AcDbEntity
8
F-F
62
3
370
-3
100
AcDbMText
10
387.012
20
67.821
30
0.0
40
4.649
41
0.000
71
7
72
1
1
\W1.134;{\W0.817;. }　{\W0.817;.}　{\W0.817; }
7
STANDARD
11
1.00000
21
0.00000
31
0.0
0
MTEXT
5
963
100
AcDbEntity
8
F-F
62
3
370
-3
100
AcDbMText
10
387.012
20
57.945
30
0.0
40
4.649
41
0.000
71
7
72
1
1
\W1.134;{\W0.817;. }　{\W0.817;.}　{\W0.817; }
7
STANDARD
11
1.00000
21
0.00000
31
0.0
0
MTEXT
5
964
100
AcDbEntity
8
F-F
62
3
370
-3
100
AcDbMText
10
387.012
20
48.068
30
0.0
40
4.649
41
0.000
71
7
72
1
1
\W1.134;{\W0.817;. }　{\W0.817;.}　{\W0.817; }
7
STANDARD
11
1.00000
21
0.00000
31
0.0
0
MTEXT
5
965
100
AcDbEntity
8
F-F
62
3
370
-3
100
AcDbMText
10
387.012
20
38.191
30
0.0
40
4.649
41
0.000
71
7
72
1
1
\W1.134;{\W0.817;. }　{\W0.817;.}　{\W0.817; }
7
STANDARD
11
1.00000
21
0.00000
31
0.0
0
MTEXT
5
966
100
AcDbEntity
8
F-F
62
3
370
-3
100
AcDbMText
10
387.012
20
28.314
30
0.0
40
4.649
41
0.000
71
7
72
1
1
\W1.134;{\W0.817;. }　{\W0.817;.}　{\W0.817; }
7
STANDARD
11
1.00000
21
0.00000
31
0.0
0
TEXT
5
967
100
AcDbEntity
8
F-F
62
3
370
-3
100
AcDbText
10
1034.383
20
62.373
30
0.0
40
6.564
1
　　　　　　　　　　
41
0.963
50
0.000
100
AcDbText
0
TEXT
5
968
100
AcDbEntity
8
F-F
62
3
370
-3
100
AcDbText
10
1034.383
20
32.743
30
0.0
40
6.564
1
　　　　　　　　　　
41
0.963
50
0.000
100
AcDbText
0
TEXT
5
969
100
AcDbEntity
8
F-F
62
3
370
-3
100
AcDbText
10
1317.846
20
63.920
30
0.0
40
6.564
1
　　　　　　　　　　　　　
41
0.963
50
0.000
100
AcDbText
0
TEXT
5
96a
100
AcDbEntity
8
F-F
62
3
370
-3
100
AcDbText
10
378.040
20
75.687
30
0.0
40
4.923
1
年　月　日
41
0.999
50
0.000
100
AcDbText
0
TEXT
5
96b
100
AcDbEntity
8
F-F
62
3
370
-3
100
AcDbText
10
872.996
20
74.368
30
0.0
40
4.923
1
年　　月　　日
41
0.999
50
0.000
100
AcDbText
0
MTEXT
5
96c
100
AcDbEntity
8
F-F
62
3
370
-3
100
AcDbMText
10
885.548
20
63.398
30
0.0
40
4.649
41
0.000
71
7
72
1
1
\W1.134;{\W0.817;.}　{\W0.817; }　{\W0.817;.}
7
STANDARD
11
1.00000
21
0.00000
31
0.0
0
TEXT
5
96d
100
AcDbEntity
8
F-F
62
3
370
-3
100
AcDbText
10
815.825
20
45.323
30
0.0
40
4.923
1
受領　　日附
41
0.999
50
0.000
100
AcDbText
0
TEXT
5
96e
100
AcDbEntity
8
F-F
62
3
370
-3
100
AcDbText
10
872.996
20
44.738
30
0.0
40
4.923
1
年　　月　　日
41
0.999
50
0.000
100
AcDbText
0
MTEXT
5
96f
100
AcDbEntity
8
F-F
62
3
370
-3
100
AcDbMText
10
885.548
20
33.769
30
0.0
40
4.649
41
0.000
71
7
72
1
1
\W1.134;{\W0.817;.}　{\W0.817; }　{\W0.817;.}
7
STANDARD
11
1.00000
21
0.00000
31
0.0
0
MTEXT
5
970
100
AcDbEntity
8
F-F
62
3
370
-3
100
AcDbMText
10
1248.433
20
61.685
30
0.0
40
4.649
41
0.000
71
7
72
1
1
\W1.134;{\W0.817;.}　　{\W0.817;.}　
7
STANDARD
11
1.00000
21
0.00000
31
0.0
0
TEXT
5
971
100
AcDbEntity
8
F-F
62
3
370
-3
100
AcDbText
10
1543.695
20
45.508
30
0.0
40
4.923
1
縮　尺
41
0.999
50
0.000
100
AcDbText
0
TEXT
5
972
100
AcDbEntity
8
F-F
62
3
370
-3
100
AcDbText
10
1567.012
20
41.647
30
0.0
40
6.564
1
Ａ１－１／２　
41
0.963
50
0.000
100
AcDbText
0
TEXT
5
973
100
AcDbEntity
8
F-F
62
3
370
-3
100
AcDbText
10
1567.012
20
26.832
30
0.0
40
6.564
1
Ａ３－１／４　
41
0.963
50
0.000
100
AcDbText
0
TEXT
5
974
100
AcDbEntity
8
0-0
62
3
370
-3
100
AcDbText
10
1177.996
20
773.718
30
0.0
40
13.127
41
0.657
50
90.000
1
90
72
1
11
1179.454
21
782.493
31
0.0
100
AcDbText
73
1
0
TEXT
5
975
100
AcDbEntity
8
0-0
62
3
370
-3
100
AcDbText
10
849.931
20
701.920
30
0.0
40
13.127
41
0.736
50
0.005
1
104
72
1
11
863.094
21
700.463
31
0.0
100
AcDbText
73
1
0
TEXT
5
976
100
AcDbEntity
8
0-0
62
3
370
-3
100
AcDbText
10
1000.088
20
937.959
30
0.0
40
16.409
41
0.638
50
0.000
1
600
72
1
11
1016.175
21
936.136
31
0.0
100
AcDbText
73
1
0
TEXT
5
977
100
AcDbEntity
8
0-0
62
3
370
-3
100
AcDbText
10
847.088
20
907.960
30
0.0
40
16.409
41
0.643
50
0.000
1
300
72
1
11
863.175
21
906.136
31
0.0
100
AcDbText
73
1
0
TEXT
5
978
100
AcDbEntity
8
0-0
62
3
370
-3
100
AcDbText
10
1147.088
20
907.960
30
0.0
40
16.409
41
0.643
50
0.000
1
300
72
1
11
1163.175
21
906.136
31
0.0
100
AcDbText
73
1
0
TEXT
5
979
100
AcDbEntity
8
F-F
62
3
370
-3
100
AcDbText
10
166.668
20
28.767
30
0.0
40
6.564
1
電話（０５４）２６３－２２８０（代表）
41
0.963
50
0.000
100
AcDbText
0
TEXT
5
97a
100
AcDbEntity
8
F-F
62
3
370
-3
100
AcDbText
10
122.770
20
61.158
30
0.0
40
13.127
1
小　池　弥　太　郎　商　店
41
0.963
50
0.000
100
AcDbText
0
TEXT
5
97b
100
AcDbEntity
8
F-F
62
3
370
-3
100
AcDbText
10
166.664
20
43.600
30
0.0
40
6.564
1
静岡県静岡市葵区流通センター１６番
41
0.963
50
0.000
100
AcDbText
0
TEXT
5
97c
100
AcDbEntity
8
F-F
62
3
370
-3
100
AcDbText
10
100.135
20
68.250
30
0.0
40
4.923
1
株
41
0.999
50
0.000
100
AcDbText
0
TEXT
5
97d
100
AcDbEntity
8
F-F
62
3
370
-3
100
AcDbText
10
107.285
20
61.000
30
0.0
40
4.923
1
社
41
0.999
50
0.000
100
AcDbText
0
TEXT
5
97e
100
AcDbEntity
8
F-F
62
3
370
-3
100
AcDbText
10
100.085
20
61.000
30
0.0
40
4.923
1
会
41
0.999
50
0.000
100
AcDbText
0
TEXT
5
97f
100
AcDbEntity
8
F-F
62
3
370
-3
100
AcDbText
10
106.885
20
68.050
30
0.0
40
4.923
1
式
41
0.999
50
0.000
100
AcDbText
0
TEXT
5
980
100
AcDbEntity
8
0-1
62
3
370
-3
100
AcDbText
10
179.275
20
420.818
30
0.0
40
16.409
41
0.774
50
90.000
1
131
72
1
11
181.099
21
436.906
31
0.0
100
AcDbText
73
1
0
TEXT
5
981
100
AcDbEntity
8
0-2
62
3
370
-3
100
AcDbText
10
843.432
20
531.991
30
0.0
40
13.127
41
0.658
50
0.000
1
300
72
1
11
856.594
21
530.533
31
0.0
100
AcDbText
73
1
0
TEXT
5
982
100
AcDbEntity
8
0-2
62
3
370
-3
100
AcDbText
10
1143.431
20
531.991
30
0.0
40
13.127
41
0.658
50
0.000
1
300
72
1
11
1156.594
21
530.533
31
0.0
100
AcDbText
73
1
0
TEXT
5
983
100
AcDbEntity
8
0-2
62
3
370
-3
100
AcDbText
10
993.432
20
557.033
30
0.0
40
13.127
41
0.653
50
0.000
1
600
72
1
11
1006.594
21
555.575
31
0.0
100
AcDbText
73
1
0
TEXT
5
984
100
AcDbEntity
8
0-2
62
3
370
-3
100
AcDbText
10
1362.182
20
557.033
30
0.0
40
13.127
41
0.633
50
0.000
1
@600
72
1
11
1379.732
21
555.575
31
0.0
100
AcDbText
73
1
0
TEXT
5
985
100
AcDbEntity
8
0-2
62
3
370
-3
100
AcDbText
10
611.182
20
557.033
30
0.0
40
13.127
41
0.633
50
0.000
1
@600
72
1
11
628.732
21
555.575
31
0.0
100
AcDbText
73
1
0
TEXT
5
986
100
AcDbEntity
8
0-2
62
3
370
-3
100
AcDbText
10
663.444
20
341.608
30
0.0
40
11.486
1
　　　タイトフレーム
41
0.979
50
0.000
100
AcDbText
0
TEXT
5
987
100
AcDbEntity
8
0-1
62
3
370
-3
100
AcDbText
10
355.029
20
532.548
30
0.0
40
16.409
41
0.794
50
0.000
1
119
72
1
11
371.117
21
530.725
31
0.0
100
AcDbText
73
1
0
MTEXT
5
988
100
AcDbEntity
8
0-1
62
3
370
-3
100
AcDbMText
10
333.259
20
515.205
30
0.0
40
6.199
41
0.000
71
7
72
1
1
\W1.093;（中間部吊子{\W0.787;115}）
7
STANDARD
11
1.00000
21
0.00000
31
0.0
0
TEXT
5
989
100
AcDbEntity
8
0-2
62
3
370
-3
100
AcDbText
10
1188.707
20
497.542
30
0.0
40
13.127
41
0.542
50
270.000
1
26
72
1
11
1187.248
21
488.767
31
0.0
100
AcDbText
73
1
0
TEXT
5
98a
100
AcDbEntity
8
0-2
62
3
370
-3
100
AcDbText
10
1188.707
20
439.470
30
0.0
40
13.127
41
0.657
50
270.000
1
90
72
1
11
1187.248
21
430.695
31
0.0
100
AcDbText
73
1
0
TEXT
5
98b
100
AcDbEntity
8
0-2
62
3
370
-3
100
AcDbText
10
1060.823
20
391.485
30
0.0
40
13.127
41
0.712
50
270.000
1
15
72
1
11
1059.364
21
382.710
31
0.0
100
AcDbText
73
1
0
TEXT
5
98c
100
AcDbEntity
8
0-2
62
3
370
-3
100
AcDbText
10
759.266
20
472.043
30
0.0
40
11.486
1
ＫＲ９０ハゼ
41
0.979
50
0.000
100
AcDbText
0
TEXT
5
98d
100
AcDbEntity
8
F-F
62
3
370
-3
100
AcDbText
10
1317.846
20
34.290
30
0.0
40
6.564
1
コイケルーフ丸ハゼ折板　ＫＲ９０ハゼ　断面図
41
0.963
50
0.000
100
AcDbText
0
TEXT
5
98e
100
AcDbEntity
8
F-F
62
3
370
-3
100
AcDbText
10
1558.835
20
61.186
30
0.0
40
8.205
1
KR90 - 01
41
0.692
50
0.000
100
AcDbText
0
TEXT
5
98f
100
AcDbEntity
8
F-F
62
3
370
-3
100
AcDbText
10
1222.716
20
31.566
30
0.0
40
4.923
1
MA 2015-05-25
41
0.646
50
0.000
100
AcDbText
0
POLYLINE
5
990
100
AcDbEntity
  8
0-2
6
CONTINUOUS
62
3
100
AcDb2dPolyline
66
1
10
0
20
0
70
1
40
0.800
41
0.800
0
VERTEX
5
991
100
AcDbEntity
  8
0-2
6
CONTINUOUS
62
3
100
AcDbVertex
100
AcDb2dVertex
10
1074.834
20
385.622
30
0.0
42
1.000
0
VERTEX
5
992
100
AcDbEntity
  8
0-2
6
CONTINUOUS
62
3
100
AcDbVertex
100
AcDb2dVertex
10
1075.634
20
385.622
30
0.0
42
1.000
0
SEQEND
5
993
100
AcDbEntity
  8
0-2
0
POLYLINE
5
994
100
AcDbEntity
  8
0-2
6
CONTINUOUS
62
3
100
AcDb2dPolyline
66
1
10
0
20
0
70
1
40
0.800
41
0.800
0
VERTEX
5
995
100
AcDbEntity
  8
0-2
6
CONTINUOUS
62
3
100
AcDbVertex
100
AcDb2dVertex
10
1074.834
20
370.522
30
0.0
42
1.000
0
VERTEX
5
996
100
AcDbEntity
  8
0-2
6
CONTINUOUS
62
3
100
AcDbVertex
100
AcDb2dVertex
10
1075.634
20
370.522
30
0.0
42
1.000
0
SEQEND
5
997
100
AcDbEntity
  8
0-2
0
POLYLINE
5
998
100
AcDbEntity
  8
0-2
6
CONTINUOUS
62
3
100
AcDb2dPolyline
66
1
10
0
20
0
70
1
40
0.800
41
0.800
0
VERTEX
5
999
100
AcDbEntity
  8
0-2
6
CONTINUOUS
62
3
100
AcDbVertex
100
AcDb2dVertex
10
1182.913
20
476.666
30
0.0
42
1.000
0
VERTEX
5
99a
100
AcDbEntity
  8
0-2
6
CONTINUOUS
62
3
100
AcDbVertex
100
AcDb2dVertex
10
1183.713
20
476.666
30
0.0
42
1.000
0
SEQEND
5
99b
100
AcDbEntity
  8
0-2
0
POLYLINE
5
99c
100
AcDbEntity
  8
0-2
6
CONTINUOUS
62
3
100
AcDb2dPolyline
66
1
10
0
20
0
70
1
40
0.800
41
0.800
0
VERTEX
5
99d
100
AcDbEntity
  8
0-2
6
CONTINUOUS
62
3
100
AcDbVertex
100
AcDb2dVertex
10
1182.913
20
502.666
30
0.0
42
1.000
0
VERTEX
5
99e
100
AcDbEntity
  8
0-2
6
CONTINUOUS
62
3
100
AcDbVertex
100
AcDb2dVertex
10
1183.713
20
502.666
30
0.0
42
1.000
0
SEQEND
5
99f
100
AcDbEntity
  8
0-2
0
POLYLINE
5
9a0
100
AcDbEntity
  8
0-2
6
CONTINUOUS
62
3
100
AcDb2dPolyline
66
1
10
0
20
0
70
1
40
0.800
41
0.800
0
VERTEX
5
9a1
100
AcDbEntity
  8
0-2
6
CONTINUOUS
62
3
100
AcDbVertex
100
AcDb2dVertex
10
1182.913
20
386.522
30
0.0
42
1.000
0
VERTEX
5
9a2
100
AcDbEntity
  8
0-2
6
CONTINUOUS
62
3
100
AcDbVertex
100
AcDb2dVertex
10
1183.713
20
386.522
30
0.0
42
1.000
0
SEQEND
5
9a3
100
AcDbEntity
  8
0-2
0
POLYLINE
5
9a4
100
AcDbEntity
  8
0-0
6
CONTINUOUS
62
3
100
AcDb2dPolyline
66
1
10
0
20
0
70
1
40
0.800
41
0.800
0
VERTEX
5
9a5
100
AcDbEntity
  8
0-0
6
CONTINUOUS
62
3
100
AcDbVertex
100
AcDb2dVertex
10
1182.990
20
826.666
30
0.0
42
1.000
0
VERTEX
5
9a6
100
AcDbEntity
  8
0-0
6
CONTINUOUS
62
3
100
AcDbVertex
100
AcDb2dVertex
10
1183.790
20
826.666
30
0.0
42
1.000
0
SEQEND
5
9a7
100
AcDbEntity
  8
0-0
0
POLYLINE
5
9a8
100
AcDbEntity
  8
0-0
6
CONTINUOUS
62
3
100
AcDb2dPolyline
66
1
10
0
20
0
70
1
40
0.800
41
0.800
0
VERTEX
5
9a9
100
AcDbEntity
  8
0-0
6
CONTINUOUS
62
3
100
AcDbVertex
100
AcDb2dVertex
10
1182.990
20
736.522
30
0.0
42
1.000
0
VERTEX
5
9aa
100
AcDbEntity
  8
0-0
6
CONTINUOUS
62
3
100
AcDbVertex
100
AcDb2dVertex
10
1183.790
20
736.522
30
0.0
42
1.000
0
SEQEND
5
9ab
100
AcDbEntity
  8
0-0
0
POLYLINE
5
9ac
100
AcDbEntity
  8
0-0
6
CONTINUOUS
62
3
100
AcDb2dPolyline
66
1
10
0
20
0
70
1
40
0.800
41
0.800
0
VERTEX
5
9ad
100
AcDbEntity
  8
0-0
6
CONTINUOUS
62
3
100
AcDbVertex
100
AcDb2dVertex
10
1291.908
20
871.966
30
0.0
42
1.000
0
VERTEX
5
9ae
100
AcDbEntity
  8
0-0
6
CONTINUOUS
62
3
100
AcDbVertex
100
AcDb2dVertex
10
1292.708
20
871.966
30
0.0
42
1.000
0
SEQEND
5
9af
100
AcDbEntity
  8
0-0
0
POLYLINE
5
9b0
100
AcDbEntity
  8
0-0
6
CONTINUOUS
62
3
100
AcDb2dPolyline
66
1
10
0
20
0
70
1
40
0.800
41
0.800
0
VERTEX
5
9b1
100
AcDbEntity
  8
0-0
6
CONTINUOUS
62
3
100
AcDbVertex
100
AcDb2dVertex
10
1311.907
20
871.966
30
0.0
42
1.000
0
VERTEX
5
9b2
100
AcDbEntity
  8
0-0
6
CONTINUOUS
62
3
100
AcDbVertex
100
AcDb2dVertex
10
1312.707
20
871.966
30
0.0
42
1.000
0
SEQEND
5
9b3
100
AcDbEntity
  8
0-0
0
POLYLINE
5
9b4
100
AcDbEntity
  8
0-0
6
CONTINUOUS
62
3
100
AcDb2dPolyline
66
1
10
0
20
0
70
1
40
0.800
41
0.800
0
VERTEX
5
9b5
100
AcDbEntity
  8
0-0
6
CONTINUOUS
62
3
100
AcDbVertex
100
AcDb2dVertex
10
1311.907
20
901.966
30
0.0
42
1.000
0
VERTEX
5
9b6
100
AcDbEntity
  8
0-0
6
CONTINUOUS
62
3
100
AcDbVertex
100
AcDb2dVertex
10
1312.707
20
901.966
30
0.0
42
1.000
0
SEQEND
5
9b7
100
AcDbEntity
  8
0-0
0
POLYLINE
5
9b8
100
AcDbEntity
  8
0-0
6
CONTINUOUS
62
3
100
AcDb2dPolyline
66
1
10
0
20
0
70
1
40
0.800
41
0.800
0
VERTEX
5
9b9
100
AcDbEntity
  8
0-0
6
CONTINUOUS
62
3
100
AcDbVertex
100
AcDb2dVertex
10
731.908
20
871.966
30
0.0
42
1.000
0
VERTEX
5
9ba
100
AcDbEntity
  8
0-0
6
CONTINUOUS
62
3
100
AcDbVertex
100
AcDb2dVertex
10
732.708
20
871.966
30
0.0
42
1.000
0
SEQEND
5
9bb
100
AcDbEntity
  8
0-0
0
POLYLINE
5
9bc
100
AcDbEntity
  8
0-0
6
CONTINUOUS
62
3
100
AcDb2dPolyline
66
1
10
0
20
0
70
1
40
0.800
41
0.800
0
VERTEX
5
9bd
100
AcDbEntity
  8
0-0
6
CONTINUOUS
62
3
100
AcDbVertex
100
AcDb2dVertex
10
711.908
20
871.966
30
0.0
42
1.000
0
VERTEX
5
9be
100
AcDbEntity
  8
0-0
6
CONTINUOUS
62
3
100
AcDbVertex
100
AcDb2dVertex
10
712.708
20
871.966
30
0.0
42
1.000
0
SEQEND
5
9bf
100
AcDbEntity
  8
0-0
0
POLYLINE
5
9c0
100
AcDbEntity
  8
0-0
6
CONTINUOUS
62
3
100
AcDb2dPolyline
66
1
10
0
20
0
70
1
40
0.800
41
0.800
0
VERTEX
5
9c1
100
AcDbEntity
  8
0-0
6
CONTINUOUS
62
3
100
AcDbVertex
100
AcDb2dVertex
10
711.908
20
901.966
30
0.0
42
1.000
0
VERTEX
5
9c2
100
AcDbEntity
  8
0-0
6
CONTINUOUS
62
3
100
AcDbVertex
100
AcDb2dVertex
10
712.708
20
901.966
30
0.0
42
1.000
0
SEQEND
5
9c3
100
AcDbEntity
  8
0-0
0
POLYLINE
5
9c4
100
AcDbEntity
  8
0-0
6
CONTINUOUS
62
3
100
AcDb2dPolyline
66
1
10
0
20
0
70
1
40
0.800
41
0.800
0
VERTEX
5
9c5
100
AcDbEntity
  8
0-0
6
CONTINUOUS
62
3
100
AcDbVertex
100
AcDb2dVertex
10
1109.908
20
696.522
30
0.0
42
1.000
0
VERTEX
5
9c6
100
AcDbEntity
  8
0-0
6
CONTINUOUS
62
3
100
AcDbVertex
100
AcDb2dVertex
10
1110.708
20
696.522
30
0.0
42
1.000
0
SEQEND
5
9c7
100
AcDbEntity
  8
0-0
0
POLYLINE
5
9c8
100
AcDbEntity
  8
0-0
6
CONTINUOUS
62
3
100
AcDb2dPolyline
66
1
10
0
20
0
70
1
40
0.800
41
0.800
0
VERTEX
5
9c9
100
AcDbEntity
  8
0-0
6
CONTINUOUS
62
3
100
AcDbVertex
100
AcDb2dVertex
10
1213.907
20
696.531
30
0.0
42
1.000
0
VERTEX
5
9ca
100
AcDbEntity
  8
0-0
6
CONTINUOUS
62
3
100
AcDbVertex
100
AcDb2dVertex
10
1214.707
20
696.531
30
0.0
42
1.000
0
SEQEND
5
9cb
100
AcDbEntity
  8
0-0
0
POLYLINE
5
9cc
100
AcDbEntity
  8
0-1
6
CONTINUOUS
62
3
100
AcDb2dPolyline
66
1
10
0
20
0
70
1
40
0.800
41
0.800
0
VERTEX
5
9cd
100
AcDbEntity
  8
0-1
6
CONTINUOUS
62
3
100
AcDbVertex
100
AcDb2dVertex
10
214.868
20
501.554
30
0.0
42
1.000
0
VERTEX
5
9ce
100
AcDbEntity
  8
0-1
6
CONTINUOUS
62
3
100
AcDbVertex
100
AcDb2dVertex
10
215.668
20
501.554
30
0.0
42
1.000
0
SEQEND
5
9cf
100
AcDbEntity
  8
0-1
0
POLYLINE
5
9d0
100
AcDbEntity
  8
0-1
6
CONTINUOUS
62
3
100
AcDb2dPolyline
66
1
10
0
20
0
70
1
40
0.800
41
0.800
0
VERTEX
5
9d1
100
AcDbEntity
  8
0-1
6
CONTINUOUS
62
3
100
AcDbVertex
100
AcDb2dVertex
10
214.868
20
475.522
30
0.0
42
1.000
0
VERTEX
5
9d2
100
AcDbEntity
  8
0-1
6
CONTINUOUS
62
3
100
AcDbVertex
100
AcDb2dVertex
10
215.668
20
475.522
30
0.0
42
1.000
0
SEQEND
5
9d3
100
AcDbEntity
  8
0-1
0
POLYLINE
5
9d4
100
AcDbEntity
  8
0-1
6
CONTINUOUS
62
3
100
AcDb2dPolyline
66
1
10
0
20
0
70
1
40
0.800
41
0.800
0
VERTEX
5
9d5
100
AcDbEntity
  8
0-1
6
CONTINUOUS
62
3
100
AcDbVertex
100
AcDb2dVertex
10
214.868
20
385.522
30
0.0
42
1.000
0
VERTEX
5
9d6
100
AcDbEntity
  8
0-1
6
CONTINUOUS
62
3
100
AcDbVertex
100
AcDb2dVertex
10
215.668
20
385.522
30
0.0
42
1.000
0
SEQEND
5
9d7
100
AcDbEntity
  8
0-1
0
POLYLINE
5
9d8
100
AcDbEntity
  8
0-1
6
CONTINUOUS
62
3
100
AcDb2dPolyline
66
1
10
0
20
0
70
1
40
0.800
41
0.800
0
VERTEX
5
9d9
100
AcDbEntity
  8
0-1
6
CONTINUOUS
62
3
100
AcDbVertex
100
AcDb2dVertex
10
214.868
20
370.522
30
0.0
42
1.000
0
VERTEX
5
9da
100
AcDbEntity
  8
0-1
6
CONTINUOUS
62
3
100
AcDbVertex
100
AcDb2dVertex
10
215.668
20
370.522
30
0.0
42
1.000
0
SEQEND
5
9db
100
AcDbEntity
  8
0-1
0
POLYLINE
5
9dc
100
AcDbEntity
  8
0-1
6
CONTINUOUS
62
3
100
AcDb2dPolyline
66
1
10
0
20
0
70
1
40
0.800
41
0.800
0
VERTEX
5
9dd
100
AcDbEntity
  8
0-1
6
CONTINUOUS
62
3
100
AcDbVertex
100
AcDb2dVertex
10
310.350
20
526.554
30
0.0
42
1.000
0
VERTEX
5
9de
100
AcDbEntity
  8
0-1
6
CONTINUOUS
62
3
100
AcDbVertex
100
AcDb2dVertex
10
311.150
20
526.554
30
0.0
42
1.000
0
SEQEND
5
9df
100
AcDbEntity
  8
0-1
0
POLYLINE
5
9e0
100
AcDbEntity
  8
0-1
6
CONTINUOUS
62
3
100
AcDb2dPolyline
66
1
10
0
20
0
70
1
40
0.800
41
0.800
0
VERTEX
5
9e1
100
AcDbEntity
  8
0-1
6
CONTINUOUS
62
3
100
AcDbVertex
100
AcDb2dVertex
10
429.350
20
526.554
30
0.0
42
1.000
0
VERTEX
5
9e2
100
AcDbEntity
  8
0-1
6
CONTINUOUS
62
3
100
AcDbVertex
100
AcDb2dVertex
10
430.150
20
526.554
30
0.0
42
1.000
0
SEQEND
5
9e3
100
AcDbEntity
  8
0-1
0
POLYLINE
5
9e4
100
AcDbEntity
  8
0-1
6
CONTINUOUS
62
3
100
AcDb2dPolyline
66
1
10
0
20
0
70
1
40
0.800
41
0.800
0
VERTEX
5
9e5
100
AcDbEntity
  8
0-1
6
CONTINUOUS
62
3
100
AcDbVertex
100
AcDb2dVertex
10
352.369
20
401.635
30
0.0
42
1.000
0
VERTEX
5
9e6
100
AcDbEntity
  8
0-1
6
CONTINUOUS
62
3
100
AcDbVertex
100
AcDb2dVertex
10
353.169
20
401.635
30
0.0
42
1.000
0
SEQEND
5
9e7
100
AcDbEntity
  8
0-1
0
POLYLINE
5
9e8
100
AcDbEntity
  8
0-1
6
CONTINUOUS
62
3
100
AcDb2dPolyline
66
1
10
0
20
0
70
1
40
0.800
41
0.800
0
VERTEX
5
9e9
100
AcDbEntity
  8
0-1
6
CONTINUOUS
62
3
100
AcDbVertex
100
AcDb2dVertex
10
387.368
20
401.635
30
0.0
42
1.000
0
VERTEX
5
9ea
100
AcDbEntity
  8
0-1
6
CONTINUOUS
62
3
100
AcDbVertex
100
AcDb2dVertex
10
388.168
20
401.635
30
0.0
42
1.000
0
SEQEND
5
9eb
100
AcDbEntity
  8
0-1
0
POLYLINE
5
9ec
100
AcDbEntity
  8
0-0
6
CONTINUOUS
62
3
100
AcDb2dPolyline
66
1
10
0
20
0
70
1
40
0.800
41
0.800
0
VERTEX
5
9ed
100
AcDbEntity
  8
0-0
6
CONTINUOUS
62
3
100
AcDbVertex
100
AcDb2dVertex
10
809.908
20
696.522
30
0.0
42
1.000
0
VERTEX
5
9ee
100
AcDbEntity
  8
0-0
6
CONTINUOUS
62
3
100
AcDbVertex
100
AcDb2dVertex
10
810.708
20
696.522
30
0.0
42
1.000
0
SEQEND
5
9ef
100
AcDbEntity
  8
0-0
0
POLYLINE
5
9f0
100
AcDbEntity
  8
0-0
6
CONTINUOUS
62
3
100
AcDb2dPolyline
66
1
10
0
20
0
70
1
40
0.800
41
0.800
0
VERTEX
5
9f1
100
AcDbEntity
  8
0-0
6
CONTINUOUS
62
3
100
AcDbVertex
100
AcDb2dVertex
10
913.908
20
696.531
30
0.0
42
1.000
0
VERTEX
5
9f2
100
AcDbEntity
  8
0-0
6
CONTINUOUS
62
3
100
AcDbVertex
100
AcDb2dVertex
10
914.708
20
696.531
30
0.0
42
1.000
0
SEQEND
5
9f3
100
AcDbEntity
  8
0-0
0
POLYLINE
5
9f4
100
AcDbEntity
  8
0-0
6
CONTINUOUS
62
3
100
AcDb2dPolyline
66
1
10
0
20
0
70
1
40
0.800
41
0.800
0
VERTEX
5
9f5
100
AcDbEntity
  8
0-0
6
CONTINUOUS
62
3
100
AcDbVertex
100
AcDb2dVertex
10
711.908
20
931.966
30
0.0
42
1.000
0
VERTEX
5
9f6
100
AcDbEntity
  8
0-0
6
CONTINUOUS
62
3
100
AcDbVertex
100
AcDb2dVertex
10
712.708
20
931.966
30
0.0
42
1.000
0
SEQEND
5
9f7
100
AcDbEntity
  8
0-0
0
POLYLINE
5
9f8
100
AcDbEntity
  8
0-0
6
CONTINUOUS
62
3
100
AcDb2dPolyline
66
1
10
0
20
0
70
1
40
0.800
41
0.800
0
VERTEX
5
9f9
100
AcDbEntity
  8
0-0
6
CONTINUOUS
62
3
100
AcDbVertex
100
AcDb2dVertex
10
1011.908
20
901.966
30
0.0
42
1.000
0
VERTEX
5
9fa
100
AcDbEntity
  8
0-0
6
CONTINUOUS
62
3
100
AcDbVertex
100
AcDb2dVertex
10
1012.708
20
901.966
30
0.0
42
1.000
0
SEQEND
5
9fb
100
AcDbEntity
  8
0-0
0
POLYLINE
5
9fc
100
AcDbEntity
  8
0-0
6
CONTINUOUS
62
3
100
AcDb2dPolyline
66
1
10
0
20
0
70
1
40
0.800
41
0.800
0
VERTEX
5
9fd
100
AcDbEntity
  8
0-0
6
CONTINUOUS
62
3
100
AcDbVertex
100
AcDb2dVertex
10
1311.907
20
931.966
30
0.0
42
1.000
0
VERTEX
5
9fe
100
AcDbEntity
  8
0-0
6
CONTINUOUS
62
3
100
AcDbVertex
100
AcDb2dVertex
10
1312.707
20
931.966
30
0.0
42
1.000
0
SEQEND
5
9ff
100
AcDbEntity
  8
0-0
0
POLYLINE
5
a00
100
AcDbEntity
  8
0-0
6
CONTINUOUS
62
3
100
AcDb2dPolyline
66
1
10
0
20
0
70
1
40
0.800
41
0.800
0
VERTEX
5
a01
100
AcDbEntity
  8
0-0
6
CONTINUOUS
62
3
100
AcDbVertex
100
AcDb2dVertex
10
1011.908
20
901.966
30
0.0
42
1.000
0
VERTEX
5
a02
100
AcDbEntity
  8
0-0
6
CONTINUOUS
62
3
100
AcDbVertex
100
AcDb2dVertex
10
1012.708
20
901.966
30
0.0
42
1.000
0
SEQEND
5
a03
100
AcDbEntity
  8
0-0
0
POLYLINE
5
a04
100
AcDbEntity
  8
0-1
6
CONTINUOUS
62
3
100
AcDb2dPolyline
66
1
10
0
20
0
70
1
40
0.800
41
0.800
0
VERTEX
5
a05
100
AcDbEntity
  8
0-1
6
CONTINUOUS
62
3
100
AcDbVertex
100
AcDb2dVertex
10
369.868
20
370.522
30
0.0
42
1.000
0
VERTEX
5
a06
100
AcDbEntity
  8
0-1
6
CONTINUOUS
62
3
100
AcDbVertex
100
AcDb2dVertex
10
370.668
20
370.522
30
0.0
42
1.000
0
SEQEND
5
a07
100
AcDbEntity
  8
0-1
0
POLYLINE
5
a08
100
AcDbEntity
  8
0-1
6
CONTINUOUS
62
3
100
AcDb2dPolyline
66
1
10
0
20
0
70
1
40
0.800
41
0.800
0
VERTEX
5
a09
100
AcDbEntity
  8
0-1
6
CONTINUOUS
62
3
100
AcDbVertex
100
AcDb2dVertex
10
184.869
20
370.522
30
0.0
42
1.000
0
VERTEX
5
a0a
100
AcDbEntity
  8
0-1
6
CONTINUOUS
62
3
100
AcDbVertex
100
AcDb2dVertex
10
185.669
20
370.522
30
0.0
42
1.000
0
SEQEND
5
a0b
100
AcDbEntity
  8
0-1
0
POLYLINE
5
a0c
100
AcDbEntity
  8
0-1
6
CONTINUOUS
62
3
100
AcDb2dPolyline
66
1
10
0
20
0
70
1
40
0.800
41
0.800
0
VERTEX
5
a0d
100
AcDbEntity
  8
0-1
6
CONTINUOUS
62
3
100
AcDbVertex
100
AcDb2dVertex
10
184.869
20
501.554
30
0.0
42
1.000
0
VERTEX
5
a0e
100
AcDbEntity
  8
0-1
6
CONTINUOUS
62
3
100
AcDbVertex
100
AcDb2dVertex
10
185.669
20
501.554
30
0.0
42
1.000
0
SEQEND
5
a0f
100
AcDbEntity
  8
0-1
0
POLYLINE
5
a10
100
AcDbEntity
  8
0-2
6
CONTINUOUS
62
3
100
AcDb2dPolyline
66
1
10
0
20
0
70
1
40
0.800
41
0.800
0
VERTEX
5
a11
100
AcDbEntity
  8
0-2
6
CONTINUOUS
62
3
100
AcDbVertex
100
AcDb2dVertex
10
711.908
20
551.639
30
0.0
42
1.000
0
VERTEX
5
a12
100
AcDbEntity
  8
0-2
6
CONTINUOUS
62
3
100
AcDbVertex
100
AcDb2dVertex
10
712.708
20
551.639
30
0.0
42
1.000
0
SEQEND
5
a13
100
AcDbEntity
  8
0-2
0
POLYLINE
5
a14
100
AcDbEntity
  8
0-2
6
CONTINUOUS
62
3
100
AcDb2dPolyline
66
1
10
0
20
0
70
1
40
0.800
41
0.800
0
VERTEX
5
a15
100
AcDbEntity
  8
0-2
6
CONTINUOUS
62
3
100
AcDbVertex
100
AcDb2dVertex
10
711.908
20
526.597
30
0.0
42
1.000
0
VERTEX
5
a16
100
AcDbEntity
  8
0-2
6
CONTINUOUS
62
3
100
AcDbVertex
100
AcDb2dVertex
10
712.708
20
526.597
30
0.0
42
1.000
0
SEQEND
5
a17
100
AcDbEntity
  8
0-2
0
POLYLINE
5
a18
100
AcDbEntity
  8
0-2
6
CONTINUOUS
62
3
100
AcDb2dPolyline
66
1
10
0
20
0
70
1
40
0.800
41
0.800
0
VERTEX
5
a19
100
AcDbEntity
  8
0-2
6
CONTINUOUS
62
3
100
AcDbVertex
100
AcDb2dVertex
10
1011.908
20
526.597
30
0.0
42
1.000
0
VERTEX
5
a1a
100
AcDbEntity
  8
0-2
6
CONTINUOUS
62
3
100
AcDbVertex
100
AcDb2dVertex
10
1012.708
20
526.597
30
0.0
42
1.000
0
SEQEND
5
a1b
100
AcDbEntity
  8
0-2
0
POLYLINE
5
a1c
100
AcDbEntity
  8
0-2
6
CONTINUOUS
62
3
100
AcDb2dPolyline
66
1
10
0
20
0
70
1
40
0.800
41
0.800
0
VERTEX
5
a1d
100
AcDbEntity
  8
0-2
6
CONTINUOUS
62
3
100
AcDbVertex
100
AcDb2dVertex
10
1311.908
20
526.597
30
0.0
42
1.000
0
VERTEX
5
a1e
100
AcDbEntity
  8
0-2
6
CONTINUOUS
62
3
100
AcDbVertex
100
AcDb2dVertex
10
1312.708
20
526.597
30
0.0
42
1.000
0
SEQEND
5
a1f
100
AcDbEntity
  8
0-2
0
POLYLINE
5
a20
100
AcDbEntity
  8
0-2
6
CONTINUOUS
62
3
100
AcDb2dPolyline
66
1
10
0
20
0
70
1
40
0.800
41
0.800
0
VERTEX
5
a21
100
AcDbEntity
  8
0-2
6
CONTINUOUS
62
3
100
AcDbVertex
100
AcDb2dVertex
10
1311.908
20
551.639
30
0.0
42
1.000
0
VERTEX
5
a22
100
AcDbEntity
  8
0-2
6
CONTINUOUS
62
3
100
AcDbVertex
100
AcDb2dVertex
10
1312.708
20
551.639
30
0.0
42
1.000
0
SEQEND
5
a23
100
AcDbEntity
  8
0-2
0
POLYLINE
5
a24
100
AcDbEntity
  8
0-2
6
CONTINUOUS
62
4
100
AcDb2dPolyline
66
1
10
0
20
0
70
1
40
0.800
41
0.800
0
VERTEX
5
a25
100
AcDbEntity
  8
0-2
6
CONTINUOUS
62
4
100
AcDbVertex
100
AcDb2dVertex
10
1011.908
20
370.522
30
0.0
42
1.000
0
VERTEX
5
a26
100
AcDbEntity
  8
0-2
6
CONTINUOUS
62
4
100
AcDbVertex
100
AcDb2dVertex
10
1012.708
20
370.522
30
0.0
42
1.000
0
SEQEND
5
a27
100
AcDbEntity
  8
0-2
0
POLYLINE
5
a28
100
AcDbEntity
  8
F-F
6
CONTINUOUS
62
3
100
AcDb2dPolyline
66
1
10
0
20
0
70
1
40
0.800
41
0.800
0
VERTEX
5
a29
100
AcDbEntity
  8
F-F
6
CONTINUOUS
62
3
100
AcDbVertex
100
AcDb2dVertex
10
54.357
20
1143.641
30
0.0
42
1.000
0
VERTEX
5
a2a
100
AcDbEntity
  8
F-F
6
CONTINUOUS
62
3
100
AcDbVertex
100
AcDb2dVertex
10
55.157
20
1143.641
30
0.0
42
1.000
0
SEQEND
5
a2b
100
AcDbEntity
  8
F-F
0
ENDSEC
 0
SECTION
  2
OBJECTS
 0
DICTIONARY
  5
C
100
AcDbDictionary
  3
ACAD_GROUP
350
D
  3
ACAD_MLINESTYLE
350
E
 0
DICTIONARY
  5
D
102
{ACAD_REACTORS
102
}
100
AcDbDictionary
 0
DICTIONARY
  5
E
102
{ACAD_REACTORS
102
}
100
AcDbDictionary
  3
STANDARD
350
13
0
MLINESTYLE
  5
13
102
{ACAD_REACTORS
102
}
100
AcDbMlineStyle
  2
STANDARD
 70
    0
3

62
256
51
90.0
52
90.0
71
0
0
ACDBPLACEHOLDER
  5
14
102
{ACAD_REACTORS
102
}
0
ENDSEC
0
EOF
