0
SECTION
2
HEADER
9
$ACADVER
1
AC1015
9
$ACADMAINTVER
 70
6
9
$DWGCODEPAGE
3
ANSI_932
9
$EXTMIN
10
0.000
20
0.000
30
0.0
9
$EXTMAX
10
841.000
20
594.000
30
0.0
9
$LIMMIN
10
0.000
20
0.000
9
$LIMMAX
10
841.000
20
594.000
9
$DIMSCALE
40
1.000000
9
$LTSCALE
40
2.000
9
$PDMODE
70
0
9
$PDSIZE
40
40.0
9
$HANDSEED
5
61d18
9
$UNITMODE
70
0
9
$VISRETAIN
70
0
9
$PLINEGEN
70
0
9
$PSLTSCALE
70
1
9
$TREEDEPTH
70
3020
9
$CMLSTYLE
2
STANDARD
9
$CMLJUST
70
0
9
$CMLSCALE
40
1.0
9
$PROXYGRAPHICS
70
1
9
$MEASUREMENT
70
0
9
$CELWEIGHT
370
-1
9
$ENDCAPS
280
0
9
$JOINSTYLE
280
0
9
$LWDISPLAY
290
0
9
$INSUNITS
70
0
9
$HYPERLINKBASE
1

9
$STYLESHEET
1

9
$XEDIT
290
1
9
$CEPSNTYPE
380
0
9
$PSTYLEMODE
290
1
9
$FINGERPRINTGUID
2
{5F082321-0195-11D3-BDFB-0060B0CD5109}
9
$VERSIONGUID
2
{12943756-294D-11D3-98C2-0060B087942D}
9
$EXTNAMES
290
1
9
$PSVPSCALE
40
0.0
9
$OLESTARTUP
290
0
0
ENDSEC
0
SECTION
  2
CLASSES
0
ENDSEC
0
SECTION
2
TABLES
0
TABLE
2
VPORT
5
190
100
AcDbSymbolTable
70
2
0
VPORT
5
191
100
AcDbSymbolTableRecord
100
AcDbViewportTableRecord
2
*ACTIVE
70
0
10
0.0
20
0.0
11
1.0
21
1.0
12
420.500
22
297.000
13
0.0
23
0.0
14
1.0
24
1.0
15
0.0
25
0.0
16
0.0
26
0.0
36
1.0
17
0.0
27
0.0
37
0.0
40
609.420
41
2.0
42
50.0
43
0.0
44
0.0
50
0.0
51
0.0
71
0
72
1000
73
1
74
1
75
0
76
0
77
0
78
0
0
ENDTAB
0
TABLE
2
LTYPE
5
1f4
100
AcDbSymbolTable
70
9
0
LTYPE
5
1f5
100
AcDbSymbolTableRecord
100
AcDbLinetypeTableRecord
2
BYBLOCK
70
 64
3

72
 65
73
  0
40
0.0
0
LTYPE
5
1f6
100
AcDbSymbolTableRecord
100
AcDbLinetypeTableRecord
2
BYLAYER
70
 64
3

72
 65
73
  0
40
0.0
0
LTYPE
5
1f7
100
AcDbSymbolTableRecord
100
AcDbLinetypeTableRecord
2
CONTINUOUS
70
64
3
SolidLine
72
65
73
0
40
0.0
0
LTYPE
5
1f8
100
AcDbSymbolTableRecord
100
AcDbLinetypeTableRecord
2
DOT
70
64
3
--  --  --  --  --  --  --  --     
72
65
73
2
40
3.000
49
1.000
74
0
49
-2.000
74
0
0
LTYPE
5
1f9
100
AcDbSymbolTableRecord
100
AcDbLinetypeTableRecord
2
DASHED
70
64
3
----    ----    ----    ----    
72
65
73
2
40
5.000
49
2.000
74
0
49
-3.000
74
0
0
LTYPE
5
1fa
100
AcDbSymbolTableRecord
100
AcDbLinetypeTableRecord
2
DASHED2
70
64
3
------  ------  ------  ------ 
72
65
73
2
40
10.000
49
4.000
74
0
49
-6.000
74
0
0
LTYPE
5
1fb
100
AcDbSymbolTableRecord
100
AcDbLinetypeTableRecord
2
CENTER
70
64
3
----- - ----- - ----- - ----- - 
72
65
73
4
40
10.000
49
6.000
74
0
49
-3.000
74
0
49
1.000
74
0
49
-3.000
74
0
0
LTYPE
5
1fc
100
AcDbSymbolTableRecord
100
AcDbLinetypeTableRecord
2
CENTER2
70
64
3
----------  --  ----------  -- 
72
65
73
4
40
17.000
49
12.000
74
0
49
-5.000
74
0
49
2.000
74
0
49
-5.000
74
0
0
LTYPE
5
1fd
100
AcDbSymbolTableRecord
100
AcDbLinetypeTableRecord
2
PHANTOM
70
64
3
--- - - --- - - --- - - --- - -
72
65
73
6
40
13.000
49
5.000
74
0
49
-3.000
74
0
49
1.000
74
0
49
-3.000
74
0
49
1.000
74
0
49
-3.000
74
0
0
LTYPE
5
1fe
100
AcDbSymbolTableRecord
100
AcDbLinetypeTableRecord
2
PHANTOM2
70
64
3
--------  -  -  --------  -  -
72
65
73
6
40
20.000
49
6.000
74
0
49
-5.000
74
0
49
2.000
74
0
49
-5.000
74
0
49
2.000
74
0
49
-5.000
74
0
0
LTYPE
5
1ff
100
AcDbSymbolTableRecord
100
AcDbLinetypeTableRecord
2
HIDDEN
70
64
3
-   -   -   -   -   -   -   -   
72
65
73
2
40
3.000
49
0.500
74
0
49
-2.500
74
0
0
ENDTAB
0
TABLE
2
STYLE
5
200
100
AcDbSymbolTable
70
1
0
STYLE
5
201
100
AcDbSymbolTableRecord
100
AcDbTextStyleTableRecord
2
STANDARD
70
0
40
0.0
41
1.0
50
0.0
71
0
42
0.0
3
txt.shx
4
extfont.shx
0
STYLE
5
202
100
AcDbSymbolTableRecord
100
AcDbTextStyleTableRecord
2
TATEGAKI
70
4
40
0.0
41
1.0
50
0.0
71
0
42
0.0
3
txt.shx
4
extfont.shx
0
STYLE
5
203
100
AcDbSymbolTableRecord
100
AcDbTextStyleTableRecord
2
DIM
70
0
40
0.0
41
0.75
50
0.0
71
0
42
0.0
3
txt.shx
4
extfont.shx
0
STYLE
5
204
100
AcDbSymbolTableRecord
100
AcDbTextStyleTableRecord
2
_Gothic_
70
0
40
1.0
41
1.0
50
0.0
71
0
42
10.0
3

4

1001
ACAD
1000
MS Gothic
1071
32817
0
STYLE
5
205
100
AcDbSymbolTableRecord
100
AcDbTextStyleTableRecord
2
_TateGothic_
70
4
40
0.0
41
1.0
50
0.0
71
0
42
0.0
3
@MS Gothic
4

0
ENDTAB
0
TABLE
2
VIEW
5
206
100
AcDbSymbolTable
70
0
0
ENDTAB
0
TABLE
2
UCS
5
207
100
AcDbSymbolTable
70
0
0
ENDTAB
0
TABLE
2
APPID
5
208
100
AcDbSymbolTable
70
1
0
APPID
5
209
100
AcDbSymbolTableRecord
100
AcDbRegAppTableRecord
2
ACAD
70
0
0
ENDTAB
0
TABLE
2
DIMSTYLE
5
403
330
0
100
AcDbSymbolTable
70
1
100
AcDbDimStyleTable
71
0
0
DIMSTYLE
105
404
330
402
100
AcDbSymbolTableRecord
100
AcDbDimStyleTableRecord
2
JAC_DIM
70
0
41
2.000
42
0.000
44
0.0
73
0
74
0
77
1
78
8
79
2
140
0.000
170
0
171
2
172
0
173
0
174
0
175
0
176
0
177
0
178
0
270
2
271
0
272
0
273
2
274
2
340
201
275
0
280
0
281
0
282
0
283
0
284
0
285
0
286
0
287
3
288
0
0
ENDTAB
0
TABLE
2
BLOCK_RECORD
5
405
100
AcDbSymbolTable
70
0
0
BLOCK_RECORD
5
406
100
AcDbSymbolTableRecord
100
AcDbBlockTableRecord
2
*MODEL_SPACE
0
BLOCK_RECORD
5
407
100
AcDbSymbolTableRecord
100
AcDbBlockTableRecord
2
*PAPER_SPACE
0
BLOCK_RECORD
5
408
100
AcDbSymbolTableRecord
100
AcDbBlockTableRecord
2
_JACCONVERT_
0
ENDTAB
0
TABLE
2
LAYER
5
409
100
AcDbSymbolTable
70
10
0
LAYER
5
40a
100
AcDbSymbolTableRecord
100
AcDbLayerTableRecord
2
0
70
0
62
7
6
CONTINUOUS
370
-3
390
14
0
LAYER
5
40b
100
AcDbSymbolTableRecord
100
AcDbLayerTableRecord
2
0-0
70
0
62
7
6
CONTINUOUS
370
-3
390
14
0
LAYER
5
40c
100
AcDbSymbolTableRecord
100
AcDbLayerTableRecord
2
F-E_J_ADD
70
0
62
-7
6
CONTINUOUS
290
0
370
-3
390
14
0
LAYER
5
40d
100
AcDbSymbolTableRecord
100
AcDbLayerTableRecord
2
F-F
70
0
62
7
6
CONTINUOUS
370
-3
390
14
0
ENDTAB
0
ENDSEC
0
SECTION
2
BLOCKS
0
BLOCK
5
40e
100
AcDbEntity
67
1
8
0
100
AcDbBlockBegin
2
*MODEL_SPACE
70
0
10
0.0
20
0.0
30
0.0
3
*MODEL_SPACE
1

0
ENDBLK
5
40f
100
AcDbEntity
8
0
100
AcDbBlockEnd
0
BLOCK
5
410
100
AcDbEntity
67
1
8
0
100
AcDbBlockBegin
2
*PAPER_SPACE
70
0
10
0.0
20
0.0
30
0.0
3
*PAPER_SPACE
1

0
ENDBLK
5
411
100
AcDbEntity
67
1
8
0
100
AcDbBlockEnd
0
BLOCK
5
412
100
AcDbEntity
8
0
100
AcDbBlockBegin
2
_JACCONVERT_
70
2
10
0.0
20
0.0
30
0.0
3
_JACCONVERT_
1
_JACCONVERT_
0
ATTDEF
5
413
100
AcDbEntity
8
0
62
0
100
AcDbText
10
0.0
20
0.0
30
0.0
40
1.0
1
User:460950EB0890EC0964308A
100
AcDbAttributeDefinition
3

2
USER
70
8
0
ATTDEF
5
414
100
AcDbEntity
8
0
62
0
100
AcDbText
10
0.0
20
2.0
30
0.0
40
1.0
1
Date:15/06/15 16:28
100
AcDbAttributeDefinition
3

2
REVDATE
70
8
0
ATTDEF
5
415
100
AcDbEntity
8
0
62
0
100
AcDbText
10
0.0
20
4.0
30
0.0
40
1.0
1
File:4行角波.dxf
100
AcDbAttributeDefinition
3

2
FNAME
70
8
0
ATTDEF
5
416
100
AcDbEntity
8
0
62
0
100
AcDbText
10
0.0
20
6.0
30
0.0
40
1.0
1
JacConvert Version3.09 copyright (c) 2001-2013 K.Nakahara
100
AcDbAttributeDefinition
3

2
VER
70
8
0
ENDBLK
5
417
100
AcDbEntity
67
1
8
0
100
AcDbBlockEnd
0
ENDSEC
0
SECTION
2
ENTITIES
0
LINE
5
418
100
AcDbEntity
8
F-F
6
CONTINUOUS
62
2
100
AcDbLine
10
27.380000000000
20
11.820000000000
30
0.0
11
27.380000000000
21
571.820000000000
31
0.0
0
LINE
5
419
100
AcDbEntity
8
F-F
6
CONTINUOUS
62
2
100
AcDbLine
10
642.380000000000
20
41.450000000000
30
0.0
11
642.380000000000
21
11.820000000000
31
0.0
0
LINE
5
41a
100
AcDbEntity
8
F-F
6
CONTINUOUS
62
2
100
AcDbLine
10
607.270000000000
20
41.450000000000
30
0.0
11
607.270000000000
21
11.820000000000
31
0.0
0
LINE
5
41b
100
AcDbEntity
8
F-F
6
CONTINUOUS
62
2
100
AcDbLine
10
768.560000000000
20
11.820000000000
30
0.0
11
768.560000000000
21
41.450000000000
31
0.0
0
LINE
5
41c
100
AcDbEntity
8
F-F
6
CONTINUOUS
62
2
100
AcDbLine
10
403.450000000000
20
41.450000000000
30
0.0
11
403.450000000000
21
11.820000000000
31
0.0
0
LINE
5
41d
100
AcDbEntity
8
F-F
6
CONTINUOUS
62
2
100
AcDbLine
10
504.870000000000
20
41.450000000000
30
0.0
11
504.870000000000
21
11.820000000000
31
0.0
0
LINE
5
41e
100
AcDbEntity
8
F-F
6
CONTINUOUS
62
2
100
AcDbLine
10
403.450000000000
20
31.570000000000
30
0.0
11
184.880000000000
21
31.570000000000
31
0.0
0
LINE
5
41f
100
AcDbEntity
8
F-F
6
CONTINUOUS
62
2
100
AcDbLine
10
403.450000000000
20
21.690000000000
30
0.0
11
184.880000000000
21
21.690000000000
31
0.0
0
LINE
5
420
100
AcDbEntity
8
F-F
6
CONTINUOUS
62
2
100
AcDbLine
10
403.450000000000
20
16.760000000000
30
0.0
11
184.880000000000
21
16.760000000000
31
0.0
0
LINE
5
421
100
AcDbEntity
8
F-F
6
CONTINUOUS
62
2
100
AcDbLine
10
403.450000000000
20
36.510000000000
30
0.0
11
184.880000000000
21
36.510000000000
31
0.0
0
LINE
5
422
100
AcDbEntity
8
F-F
6
CONTINUOUS
62
2
100
AcDbLine
10
211.210000000000
20
41.450000000000
30
0.0
11
211.210000000000
21
11.820000000000
31
0.0
0
LINE
5
423
100
AcDbEntity
8
F-F
6
CONTINUOUS
62
2
100
AcDbLine
10
184.880000000000
20
41.450000000000
30
0.0
11
184.880000000000
21
11.820000000000
31
0.0
0
LINE
5
424
100
AcDbEntity
8
F-F
6
CONTINUOUS
62
2
100
AcDbLine
10
815.820000000000
20
11.820000000000
30
0.0
11
815.820000000000
21
571.820000000000
31
0.0
0
LINE
5
425
100
AcDbEntity
8
F-F
6
CONTINUOUS
62
2
100
AcDbLine
10
27.380000000000
20
571.820000000000
30
0.0
11
815.820000000000
21
571.820000000000
31
0.0
0
LINE
5
426
100
AcDbEntity
8
F-F
6
CONTINUOUS
62
2
100
AcDbLine
10
27.380000000000
20
11.820000000000
30
0.0
11
815.820000000000
21
11.820000000000
31
0.0
0
LINE
5
427
100
AcDbEntity
8
F-F
6
CONTINUOUS
62
2
100
AcDbLine
10
815.820000000000
20
41.450000000000
30
0.0
11
27.380000000000
21
41.450000000000
31
0.0
0
LINE
5
428
100
AcDbEntity
8
F-F
6
CONTINUOUS
62
2
100
AcDbLine
10
184.880000000000
20
26.630000000000
30
0.0
11
815.820000000000
21
26.630000000000
31
0.0
0
POLYLINE
5
429
100
AcDbEntity
8
F-F
6
CONTINUOUS
62
  3
100
AcDb2dPolyline
66
1
10
0.0
20
0.0
30
0.0
70
0
0
VERTEX
5
42a
100
AcDbEntity
8
F-F
6
CONTINUOUS
62
  3
100
AcDbVertex
100
AcDb2dVertex
10
40.420000000000
20
29.050000000000
30
0.0
0
VERTEX
5
42b
100
AcDbEntity
8
F-F
6
CONTINUOUS
62
  3
100
AcDbVertex
100
AcDb2dVertex
10
40.420000000000
20
37.050000000000
30
0.0
0
VERTEX
5
42c
100
AcDbEntity
8
F-F
6
CONTINUOUS
62
  3
100
AcDbVertex
100
AcDb2dVertex
10
48.420000000000
20
37.050000000000
30
0.0
0
VERTEX
5
42d
100
AcDbEntity
8
F-F
6
CONTINUOUS
62
  3
100
AcDbVertex
100
AcDb2dVertex
10
48.420000000000
20
29.050000000000
30
0.0
0
VERTEX
5
42e
100
AcDbEntity
8
F-F
6
CONTINUOUS
62
  3
100
AcDbVertex
100
AcDb2dVertex
10
40.420000000000
20
29.050000000000
30
0.0
0
SEQEND
5
42f
100
AcDbEntity
8
F-F
0
LINE
5
430
100
AcDbEntity
8
F-F
6
CONTINUOUS
62
3
100
AcDbLine
10
41.220000000000
20
30.130000000000
30
0.0
11
41.220000000000
21
36.250000000000
31
0.0
0
LINE
5
431
100
AcDbEntity
8
F-F
6
CONTINUOUS
62
3
100
AcDbLine
10
47.620000000000
20
29.850000000000
30
0.0
11
41.500000000000
21
29.850000000000
31
0.0
0
POLYLINE
5
432
100
AcDbEntity
8
F-F
6
CONTINUOUS
62
  3
100
AcDb2dPolyline
66
1
10
0.0
20
0.0
30
0.0
70
0
0
VERTEX
5
433
100
AcDbEntity
8
F-F
6
CONTINUOUS
62
  3
100
AcDbVertex
100
AcDb2dVertex
10
41.220000000000
20
36.250000000000
30
0.0
0
VERTEX
5
434
100
AcDbEntity
8
F-F
6
CONTINUOUS
62
  3
100
AcDbVertex
100
AcDb2dVertex
10
47.340000000000
20
36.250000000000
30
0.0
0
VERTEX
5
435
100
AcDbEntity
8
F-F
6
CONTINUOUS
62
  3
100
AcDbVertex
100
AcDb2dVertex
10
41.220000000000
20
30.130000000000
30
0.0
0
SEQEND
5
436
100
AcDbEntity
8
F-F
0
LINE
5
437
100
AcDbEntity
8
F-F
6
CONTINUOUS
62
3
100
AcDbLine
10
47.620000000000
20
35.960000000000
30
0.0
11
41.500000000000
21
29.850000000000
31
0.0
0
LINE
5
438
100
AcDbEntity
8
F-F
6
CONTINUOUS
62
3
100
AcDbLine
10
47.620000000000
20
35.960000000000
30
0.0
11
47.620000000000
21
29.850000000000
31
0.0
0
LINE
5
439
100
AcDbEntity
8
F-F
6
CONTINUOUS
62
4
100
AcDbLine
10
40.420000000000
20
36.970000000000
30
0.0
11
48.420000000000
21
36.970000000000
31
0.0
0
LINE
5
43a
100
AcDbEntity
8
F-F
6
CONTINUOUS
62
4
100
AcDbLine
10
40.420000000000
20
36.810000000000
30
0.0
11
48.420000000000
21
36.810000000000
31
0.0
0
LINE
5
43b
100
AcDbEntity
8
F-F
6
CONTINUOUS
62
4
100
AcDbLine
10
40.420000000000
20
36.650000000000
30
0.0
11
48.420000000000
21
36.650000000000
31
0.0
0
LINE
5
43c
100
AcDbEntity
8
F-F
6
CONTINUOUS
62
4
100
AcDbLine
10
40.420000000000
20
36.490000000000
30
0.0
11
48.420000000000
21
36.490000000000
31
0.0
0
LINE
5
43d
100
AcDbEntity
8
F-F
6
CONTINUOUS
62
4
100
AcDbLine
10
40.420000000000
20
36.330000000000
30
0.0
11
48.420000000000
21
36.330000000000
31
0.0
0
LINE
5
43e
100
AcDbEntity
8
F-F
6
CONTINUOUS
62
4
100
AcDbLine
10
40.420000000000
20
29.770000000000
30
0.0
11
48.420000000000
21
29.770000000000
31
0.0
0
LINE
5
43f
100
AcDbEntity
8
F-F
6
CONTINUOUS
62
4
100
AcDbLine
10
40.420000000000
20
29.610000000000
30
0.0
11
48.420000000000
21
29.610000000000
31
0.0
0
LINE
5
440
100
AcDbEntity
8
F-F
6
CONTINUOUS
62
4
100
AcDbLine
10
40.420000000000
20
29.450000000000
30
0.0
11
48.420000000000
21
29.450000000000
31
0.0
0
LINE
5
441
100
AcDbEntity
8
F-F
6
CONTINUOUS
62
4
100
AcDbLine
10
40.420000000000
20
29.290000000000
30
0.0
11
48.420000000000
21
29.290000000000
31
0.0
0
LINE
5
442
100
AcDbEntity
8
F-F
6
CONTINUOUS
62
4
100
AcDbLine
10
40.420000000000
20
29.130000000000
30
0.0
11
48.420000000000
21
29.130000000000
31
0.0
0
LINE
5
443
100
AcDbEntity
8
F-F
6
CONTINUOUS
62
4
100
AcDbLine
10
40.420000000000
20
30.250000000000
30
0.0
11
41.220000000000
21
30.250000000000
31
0.0
0
LINE
5
444
100
AcDbEntity
8
F-F
6
CONTINUOUS
62
4
100
AcDbLine
10
40.420000000000
20
30.410000000000
30
0.0
11
41.220000000000
21
30.410000000000
31
0.0
0
LINE
5
445
100
AcDbEntity
8
F-F
6
CONTINUOUS
62
4
100
AcDbLine
10
40.420000000000
20
30.570000000000
30
0.0
11
41.220000000000
21
30.570000000000
31
0.0
0
LINE
5
446
100
AcDbEntity
8
F-F
6
CONTINUOUS
62
4
100
AcDbLine
10
40.420000000000
20
30.730000000000
30
0.0
11
41.220000000000
21
30.730000000000
31
0.0
0
LINE
5
447
100
AcDbEntity
8
F-F
6
CONTINUOUS
62
4
100
AcDbLine
10
40.420000000000
20
30.890000000000
30
0.0
11
41.220000000000
21
30.890000000000
31
0.0
0
LINE
5
448
100
AcDbEntity
8
F-F
6
CONTINUOUS
62
4
100
AcDbLine
10
40.420000000000
20
31.050000000000
30
0.0
11
41.220000000000
21
31.050000000000
31
0.0
0
LINE
5
449
100
AcDbEntity
8
F-F
6
CONTINUOUS
62
4
100
AcDbLine
10
40.420000000000
20
31.210000000000
30
0.0
11
41.220000000000
21
31.210000000000
31
0.0
0
LINE
5
44a
100
AcDbEntity
8
F-F
6
CONTINUOUS
62
4
100
AcDbLine
10
40.420000000000
20
31.370000000000
30
0.0
11
41.220000000000
21
31.370000000000
31
0.0
0
LINE
5
44b
100
AcDbEntity
8
F-F
6
CONTINUOUS
62
4
100
AcDbLine
10
40.420000000000
20
31.530000000000
30
0.0
11
41.220000000000
21
31.530000000000
31
0.0
0
LINE
5
44c
100
AcDbEntity
8
F-F
6
CONTINUOUS
62
4
100
AcDbLine
10
40.420000000000
20
31.690000000000
30
0.0
11
41.220000000000
21
31.690000000000
31
0.0
0
LINE
5
44d
100
AcDbEntity
8
F-F
6
CONTINUOUS
62
4
100
AcDbLine
10
40.420000000000
20
31.850000000000
30
0.0
11
41.220000000000
21
31.850000000000
31
0.0
0
LINE
5
44e
100
AcDbEntity
8
F-F
6
CONTINUOUS
62
4
100
AcDbLine
10
40.420000000000
20
32.010000000000
30
0.0
11
41.220000000000
21
32.010000000000
31
0.0
0
LINE
5
44f
100
AcDbEntity
8
F-F
6
CONTINUOUS
62
4
100
AcDbLine
10
40.420000000000
20
32.170000000000
30
0.0
11
41.220000000000
21
32.170000000000
31
0.0
0
LINE
5
450
100
AcDbEntity
8
F-F
6
CONTINUOUS
62
4
100
AcDbLine
10
40.420000000000
20
32.330000000000
30
0.0
11
41.220000000000
21
32.330000000000
31
0.0
0
LINE
5
451
100
AcDbEntity
8
F-F
6
CONTINUOUS
62
4
100
AcDbLine
10
40.420000000000
20
32.490000000000
30
0.0
11
41.220000000000
21
32.490000000000
31
0.0
0
LINE
5
452
100
AcDbEntity
8
F-F
6
CONTINUOUS
62
4
100
AcDbLine
10
40.420000000000
20
32.650000000000
30
0.0
11
41.220000000000
21
32.650000000000
31
0.0
0
LINE
5
453
100
AcDbEntity
8
F-F
6
CONTINUOUS
62
4
100
AcDbLine
10
40.420000000000
20
32.810000000000
30
0.0
11
41.220000000000
21
32.810000000000
31
0.0
0
LINE
5
454
100
AcDbEntity
8
F-F
6
CONTINUOUS
62
4
100
AcDbLine
10
40.420000000000
20
32.970000000000
30
0.0
11
41.220000000000
21
32.970000000000
31
0.0
0
LINE
5
455
100
AcDbEntity
8
F-F
6
CONTINUOUS
62
4
100
AcDbLine
10
40.420000000000
20
33.130000000000
30
0.0
11
41.220000000000
21
33.130000000000
31
0.0
0
LINE
5
456
100
AcDbEntity
8
F-F
6
CONTINUOUS
62
4
100
AcDbLine
10
40.420000000000
20
33.290000000000
30
0.0
11
41.220000000000
21
33.290000000000
31
0.0
0
LINE
5
457
100
AcDbEntity
8
F-F
6
CONTINUOUS
62
4
100
AcDbLine
10
40.420000000000
20
33.450000000000
30
0.0
11
41.220000000000
21
33.450000000000
31
0.0
0
LINE
5
458
100
AcDbEntity
8
F-F
6
CONTINUOUS
62
4
100
AcDbLine
10
40.420000000000
20
33.610000000000
30
0.0
11
41.220000000000
21
33.610000000000
31
0.0
0
LINE
5
459
100
AcDbEntity
8
F-F
6
CONTINUOUS
62
4
100
AcDbLine
10
40.420000000000
20
33.770000000000
30
0.0
11
41.220000000000
21
33.770000000000
31
0.0
0
LINE
5
45a
100
AcDbEntity
8
F-F
6
CONTINUOUS
62
4
100
AcDbLine
10
40.420000000000
20
33.930000000000
30
0.0
11
41.220000000000
21
33.930000000000
31
0.0
0
LINE
5
45b
100
AcDbEntity
8
F-F
6
CONTINUOUS
62
4
100
AcDbLine
10
40.420000000000
20
34.410000000000
30
0.0
11
41.220000000000
21
34.410000000000
31
0.0
0
LINE
5
45c
100
AcDbEntity
8
F-F
6
CONTINUOUS
62
4
100
AcDbLine
10
40.420000000000
20
34.890000000000
30
0.0
11
41.220000000000
21
34.890000000000
31
0.0
0
LINE
5
45d
100
AcDbEntity
8
F-F
6
CONTINUOUS
62
4
100
AcDbLine
10
40.420000000000
20
35.050000000000
30
0.0
11
41.220000000000
21
35.050000000000
31
0.0
0
LINE
5
45e
100
AcDbEntity
8
F-F
6
CONTINUOUS
62
4
100
AcDbLine
10
40.420000000000
20
35.210000000000
30
0.0
11
41.220000000000
21
35.210000000000
31
0.0
0
LINE
5
45f
100
AcDbEntity
8
F-F
6
CONTINUOUS
62
4
100
AcDbLine
10
40.420000000000
20
35.370000000000
30
0.0
11
41.220000000000
21
35.370000000000
31
0.0
0
LINE
5
460
100
AcDbEntity
8
F-F
6
CONTINUOUS
62
4
100
AcDbLine
10
40.420000000000
20
36.170000000000
30
0.0
11
41.220000000000
21
36.170000000000
31
0.0
0
LINE
5
461
100
AcDbEntity
8
F-F
6
CONTINUOUS
62
4
100
AcDbLine
10
40.420000000000
20
36.010000000000
30
0.0
11
41.220000000000
21
36.010000000000
31
0.0
0
LINE
5
462
100
AcDbEntity
8
F-F
6
CONTINUOUS
62
4
100
AcDbLine
10
40.420000000000
20
35.850000000000
30
0.0
11
41.220000000000
21
35.850000000000
31
0.0
0
LINE
5
463
100
AcDbEntity
8
F-F
6
CONTINUOUS
62
4
100
AcDbLine
10
40.420000000000
20
35.690000000000
30
0.0
11
41.220000000000
21
35.690000000000
31
0.0
0
LINE
5
464
100
AcDbEntity
8
F-F
6
CONTINUOUS
62
4
100
AcDbLine
10
40.420000000000
20
35.530000000000
30
0.0
11
41.220000000000
21
35.530000000000
31
0.0
0
LINE
5
465
100
AcDbEntity
8
F-F
6
CONTINUOUS
62
4
100
AcDbLine
10
40.420000000000
20
34.570000000000
30
0.0
11
41.220000000000
21
34.570000000000
31
0.0
0
LINE
5
466
100
AcDbEntity
8
F-F
6
CONTINUOUS
62
4
100
AcDbLine
10
40.420000000000
20
34.730000000000
30
0.0
11
41.220000000000
21
34.730000000000
31
0.0
0
LINE
5
467
100
AcDbEntity
8
F-F
6
CONTINUOUS
62
4
100
AcDbLine
10
40.420000000000
20
34.250000000000
30
0.0
11
41.220000000000
21
34.250000000000
31
0.0
0
LINE
5
468
100
AcDbEntity
8
F-F
6
CONTINUOUS
62
4
100
AcDbLine
10
40.420000000000
20
34.090000000000
30
0.0
11
41.220000000000
21
34.090000000000
31
0.0
0
LINE
5
469
100
AcDbEntity
8
F-F
6
CONTINUOUS
62
4
100
AcDbLine
10
41.500000000000
20
30.410000000000
30
0.0
11
42.060000000000
21
30.410000000000
31
0.0
0
LINE
5
46a
100
AcDbEntity
8
F-F
6
CONTINUOUS
62
4
100
AcDbLine
10
41.340000000000
20
30.250000000000
30
0.0
11
41.900000000000
21
30.250000000000
31
0.0
0
LINE
5
46b
100
AcDbEntity
8
F-F
6
CONTINUOUS
62
4
100
AcDbLine
10
40.420000000000
20
30.090000000000
30
0.0
11
41.740000000000
21
30.090000000000
31
0.0
0
LINE
5
46c
100
AcDbEntity
8
F-F
6
CONTINUOUS
62
4
100
AcDbLine
10
40.420000000000
20
29.930000000000
30
0.0
11
41.580000000000
21
29.930000000000
31
0.0
0
LINE
5
46d
100
AcDbEntity
8
F-F
6
CONTINUOUS
62
4
100
AcDbLine
10
42.460000000000
20
31.370000000000
30
0.0
11
43.020000000000
21
31.370000000000
31
0.0
0
LINE
5
46e
100
AcDbEntity
8
F-F
6
CONTINUOUS
62
4
100
AcDbLine
10
42.300000000000
20
31.210000000000
30
0.0
11
42.860000000000
21
31.210000000000
31
0.0
0
LINE
5
46f
100
AcDbEntity
8
F-F
6
CONTINUOUS
62
4
100
AcDbLine
10
42.140000000000
20
31.050000000000
30
0.0
11
42.700000000000
21
31.050000000000
31
0.0
0
LINE
5
470
100
AcDbEntity
8
F-F
6
CONTINUOUS
62
4
100
AcDbLine
10
41.980000000000
20
30.890000000000
30
0.0
11
42.540000000000
21
30.890000000000
31
0.0
0
LINE
5
471
100
AcDbEntity
8
F-F
6
CONTINUOUS
62
4
100
AcDbLine
10
41.820000000000
20
30.730000000000
30
0.0
11
42.380000000000
21
30.730000000000
31
0.0
0
LINE
5
472
100
AcDbEntity
8
F-F
6
CONTINUOUS
62
4
100
AcDbLine
10
41.660000000000
20
30.570000000000
30
0.0
11
42.220000000000
21
30.570000000000
31
0.0
0
LINE
5
473
100
AcDbEntity
8
F-F
6
CONTINUOUS
62
4
100
AcDbLine
10
41.220000000000
20
36.250000000000
30
0.0
11
41.220000000000
21
36.410000000000
31
0.0
0
LINE
5
474
100
AcDbEntity
8
F-F
6
CONTINUOUS
62
4
100
AcDbLine
10
47.620000000000
20
30.250000000000
30
0.0
11
48.420000000000
21
30.250000000000
31
0.0
0
LINE
5
475
100
AcDbEntity
8
F-F
6
CONTINUOUS
62
4
100
AcDbLine
10
47.620000000000
20
30.410000000000
30
0.0
11
48.420000000000
21
30.410000000000
31
0.0
0
LINE
5
476
100
AcDbEntity
8
F-F
6
CONTINUOUS
62
4
100
AcDbLine
10
47.620000000000
20
30.570000000000
30
0.0
11
48.420000000000
21
30.570000000000
31
0.0
0
LINE
5
477
100
AcDbEntity
8
F-F
6
CONTINUOUS
62
4
100
AcDbLine
10
47.620000000000
20
30.730000000000
30
0.0
11
48.420000000000
21
30.730000000000
31
0.0
0
LINE
5
478
100
AcDbEntity
8
F-F
6
CONTINUOUS
62
4
100
AcDbLine
10
47.620000000000
20
30.890000000000
30
0.0
11
48.420000000000
21
30.890000000000
31
0.0
0
LINE
5
479
100
AcDbEntity
8
F-F
6
CONTINUOUS
62
4
100
AcDbLine
10
47.620000000000
20
31.050000000000
30
0.0
11
48.420000000000
21
31.050000000000
31
0.0
0
LINE
5
47a
100
AcDbEntity
8
F-F
6
CONTINUOUS
62
4
100
AcDbLine
10
47.620000000000
20
31.210000000000
30
0.0
11
48.420000000000
21
31.210000000000
31
0.0
0
LINE
5
47b
100
AcDbEntity
8
F-F
6
CONTINUOUS
62
4
100
AcDbLine
10
47.620000000000
20
31.370000000000
30
0.0
11
48.420000000000
21
31.370000000000
31
0.0
0
LINE
5
47c
100
AcDbEntity
8
F-F
6
CONTINUOUS
62
4
100
AcDbLine
10
47.620000000000
20
31.530000000000
30
0.0
11
48.420000000000
21
31.530000000000
31
0.0
0
LINE
5
47d
100
AcDbEntity
8
F-F
6
CONTINUOUS
62
4
100
AcDbLine
10
47.620000000000
20
31.690000000000
30
0.0
11
48.420000000000
21
31.690000000000
31
0.0
0
LINE
5
47e
100
AcDbEntity
8
F-F
6
CONTINUOUS
62
4
100
AcDbLine
10
47.620000000000
20
31.850000000000
30
0.0
11
48.420000000000
21
31.850000000000
31
0.0
0
LINE
5
47f
100
AcDbEntity
8
F-F
6
CONTINUOUS
62
4
100
AcDbLine
10
47.620000000000
20
32.010000000000
30
0.0
11
48.420000000000
21
32.010000000000
31
0.0
0
LINE
5
480
100
AcDbEntity
8
F-F
6
CONTINUOUS
62
4
100
AcDbLine
10
47.620000000000
20
32.170000000000
30
0.0
11
48.420000000000
21
32.170000000000
31
0.0
0
LINE
5
481
100
AcDbEntity
8
F-F
6
CONTINUOUS
62
4
100
AcDbLine
10
47.620000000000
20
32.490000000000
30
0.0
11
48.420000000000
21
32.490000000000
31
0.0
0
LINE
5
482
100
AcDbEntity
8
F-F
6
CONTINUOUS
62
4
100
AcDbLine
10
47.620000000000
20
32.650000000000
30
0.0
11
48.420000000000
21
32.650000000000
31
0.0
0
LINE
5
483
100
AcDbEntity
8
F-F
6
CONTINUOUS
62
4
100
AcDbLine
10
47.620000000000
20
32.810000000000
30
0.0
11
48.420000000000
21
32.810000000000
31
0.0
0
LINE
5
484
100
AcDbEntity
8
F-F
6
CONTINUOUS
62
4
100
AcDbLine
10
47.620000000000
20
32.970000000000
30
0.0
11
48.420000000000
21
32.970000000000
31
0.0
0
LINE
5
485
100
AcDbEntity
8
F-F
6
CONTINUOUS
62
4
100
AcDbLine
10
47.620000000000
20
33.130000000000
30
0.0
11
48.420000000000
21
33.130000000000
31
0.0
0
LINE
5
486
100
AcDbEntity
8
F-F
6
CONTINUOUS
62
4
100
AcDbLine
10
47.620000000000
20
33.290000000000
30
0.0
11
48.420000000000
21
33.290000000000
31
0.0
0
LINE
5
487
100
AcDbEntity
8
F-F
6
CONTINUOUS
62
4
100
AcDbLine
10
47.620000000000
20
33.450000000000
30
0.0
11
48.420000000000
21
33.450000000000
31
0.0
0
LINE
5
488
100
AcDbEntity
8
F-F
6
CONTINUOUS
62
4
100
AcDbLine
10
47.620000000000
20
33.610000000000
30
0.0
11
48.420000000000
21
33.610000000000
31
0.0
0
LINE
5
489
100
AcDbEntity
8
F-F
6
CONTINUOUS
62
4
100
AcDbLine
10
47.620000000000
20
33.770000000000
30
0.0
11
48.420000000000
21
33.770000000000
31
0.0
0
LINE
5
48a
100
AcDbEntity
8
F-F
6
CONTINUOUS
62
4
100
AcDbLine
10
47.620000000000
20
33.930000000000
30
0.0
11
48.420000000000
21
33.930000000000
31
0.0
0
LINE
5
48b
100
AcDbEntity
8
F-F
6
CONTINUOUS
62
4
100
AcDbLine
10
47.620000000000
20
34.410000000000
30
0.0
11
48.420000000000
21
34.410000000000
31
0.0
0
LINE
5
48c
100
AcDbEntity
8
F-F
6
CONTINUOUS
62
4
100
AcDbLine
10
47.620000000000
20
34.890000000000
30
0.0
11
48.420000000000
21
34.890000000000
31
0.0
0
LINE
5
48d
100
AcDbEntity
8
F-F
6
CONTINUOUS
62
4
100
AcDbLine
10
47.620000000000
20
35.050000000000
30
0.0
11
48.420000000000
21
35.050000000000
31
0.0
0
LINE
5
48e
100
AcDbEntity
8
F-F
6
CONTINUOUS
62
4
100
AcDbLine
10
47.620000000000
20
35.210000000000
30
0.0
11
48.420000000000
21
35.210000000000
31
0.0
0
LINE
5
48f
100
AcDbEntity
8
F-F
6
CONTINUOUS
62
4
100
AcDbLine
10
47.620000000000
20
35.370000000000
30
0.0
11
48.420000000000
21
35.370000000000
31
0.0
0
LINE
5
490
100
AcDbEntity
8
F-F
6
CONTINUOUS
62
4
100
AcDbLine
10
47.620000000000
20
35.850000000000
30
0.0
11
48.420000000000
21
35.850000000000
31
0.0
0
LINE
5
491
100
AcDbEntity
8
F-F
6
CONTINUOUS
62
4
100
AcDbLine
10
47.620000000000
20
35.690000000000
30
0.0
11
48.420000000000
21
35.690000000000
31
0.0
0
LINE
5
492
100
AcDbEntity
8
F-F
6
CONTINUOUS
62
4
100
AcDbLine
10
47.620000000000
20
35.530000000000
30
0.0
11
48.420000000000
21
35.530000000000
31
0.0
0
LINE
5
493
100
AcDbEntity
8
F-F
6
CONTINUOUS
62
4
100
AcDbLine
10
47.620000000000
20
34.570000000000
30
0.0
11
48.420000000000
21
34.570000000000
31
0.0
0
LINE
5
494
100
AcDbEntity
8
F-F
6
CONTINUOUS
62
4
100
AcDbLine
10
47.620000000000
20
34.730000000000
30
0.0
11
48.420000000000
21
34.730000000000
31
0.0
0
LINE
5
495
100
AcDbEntity
8
F-F
6
CONTINUOUS
62
4
100
AcDbLine
10
47.620000000000
20
34.250000000000
30
0.0
11
48.420000000000
21
34.250000000000
31
0.0
0
LINE
5
496
100
AcDbEntity
8
F-F
6
CONTINUOUS
62
4
100
AcDbLine
10
47.620000000000
20
34.090000000000
30
0.0
11
48.420000000000
21
34.090000000000
31
0.0
0
LINE
5
497
100
AcDbEntity
8
F-F
6
CONTINUOUS
62
4
100
AcDbLine
10
47.620000000000
20
29.930000000000
30
0.0
11
48.420000000000
21
29.930000000000
31
0.0
0
LINE
5
498
100
AcDbEntity
8
F-F
6
CONTINUOUS
62
4
100
AcDbLine
10
47.620000000000
20
30.090000000000
30
0.0
11
48.420000000000
21
30.090000000000
31
0.0
0
LINE
5
499
100
AcDbEntity
8
F-F
6
CONTINUOUS
62
4
100
AcDbLine
10
47.260000000000
20
36.170000000000
30
0.0
11
48.420000000000
21
36.170000000000
31
0.0
0
LINE
5
49a
100
AcDbEntity
8
F-F
6
CONTINUOUS
62
4
100
AcDbLine
10
47.100000000000
20
36.010000000000
30
0.0
11
48.420000000000
21
36.010000000000
31
0.0
0
LINE
5
49b
100
AcDbEntity
8
F-F
6
CONTINUOUS
62
4
100
AcDbLine
10
43.100000000000
20
32.010000000000
30
0.0
11
43.660000000000
21
32.010000000000
31
0.0
0
LINE
5
49c
100
AcDbEntity
8
F-F
6
CONTINUOUS
62
4
100
AcDbLine
10
42.940000000000
20
31.850000000000
30
0.0
11
43.500000000000
21
31.850000000000
31
0.0
0
LINE
5
49d
100
AcDbEntity
8
F-F
6
CONTINUOUS
62
4
100
AcDbLine
10
42.780000000000
20
31.690000000000
30
0.0
11
43.340000000000
21
31.690000000000
31
0.0
0
LINE
5
49e
100
AcDbEntity
8
F-F
6
CONTINUOUS
62
4
100
AcDbLine
10
42.620000000000
20
31.530000000000
30
0.0
11
43.180000000000
21
31.530000000000
31
0.0
0
LINE
5
49f
100
AcDbEntity
8
F-F
6
CONTINUOUS
62
4
100
AcDbLine
10
43.740000000000
20
32.650000000000
30
0.0
11
44.300000000000
21
32.650000000000
31
0.0
0
LINE
5
4a0
100
AcDbEntity
8
F-F
6
CONTINUOUS
62
4
100
AcDbLine
10
43.580000000000
20
32.490000000000
30
0.0
11
44.140000000000
21
32.490000000000
31
0.0
0
LINE
5
4a1
100
AcDbEntity
8
F-F
6
CONTINUOUS
62
4
100
AcDbLine
10
43.420000000000
20
32.330000000000
30
0.0
11
43.980000000000
21
32.330000000000
31
0.0
0
LINE
5
4a2
100
AcDbEntity
8
F-F
6
CONTINUOUS
62
4
100
AcDbLine
10
43.260000000000
20
32.170000000000
30
0.0
11
43.820000000000
21
32.170000000000
31
0.0
0
LINE
5
4a3
100
AcDbEntity
8
F-F
6
CONTINUOUS
62
4
100
AcDbLine
10
44.380000000000
20
33.290000000000
30
0.0
11
44.940000000000
21
33.290000000000
31
0.0
0
LINE
5
4a4
100
AcDbEntity
8
F-F
6
CONTINUOUS
62
4
100
AcDbLine
10
44.220000000000
20
33.130000000000
30
0.0
11
44.780000000000
21
33.130000000000
31
0.0
0
LINE
5
4a5
100
AcDbEntity
8
F-F
6
CONTINUOUS
62
4
100
AcDbLine
10
44.060000000000
20
32.970000000000
30
0.0
11
44.620000000000
21
32.970000000000
31
0.0
0
LINE
5
4a6
100
AcDbEntity
8
F-F
6
CONTINUOUS
62
4
100
AcDbLine
10
43.900000000000
20
32.810000000000
30
0.0
11
44.460000000000
21
32.810000000000
31
0.0
0
LINE
5
4a7
100
AcDbEntity
8
F-F
6
CONTINUOUS
62
4
100
AcDbLine
10
45.020000000000
20
33.930000000000
30
0.0
11
45.580000000000
21
33.930000000000
31
0.0
0
LINE
5
4a8
100
AcDbEntity
8
F-F
6
CONTINUOUS
62
4
100
AcDbLine
10
44.860000000000
20
33.770000000000
30
0.0
11
45.420000000000
21
33.770000000000
31
0.0
0
LINE
5
4a9
100
AcDbEntity
8
F-F
6
CONTINUOUS
62
4
100
AcDbLine
10
44.700000000000
20
33.610000000000
30
0.0
11
45.260000000000
21
33.610000000000
31
0.0
0
LINE
5
4aa
100
AcDbEntity
8
F-F
6
CONTINUOUS
62
4
100
AcDbLine
10
44.540000000000
20
33.450000000000
30
0.0
11
45.100000000000
21
33.450000000000
31
0.0
0
LINE
5
4ab
100
AcDbEntity
8
F-F
6
CONTINUOUS
62
4
100
AcDbLine
10
45.660000000000
20
34.570000000000
30
0.0
11
46.220000000000
21
34.570000000000
31
0.0
0
LINE
5
4ac
100
AcDbEntity
8
F-F
6
CONTINUOUS
62
4
100
AcDbLine
10
45.500000000000
20
34.410000000000
30
0.0
11
46.060000000000
21
34.410000000000
31
0.0
0
LINE
5
4ad
100
AcDbEntity
8
F-F
6
CONTINUOUS
62
4
100
AcDbLine
10
45.340000000000
20
34.250000000000
30
0.0
11
45.900000000000
21
34.250000000000
31
0.0
0
LINE
5
4ae
100
AcDbEntity
8
F-F
6
CONTINUOUS
62
4
100
AcDbLine
10
45.180000000000
20
34.090000000000
30
0.0
11
45.740000000000
21
34.090000000000
31
0.0
0
LINE
5
4af
100
AcDbEntity
8
F-F
6
CONTINUOUS
62
4
100
AcDbLine
10
46.300000000000
20
35.210000000000
30
0.0
11
46.860000000000
21
35.210000000000
31
0.0
0
LINE
5
4b0
100
AcDbEntity
8
F-F
6
CONTINUOUS
62
4
100
AcDbLine
10
46.140000000000
20
35.050000000000
30
0.0
11
46.700000000000
21
35.050000000000
31
0.0
0
LINE
5
4b1
100
AcDbEntity
8
F-F
6
CONTINUOUS
62
4
100
AcDbLine
10
45.980000000000
20
34.890000000000
30
0.0
11
46.540000000000
21
34.890000000000
31
0.0
0
LINE
5
4b2
100
AcDbEntity
8
F-F
6
CONTINUOUS
62
4
100
AcDbLine
10
45.820000000000
20
34.730000000000
30
0.0
11
46.380000000000
21
34.730000000000
31
0.0
0
LINE
5
4b3
100
AcDbEntity
8
F-F
6
CONTINUOUS
62
4
100
AcDbLine
10
46.940000000000
20
35.850000000000
30
0.0
11
47.500000000000
21
35.850000000000
31
0.0
0
LINE
5
4b4
100
AcDbEntity
8
F-F
6
CONTINUOUS
62
4
100
AcDbLine
10
46.780000000000
20
35.690000000000
30
0.0
11
47.340000000000
21
35.690000000000
31
0.0
0
LINE
5
4b5
100
AcDbEntity
8
F-F
6
CONTINUOUS
62
4
100
AcDbLine
10
46.620000000000
20
35.530000000000
30
0.0
11
47.180000000000
21
35.530000000000
31
0.0
0
LINE
5
4b6
100
AcDbEntity
8
F-F
6
CONTINUOUS
62
4
100
AcDbLine
10
46.460000000000
20
35.370000000000
30
0.0
11
47.020000000000
21
35.370000000000
31
0.0
0
LINE
5
4b7
100
AcDbEntity
8
F-F
6
CONTINUOUS
62
4
100
AcDbLine
10
47.620000000000
20
32.330000000000
30
0.0
11
48.420000000000
21
32.330000000000
31
0.0
0
LINE
5
4b8
100
AcDbEntity
8
F-F
6
CONTINUOUS
62
2
100
AcDbLine
10
612.110000000000
20
476.210000000000
30
0.0
11
815.820000000000
21
476.210000000000
31
0.0
0
LINE
5
4b9
100
AcDbEntity
8
F-F
6
CONTINUOUS
62
2
100
AcDbLine
10
612.110000000000
20
571.820000000000
30
0.0
11
612.110000000000
21
476.210000000000
31
0.0
0
LINE
5
4ba
100
AcDbEntity
8
0-0
6
CONTINUOUS
62
3
100
AcDbLine
10
188.860000000000
20
369.430000000000
30
0.0
11
153.650000000000
21
369.430000000000
31
0.0
0
LINE
5
4bb
100
AcDbEntity
8
0-0
6
CONTINUOUS
62
3
100
AcDbLine
10
193.410000000000
20
362.430000000000
30
0.0
11
199.900000000000
21
362.430000000000
31
0.0
0
LINE
5
4bc
100
AcDbEntity
8
0-0
6
CONTINUOUS
62
3
100
AcDbLine
10
193.410000000000
20
361.930000000000
30
0.0
11
199.900000000000
21
361.930000000000
31
0.0
0
LINE
5
4bd
100
AcDbEntity
8
0-0
6
CONTINUOUS
62
3
100
AcDbLine
10
189.800000000000
20
368.780000000000
30
0.0
11
192.000000000000
21
362.900000000000
31
0.0
0
LINE
5
4be
100
AcDbEntity
8
0-0
6
CONTINUOUS
62
3
100
AcDbLine
10
153.650000000000
20
369.930000000000
30
0.0
11
188.860000000000
21
369.930000000000
31
0.0
0
LINE
5
4bf
100
AcDbEntity
8
0-0
6
CONTINUOUS
62
3
100
AcDbLine
10
192.470000000000
20
363.080000000000
30
0.0
11
190.270000000000
21
368.960000000000
31
0.0
0
LINE
5
4c0
100
AcDbEntity
8
0-0
6
CONTINUOUS
62
3
100
AcDbLine
10
210.940000000000
20
369.430000000000
30
0.0
11
246.150000000000
21
369.430000000000
31
0.0
0
LINE
5
4c1
100
AcDbEntity
8
0-0
6
CONTINUOUS
62
3
100
AcDbLine
10
206.400000000000
20
362.430000000000
30
0.0
11
199.900000000000
21
362.430000000000
31
0.0
0
LINE
5
4c2
100
AcDbEntity
8
0-0
6
CONTINUOUS
62
3
100
AcDbLine
10
206.400000000000
20
361.930000000000
30
0.0
11
199.900000000000
21
361.930000000000
31
0.0
0
LINE
5
4c3
100
AcDbEntity
8
0-0
6
CONTINUOUS
62
3
100
AcDbLine
10
210.000000000000
20
368.780000000000
30
0.0
11
207.800000000000
21
362.900000000000
31
0.0
0
LINE
5
4c4
100
AcDbEntity
8
0-0
6
CONTINUOUS
62
3
100
AcDbLine
10
246.150000000000
20
369.930000000000
30
0.0
11
210.940000000000
21
369.930000000000
31
0.0
0
LINE
5
4c5
100
AcDbEntity
8
0-0
6
CONTINUOUS
62
3
100
AcDbLine
10
207.330000000000
20
363.080000000000
30
0.0
11
209.540000000000
21
368.960000000000
31
0.0
0
LINE
5
4c6
100
AcDbEntity
8
0-0
6
CONTINUOUS
62
3
100
AcDbLine
10
77.400000000000
20
368.930000000000
30
0.0
11
77.400000000000
21
368.430000000000
31
0.0
0
LINE
5
4c7
100
AcDbEntity
8
0-0
6
CONTINUOUS
62
3
100
AcDbLine
10
118.970000000000
20
369.430000000000
30
0.0
11
153.650000000000
21
369.430000000000
31
0.0
0
LINE
5
4c8
100
AcDbEntity
8
0-0
6
CONTINUOUS
62
3
100
AcDbLine
10
114.430000000000
20
362.430000000000
30
0.0
11
107.400000000000
21
362.430000000000
31
0.0
0
LINE
5
4c9
100
AcDbEntity
8
0-0
6
CONTINUOUS
62
3
100
AcDbLine
10
100.370000000000
20
362.430000000000
30
0.0
11
107.400000000000
21
362.430000000000
31
0.0
0
LINE
5
4ca
100
AcDbEntity
8
0-0
6
CONTINUOUS
62
3
100
AcDbLine
10
153.650000000000
20
369.930000000000
30
0.0
11
118.970000000000
21
369.930000000000
31
0.0
0
LINE
5
4cb
100
AcDbEntity
8
0-0
6
CONTINUOUS
62
3
100
AcDbLine
10
115.370000000000
20
363.080000000000
30
0.0
11
117.570000000000
21
368.960000000000
31
0.0
0
LINE
5
4cc
100
AcDbEntity
8
0-0
6
CONTINUOUS
62
3
100
AcDbLine
10
114.430000000000
20
361.930000000000
30
0.0
11
107.400000000000
21
361.930000000000
31
0.0
0
LINE
5
4cd
100
AcDbEntity
8
0-0
6
CONTINUOUS
62
3
100
AcDbLine
10
118.040000000000
20
368.780000000000
30
0.0
11
115.830000000000
21
362.900000000000
31
0.0
0
LINE
5
4ce
100
AcDbEntity
8
0-0
6
CONTINUOUS
62
3
100
AcDbLine
10
97.140000000000
20
367.780000000000
30
0.0
11
98.970000000000
21
362.900000000000
31
0.0
0
LINE
5
4cf
100
AcDbEntity
8
0-0
6
CONTINUOUS
62
3
100
AcDbLine
10
100.370000000000
20
361.930000000000
30
0.0
11
107.400000000000
21
361.930000000000
31
0.0
0
LINE
5
4d0
100
AcDbEntity
8
0-0
6
CONTINUOUS
62
3
100
AcDbLine
10
99.440000000000
20
363.080000000000
30
0.0
11
97.610000000000
21
367.960000000000
31
0.0
0
LINE
5
4d1
100
AcDbEntity
8
0-0
6
CONTINUOUS
62
3
100
AcDbLine
10
470.910000000000
20
362.930000000000
30
0.0
11
477.400000000000
21
362.930000000000
31
0.0
0
LINE
5
4d2
100
AcDbEntity
8
0-0
6
CONTINUOUS
62
3
100
AcDbLine
10
470.910000000000
20
363.430000000000
30
0.0
11
477.400000000000
21
363.430000000000
31
0.0
0
LINE
5
4d3
100
AcDbEntity
8
0-0
6
CONTINUOUS
62
3
100
AcDbLine
10
485.920000000000
20
365.980000000000
30
0.0
11
485.450000000000
21
366.160000000000
31
0.0
0
LINE
5
4d4
100
AcDbEntity
8
0-0
6
CONTINUOUS
62
3
100
AcDbLine
10
484.670000000000
20
364.080000000000
30
0.0
11
485.450000000000
21
366.160000000000
31
0.0
0
LINE
5
4d5
100
AcDbEntity
8
0-0
6
CONTINUOUS
62
3
100
AcDbLine
10
485.140000000000
20
363.900000000000
30
0.0
11
485.920000000000
21
365.980000000000
31
0.0
0
LINE
5
4d6
100
AcDbEntity
8
0-0
6
CONTINUOUS
62
3
100
AcDbLine
10
467.830000000000
20
368.780000000000
30
0.0
11
469.660000000000
21
363.900000000000
31
0.0
0
LINE
5
4d7
100
AcDbEntity
8
0-0
6
CONTINUOUS
62
3
100
AcDbLine
10
470.130000000000
20
364.080000000000
30
0.0
11
468.300000000000
21
368.960000000000
31
0.0
0
LINE
5
4d8
100
AcDbEntity
8
0-0
6
CONTINUOUS
62
3
100
AcDbLine
10
431.150000000000
20
369.930000000000
30
0.0
11
466.900000000000
21
369.930000000000
31
0.0
0
LINE
5
4d9
100
AcDbEntity
8
0-0
6
CONTINUOUS
62
3
100
AcDbLine
10
466.900000000000
20
369.430000000000
30
0.0
11
431.150000000000
21
369.430000000000
31
0.0
0
LINE
5
4da
100
AcDbEntity
8
0-0
6
CONTINUOUS
62
3
100
AcDbLine
10
483.740000000000
20
363.430000000000
30
0.0
11
477.400000000000
21
363.430000000000
31
0.0
0
LINE
5
4db
100
AcDbEntity
8
0-0
6
CONTINUOUS
62
3
100
AcDbLine
10
483.740000000000
20
362.930000000000
30
0.0
11
477.400000000000
21
362.930000000000
31
0.0
0
LINE
5
4dc
100
AcDbEntity
8
0-0
6
CONTINUOUS
62
7
100
AcDbLine
10
189.900000000000
20
397.930000000000
30
0.0
11
209.900000000000
21
397.930000000000
31
0.0
0
LINE
5
4dd
100
AcDbEntity
8
0-0
6
CONTINUOUS
62
7
100
AcDbLine
10
189.900000000000
20
382.930000000000
30
0.0
11
189.900000000000
21
397.930000000000
31
0.0
0
POLYLINE
5
4de
100
AcDbEntity
8
0-0
6
CONTINUOUS
62
  7
100
AcDb2dPolyline
66
1
10
0.0
20
0.0
30
0.0
70
0
0
VERTEX
5
4df
100
AcDbEntity
8
0-0
6
CONTINUOUS
62
  7
100
AcDbVertex
100
AcDb2dVertex
10
209.900000000000
20
382.930000000000
30
0.0
0
VERTEX
5
4e0
100
AcDbEntity
8
0-0
6
CONTINUOUS
62
  7
100
AcDbVertex
100
AcDb2dVertex
10
209.900000000000
20
397.930000000000
30
0.0
0
VERTEX
5
4e1
100
AcDbEntity
8
0-0
6
CONTINUOUS
62
  7
100
AcDbVertex
100
AcDb2dVertex
10
282.400000000000
20
397.930000000000
30
0.0
0
SEQEND
5
4e2
100
AcDbEntity
8
0-0
0
LINE
5
4e3
100
AcDbEntity
8
0-0
6
CONTINUOUS
62
7
100
AcDbLine
10
282.400000000000
20
382.930000000000
30
0.0
11
282.400000000000
21
397.930000000000
31
0.0
0
LINE
5
4e4
100
AcDbEntity
8
0-0
6
CONTINUOUS
62
7
100
AcDbLine
10
107.400000000000
20
422.930000000000
30
0.0
11
199.900000000000
21
422.930000000000
31
0.0
0
LINE
5
4e5
100
AcDbEntity
8
0-0
6
CONTINUOUS
62
7
100
AcDbLine
10
107.400000000000
20
407.930000000000
30
0.0
11
107.400000000000
21
422.930000000000
31
0.0
0
LINE
5
4e6
100
AcDbEntity
8
0-0
6
CONTINUOUS
62
7
100
AcDbLine
10
199.900000000000
20
422.930000000000
30
0.0
11
292.400000000000
21
422.930000000000
31
0.0
0
POLYLINE
5
4e7
100
AcDbEntity
8
0-0
6
CONTINUOUS
62
  7
100
AcDb2dPolyline
66
1
10
0.0
20
0.0
30
0.0
70
0
0
VERTEX
5
4e8
100
AcDbEntity
8
0-0
6
CONTINUOUS
62
  7
100
AcDbVertex
100
AcDb2dVertex
10
292.400000000000
20
407.930000000000
30
0.0
0
VERTEX
5
4e9
100
AcDbEntity
8
0-0
6
CONTINUOUS
62
  7
100
AcDbVertex
100
AcDb2dVertex
10
292.400000000000
20
422.930000000000
30
0.0
0
VERTEX
5
4ea
100
AcDbEntity
8
0-0
6
CONTINUOUS
62
  7
100
AcDbVertex
100
AcDb2dVertex
10
384.900000000000
20
422.930000000000
30
0.0
0
SEQEND
5
4eb
100
AcDbEntity
8
0-0
0
POLYLINE
5
4ec
100
AcDbEntity
8
0-0
6
CONTINUOUS
62
  7
100
AcDb2dPolyline
66
1
10
0.0
20
0.0
30
0.0
70
0
0
VERTEX
5
4ed
100
AcDbEntity
8
0-0
6
CONTINUOUS
62
  7
100
AcDbVertex
100
AcDb2dVertex
10
384.900000000000
20
407.930000000000
30
0.0
0
VERTEX
5
4ee
100
AcDbEntity
8
0-0
6
CONTINUOUS
62
  7
100
AcDbVertex
100
AcDb2dVertex
10
384.900000000000
20
422.930000000000
30
0.0
0
VERTEX
5
4ef
100
AcDbEntity
8
0-0
6
CONTINUOUS
62
  7
100
AcDbVertex
100
AcDb2dVertex
10
477.400000000000
20
422.930000000000
30
0.0
0
SEQEND
5
4f0
100
AcDbEntity
8
0-0
0
LINE
5
4f1
100
AcDbEntity
8
0-0
6
CONTINUOUS
62
7
100
AcDbLine
10
477.400000000000
20
407.930000000000
30
0.0
11
477.400000000000
21
422.930000000000
31
0.0
0
LINE
5
4f2
100
AcDbEntity
8
0-0
6
CONTINUOUS
62
7
100
AcDbLine
10
107.400000000000
20
437.930000000000
30
0.0
11
477.400000000000
21
437.930000000000
31
0.0
0
LINE
5
4f3
100
AcDbEntity
8
0-0
6
CONTINUOUS
62
7
100
AcDbLine
10
107.400000000000
20
422.930000000000
30
0.0
11
107.400000000000
21
437.930000000000
31
0.0
0
LINE
5
4f4
100
AcDbEntity
8
0-0
6
CONTINUOUS
62
7
100
AcDbLine
10
477.400000000000
20
422.930000000000
30
0.0
11
477.400000000000
21
437.930000000000
31
0.0
0
LINE
5
4f5
100
AcDbEntity
8
0-0
6
CONTINUOUS
62
7
100
AcDbLine
10
192.900000000000
20
336.930000000000
30
0.0
11
206.900000000000
21
336.930000000000
31
0.0
0
LINE
5
4f6
100
AcDbEntity
8
0-0
6
CONTINUOUS
62
7
100
AcDbLine
10
192.900000000000
20
351.930000000000
30
0.0
11
192.900000000000
21
336.930000000000
31
0.0
0
LINE
5
4f7
100
AcDbEntity
8
0-0
6
CONTINUOUS
62
7
100
AcDbLine
10
206.900000000000
20
351.930000000000
30
0.0
11
206.900000000000
21
336.930000000000
31
0.0
0
LINE
5
4f8
100
AcDbEntity
8
0-0
6
CONTINUOUS
62
7
100
AcDbLine
10
246.150000000000
20
361.930000000000
30
0.0
11
246.150000000000
21
369.930000000000
31
0.0
0
LINE
5
4f9
100
AcDbEntity
8
0-0
6
CONTINUOUS
62
7
100
AcDbLine
10
224.960000000000
20
361.930000000000
30
0.0
11
246.150000000000
21
361.930000000000
31
0.0
0
LINE
5
4fa
100
AcDbEntity
8
0-0
6
CONTINUOUS
62
3
100
AcDbLine
10
188.060000000000
20
174.930000000000
30
0.0
11
152.850000000000
21
174.930000000000
31
0.0
0
LINE
5
4fb
100
AcDbEntity
8
0-0
6
CONTINUOUS
62
3
100
AcDbLine
10
192.610000000000
20
181.930000000000
30
0.0
11
199.100000000000
21
181.930000000000
31
0.0
0
LINE
5
4fc
100
AcDbEntity
8
0-0
6
CONTINUOUS
62
3
100
AcDbLine
10
192.610000000000
20
182.430000000000
30
0.0
11
199.100000000000
21
182.430000000000
31
0.0
0
LINE
5
4fd
100
AcDbEntity
8
0-0
6
CONTINUOUS
62
3
100
AcDbLine
10
189.000000000000
20
175.580000000000
30
0.0
11
191.200000000000
21
181.460000000000
31
0.0
0
LINE
5
4fe
100
AcDbEntity
8
0-0
6
CONTINUOUS
62
3
100
AcDbLine
10
152.850000000000
20
174.430000000000
30
0.0
11
188.060000000000
21
174.430000000000
31
0.0
0
LINE
5
4ff
100
AcDbEntity
8
0-0
6
CONTINUOUS
62
3
100
AcDbLine
10
191.670000000000
20
181.280000000000
30
0.0
11
189.470000000000
21
175.400000000000
31
0.0
0
LINE
5
500
100
AcDbEntity
8
0-0
6
CONTINUOUS
62
3
100
AcDbLine
10
210.140000000000
20
174.930000000000
30
0.0
11
245.350000000000
21
174.930000000000
31
0.0
0
LINE
5
501
100
AcDbEntity
8
0-0
6
CONTINUOUS
62
3
100
AcDbLine
10
205.600000000000
20
181.930000000000
30
0.0
11
199.100000000000
21
181.930000000000
31
0.0
0
LINE
5
502
100
AcDbEntity
8
0-0
6
CONTINUOUS
62
3
100
AcDbLine
10
205.600000000000
20
182.430000000000
30
0.0
11
199.100000000000
21
182.430000000000
31
0.0
0
LINE
5
503
100
AcDbEntity
8
0-0
6
CONTINUOUS
62
3
100
AcDbLine
10
209.200000000000
20
175.580000000000
30
0.0
11
207.000000000000
21
181.460000000000
31
0.0
0
LINE
5
504
100
AcDbEntity
8
0-0
6
CONTINUOUS
62
3
100
AcDbLine
10
245.350000000000
20
174.430000000000
30
0.0
11
210.140000000000
21
174.430000000000
31
0.0
0
LINE
5
505
100
AcDbEntity
8
0-0
6
CONTINUOUS
62
3
100
AcDbLine
10
206.530000000000
20
181.280000000000
30
0.0
11
208.740000000000
21
175.400000000000
31
0.0
0
LINE
5
506
100
AcDbEntity
8
0-0
6
CONTINUOUS
62
3
100
AcDbLine
10
302.640000000000
20
174.930000000000
30
0.0
11
337.850000000000
21
174.930000000000
31
0.0
0
LINE
5
507
100
AcDbEntity
8
0-0
6
CONTINUOUS
62
3
100
AcDbLine
10
298.100000000000
20
181.930000000000
30
0.0
11
291.600000000000
21
181.930000000000
31
0.0
0
LINE
5
508
100
AcDbEntity
8
0-0
6
CONTINUOUS
62
3
100
AcDbLine
10
298.100000000000
20
182.430000000000
30
0.0
11
291.600000000000
21
182.430000000000
31
0.0
0
LINE
5
509
100
AcDbEntity
8
0-0
6
CONTINUOUS
62
3
100
AcDbLine
10
301.700000000000
20
175.580000000000
30
0.0
11
299.500000000000
21
181.460000000000
31
0.0
0
LINE
5
50a
100
AcDbEntity
8
0-0
6
CONTINUOUS
62
3
100
AcDbLine
10
337.850000000000
20
174.430000000000
30
0.0
11
302.640000000000
21
174.430000000000
31
0.0
0
LINE
5
50b
100
AcDbEntity
8
0-0
6
CONTINUOUS
62
3
100
AcDbLine
10
299.030000000000
20
181.280000000000
30
0.0
11
301.240000000000
21
175.400000000000
31
0.0
0
LINE
5
50c
100
AcDbEntity
8
0-0
6
CONTINUOUS
62
3
100
AcDbLine
10
373.060000000000
20
174.930000000000
30
0.0
11
337.850000000000
21
174.930000000000
31
0.0
0
LINE
5
50d
100
AcDbEntity
8
0-0
6
CONTINUOUS
62
3
100
AcDbLine
10
377.610000000000
20
181.930000000000
30
0.0
11
384.100000000000
21
181.930000000000
31
0.0
0
LINE
5
50e
100
AcDbEntity
8
0-0
6
CONTINUOUS
62
3
100
AcDbLine
10
377.610000000000
20
182.430000000000
30
0.0
11
384.100000000000
21
182.430000000000
31
0.0
0
LINE
5
50f
100
AcDbEntity
8
0-0
6
CONTINUOUS
62
3
100
AcDbLine
10
374.000000000000
20
175.580000000000
30
0.0
11
376.200000000000
21
181.460000000000
31
0.0
0
LINE
5
510
100
AcDbEntity
8
0-0
6
CONTINUOUS
62
3
100
AcDbLine
10
337.850000000000
20
174.430000000000
30
0.0
11
373.060000000000
21
174.430000000000
31
0.0
0
LINE
5
511
100
AcDbEntity
8
0-0
6
CONTINUOUS
62
3
100
AcDbLine
10
376.670000000000
20
181.280000000000
30
0.0
11
374.470000000000
21
175.400000000000
31
0.0
0
LINE
5
512
100
AcDbEntity
8
0-0
6
CONTINUOUS
62
3
100
AcDbLine
10
280.560000000000
20
174.930000000000
30
0.0
11
245.350000000000
21
174.930000000000
31
0.0
0
LINE
5
513
100
AcDbEntity
8
0-0
6
CONTINUOUS
62
3
100
AcDbLine
10
285.110000000000
20
181.930000000000
30
0.0
11
291.600000000000
21
181.930000000000
31
0.0
0
LINE
5
514
100
AcDbEntity
8
0-0
6
CONTINUOUS
62
3
100
AcDbLine
10
285.110000000000
20
182.430000000000
30
0.0
11
291.600000000000
21
182.430000000000
31
0.0
0
LINE
5
515
100
AcDbEntity
8
0-0
6
CONTINUOUS
62
3
100
AcDbLine
10
281.500000000000
20
175.580000000000
30
0.0
11
283.700000000000
21
181.460000000000
31
0.0
0
LINE
5
516
100
AcDbEntity
8
0-0
6
CONTINUOUS
62
3
100
AcDbLine
10
245.350000000000
20
174.430000000000
30
0.0
11
280.560000000000
21
174.430000000000
31
0.0
0
LINE
5
517
100
AcDbEntity
8
0-0
6
CONTINUOUS
62
3
100
AcDbLine
10
284.170000000000
20
181.280000000000
30
0.0
11
281.970000000000
21
175.400000000000
31
0.0
0
LINE
5
518
100
AcDbEntity
8
0-0
6
CONTINUOUS
62
3
100
AcDbLine
10
395.140000000000
20
174.930000000000
30
0.0
11
430.350000000000
21
174.930000000000
31
0.0
0
LINE
5
519
100
AcDbEntity
8
0-0
6
CONTINUOUS
62
3
100
AcDbLine
10
390.600000000000
20
181.930000000000
30
0.0
11
384.100000000000
21
181.930000000000
31
0.0
0
LINE
5
51a
100
AcDbEntity
8
0-0
6
CONTINUOUS
62
3
100
AcDbLine
10
390.600000000000
20
182.430000000000
30
0.0
11
384.100000000000
21
182.430000000000
31
0.0
0
LINE
5
51b
100
AcDbEntity
8
0-0
6
CONTINUOUS
62
3
100
AcDbLine
10
394.200000000000
20
175.580000000000
30
0.0
11
392.000000000000
21
181.460000000000
31
0.0
0
LINE
5
51c
100
AcDbEntity
8
0-0
6
CONTINUOUS
62
3
100
AcDbLine
10
430.350000000000
20
174.430000000000
30
0.0
11
395.140000000000
21
174.430000000000
31
0.0
0
LINE
5
51d
100
AcDbEntity
8
0-0
6
CONTINUOUS
62
3
100
AcDbLine
10
391.530000000000
20
181.280000000000
30
0.0
11
393.740000000000
21
175.400000000000
31
0.0
0
LINE
5
51e
100
AcDbEntity
8
0-0
6
CONTINUOUS
62
3
100
AcDbLine
10
76.600000000000
20
175.430000000000
30
0.0
11
76.600000000000
21
175.930000000000
31
0.0
0
LINE
5
51f
100
AcDbEntity
8
0-0
6
CONTINUOUS
62
3
100
AcDbLine
10
118.170000000000
20
174.930000000000
30
0.0
11
152.850000000000
21
174.930000000000
31
0.0
0
LINE
5
520
100
AcDbEntity
8
0-0
6
CONTINUOUS
62
3
100
AcDbLine
10
113.630000000000
20
181.930000000000
30
0.0
11
106.600000000000
21
181.930000000000
31
0.0
0
LINE
5
521
100
AcDbEntity
8
0-0
6
CONTINUOUS
62
3
100
AcDbLine
10
99.570000000000
20
181.930000000000
30
0.0
11
106.600000000000
21
181.930000000000
31
0.0
0
LINE
5
522
100
AcDbEntity
8
0-0
6
CONTINUOUS
62
3
100
AcDbLine
10
152.850000000000
20
174.430000000000
30
0.0
11
118.170000000000
21
174.430000000000
31
0.0
0
LINE
5
523
100
AcDbEntity
8
0-0
6
CONTINUOUS
62
3
100
AcDbLine
10
114.570000000000
20
181.280000000000
30
0.0
11
116.770000000000
21
175.400000000000
31
0.0
0
LINE
5
524
100
AcDbEntity
8
0-0
6
CONTINUOUS
62
3
100
AcDbLine
10
113.630000000000
20
182.430000000000
30
0.0
11
106.600000000000
21
182.430000000000
31
0.0
0
LINE
5
525
100
AcDbEntity
8
0-0
6
CONTINUOUS
62
3
100
AcDbLine
10
117.240000000000
20
175.580000000000
30
0.0
11
115.030000000000
21
181.460000000000
31
0.0
0
LINE
5
526
100
AcDbEntity
8
0-0
6
CONTINUOUS
62
3
100
AcDbLine
10
96.340000000000
20
176.580000000000
30
0.0
11
98.170000000000
21
181.460000000000
31
0.0
0
LINE
5
527
100
AcDbEntity
8
0-0
6
CONTINUOUS
62
3
100
AcDbLine
10
99.570000000000
20
182.430000000000
30
0.0
11
106.600000000000
21
182.430000000000
31
0.0
0
LINE
5
528
100
AcDbEntity
8
0-0
6
CONTINUOUS
62
3
100
AcDbLine
10
98.640000000000
20
181.280000000000
30
0.0
11
96.810000000000
21
176.400000000000
31
0.0
0
LINE
5
529
100
AcDbEntity
8
0-0
6
CONTINUOUS
62
3
100
AcDbLine
10
470.110000000000
20
181.430000000000
30
0.0
11
476.600000000000
21
181.430000000000
31
0.0
0
LINE
5
52a
100
AcDbEntity
8
0-0
6
CONTINUOUS
62
3
100
AcDbLine
10
470.110000000000
20
180.930000000000
30
0.0
11
476.600000000000
21
180.930000000000
31
0.0
0
LINE
5
52b
100
AcDbEntity
8
0-0
6
CONTINUOUS
62
3
100
AcDbLine
10
485.120000000000
20
178.380000000000
30
0.0
11
484.650000000000
21
178.200000000000
31
0.0
0
LINE
5
52c
100
AcDbEntity
8
0-0
6
CONTINUOUS
62
3
100
AcDbLine
10
483.870000000000
20
180.280000000000
30
0.0
11
484.650000000000
21
178.200000000000
31
0.0
0
LINE
5
52d
100
AcDbEntity
8
0-0
6
CONTINUOUS
62
3
100
AcDbLine
10
484.340000000000
20
180.460000000000
30
0.0
11
485.120000000000
21
178.380000000000
31
0.0
0
LINE
5
52e
100
AcDbEntity
8
0-0
6
CONTINUOUS
62
3
100
AcDbLine
10
467.030000000000
20
175.580000000000
30
0.0
11
468.860000000000
21
180.460000000000
31
0.0
0
LINE
5
52f
100
AcDbEntity
8
0-0
6
CONTINUOUS
62
3
100
AcDbLine
10
469.330000000000
20
180.280000000000
30
0.0
11
467.500000000000
21
175.400000000000
31
0.0
0
LINE
5
530
100
AcDbEntity
8
0-0
6
CONTINUOUS
62
3
100
AcDbLine
10
430.350000000000
20
174.430000000000
30
0.0
11
466.100000000000
21
174.430000000000
31
0.0
0
LINE
5
531
100
AcDbEntity
8
0-0
6
CONTINUOUS
62
3
100
AcDbLine
10
466.100000000000
20
174.930000000000
30
0.0
11
430.350000000000
21
174.930000000000
31
0.0
0
LINE
5
532
100
AcDbEntity
8
0-0
6
CONTINUOUS
62
3
100
AcDbLine
10
482.940000000000
20
180.930000000000
30
0.0
11
476.600000000000
21
180.930000000000
31
0.0
0
LINE
5
533
100
AcDbEntity
8
0-0
6
CONTINUOUS
62
3
100
AcDbLine
10
482.940000000000
20
181.430000000000
30
0.0
11
476.600000000000
21
181.430000000000
31
0.0
0
LINE
5
534
100
AcDbEntity
8
0-0
6
CONTINUOUS
62
3
100
AcDbLine
10
303.440000000000
20
369.430000000000
30
0.0
11
338.650000000000
21
369.430000000000
31
0.0
0
LINE
5
535
100
AcDbEntity
8
0-0
6
CONTINUOUS
62
3
100
AcDbLine
10
298.900000000000
20
362.430000000000
30
0.0
11
292.400000000000
21
362.430000000000
31
0.0
0
LINE
5
536
100
AcDbEntity
8
0-0
6
CONTINUOUS
62
3
100
AcDbLine
10
298.900000000000
20
361.930000000000
30
0.0
11
292.400000000000
21
361.930000000000
31
0.0
0
LINE
5
537
100
AcDbEntity
8
0-0
6
CONTINUOUS
62
3
100
AcDbLine
10
302.500000000000
20
368.780000000000
30
0.0
11
300.300000000000
21
362.900000000000
31
0.0
0
LINE
5
538
100
AcDbEntity
8
0-0
6
CONTINUOUS
62
3
100
AcDbLine
10
338.650000000000
20
369.930000000000
30
0.0
11
303.440000000000
21
369.930000000000
31
0.0
0
LINE
5
539
100
AcDbEntity
8
0-0
6
CONTINUOUS
62
3
100
AcDbLine
10
299.830000000000
20
363.080000000000
30
0.0
11
302.040000000000
21
368.960000000000
31
0.0
0
LINE
5
53a
100
AcDbEntity
8
0-0
6
CONTINUOUS
62
3
100
AcDbLine
10
373.860000000000
20
369.430000000000
30
0.0
11
338.650000000000
21
369.430000000000
31
0.0
0
LINE
5
53b
100
AcDbEntity
8
0-0
6
CONTINUOUS
62
3
100
AcDbLine
10
378.410000000000
20
362.430000000000
30
0.0
11
384.900000000000
21
362.430000000000
31
0.0
0
LINE
5
53c
100
AcDbEntity
8
0-0
6
CONTINUOUS
62
3
100
AcDbLine
10
378.410000000000
20
361.930000000000
30
0.0
11
384.900000000000
21
361.930000000000
31
0.0
0
LINE
5
53d
100
AcDbEntity
8
0-0
6
CONTINUOUS
62
3
100
AcDbLine
10
374.800000000000
20
368.780000000000
30
0.0
11
377.000000000000
21
362.900000000000
31
0.0
0
LINE
5
53e
100
AcDbEntity
8
0-0
6
CONTINUOUS
62
3
100
AcDbLine
10
338.650000000000
20
369.930000000000
30
0.0
11
373.860000000000
21
369.930000000000
31
0.0
0
LINE
5
53f
100
AcDbEntity
8
0-0
6
CONTINUOUS
62
3
100
AcDbLine
10
377.470000000000
20
363.080000000000
30
0.0
11
375.270000000000
21
368.960000000000
31
0.0
0
LINE
5
540
100
AcDbEntity
8
0-0
6
CONTINUOUS
62
3
100
AcDbLine
10
281.360000000000
20
369.430000000000
30
0.0
11
246.150000000000
21
369.430000000000
31
0.0
0
LINE
5
541
100
AcDbEntity
8
0-0
6
CONTINUOUS
62
3
100
AcDbLine
10
285.910000000000
20
362.430000000000
30
0.0
11
292.400000000000
21
362.430000000000
31
0.0
0
LINE
5
542
100
AcDbEntity
8
0-0
6
CONTINUOUS
62
3
100
AcDbLine
10
285.910000000000
20
361.930000000000
30
0.0
11
292.400000000000
21
361.930000000000
31
0.0
0
LINE
5
543
100
AcDbEntity
8
0-0
6
CONTINUOUS
62
3
100
AcDbLine
10
282.300000000000
20
368.780000000000
30
0.0
11
284.500000000000
21
362.900000000000
31
0.0
0
LINE
5
544
100
AcDbEntity
8
0-0
6
CONTINUOUS
62
3
100
AcDbLine
10
246.150000000000
20
369.930000000000
30
0.0
11
281.360000000000
21
369.930000000000
31
0.0
0
LINE
5
545
100
AcDbEntity
8
0-0
6
CONTINUOUS
62
3
100
AcDbLine
10
284.970000000000
20
363.080000000000
30
0.0
11
282.770000000000
21
368.960000000000
31
0.0
0
LINE
5
546
100
AcDbEntity
8
0-0
6
CONTINUOUS
62
3
100
AcDbLine
10
395.940000000000
20
369.430000000000
30
0.0
11
431.150000000000
21
369.430000000000
31
0.0
0
LINE
5
547
100
AcDbEntity
8
0-0
6
CONTINUOUS
62
3
100
AcDbLine
10
391.400000000000
20
362.430000000000
30
0.0
11
384.900000000000
21
362.430000000000
31
0.0
0
LINE
5
548
100
AcDbEntity
8
0-0
6
CONTINUOUS
62
3
100
AcDbLine
10
391.400000000000
20
361.930000000000
30
0.0
11
384.900000000000
21
361.930000000000
31
0.0
0
LINE
5
549
100
AcDbEntity
8
0-0
6
CONTINUOUS
62
3
100
AcDbLine
10
395.000000000000
20
368.780000000000
30
0.0
11
392.800000000000
21
362.900000000000
31
0.0
0
LINE
5
54a
100
AcDbEntity
8
0-0
6
CONTINUOUS
62
3
100
AcDbLine
10
431.150000000000
20
369.930000000000
30
0.0
11
395.940000000000
21
369.930000000000
31
0.0
0
LINE
5
54b
100
AcDbEntity
8
0-0
6
CONTINUOUS
62
3
100
AcDbLine
10
392.330000000000
20
363.080000000000
30
0.0
11
394.540000000000
21
368.960000000000
31
0.0
0
LINE
5
54c
100
AcDbEntity
8
0-0
6
CONTINUOUS
62
3
100
AcDbLine
10
96.200000000000
20
368.930000000000
30
0.0
11
77.400000000000
21
368.930000000000
31
0.0
0
LINE
5
54d
100
AcDbEntity
8
0-0
6
CONTINUOUS
62
3
100
AcDbLine
10
96.200000000000
20
368.430000000000
30
0.0
11
77.400000000000
21
368.430000000000
31
0.0
0
LINE
5
54e
100
AcDbEntity
8
0-0
6
CONTINUOUS
62
3
100
AcDbLine
10
95.400000000000
20
175.930000000000
30
0.0
11
76.600000000000
21
175.930000000000
31
0.0
0
LINE
5
54f
100
AcDbEntity
8
0-0
6
CONTINUOUS
62
3
100
AcDbLine
10
95.400000000000
20
175.430000000000
30
0.0
11
76.600000000000
21
175.430000000000
31
0.0
0
LINE
5
550
100
AcDbEntity
8
0-0
6
CONTINUOUS
62
7
100
AcDbLine
10
199.900000000000
20
407.930000000000
30
0.0
11
199.900000000000
21
422.930000000000
31
0.0
0
LINE
5
551
100
AcDbEntity
8
0-0
6
CONTINUOUS
62
7
100
AcDbLine
10
97.400000000000
20
397.930000000000
30
0.0
11
117.400000000000
21
397.930000000000
31
0.0
0
LINE
5
552
100
AcDbEntity
8
0-0
6
CONTINUOUS
62
7
100
AcDbLine
10
97.400000000000
20
382.930000000000
30
0.0
11
97.400000000000
21
397.930000000000
31
0.0
0
POLYLINE
5
553
100
AcDbEntity
8
0-0
6
CONTINUOUS
62
  7
100
AcDb2dPolyline
66
1
10
0.0
20
0.0
30
0.0
70
0
0
VERTEX
5
554
100
AcDbEntity
8
0-0
6
CONTINUOUS
62
  7
100
AcDbVertex
100
AcDb2dVertex
10
117.400000000000
20
382.930000000000
30
0.0
0
VERTEX
5
555
100
AcDbEntity
8
0-0
6
CONTINUOUS
62
  7
100
AcDbVertex
100
AcDb2dVertex
10
117.400000000000
20
397.930000000000
30
0.0
0
VERTEX
5
556
100
AcDbEntity
8
0-0
6
CONTINUOUS
62
  7
100
AcDbVertex
100
AcDb2dVertex
10
189.900000000000
20
397.930000000000
30
0.0
0
SEQEND
5
557
100
AcDbEntity
8
0-0
0
LINE
5
558
100
AcDbEntity
8
0-0
6
CONTINUOUS
62
7
100
AcDbLine
10
282.400000000000
20
397.930000000000
30
0.0
11
302.400000000000
21
397.930000000000
31
0.0
0
POLYLINE
5
559
100
AcDbEntity
8
0-0
6
CONTINUOUS
62
  7
100
AcDb2dPolyline
66
1
10
0.0
20
0.0
30
0.0
70
0
0
VERTEX
5
55a
100
AcDbEntity
8
0-0
6
CONTINUOUS
62
  7
100
AcDbVertex
100
AcDb2dVertex
10
302.400000000000
20
382.930000000000
30
0.0
0
VERTEX
5
55b
100
AcDbEntity
8
0-0
6
CONTINUOUS
62
  7
100
AcDbVertex
100
AcDb2dVertex
10
302.400000000000
20
397.930000000000
30
0.0
0
VERTEX
5
55c
100
AcDbEntity
8
0-0
6
CONTINUOUS
62
  7
100
AcDbVertex
100
AcDb2dVertex
10
374.900000000000
20
397.930000000000
30
0.0
0
SEQEND
5
55d
100
AcDbEntity
8
0-0
0
POLYLINE
5
55e
100
AcDbEntity
8
0-0
6
CONTINUOUS
62
  7
100
AcDb2dPolyline
66
1
10
0.0
20
0.0
30
0.0
70
0
0
VERTEX
5
55f
100
AcDbEntity
8
0-0
6
CONTINUOUS
62
  7
100
AcDbVertex
100
AcDb2dVertex
10
374.900000000000
20
382.930000000000
30
0.0
0
VERTEX
5
560
100
AcDbEntity
8
0-0
6
CONTINUOUS
62
  7
100
AcDbVertex
100
AcDb2dVertex
10
374.900000000000
20
397.930000000000
30
0.0
0
VERTEX
5
561
100
AcDbEntity
8
0-0
6
CONTINUOUS
62
  7
100
AcDbVertex
100
AcDb2dVertex
10
394.900000000000
20
397.930000000000
30
0.0
0
SEQEND
5
562
100
AcDbEntity
8
0-0
0
POLYLINE
5
563
100
AcDbEntity
8
0-0
6
CONTINUOUS
62
  7
100
AcDb2dPolyline
66
1
10
0.0
20
0.0
30
0.0
70
0
0
VERTEX
5
564
100
AcDbEntity
8
0-0
6
CONTINUOUS
62
  7
100
AcDbVertex
100
AcDb2dVertex
10
394.900000000000
20
382.930000000000
30
0.0
0
VERTEX
5
565
100
AcDbEntity
8
0-0
6
CONTINUOUS
62
  7
100
AcDbVertex
100
AcDb2dVertex
10
394.900000000000
20
397.930000000000
30
0.0
0
VERTEX
5
566
100
AcDbEntity
8
0-0
6
CONTINUOUS
62
  7
100
AcDbVertex
100
AcDb2dVertex
10
467.400000000000
20
397.930000000000
30
0.0
0
SEQEND
5
567
100
AcDbEntity
8
0-0
0
LINE
5
568
100
AcDbEntity
8
0-0
6
CONTINUOUS
62
7
100
AcDbLine
10
467.400000000000
20
382.930000000000
30
0.0
11
467.400000000000
21
397.930000000000
31
0.0
0
LINE
5
569
100
AcDbEntity
8
0-0
6
CONTINUOUS
62
7
100
AcDbLine
10
107.400000000000
20
232.930000000000
30
0.0
11
199.900000000000
21
232.930000000000
31
0.0
0
LINE
5
56a
100
AcDbEntity
8
0-0
6
CONTINUOUS
62
7
100
AcDbLine
10
107.400000000000
20
217.930000000000
30
0.0
11
107.400000000000
21
232.930000000000
31
0.0
0
LINE
5
56b
100
AcDbEntity
8
0-0
6
CONTINUOUS
62
7
100
AcDbLine
10
199.900000000000
20
232.930000000000
30
0.0
11
292.400000000000
21
232.930000000000
31
0.0
0
POLYLINE
5
56c
100
AcDbEntity
8
0-0
6
CONTINUOUS
62
  7
100
AcDb2dPolyline
66
1
10
0.0
20
0.0
30
0.0
70
0
0
VERTEX
5
56d
100
AcDbEntity
8
0-0
6
CONTINUOUS
62
  7
100
AcDbVertex
100
AcDb2dVertex
10
292.400000000000
20
217.930000000000
30
0.0
0
VERTEX
5
56e
100
AcDbEntity
8
0-0
6
CONTINUOUS
62
  7
100
AcDbVertex
100
AcDb2dVertex
10
292.400000000000
20
232.930000000000
30
0.0
0
VERTEX
5
56f
100
AcDbEntity
8
0-0
6
CONTINUOUS
62
  7
100
AcDbVertex
100
AcDb2dVertex
10
384.900000000000
20
232.930000000000
30
0.0
0
SEQEND
5
570
100
AcDbEntity
8
0-0
0
POLYLINE
5
571
100
AcDbEntity
8
0-0
6
CONTINUOUS
62
  7
100
AcDb2dPolyline
66
1
10
0.0
20
0.0
30
0.0
70
0
0
VERTEX
5
572
100
AcDbEntity
8
0-0
6
CONTINUOUS
62
  7
100
AcDbVertex
100
AcDb2dVertex
10
384.900000000000
20
217.930000000000
30
0.0
0
VERTEX
5
573
100
AcDbEntity
8
0-0
6
CONTINUOUS
62
  7
100
AcDbVertex
100
AcDb2dVertex
10
384.900000000000
20
232.930000000000
30
0.0
0
VERTEX
5
574
100
AcDbEntity
8
0-0
6
CONTINUOUS
62
  7
100
AcDbVertex
100
AcDb2dVertex
10
477.400000000000
20
232.930000000000
30
0.0
0
SEQEND
5
575
100
AcDbEntity
8
0-0
0
LINE
5
576
100
AcDbEntity
8
0-0
6
CONTINUOUS
62
7
100
AcDbLine
10
477.400000000000
20
217.930000000000
30
0.0
11
477.400000000000
21
232.930000000000
31
0.0
0
LINE
5
577
100
AcDbEntity
8
0-0
6
CONTINUOUS
62
7
100
AcDbLine
10
107.400000000000
20
247.930000000000
30
0.0
11
477.400000000000
21
247.930000000000
31
0.0
0
LINE
5
578
100
AcDbEntity
8
0-0
6
CONTINUOUS
62
7
100
AcDbLine
10
107.400000000000
20
232.930000000000
30
0.0
11
107.400000000000
21
247.930000000000
31
0.0
0
LINE
5
579
100
AcDbEntity
8
0-0
6
CONTINUOUS
62
7
100
AcDbLine
10
477.400000000000
20
232.930000000000
30
0.0
11
477.400000000000
21
247.930000000000
31
0.0
0
LINE
5
57a
100
AcDbEntity
8
0-0
6
CONTINUOUS
62
7
100
AcDbLine
10
199.900000000000
20
217.930000000000
30
0.0
11
199.900000000000
21
232.930000000000
31
0.0
0
LINE
5
57b
100
AcDbEntity
8
0-0
6
CONTINUOUS
62
7
100
AcDbLine
10
192.900000000000
20
207.930000000000
30
0.0
11
206.900000000000
21
207.930000000000
31
0.0
0
LINE
5
57c
100
AcDbEntity
8
0-0
6
CONTINUOUS
62
7
100
AcDbLine
10
192.900000000000
20
192.930000000000
30
0.0
11
192.900000000000
21
207.930000000000
31
0.0
0
LINE
5
57d
100
AcDbEntity
8
0-0
6
CONTINUOUS
62
7
100
AcDbLine
10
206.900000000000
20
192.930000000000
30
0.0
11
206.900000000000
21
207.930000000000
31
0.0
0
LINE
5
57e
100
AcDbEntity
8
0-0
6
CONTINUOUS
62
7
100
AcDbLine
10
189.900000000000
20
146.930000000000
30
0.0
11
209.900000000000
21
146.930000000000
31
0.0
0
LINE
5
57f
100
AcDbEntity
8
0-0
6
CONTINUOUS
62
7
100
AcDbLine
10
189.900000000000
20
161.930000000000
30
0.0
11
189.900000000000
21
146.930000000000
31
0.0
0
POLYLINE
5
580
100
AcDbEntity
8
0-0
6
CONTINUOUS
62
  7
100
AcDb2dPolyline
66
1
10
0.0
20
0.0
30
0.0
70
0
0
VERTEX
5
581
100
AcDbEntity
8
0-0
6
CONTINUOUS
62
  7
100
AcDbVertex
100
AcDb2dVertex
10
209.900000000000
20
161.930000000000
30
0.0
0
VERTEX
5
582
100
AcDbEntity
8
0-0
6
CONTINUOUS
62
  7
100
AcDbVertex
100
AcDb2dVertex
10
209.900000000000
20
146.930000000000
30
0.0
0
VERTEX
5
583
100
AcDbEntity
8
0-0
6
CONTINUOUS
62
  7
100
AcDbVertex
100
AcDb2dVertex
10
282.400000000000
20
146.930000000000
30
0.0
0
SEQEND
5
584
100
AcDbEntity
8
0-0
0
LINE
5
585
100
AcDbEntity
8
0-0
6
CONTINUOUS
62
7
100
AcDbLine
10
282.400000000000
20
161.930000000000
30
0.0
11
282.400000000000
21
146.930000000000
31
0.0
0
LINE
5
586
100
AcDbEntity
8
0-0
6
CONTINUOUS
62
7
100
AcDbLine
10
246.150000000000
20
182.930000000000
30
0.0
11
246.150000000000
21
174.930000000000
31
0.0
0
LINE
5
587
100
AcDbEntity
8
0-0
6
CONTINUOUS
62
7
100
AcDbLine
10
224.960000000000
20
182.930000000000
30
0.0
11
246.150000000000
21
182.930000000000
31
0.0
0
LINE
5
588
100
AcDbEntity
8
0-0
6
CONTINUOUS
62
7
100
AcDbLine
10
97.400000000000
20
146.930000000000
30
0.0
11
117.400000000000
21
146.930000000000
31
0.0
0
LINE
5
589
100
AcDbEntity
8
0-0
6
CONTINUOUS
62
7
100
AcDbLine
10
97.400000000000
20
161.930000000000
30
0.0
11
97.400000000000
21
146.930000000000
31
0.0
0
POLYLINE
5
58a
100
AcDbEntity
8
0-0
6
CONTINUOUS
62
  7
100
AcDb2dPolyline
66
1
10
0.0
20
0.0
30
0.0
70
0
0
VERTEX
5
58b
100
AcDbEntity
8
0-0
6
CONTINUOUS
62
  7
100
AcDbVertex
100
AcDb2dVertex
10
117.400000000000
20
161.930000000000
30
0.0
0
VERTEX
5
58c
100
AcDbEntity
8
0-0
6
CONTINUOUS
62
  7
100
AcDbVertex
100
AcDb2dVertex
10
117.400000000000
20
146.930000000000
30
0.0
0
VERTEX
5
58d
100
AcDbEntity
8
0-0
6
CONTINUOUS
62
  7
100
AcDbVertex
100
AcDb2dVertex
10
189.900000000000
20
146.930000000000
30
0.0
0
SEQEND
5
58e
100
AcDbEntity
8
0-0
0
LINE
5
58f
100
AcDbEntity
8
0-0
6
CONTINUOUS
62
7
100
AcDbLine
10
282.400000000000
20
146.930000000000
30
0.0
11
302.400000000000
21
146.930000000000
31
0.0
0
POLYLINE
5
590
100
AcDbEntity
8
0-0
6
CONTINUOUS
62
  7
100
AcDb2dPolyline
66
1
10
0.0
20
0.0
30
0.0
70
0
0
VERTEX
5
591
100
AcDbEntity
8
0-0
6
CONTINUOUS
62
  7
100
AcDbVertex
100
AcDb2dVertex
10
302.400000000000
20
161.930000000000
30
0.0
0
VERTEX
5
592
100
AcDbEntity
8
0-0
6
CONTINUOUS
62
  7
100
AcDbVertex
100
AcDb2dVertex
10
302.400000000000
20
146.930000000000
30
0.0
0
VERTEX
5
593
100
AcDbEntity
8
0-0
6
CONTINUOUS
62
  7
100
AcDbVertex
100
AcDb2dVertex
10
374.900000000000
20
146.930000000000
30
0.0
0
SEQEND
5
594
100
AcDbEntity
8
0-0
0
POLYLINE
5
595
100
AcDbEntity
8
0-0
6
CONTINUOUS
62
  7
100
AcDb2dPolyline
66
1
10
0.0
20
0.0
30
0.0
70
0
0
VERTEX
5
596
100
AcDbEntity
8
0-0
6
CONTINUOUS
62
  7
100
AcDbVertex
100
AcDb2dVertex
10
374.900000000000
20
161.930000000000
30
0.0
0
VERTEX
5
597
100
AcDbEntity
8
0-0
6
CONTINUOUS
62
  7
100
AcDbVertex
100
AcDb2dVertex
10
374.900000000000
20
146.930000000000
30
0.0
0
VERTEX
5
598
100
AcDbEntity
8
0-0
6
CONTINUOUS
62
  7
100
AcDbVertex
100
AcDb2dVertex
10
394.900000000000
20
146.930000000000
30
0.0
0
SEQEND
5
599
100
AcDbEntity
8
0-0
0
POLYLINE
5
59a
100
AcDbEntity
8
0-0
6
CONTINUOUS
62
  7
100
AcDb2dPolyline
66
1
10
0.0
20
0.0
30
0.0
70
0
0
VERTEX
5
59b
100
AcDbEntity
8
0-0
6
CONTINUOUS
62
  7
100
AcDbVertex
100
AcDb2dVertex
10
394.900000000000
20
161.930000000000
30
0.0
0
VERTEX
5
59c
100
AcDbEntity
8
0-0
6
CONTINUOUS
62
  7
100
AcDbVertex
100
AcDb2dVertex
10
394.900000000000
20
146.930000000000
30
0.0
0
VERTEX
5
59d
100
AcDbEntity
8
0-0
6
CONTINUOUS
62
  7
100
AcDbVertex
100
AcDb2dVertex
10
467.400000000000
20
146.930000000000
30
0.0
0
SEQEND
5
59e
100
AcDbEntity
8
0-0
0
LINE
5
59f
100
AcDbEntity
8
0-0
6
CONTINUOUS
62
7
100
AcDbLine
10
467.400000000000
20
161.930000000000
30
0.0
11
467.400000000000
21
146.930000000000
31
0.0
0
LINE
5
5a0
100
AcDbEntity
8
0-0
6
CONTINUOUS
62
3
100
AcDbLine
10
617.300000000000
20
365.430000000000
30
0.0
11
610.800000000000
21
365.430000000000
31
0.0
0
LINE
5
5a1
100
AcDbEntity
8
0-0
6
CONTINUOUS
62
3
100
AcDbLine
10
617.300000000000
20
364.930000000000
30
0.0
11
610.800000000000
21
364.930000000000
31
0.0
0
LINE
5
5a2
100
AcDbEntity
8
0-0
6
CONTINUOUS
62
3
100
AcDbLine
10
620.900000000000
20
371.780000000000
30
0.0
11
618.700000000000
21
365.900000000000
31
0.0
0
LINE
5
5a3
100
AcDbEntity
8
0-0
6
CONTINUOUS
62
3
100
AcDbLine
10
618.230000000000
20
366.080000000000
30
0.0
11
620.440000000000
21
371.960000000000
31
0.0
0
LINE
5
5a4
100
AcDbEntity
8
0-0
6
CONTINUOUS
62
3
100
AcDbLine
10
638.430000000000
20
372.430000000000
30
0.0
11
621.840000000000
21
372.430000000000
31
0.0
0
LINE
5
5a5
100
AcDbEntity
8
0-0
6
CONTINUOUS
62
3
100
AcDbLine
10
640.970000000000
20
371.430000000000
30
0.0
11
657.050000000000
21
371.430000000000
31
0.0
0
LINE
5
5a6
100
AcDbEntity
8
0-0
6
CONTINUOUS
62
3
100
AcDbLine
10
638.430000000000
20
372.930000000000
30
0.0
11
621.840000000000
21
372.930000000000
31
0.0
0
LINE
5
5a7
100
AcDbEntity
8
0-0
6
CONTINUOUS
62
3
100
AcDbLine
10
640.260000000000
20
371.720000000000
30
0.0
11
639.490000000000
21
372.490000000000
31
0.0
0
LINE
5
5a8
100
AcDbEntity
8
0-0
6
CONTINUOUS
62
3
100
AcDbLine
10
639.140000000000
20
372.140000000000
30
0.0
11
639.900000000000
21
371.370000000000
31
0.0
0
LINE
5
5a9
100
AcDbEntity
8
0-0
6
CONTINUOUS
62
3
100
AcDbLine
10
657.050000000000
20
370.930000000000
30
0.0
11
640.970000000000
21
370.930000000000
31
0.0
0
LINE
5
5aa
100
AcDbEntity
8
0-0
6
CONTINUOUS
62
3
100
AcDbLine
10
604.310000000000
20
365.430000000000
30
0.0
11
610.800000000000
21
365.430000000000
31
0.0
0
LINE
5
5ab
100
AcDbEntity
8
0-0
6
CONTINUOUS
62
3
100
AcDbLine
10
604.310000000000
20
364.930000000000
30
0.0
11
610.800000000000
21
364.930000000000
31
0.0
0
LINE
5
5ac
100
AcDbEntity
8
0-0
6
CONTINUOUS
62
3
100
AcDbLine
10
600.700000000000
20
371.780000000000
30
0.0
11
602.900000000000
21
365.900000000000
31
0.0
0
LINE
5
5ad
100
AcDbEntity
8
0-0
6
CONTINUOUS
62
3
100
AcDbLine
10
603.370000000000
20
366.080000000000
30
0.0
11
601.170000000000
21
371.960000000000
31
0.0
0
LINE
5
5ae
100
AcDbEntity
8
0-0
6
CONTINUOUS
62
3
100
AcDbLine
10
583.170000000000
20
372.430000000000
30
0.0
11
599.760000000000
21
372.430000000000
31
0.0
0
LINE
5
5af
100
AcDbEntity
8
0-0
6
CONTINUOUS
62
3
100
AcDbLine
10
580.640000000000
20
371.430000000000
30
0.0
11
564.550000000000
21
371.430000000000
31
0.0
0
LINE
5
5b0
100
AcDbEntity
8
0-0
6
CONTINUOUS
62
3
100
AcDbLine
10
583.170000000000
20
372.930000000000
30
0.0
11
599.760000000000
21
372.930000000000
31
0.0
0
LINE
5
5b1
100
AcDbEntity
8
0-0
6
CONTINUOUS
62
3
100
AcDbLine
10
581.340000000000
20
371.720000000000
30
0.0
11
582.110000000000
21
372.490000000000
31
0.0
0
LINE
5
5b2
100
AcDbEntity
8
0-0
6
CONTINUOUS
62
3
100
AcDbLine
10
582.470000000000
20
372.140000000000
30
0.0
11
581.700000000000
21
371.370000000000
31
0.0
0
LINE
5
5b3
100
AcDbEntity
8
0-0
6
CONTINUOUS
62
3
100
AcDbLine
10
564.550000000000
20
370.930000000000
30
0.0
11
580.640000000000
21
370.930000000000
31
0.0
0
LINE
5
5b4
100
AcDbEntity
8
0-0
6
CONTINUOUS
62
3
100
AcDbLine
10
696.810000000000
20
365.430000000000
30
0.0
11
703.300000000000
21
365.430000000000
31
0.0
0
LINE
5
5b5
100
AcDbEntity
8
0-0
6
CONTINUOUS
62
3
100
AcDbLine
10
696.810000000000
20
364.930000000000
30
0.0
11
703.300000000000
21
364.930000000000
31
0.0
0
LINE
5
5b6
100
AcDbEntity
8
0-0
6
CONTINUOUS
62
3
100
AcDbLine
10
693.200000000000
20
371.780000000000
30
0.0
11
695.400000000000
21
365.900000000000
31
0.0
0
LINE
5
5b7
100
AcDbEntity
8
0-0
6
CONTINUOUS
62
3
100
AcDbLine
10
695.870000000000
20
366.080000000000
30
0.0
11
693.670000000000
21
371.960000000000
31
0.0
0
LINE
5
5b8
100
AcDbEntity
8
0-0
6
CONTINUOUS
62
3
100
AcDbLine
10
675.670000000000
20
372.430000000000
30
0.0
11
692.260000000000
21
372.430000000000
31
0.0
0
LINE
5
5b9
100
AcDbEntity
8
0-0
6
CONTINUOUS
62
3
100
AcDbLine
10
673.140000000000
20
371.430000000000
30
0.0
11
657.050000000000
21
371.430000000000
31
0.0
0
LINE
5
5ba
100
AcDbEntity
8
0-0
6
CONTINUOUS
62
3
100
AcDbLine
10
675.670000000000
20
372.930000000000
30
0.0
11
692.260000000000
21
372.930000000000
31
0.0
0
LINE
5
5bb
100
AcDbEntity
8
0-0
6
CONTINUOUS
62
3
100
AcDbLine
10
673.840000000000
20
371.720000000000
30
0.0
11
674.610000000000
21
372.490000000000
31
0.0
0
LINE
5
5bc
100
AcDbEntity
8
0-0
6
CONTINUOUS
62
3
100
AcDbLine
10
674.970000000000
20
372.140000000000
30
0.0
11
674.200000000000
21
371.370000000000
31
0.0
0
LINE
5
5bd
100
AcDbEntity
8
0-0
6
CONTINUOUS
62
3
100
AcDbLine
10
657.050000000000
20
370.930000000000
30
0.0
11
673.140000000000
21
370.930000000000
31
0.0
0
LINE
5
5be
100
AcDbEntity
8
0-0
6
CONTINUOUS
62
3
100
AcDbLine
10
709.800000000000
20
365.430000000000
30
0.0
11
703.300000000000
21
365.430000000000
31
0.0
0
LINE
5
5bf
100
AcDbEntity
8
0-0
6
CONTINUOUS
62
3
100
AcDbLine
10
709.800000000000
20
364.930000000000
30
0.0
11
703.300000000000
21
364.930000000000
31
0.0
0
LINE
5
5c0
100
AcDbEntity
8
0-0
6
CONTINUOUS
62
3
100
AcDbLine
10
713.400000000000
20
371.780000000000
30
0.0
11
711.200000000000
21
365.900000000000
31
0.0
0
LINE
5
5c1
100
AcDbEntity
8
0-0
6
CONTINUOUS
62
3
100
AcDbLine
10
710.730000000000
20
366.080000000000
30
0.0
11
712.940000000000
21
371.960000000000
31
0.0
0
LINE
5
5c2
100
AcDbEntity
8
0-0
6
CONTINUOUS
62
3
100
AcDbLine
10
730.930000000000
20
372.430000000000
30
0.0
11
714.340000000000
21
372.430000000000
31
0.0
0
LINE
5
5c3
100
AcDbEntity
8
0-0
6
CONTINUOUS
62
3
100
AcDbLine
10
733.470000000000
20
371.430000000000
30
0.0
11
749.550000000000
21
371.430000000000
31
0.0
0
LINE
5
5c4
100
AcDbEntity
8
0-0
6
CONTINUOUS
62
3
100
AcDbLine
10
730.930000000000
20
372.930000000000
30
0.0
11
714.340000000000
21
372.930000000000
31
0.0
0
LINE
5
5c5
100
AcDbEntity
8
0-0
6
CONTINUOUS
62
3
100
AcDbLine
10
732.760000000000
20
371.720000000000
30
0.0
11
731.990000000000
21
372.490000000000
31
0.0
0
LINE
5
5c6
100
AcDbEntity
8
0-0
6
CONTINUOUS
62
3
100
AcDbLine
10
731.640000000000
20
372.140000000000
30
0.0
11
732.400000000000
21
371.370000000000
31
0.0
0
LINE
5
5c7
100
AcDbEntity
8
0-0
6
CONTINUOUS
62
3
100
AcDbLine
10
749.550000000000
20
370.930000000000
30
0.0
11
733.470000000000
21
370.930000000000
31
0.0
0
LINE
5
5c8
100
AcDbEntity
8
0-0
6
CONTINUOUS
62
7
100
AcDbLine
10
639.050000000000
20
397.930000000000
30
0.0
11
675.050000000000
21
397.930000000000
31
0.0
0
LINE
5
5c9
100
AcDbEntity
8
0-0
6
CONTINUOUS
62
7
100
AcDbLine
10
639.050000000000
20
382.930000000000
30
0.0
11
639.050000000000
21
397.930000000000
31
0.0
0
LINE
5
5ca
100
AcDbEntity
8
0-0
6
CONTINUOUS
62
7
100
AcDbLine
10
675.050000000000
20
382.930000000000
30
0.0
11
675.050000000000
21
397.930000000000
31
0.0
0
LINE
5
5cb
100
AcDbEntity
8
0-0
6
CONTINUOUS
62
3
100
AcDbLine
10
651.240000000000
20
281.430000000000
30
0.0
11
657.740000000000
21
281.430000000000
31
0.0
0
LINE
5
5cc
100
AcDbEntity
8
0-0
6
CONTINUOUS
62
3
100
AcDbLine
10
651.240000000000
20
281.930000000000
30
0.0
11
657.740000000000
21
281.930000000000
31
0.0
0
LINE
5
5cd
100
AcDbEntity
8
0-0
6
CONTINUOUS
62
3
100
AcDbLine
10
666.260000000000
20
284.480000000000
30
0.0
11
665.790000000000
21
284.660000000000
31
0.0
0
LINE
5
5ce
100
AcDbEntity
8
0-0
6
CONTINUOUS
62
3
100
AcDbLine
10
665.010000000000
20
282.580000000000
30
0.0
11
665.790000000000
21
284.660000000000
31
0.0
0
LINE
5
5cf
100
AcDbEntity
8
0-0
6
CONTINUOUS
62
3
100
AcDbLine
10
665.480000000000
20
282.400000000000
30
0.0
11
666.260000000000
21
284.480000000000
31
0.0
0
LINE
5
5d0
100
AcDbEntity
8
0-0
6
CONTINUOUS
62
3
100
AcDbLine
10
648.170000000000
20
287.280000000000
30
0.0
11
650.000000000000
21
282.400000000000
31
0.0
0
LINE
5
5d1
100
AcDbEntity
8
0-0
6
CONTINUOUS
62
3
100
AcDbLine
10
650.470000000000
20
282.580000000000
30
0.0
11
648.640000000000
21
287.450000000000
31
0.0
0
LINE
5
5d2
100
AcDbEntity
8
0-0
6
CONTINUOUS
62
3
100
AcDbLine
10
611.490000000000
20
288.430000000000
30
0.0
11
647.230000000000
21
288.430000000000
31
0.0
0
LINE
5
5d3
100
AcDbEntity
8
0-0
6
CONTINUOUS
62
3
100
AcDbLine
10
647.230000000000
20
287.930000000000
30
0.0
11
611.490000000000
21
287.930000000000
31
0.0
0
LINE
5
5d4
100
AcDbEntity
8
0-0
6
CONTINUOUS
62
3
100
AcDbLine
10
664.070000000000
20
281.930000000000
30
0.0
11
657.740000000000
21
281.930000000000
31
0.0
0
LINE
5
5d5
100
AcDbEntity
8
0-0
6
CONTINUOUS
62
3
100
AcDbLine
10
664.070000000000
20
281.430000000000
30
0.0
11
657.740000000000
21
281.430000000000
31
0.0
0
LINE
5
5d6
100
AcDbEntity
8
0-0
6
CONTINUOUS
62
3
100
AcDbLine
10
627.740000000000
20
287.430000000000
30
0.0
11
627.740000000000
21
286.930000000000
31
0.0
0
LINE
5
5d7
100
AcDbEntity
8
0-0
6
CONTINUOUS
62
3
100
AcDbLine
10
669.310000000000
20
287.930000000000
30
0.0
11
703.990000000000
21
287.930000000000
31
0.0
0
LINE
5
5d8
100
AcDbEntity
8
0-0
6
CONTINUOUS
62
3
100
AcDbLine
10
664.770000000000
20
280.930000000000
30
0.0
11
657.740000000000
21
280.930000000000
31
0.0
0
LINE
5
5d9
100
AcDbEntity
8
0-0
6
CONTINUOUS
62
3
100
AcDbLine
10
650.710000000000
20
280.930000000000
30
0.0
11
657.740000000000
21
280.930000000000
31
0.0
0
LINE
5
5da
100
AcDbEntity
8
0-0
6
CONTINUOUS
62
3
100
AcDbLine
10
703.990000000000
20
288.430000000000
30
0.0
11
669.310000000000
21
288.430000000000
31
0.0
0
LINE
5
5db
100
AcDbEntity
8
0-0
6
CONTINUOUS
62
3
100
AcDbLine
10
665.700000000000
20
281.580000000000
30
0.0
11
667.910000000000
21
287.450000000000
31
0.0
0
LINE
5
5dc
100
AcDbEntity
8
0-0
6
CONTINUOUS
62
3
100
AcDbLine
10
664.770000000000
20
280.430000000000
30
0.0
11
657.740000000000
21
280.430000000000
31
0.0
0
LINE
5
5dd
100
AcDbEntity
8
0-0
6
CONTINUOUS
62
3
100
AcDbLine
10
668.380000000000
20
287.280000000000
30
0.0
11
666.170000000000
21
281.400000000000
31
0.0
0
LINE
5
5de
100
AcDbEntity
8
0-0
6
CONTINUOUS
62
3
100
AcDbLine
10
647.480000000000
20
286.280000000000
30
0.0
11
649.310000000000
21
281.400000000000
31
0.0
0
LINE
5
5df
100
AcDbEntity
8
0-0
6
CONTINUOUS
62
3
100
AcDbLine
10
650.710000000000
20
280.430000000000
30
0.0
11
657.740000000000
21
280.430000000000
31
0.0
0
LINE
5
5e0
100
AcDbEntity
8
0-0
6
CONTINUOUS
62
3
100
AcDbLine
10
649.770000000000
20
281.580000000000
30
0.0
11
647.940000000000
21
286.450000000000
31
0.0
0
LINE
5
5e1
100
AcDbEntity
8
0-0
6
CONTINUOUS
62
3
100
AcDbLine
10
646.540000000000
20
287.430000000000
30
0.0
11
627.740000000000
21
287.430000000000
31
0.0
0
LINE
5
5e2
100
AcDbEntity
8
0-0
6
CONTINUOUS
62
3
100
AcDbLine
10
646.540000000000
20
286.930000000000
30
0.0
11
627.740000000000
21
286.930000000000
31
0.0
0
LINE
5
5e3
100
AcDbEntity
8
0-0
6
CONTINUOUS
62
7
100
AcDbLine
10
647.740000000000
20
316.430000000000
30
0.0
11
667.740000000000
21
316.430000000000
31
0.0
0
LINE
5
5e4
100
AcDbEntity
8
0-0
6
CONTINUOUS
62
7
100
AcDbLine
10
647.740000000000
20
301.430000000000
30
0.0
11
647.740000000000
21
316.430000000000
31
0.0
0
LINE
5
5e5
100
AcDbEntity
8
0-0
6
CONTINUOUS
62
7
100
AcDbLine
10
667.740000000000
20
301.430000000000
30
0.0
11
667.740000000000
21
316.430000000000
31
0.0
0
CIRCLE
5
5e6
100
AcDbEntity
8
F-F
6
CONTINUOUS
62
3
100
AcDbCircle
10
44.420000000000
20
33.050000000000
30
0.0
40
5.656855653775
0
CIRCLE
5
5e7
100
AcDbEntity
8
F-F
6
CONTINUOUS
62
3
100
AcDbCircle
10
44.420000000000
20
33.050000000000
30
0.0
40
6.456854248129
0
CIRCLE
5
5e8
100
AcDbEntity
8
F-F
6
CONTINUOUS
62
4
100
AcDbCircle
10
44.420000000000
20
33.050000000000
30
0.0
40
5.736854893875
0
CIRCLE
5
5e9
100
AcDbEntity
8
F-F
6
CONTINUOUS
62
4
100
AcDbCircle
10
44.420000000000
20
33.050000000000
30
0.0
40
5.896853374073
0
CIRCLE
5
5ea
100
AcDbEntity
8
F-F
6
CONTINUOUS
62
4
100
AcDbCircle
10
44.420000000000
20
33.050000000000
30
0.0
40
6.056854176782
0
CIRCLE
5
5eb
100
AcDbEntity
8
F-F
6
CONTINUOUS
62
4
100
AcDbCircle
10
44.420000000000
20
33.050000000000
30
0.0
40
6.216852656981
0
CIRCLE
5
5ec
100
AcDbEntity
8
F-F
6
CONTINUOUS
62
4
100
AcDbCircle
10
44.420000000000
20
33.050000000000
30
0.0
40
6.376852298435
0
ARC
5
5ed
100
AcDbEntity
8
0-0
6
CONTINUOUS
62
3
100
AcDbCircle
10
188.860000000000
20
368.430000000000
30
0.0
40
0.999999984825
100
AcDbArc
50
20.557205200195
51
90.000000000000
0
ARC
5
5ee
100
AcDbEntity
8
0-0
6
CONTINUOUS
62
3
100
AcDbCircle
10
193.410000000000
20
363.430000000000
30
0.0
40
0.999999984825
100
AcDbArc
50
200.557205200195
51
270.000000000000
0
ARC
5
5ef
100
AcDbEntity
8
0-0
6
CONTINUOUS
62
3
100
AcDbCircle
10
188.860000000000
20
368.430000000000
30
0.0
40
1.499999880466
100
AcDbArc
50
20.557205200195
51
90.000000000000
0
ARC
5
5f0
100
AcDbEntity
8
0-0
6
CONTINUOUS
62
3
100
AcDbCircle
10
193.410000000000
20
363.430000000000
30
0.0
40
1.499999880466
100
AcDbArc
50
200.557205200195
51
270.000000000000
0
ARC
5
5f1
100
AcDbEntity
8
0-0
6
CONTINUOUS
62
3
100
AcDbCircle
10
210.940000000000
20
368.430000000000
30
0.0
40
0.999999984825
100
AcDbArc
50
90.000000000000
51
159.442794799805
0
ARC
5
5f2
100
AcDbEntity
8
0-0
6
CONTINUOUS
62
3
100
AcDbCircle
10
206.400000000000
20
363.430000000000
30
0.0
40
0.999999984825
100
AcDbArc
50
270.000000000000
51
339.442794799805
0
ARC
5
5f3
100
AcDbEntity
8
0-0
6
CONTINUOUS
62
3
100
AcDbCircle
10
210.940000000000
20
368.430000000000
30
0.0
40
1.499999880466
100
AcDbArc
50
90.000000000000
51
159.442794799805
0
ARC
5
5f4
100
AcDbEntity
8
0-0
6
CONTINUOUS
62
3
100
AcDbCircle
10
206.400000000000
20
363.430000000000
30
0.0
40
1.499999880466
100
AcDbArc
50
270.000000000000
51
339.442794799805
0
ARC
5
5f5
100
AcDbEntity
8
0-0
6
CONTINUOUS
62
3
100
AcDbCircle
10
118.970000000000
20
368.430000000000
30
0.0
40
0.999999984825
100
AcDbArc
50
90.000000000000
51
159.442794799805
0
ARC
5
5f6
100
AcDbEntity
8
0-0
6
CONTINUOUS
62
3
100
AcDbCircle
10
114.430000000000
20
363.430000000000
30
0.0
40
0.999999984825
100
AcDbArc
50
270.000000000000
51
339.442794799805
0
ARC
5
5f7
100
AcDbEntity
8
0-0
6
CONTINUOUS
62
3
100
AcDbCircle
10
100.370000000000
20
363.430000000000
30
0.0
40
0.999999984825
100
AcDbArc
50
200.557205200195
51
270.000000000000
0
ARC
5
5f8
100
AcDbEntity
8
0-0
6
CONTINUOUS
62
3
100
AcDbCircle
10
96.200000000000
20
367.430000000000
30
0.0
40
0.999999984825
100
AcDbArc
50
20.557205200195
51
90.000000000000
0
ARC
5
5f9
100
AcDbEntity
8
0-0
6
CONTINUOUS
62
3
100
AcDbCircle
10
96.200000000000
20
367.430000000000
30
0.0
40
1.499999880466
100
AcDbArc
50
20.557205200195
51
90.000000000000
0
ARC
5
5fa
100
AcDbEntity
8
0-0
6
CONTINUOUS
62
3
100
AcDbCircle
10
100.370000000000
20
363.430000000000
30
0.0
40
1.499999880466
100
AcDbArc
50
200.557205200195
51
270.000000000000
0
ARC
5
5fb
100
AcDbEntity
8
0-0
6
CONTINUOUS
62
3
100
AcDbCircle
10
114.430000000000
20
363.430000000000
30
0.0
40
1.499999880466
100
AcDbArc
50
270.000000000000
51
339.442794799805
0
ARC
5
5fc
100
AcDbEntity
8
0-0
6
CONTINUOUS
62
3
100
AcDbCircle
10
118.970000000000
20
368.430000000000
30
0.0
40
1.499999880466
100
AcDbArc
50
90.000000000000
51
159.442794799805
0
ARC
5
5fd
100
AcDbEntity
8
0-0
6
CONTINUOUS
62
3
100
AcDbCircle
10
483.740000000000
20
364.430000000000
30
0.0
40
0.999999984825
100
AcDbArc
50
270.000000000000
51
339.443283081055
0
ARC
5
5fe
100
AcDbEntity
8
0-0
6
CONTINUOUS
62
3
100
AcDbCircle
10
471.070000000000
20
364.430000000000
30
0.0
40
0.999999984825
100
AcDbArc
50
200.557205200195
51
270.000000000000
0
ARC
5
5ff
100
AcDbEntity
8
0-0
6
CONTINUOUS
62
3
100
AcDbCircle
10
466.900000000000
20
368.430000000000
30
0.0
40
0.999999984825
100
AcDbArc
50
20.557205200195
51
90.000000000000
0
ARC
5
600
100
AcDbEntity
8
0-0
6
CONTINUOUS
62
3
100
AcDbCircle
10
466.900000000000
20
368.430000000000
30
0.0
40
1.499999880466
100
AcDbArc
50
20.557205200195
51
90.000000000000
0
ARC
5
601
100
AcDbEntity
8
0-0
6
CONTINUOUS
62
3
100
AcDbCircle
10
471.070000000000
20
364.430000000000
30
0.0
40
1.499999880466
100
AcDbArc
50
200.557205200195
51
270.000000000000
0
ARC
5
602
100
AcDbEntity
8
0-0
6
CONTINUOUS
62
3
100
AcDbCircle
10
483.740000000000
20
364.430000000000
30
0.0
40
1.499999880466
100
AcDbArc
50
270.000000000000
51
339.443283081055
0
ARC
5
603
100
AcDbEntity
8
0-0
6
CONTINUOUS
62
3
100
AcDbCircle
10
188.060000000000
20
175.930000000000
30
0.0
40
0.999999984825
100
AcDbArc
50
270.000000000000
51
339.442794799805
0
ARC
5
604
100
AcDbEntity
8
0-0
6
CONTINUOUS
62
3
100
AcDbCircle
10
192.610000000000
20
180.930000000000
30
0.0
40
0.999999984825
100
AcDbArc
50
90.000000000000
51
159.442794799805
0
ARC
5
605
100
AcDbEntity
8
0-0
6
CONTINUOUS
62
3
100
AcDbCircle
10
188.060000000000
20
175.930000000000
30
0.0
40
1.499999880466
100
AcDbArc
50
270.000000000000
51
339.442794799805
0
ARC
5
606
100
AcDbEntity
8
0-0
6
CONTINUOUS
62
3
100
AcDbCircle
10
192.610000000000
20
180.930000000000
30
0.0
40
1.499999880466
100
AcDbArc
50
90.000000000000
51
159.442794799805
0
ARC
5
607
100
AcDbEntity
8
0-0
6
CONTINUOUS
62
3
100
AcDbCircle
10
210.140000000000
20
175.930000000000
30
0.0
40
0.999999984825
100
AcDbArc
50
200.557205200195
51
270.000000000000
0
ARC
5
608
100
AcDbEntity
8
0-0
6
CONTINUOUS
62
3
100
AcDbCircle
10
205.600000000000
20
180.930000000000
30
0.0
40
0.999999984825
100
AcDbArc
50
20.557205200195
51
90.000000000000
0
ARC
5
609
100
AcDbEntity
8
0-0
6
CONTINUOUS
62
3
100
AcDbCircle
10
210.140000000000
20
175.930000000000
30
0.0
40
1.499999880466
100
AcDbArc
50
200.557205200195
51
270.000000000000
0
ARC
5
60a
100
AcDbEntity
8
0-0
6
CONTINUOUS
62
3
100
AcDbCircle
10
205.600000000000
20
180.930000000000
30
0.0
40
1.499999880466
100
AcDbArc
50
20.557205200195
51
90.000000000000
0
ARC
5
60b
100
AcDbEntity
8
0-0
6
CONTINUOUS
62
3
100
AcDbCircle
10
302.640000000000
20
175.930000000000
30
0.0
40
0.999999984825
100
AcDbArc
50
200.557205200195
51
270.000000000000
0
ARC
5
60c
100
AcDbEntity
8
0-0
6
CONTINUOUS
62
3
100
AcDbCircle
10
298.100000000000
20
180.930000000000
30
0.0
40
0.999999984825
100
AcDbArc
50
20.557205200195
51
90.000000000000
0
ARC
5
60d
100
AcDbEntity
8
0-0
6
CONTINUOUS
62
3
100
AcDbCircle
10
302.640000000000
20
175.930000000000
30
0.0
40
1.499999880466
100
AcDbArc
50
200.557205200195
51
270.000000000000
0
ARC
5
60e
100
AcDbEntity
8
0-0
6
CONTINUOUS
62
3
100
AcDbCircle
10
298.100000000000
20
180.930000000000
30
0.0
40
1.499999880466
100
AcDbArc
50
20.557205200195
51
90.000000000000
0
ARC
5
60f
100
AcDbEntity
8
0-0
6
CONTINUOUS
62
3
100
AcDbCircle
10
373.060000000000
20
175.930000000000
30
0.0
40
0.999999984825
100
AcDbArc
50
270.000000000000
51
339.442794799805
0
ARC
5
610
100
AcDbEntity
8
0-0
6
CONTINUOUS
62
3
100
AcDbCircle
10
377.610000000000
20
180.930000000000
30
0.0
40
0.999999984825
100
AcDbArc
50
90.000000000000
51
159.442794799805
0
ARC
5
611
100
AcDbEntity
8
0-0
6
CONTINUOUS
62
3
100
AcDbCircle
10
373.060000000000
20
175.930000000000
30
0.0
40
1.499999880466
100
AcDbArc
50
270.000000000000
51
339.442794799805
0
ARC
5
612
100
AcDbEntity
8
0-0
6
CONTINUOUS
62
3
100
AcDbCircle
10
377.610000000000
20
180.930000000000
30
0.0
40
1.499999880466
100
AcDbArc
50
90.000000000000
51
159.442794799805
0
ARC
5
613
100
AcDbEntity
8
0-0
6
CONTINUOUS
62
3
100
AcDbCircle
10
280.560000000000
20
175.930000000000
30
0.0
40
0.999999984825
100
AcDbArc
50
270.000000000000
51
339.442794799805
0
ARC
5
614
100
AcDbEntity
8
0-0
6
CONTINUOUS
62
3
100
AcDbCircle
10
285.110000000000
20
180.930000000000
30
0.0
40
0.999999984825
100
AcDbArc
50
90.000000000000
51
159.442794799805
0
ARC
5
615
100
AcDbEntity
8
0-0
6
CONTINUOUS
62
3
100
AcDbCircle
10
280.560000000000
20
175.930000000000
30
0.0
40
1.499999880466
100
AcDbArc
50
270.000000000000
51
339.442794799805
0
ARC
5
616
100
AcDbEntity
8
0-0
6
CONTINUOUS
62
3
100
AcDbCircle
10
285.110000000000
20
180.930000000000
30
0.0
40
1.499999880466
100
AcDbArc
50
90.000000000000
51
159.442794799805
0
ARC
5
617
100
AcDbEntity
8
0-0
6
CONTINUOUS
62
3
100
AcDbCircle
10
395.140000000000
20
175.930000000000
30
0.0
40
0.999999984825
100
AcDbArc
50
200.557205200195
51
270.000000000000
0
ARC
5
618
100
AcDbEntity
8
0-0
6
CONTINUOUS
62
3
100
AcDbCircle
10
390.600000000000
20
180.930000000000
30
0.0
40
0.999999984825
100
AcDbArc
50
20.557205200195
51
90.000000000000
0
ARC
5
619
100
AcDbEntity
8
0-0
6
CONTINUOUS
62
3
100
AcDbCircle
10
395.140000000000
20
175.930000000000
30
0.0
40
1.499999880466
100
AcDbArc
50
200.557205200195
51
270.000000000000
0
ARC
5
61a
100
AcDbEntity
8
0-0
6
CONTINUOUS
62
3
100
AcDbCircle
10
390.600000000000
20
180.930000000000
30
0.0
40
1.499999880466
100
AcDbArc
50
20.557205200195
51
90.000000000000
0
ARC
5
61b
100
AcDbEntity
8
0-0
6
CONTINUOUS
62
3
100
AcDbCircle
10
118.170000000000
20
175.930000000000
30
0.0
40
0.999999984825
100
AcDbArc
50
200.557205200195
51
270.000000000000
0
ARC
5
61c
100
AcDbEntity
8
0-0
6
CONTINUOUS
62
3
100
AcDbCircle
10
113.630000000000
20
180.930000000000
30
0.0
40
0.999999984825
100
AcDbArc
50
20.557205200195
51
90.000000000000
0
ARC
5
61d
100
AcDbEntity
8
0-0
6
CONTINUOUS
62
3
100
AcDbCircle
10
99.570000000000
20
180.930000000000
30
0.0
40
0.999999984825
100
AcDbArc
50
90.000000000000
51
159.442794799805
0
ARC
5
61e
100
AcDbEntity
8
0-0
6
CONTINUOUS
62
3
100
AcDbCircle
10
95.400000000000
20
176.930000000000
30
0.0
40
0.999999984825
100
AcDbArc
50
270.000000000000
51
339.442794799805
0
ARC
5
61f
100
AcDbEntity
8
0-0
6
CONTINUOUS
62
3
100
AcDbCircle
10
95.400000000000
20
176.930000000000
30
0.0
40
1.499999880466
100
AcDbArc
50
270.000000000000
51
339.442794799805
0
ARC
5
620
100
AcDbEntity
8
0-0
6
CONTINUOUS
62
3
100
AcDbCircle
10
99.570000000000
20
180.930000000000
30
0.0
40
1.499999880466
100
AcDbArc
50
90.000000000000
51
159.442794799805
0
ARC
5
621
100
AcDbEntity
8
0-0
6
CONTINUOUS
62
3
100
AcDbCircle
10
113.630000000000
20
180.930000000000
30
0.0
40
1.499999880466
100
AcDbArc
50
20.557205200195
51
90.000000000000
0
ARC
5
622
100
AcDbEntity
8
0-0
6
CONTINUOUS
62
3
100
AcDbCircle
10
118.170000000000
20
175.930000000000
30
0.0
40
1.499999880466
100
AcDbArc
50
200.557205200195
51
270.000000000000
0
ARC
5
623
100
AcDbEntity
8
0-0
6
CONTINUOUS
62
3
100
AcDbCircle
10
482.940000000000
20
179.930000000000
30
0.0
40
0.999999984825
100
AcDbArc
50
20.556701660156
51
90.000000000000
0
ARC
5
624
100
AcDbEntity
8
0-0
6
CONTINUOUS
62
3
100
AcDbCircle
10
470.270000000000
20
179.930000000000
30
0.0
40
0.999999984825
100
AcDbArc
50
90.000000000000
51
159.442794799805
0
ARC
5
625
100
AcDbEntity
8
0-0
6
CONTINUOUS
62
3
100
AcDbCircle
10
466.100000000000
20
175.930000000000
30
0.0
40
0.999999984825
100
AcDbArc
50
270.000000000000
51
339.442794799805
0
ARC
5
626
100
AcDbEntity
8
0-0
6
CONTINUOUS
62
3
100
AcDbCircle
10
466.100000000000
20
175.930000000000
30
0.0
40
1.499999880466
100
AcDbArc
50
270.000000000000
51
339.442794799805
0
ARC
5
627
100
AcDbEntity
8
0-0
6
CONTINUOUS
62
3
100
AcDbCircle
10
470.270000000000
20
179.930000000000
30
0.0
40
1.499999880466
100
AcDbArc
50
90.000000000000
51
159.442794799805
0
ARC
5
628
100
AcDbEntity
8
0-0
6
CONTINUOUS
62
3
100
AcDbCircle
10
482.940000000000
20
179.930000000000
30
0.0
40
1.499999880466
100
AcDbArc
50
20.556701660156
51
90.000000000000
0
ARC
5
629
100
AcDbEntity
8
0-0
6
CONTINUOUS
62
3
100
AcDbCircle
10
303.440000000000
20
368.430000000000
30
0.0
40
0.999999984825
100
AcDbArc
50
90.000000000000
51
159.442794799805
0
ARC
5
62a
100
AcDbEntity
8
0-0
6
CONTINUOUS
62
3
100
AcDbCircle
10
298.900000000000
20
363.430000000000
30
0.0
40
0.999999984825
100
AcDbArc
50
270.000000000000
51
339.442794799805
0
ARC
5
62b
100
AcDbEntity
8
0-0
6
CONTINUOUS
62
3
100
AcDbCircle
10
303.440000000000
20
368.430000000000
30
0.0
40
1.499999880466
100
AcDbArc
50
90.000000000000
51
159.442794799805
0
ARC
5
62c
100
AcDbEntity
8
0-0
6
CONTINUOUS
62
3
100
AcDbCircle
10
298.900000000000
20
363.430000000000
30
0.0
40
1.499999880466
100
AcDbArc
50
270.000000000000
51
339.442794799805
0
ARC
5
62d
100
AcDbEntity
8
0-0
6
CONTINUOUS
62
3
100
AcDbCircle
10
373.860000000000
20
368.430000000000
30
0.0
40
0.999999984825
100
AcDbArc
50
20.557205200195
51
90.000000000000
0
ARC
5
62e
100
AcDbEntity
8
0-0
6
CONTINUOUS
62
3
100
AcDbCircle
10
378.410000000000
20
363.430000000000
30
0.0
40
0.999999984825
100
AcDbArc
50
200.557205200195
51
270.000000000000
0
ARC
5
62f
100
AcDbEntity
8
0-0
6
CONTINUOUS
62
3
100
AcDbCircle
10
373.860000000000
20
368.430000000000
30
0.0
40
1.499999880466
100
AcDbArc
50
20.557205200195
51
90.000000000000
0
ARC
5
630
100
AcDbEntity
8
0-0
6
CONTINUOUS
62
3
100
AcDbCircle
10
378.410000000000
20
363.430000000000
30
0.0
40
1.499999880466
100
AcDbArc
50
200.557205200195
51
270.000000000000
0
ARC
5
631
100
AcDbEntity
8
0-0
6
CONTINUOUS
62
3
100
AcDbCircle
10
281.360000000000
20
368.430000000000
30
0.0
40
0.999999984825
100
AcDbArc
50
20.557205200195
51
90.000000000000
0
ARC
5
632
100
AcDbEntity
8
0-0
6
CONTINUOUS
62
3
100
AcDbCircle
10
285.910000000000
20
363.430000000000
30
0.0
40
0.999999984825
100
AcDbArc
50
200.557205200195
51
270.000000000000
0
ARC
5
633
100
AcDbEntity
8
0-0
6
CONTINUOUS
62
3
100
AcDbCircle
10
281.360000000000
20
368.430000000000
30
0.0
40
1.499999880466
100
AcDbArc
50
20.557205200195
51
90.000000000000
0
ARC
5
634
100
AcDbEntity
8
0-0
6
CONTINUOUS
62
3
100
AcDbCircle
10
285.910000000000
20
363.430000000000
30
0.0
40
1.499999880466
100
AcDbArc
50
200.557205200195
51
270.000000000000
0
ARC
5
635
100
AcDbEntity
8
0-0
6
CONTINUOUS
62
3
100
AcDbCircle
10
395.940000000000
20
368.430000000000
30
0.0
40
0.999999984825
100
AcDbArc
50
90.000000000000
51
159.442794799805
0
ARC
5
636
100
AcDbEntity
8
0-0
6
CONTINUOUS
62
3
100
AcDbCircle
10
391.400000000000
20
363.430000000000
30
0.0
40
0.999999984825
100
AcDbArc
50
270.000000000000
51
339.442794799805
0
ARC
5
637
100
AcDbEntity
8
0-0
6
CONTINUOUS
62
3
100
AcDbCircle
10
395.940000000000
20
368.430000000000
30
0.0
40
1.499999880466
100
AcDbArc
50
90.000000000000
51
159.442794799805
0
ARC
5
638
100
AcDbEntity
8
0-0
6
CONTINUOUS
62
3
100
AcDbCircle
10
391.400000000000
20
363.430000000000
30
0.0
40
1.499999880466
100
AcDbArc
50
270.000000000000
51
339.442794799805
0
ARC
5
639
100
AcDbEntity
8
0-0
6
CONTINUOUS
62
3
100
AcDbCircle
10
621.840000000000
20
371.430000000000
30
0.0
40
0.999999984825
100
AcDbArc
50
90.000000000000
51
159.442794799805
0
ARC
5
63a
100
AcDbEntity
8
0-0
6
CONTINUOUS
62
3
100
AcDbCircle
10
617.300000000000
20
366.430000000000
30
0.0
40
0.999999984825
100
AcDbArc
50
270.000000000000
51
339.442794799805
0
ARC
5
63b
100
AcDbEntity
8
0-0
6
CONTINUOUS
62
3
100
AcDbCircle
10
621.840000000000
20
371.430000000000
30
0.0
40
1.499999880466
100
AcDbArc
50
90.000000000000
51
159.442794799805
0
ARC
5
63c
100
AcDbEntity
8
0-0
6
CONTINUOUS
62
3
100
AcDbCircle
10
617.300000000000
20
366.430000000000
30
0.0
40
1.499999880466
100
AcDbArc
50
270.000000000000
51
339.442794799805
0
ARC
5
63d
100
AcDbEntity
8
0-0
6
CONTINUOUS
62
3
100
AcDbCircle
10
638.430000000000
20
371.430000000000
30
0.0
40
0.999999984825
100
AcDbArc
50
45.001998901367
51
90.000000000000
0
ARC
5
63e
100
AcDbEntity
8
0-0
6
CONTINUOUS
62
3
100
AcDbCircle
10
640.970000000000
20
372.430000000000
30
0.0
40
0.999999984825
100
AcDbArc
50
225.002014160156
51
270.000000000000
0
ARC
5
63f
100
AcDbEntity
8
0-0
6
CONTINUOUS
62
3
100
AcDbCircle
10
638.430000000000
20
371.430000000000
30
0.0
40
1.499999880466
100
AcDbArc
50
45.001998901367
51
90.000000000000
0
ARC
5
640
100
AcDbEntity
8
0-0
6
CONTINUOUS
62
3
100
AcDbCircle
10
640.970000000000
20
372.430000000000
30
0.0
40
1.499999880466
100
AcDbArc
50
225.002014160156
51
270.000000000000
0
ARC
5
641
100
AcDbEntity
8
0-0
6
CONTINUOUS
62
3
100
AcDbCircle
10
599.760000000000
20
371.430000000000
30
0.0
40
0.999999984825
100
AcDbArc
50
20.557205200195
51
90.000000000000
0
ARC
5
642
100
AcDbEntity
8
0-0
6
CONTINUOUS
62
3
100
AcDbCircle
10
604.310000000000
20
366.430000000000
30
0.0
40
0.999999984825
100
AcDbArc
50
200.557205200195
51
270.000000000000
0
ARC
5
643
100
AcDbEntity
8
0-0
6
CONTINUOUS
62
3
100
AcDbCircle
10
599.760000000000
20
371.430000000000
30
0.0
40
1.499999880466
100
AcDbArc
50
20.557205200195
51
90.000000000000
0
ARC
5
644
100
AcDbEntity
8
0-0
6
CONTINUOUS
62
3
100
AcDbCircle
10
604.310000000000
20
366.430000000000
30
0.0
40
1.499999880466
100
AcDbArc
50
200.557205200195
51
270.000000000000
0
ARC
5
645
100
AcDbEntity
8
0-0
6
CONTINUOUS
62
3
100
AcDbCircle
10
583.170000000000
20
371.430000000000
30
0.0
40
0.999999984825
100
AcDbArc
50
90.000000000000
51
134.997985839844
0
ARC
5
646
100
AcDbEntity
8
0-0
6
CONTINUOUS
62
3
100
AcDbCircle
10
580.640000000000
20
372.430000000000
30
0.0
40
0.999999984825
100
AcDbArc
50
270.000000000000
51
314.997985839844
0
ARC
5
647
100
AcDbEntity
8
0-0
6
CONTINUOUS
62
3
100
AcDbCircle
10
583.170000000000
20
371.430000000000
30
0.0
40
1.499999880466
100
AcDbArc
50
90.000000000000
51
134.997985839844
0
ARC
5
648
100
AcDbEntity
8
0-0
6
CONTINUOUS
62
3
100
AcDbCircle
10
580.640000000000
20
372.430000000000
30
0.0
40
1.499999880466
100
AcDbArc
50
270.000000000000
51
314.997985839844
0
ARC
5
649
100
AcDbEntity
8
0-0
6
CONTINUOUS
62
3
100
AcDbCircle
10
692.260000000000
20
371.430000000000
30
0.0
40
0.999999984825
100
AcDbArc
50
20.557205200195
51
90.000000000000
0
ARC
5
64a
100
AcDbEntity
8
0-0
6
CONTINUOUS
62
3
100
AcDbCircle
10
696.810000000000
20
366.430000000000
30
0.0
40
0.999999984825
100
AcDbArc
50
200.557205200195
51
270.000000000000
0
ARC
5
64b
100
AcDbEntity
8
0-0
6
CONTINUOUS
62
3
100
AcDbCircle
10
692.260000000000
20
371.430000000000
30
0.0
40
1.499999880466
100
AcDbArc
50
20.557205200195
51
90.000000000000
0
ARC
5
64c
100
AcDbEntity
8
0-0
6
CONTINUOUS
62
3
100
AcDbCircle
10
696.810000000000
20
366.430000000000
30
0.0
40
1.499999880466
100
AcDbArc
50
200.557205200195
51
270.000000000000
0
ARC
5
64d
100
AcDbEntity
8
0-0
6
CONTINUOUS
62
3
100
AcDbCircle
10
675.670000000000
20
371.430000000000
30
0.0
40
0.999999984825
100
AcDbArc
50
90.000000000000
51
134.997985839844
0
ARC
5
64e
100
AcDbEntity
8
0-0
6
CONTINUOUS
62
3
100
AcDbCircle
10
673.140000000000
20
372.430000000000
30
0.0
40
0.999999984825
100
AcDbArc
50
270.000000000000
51
314.997985839844
0
ARC
5
64f
100
AcDbEntity
8
0-0
6
CONTINUOUS
62
3
100
AcDbCircle
10
675.670000000000
20
371.430000000000
30
0.0
40
1.499999880466
100
AcDbArc
50
90.000000000000
51
134.997985839844
0
ARC
5
650
100
AcDbEntity
8
0-0
6
CONTINUOUS
62
3
100
AcDbCircle
10
673.140000000000
20
372.430000000000
30
0.0
40
1.499999880466
100
AcDbArc
50
270.000000000000
51
314.997985839844
0
ARC
5
651
100
AcDbEntity
8
0-0
6
CONTINUOUS
62
3
100
AcDbCircle
10
714.340000000000
20
371.430000000000
30
0.0
40
0.999999984825
100
AcDbArc
50
90.000000000000
51
159.442794799805
0
ARC
5
652
100
AcDbEntity
8
0-0
6
CONTINUOUS
62
3
100
AcDbCircle
10
709.800000000000
20
366.430000000000
30
0.0
40
0.999999984825
100
AcDbArc
50
270.000000000000
51
339.442794799805
0
ARC
5
653
100
AcDbEntity
8
0-0
6
CONTINUOUS
62
3
100
AcDbCircle
10
714.340000000000
20
371.430000000000
30
0.0
40
1.499999880466
100
AcDbArc
50
90.000000000000
51
159.442794799805
0
ARC
5
654
100
AcDbEntity
8
0-0
6
CONTINUOUS
62
3
100
AcDbCircle
10
709.800000000000
20
366.430000000000
30
0.0
40
1.499999880466
100
AcDbArc
50
270.000000000000
51
339.442794799805
0
ARC
5
655
100
AcDbEntity
8
0-0
6
CONTINUOUS
62
3
100
AcDbCircle
10
730.930000000000
20
371.430000000000
30
0.0
40
0.999999984825
100
AcDbArc
50
45.001998901367
51
90.000000000000
0
ARC
5
656
100
AcDbEntity
8
0-0
6
CONTINUOUS
62
3
100
AcDbCircle
10
733.470000000000
20
372.430000000000
30
0.0
40
0.999999984825
100
AcDbArc
50
225.002014160156
51
270.000000000000
0
ARC
5
657
100
AcDbEntity
8
0-0
6
CONTINUOUS
62
3
100
AcDbCircle
10
730.930000000000
20
371.430000000000
30
0.0
40
1.499999880466
100
AcDbArc
50
45.001998901367
51
90.000000000000
0
ARC
5
658
100
AcDbEntity
8
0-0
6
CONTINUOUS
62
3
100
AcDbCircle
10
733.470000000000
20
372.430000000000
30
0.0
40
1.499999880466
100
AcDbArc
50
225.002014160156
51
270.000000000000
0
ARC
5
659
100
AcDbEntity
8
0-0
6
CONTINUOUS
62
3
100
AcDbCircle
10
664.070000000000
20
282.930000000000
30
0.0
40
0.999999984825
100
AcDbArc
50
270.000000000000
51
339.443283081055
0
ARC
5
65a
100
AcDbEntity
8
0-0
6
CONTINUOUS
62
3
100
AcDbCircle
10
651.400000000000
20
282.930000000000
30
0.0
40
0.999999984825
100
AcDbArc
50
200.557205200195
51
270.000000000000
0
ARC
5
65b
100
AcDbEntity
8
0-0
6
CONTINUOUS
62
3
100
AcDbCircle
10
647.230000000000
20
286.930000000000
30
0.0
40
0.999999984825
100
AcDbArc
50
20.557205200195
51
90.000000000000
0
ARC
5
65c
100
AcDbEntity
8
0-0
6
CONTINUOUS
62
3
100
AcDbCircle
10
647.230000000000
20
286.930000000000
30
0.0
40
1.499999880466
100
AcDbArc
50
20.557205200195
51
90.000000000000
0
ARC
5
65d
100
AcDbEntity
8
0-0
6
CONTINUOUS
62
3
100
AcDbCircle
10
651.400000000000
20
282.930000000000
30
0.0
40
1.499999880466
100
AcDbArc
50
200.557205200195
51
270.000000000000
0
ARC
5
65e
100
AcDbEntity
8
0-0
6
CONTINUOUS
62
3
100
AcDbCircle
10
664.070000000000
20
282.930000000000
30
0.0
40
1.499999880466
100
AcDbArc
50
270.000000000000
51
339.443283081055
0
ARC
5
65f
100
AcDbEntity
8
0-0
6
CONTINUOUS
62
3
100
AcDbCircle
10
669.310000000000
20
286.930000000000
30
0.0
40
0.999999984825
100
AcDbArc
50
90.000000000000
51
159.442794799805
0
ARC
5
660
100
AcDbEntity
8
0-0
6
CONTINUOUS
62
3
100
AcDbCircle
10
664.770000000000
20
281.930000000000
30
0.0
40
0.999999984825
100
AcDbArc
50
270.000000000000
51
339.442794799805
0
ARC
5
661
100
AcDbEntity
8
0-0
6
CONTINUOUS
62
3
100
AcDbCircle
10
650.710000000000
20
281.930000000000
30
0.0
40
0.999999984825
100
AcDbArc
50
200.557205200195
51
270.000000000000
0
ARC
5
662
100
AcDbEntity
8
0-0
6
CONTINUOUS
62
3
100
AcDbCircle
10
646.540000000000
20
285.930000000000
30
0.0
40
0.999999984825
100
AcDbArc
50
20.557205200195
51
90.000000000000
0
ARC
5
663
100
AcDbEntity
8
0-0
6
CONTINUOUS
62
3
100
AcDbCircle
10
646.540000000000
20
285.930000000000
30
0.0
40
1.499999880466
100
AcDbArc
50
20.557205200195
51
90.000000000000
0
ARC
5
664
100
AcDbEntity
8
0-0
6
CONTINUOUS
62
3
100
AcDbCircle
10
650.710000000000
20
281.930000000000
30
0.0
40
1.499999880466
100
AcDbArc
50
200.557205200195
51
270.000000000000
0
ARC
5
665
100
AcDbEntity
8
0-0
6
CONTINUOUS
62
3
100
AcDbCircle
10
664.770000000000
20
281.930000000000
30
0.0
40
1.499999880466
100
AcDbArc
50
270.000000000000
51
339.442794799805
0
ARC
5
666
100
AcDbEntity
8
0-0
6
CONTINUOUS
62
3
100
AcDbCircle
10
669.310000000000
20
286.930000000000
30
0.0
40
1.499999880466
100
AcDbArc
50
90.000000000000
51
159.442794799805
0
TEXT
5
667
100
AcDbEntity
8
F-F
62
3
370
-3
100
AcDbText
10
83.332
20
21.800
30
0.0
40
3.282
1
静岡県静岡市流通センター１６番
41
0.921
50
0.000
100
AcDbText
0
TEXT
5
668
100
AcDbEntity
8
F-F
62
3
370
-3
100
AcDbText
10
83.334
20
14.383
30
0.0
40
3.282
1
電話（０５４）２６３－２２８０（代表）
41
0.921
50
0.000
100
AcDbText
0
TEXT
5
669
100
AcDbEntity
8
F-F
62
3
370
-3
100
AcDbText
10
266.045
20
37.876
30
0.0
40
2.461
1
変　　　　　　更　　　　　　記　　　　　　事
41
0.914
50
0.000
100
AcDbText
0
TEXT
5
66a
100
AcDbEntity
8
F-F
62
3
370
-3
100
AcDbText
10
407.912
20
37.476
30
0.0
40
2.461
1
受領　　日附
41
0.914
50
0.000
100
AcDbText
0
TEXT
5
66b
100
AcDbEntity
8
F-F
62
3
370
-3
100
AcDbText
10
507.021
20
22.760
30
0.0
40
2.461
1
施工者
41
0.914
50
0.000
100
AcDbText
0
TEXT
5
66c
100
AcDbEntity
8
F-F
62
3
370
-3
100
AcDbText
10
507.021
20
37.575
30
0.0
40
2.461
1
設計者
41
0.914
50
0.000
100
AcDbText
0
TEXT
5
66d
100
AcDbEntity
8
F-F
62
3
370
-3
100
AcDbText
10
609.763
20
22.489
30
0.0
40
2.461
1
作図
41
0.914
50
0.000
100
AcDbText
0
TEXT
5
66e
100
AcDbEntity
8
F-F
62
3
370
-3
100
AcDbText
10
645.676
20
22.754
30
0.0
40
2.461
1
図面名
41
0.914
50
0.000
100
AcDbText
0
TEXT
5
66f
100
AcDbEntity
8
F-F
62
3
370
-3
100
AcDbText
10
609.763
20
37.303
30
0.0
40
2.461
1
日附
41
0.914
50
0.000
100
AcDbText
0
TEXT
5
670
100
AcDbEntity
8
F-F
62
3
370
-3
100
AcDbText
10
645.676
20
37.569
30
0.0
40
2.461
1
工事件名
41
0.914
50
0.000
100
AcDbText
0
TEXT
5
671
100
AcDbEntity
8
F-F
62
3
370
-3
100
AcDbText
10
620.831
20
37.178
30
0.0
40
2.461
1
年　月　日
41
0.914
50
0.000
100
AcDbText
0
TEXT
5
672
100
AcDbEntity
8
F-F
62
3
370
-3
100
AcDbText
10
620.831
20
22.363
30
0.0
40
2.461
1
年　月　日
41
0.914
50
0.000
100
AcDbText
0
TEXT
5
673
100
AcDbEntity
8
F-F
62
3
370
-3
100
AcDbText
10
771.848
20
37.569
30
0.0
40
2.461
1
設計番号
41
0.914
50
0.000
100
AcDbText
0
MTEXT
5
674
100
AcDbEntity
8
F-F
62
3
370
-3
100
AcDbMText
10
193.506
20
33.911
30
0.0
40
2.325
41
0.000
71
7
72
1
1
\W1.037;{\W0.747;. }　{\W0.747;.}　{\W0.747; }
7
STANDARD
11
1.00000
21
0.00000
31
0.0
0
MTEXT
5
675
100
AcDbEntity
8
F-F
62
3
370
-3
100
AcDbMText
10
193.506
20
28.972
30
0.0
40
2.325
41
0.000
71
7
72
1
1
\W1.037;{\W0.747;. }　{\W0.747;.}　{\W0.747; }
7
STANDARD
11
1.00000
21
0.00000
31
0.0
0
MTEXT
5
676
100
AcDbEntity
8
F-F
62
3
370
-3
100
AcDbMText
10
193.506
20
24.034
30
0.0
40
2.325
41
0.000
71
7
72
1
1
\W1.037;{\W0.747;. }　{\W0.747;.}　{\W0.747; }
7
STANDARD
11
1.00000
21
0.00000
31
0.0
0
MTEXT
5
677
100
AcDbEntity
8
F-F
62
3
370
-3
100
AcDbMText
10
193.506
20
19.096
30
0.0
40
2.325
41
0.000
71
7
72
1
1
\W1.037;{\W0.747;. }　{\W0.747;.}　{\W0.747; }
7
STANDARD
11
1.00000
21
0.00000
31
0.0
0
MTEXT
5
678
100
AcDbEntity
8
F-F
62
3
370
-3
100
AcDbMText
10
193.506
20
14.157
30
0.0
40
2.325
41
0.000
71
7
72
1
1
\W1.037;{\W0.747;. }　{\W0.747;.}　{\W0.747; }
7
STANDARD
11
1.00000
21
0.00000
31
0.0
0
TEXT
5
679
100
AcDbEntity
8
F-F
62
3
370
-3
100
AcDbText
10
517.191
20
31.187
30
0.0
40
3.282
1
　　　　　　　　　　
41
0.921
50
0.000
100
AcDbText
0
TEXT
5
67a
100
AcDbEntity
8
F-F
62
3
370
-3
100
AcDbText
10
517.191
20
16.371
30
0.0
40
3.282
1
　　　　　　　　　　
41
0.921
50
0.000
100
AcDbText
0
TEXT
5
67b
100
AcDbEntity
8
F-F
62
3
370
-3
100
AcDbText
10
658.923
20
31.960
30
0.0
40
3.282
1
　　　　　　　　　　　　　
41
0.921
50
0.000
100
AcDbText
0
TEXT
5
67c
100
AcDbEntity
8
F-F
62
3
370
-3
100
AcDbText
10
189.020
20
37.844
30
0.0
40
2.461
1
年　月　日
41
0.914
50
0.000
100
AcDbText
0
TEXT
5
67d
100
AcDbEntity
8
F-F
62
3
370
-3
100
AcDbText
10
436.498
20
37.184
30
0.0
40
2.461
1
年　　月　　日
41
0.914
50
0.000
100
AcDbText
0
MTEXT
5
67e
100
AcDbEntity
8
F-F
62
3
370
-3
100
AcDbMText
10
442.774
20
31.699
30
0.0
40
2.325
41
0.000
71
7
72
1
1
\W1.037;{\W0.747;.}　{\W0.747; }　{\W0.747;.}
7
STANDARD
11
1.00000
21
0.00000
31
0.0
0
TEXT
5
67f
100
AcDbEntity
8
F-F
62
3
370
-3
100
AcDbText
10
407.912
20
22.661
30
0.0
40
2.461
1
受領　　日附
41
0.914
50
0.000
100
AcDbText
0
TEXT
5
680
100
AcDbEntity
8
F-F
62
3
370
-3
100
AcDbText
10
436.498
20
22.369
30
0.0
40
2.461
1
年　　月　　日
41
0.914
50
0.000
100
AcDbText
0
MTEXT
5
681
100
AcDbEntity
8
F-F
62
3
370
-3
100
AcDbMText
10
442.774
20
16.884
30
0.0
40
2.325
41
0.000
71
7
72
1
1
\W1.037;{\W0.747;.}　{\W0.747; }　{\W0.747;.}
7
STANDARD
11
1.00000
21
0.00000
31
0.0
0
MTEXT
5
682
100
AcDbEntity
8
F-F
62
3
370
-3
100
AcDbMText
10
624.217
20
30.842
30
0.0
40
2.325
41
0.000
71
7
72
1
1
\W1.037;{\W0.747;.}　　{\W0.747;.}　
7
STANDARD
11
1.00000
21
0.00000
31
0.0
0
TEXT
5
683
100
AcDbEntity
8
F-F
62
3
370
-3
100
AcDbText
10
57.385
20
30.579
30
0.0
40
6.564
1
小　池　弥　太　郎　商　店
41
0.963
50
0.000
100
AcDbText
0
TEXT
5
684
100
AcDbEntity
8
F-F
62
3
370
-3
100
AcDbText
10
771.848
20
22.754
30
0.0
40
2.461
1
縮　尺
41
0.914
50
0.000
100
AcDbText
0
TEXT
5
685
100
AcDbEntity
8
F-F
62
3
370
-3
100
AcDbText
10
783.506
20
20.823
30
0.0
40
3.282
1
Ａ１－１／１　
41
0.921
50
0.000
100
AcDbText
0
TEXT
5
686
100
AcDbEntity
8
F-F
62
3
370
-3
100
AcDbText
10
783.506
20
13.416
30
0.0
40
3.282
1
Ａ３－１／２　
41
0.921
50
0.000
100
AcDbText
0
TEXT
5
687
100
AcDbEntity
8
0-0
62
3
370
-3
100
AcDbText
10
643.494
20
331.860
30
0.0
40
6.564
1
重ね部分
41
0.963
50
0.000
100
AcDbText
0
TEXT
5
688
100
AcDbEntity
8
F-F
62
3
370
-3
100
AcDbText
10
637.422
20
556.464
30
0.0
40
6.564
1
製　品　名
41
0.963
50
0.000
100
AcDbText
0
MTEXT
5
689
100
AcDbEntity
8
F-F
62
3
370
-3
100
AcDbMText
10
637.422
20
505.735
30
0.0
40
6.199
41
0.000
71
7
72
1
1
\W1.093;各種鋼板　０{\W0.787;.}２７ｍｍ{\W0.787; }～{\W0.787; }０{\W0.787;.}４ｍｍ
7
STANDARD
11
1.00000
21
0.00000
31
0.0
0
TEXT
5
68a
100
AcDbEntity
8
F-F
62
3
370
-3
100
AcDbText
10
637.422
20
493.964
30
0.0
40
6.564
1
板幅　：　４５５ｍｍ
41
0.963
50
0.000
100
AcDbText
0
TEXT
5
68b
100
AcDbEntity
8
F-F
62
3
370
-3
100
AcDbText
10
611.358
20
15.783
30
0.0
40
2.461
1
MA 2015-06-15
41
0.618
50
0.000
100
AcDbText
0
TEXT
5
68c
100
AcDbEntity
8
0-0
62
3
370
-3
100
AcDbText
10
195.963
20
400.128
30
0.0
40
6.564
41
0.597
50
0.000
1
20
72
1
11
200.350
21
399.398
31
0.0
100
AcDbText
73
1
0
TEXT
5
68d
100
AcDbEntity
8
0-0
62
3
370
-3
100
AcDbText
10
237.713
20
400.128
30
0.0
40
6.564
41
0.674
50
0.000
1
72.5
72
1
11
246.488
21
399.398
31
0.0
100
AcDbText
73
1
0
TEXT
5
68e
100
AcDbEntity
8
0-0
62
3
370
-3
100
AcDbText
10
145.213
20
425.128
30
0.0
40
6.564
41
0.675
50
0.000
1
92.5
72
1
11
153.988
21
424.398
31
0.0
100
AcDbText
73
1
0
TEXT
5
68f
100
AcDbEntity
8
0-0
62
3
370
-3
100
AcDbText
10
237.713
20
425.128
30
0.0
40
6.564
41
0.675
50
0.000
1
92.5
72
1
11
246.488
21
424.398
31
0.0
100
AcDbText
73
1
0
TEXT
5
690
100
AcDbEntity
8
0-0
62
3
370
-3
100
AcDbText
10
330.213
20
425.128
30
0.0
40
6.564
41
0.675
50
0.000
1
92.5
72
1
11
338.988
21
424.398
31
0.0
100
AcDbText
73
1
0
TEXT
5
691
100
AcDbEntity
8
0-0
62
3
370
-3
100
AcDbText
10
422.713
20
425.128
30
0.0
40
6.564
41
0.675
50
0.000
1
92.5
72
1
11
431.488
21
424.398
31
0.0
100
AcDbText
73
1
0
TEXT
5
692
100
AcDbEntity
8
0-0
62
3
370
-3
100
AcDbText
10
286.213
20
440.128
30
0.0
40
6.564
41
0.628
50
0.000
1
370
72
1
11
292.794
21
439.398
31
0.0
100
AcDbText
73
1
0
TEXT
5
693
100
AcDbEntity
8
0-0
62
3
370
-3
100
AcDbText
10
195.963
20
339.128
30
0.0
40
6.564
41
0.752
50
0.000
1
14
72
1
11
200.350
21
338.398
31
0.0
100
AcDbText
73
1
0
TEXT
5
694
100
AcDbEntity
8
0-0
62
3
370
-3
100
AcDbText
10
249.463
20
362.128
30
0.0
40
6.564
41
0.554
50
0.000
1
8
72
1
11
251.657
21
361.398
31
0.0
100
AcDbText
73
1
0
TEXT
5
695
100
AcDbEntity
8
0-0
62
3
370
-3
100
AcDbText
10
107.856
20
508.862
30
0.0
40
6.564
1
４行角波サイディング（有効巾　３７０ｍｍ）
41
0.963
50
0.000
100
AcDbText
0
TEXT
5
696
100
AcDbEntity
8
0-0
62
3
370
-3
100
AcDbText
10
103.463
20
400.128
30
0.0
40
6.564
41
0.597
50
0.000
1
20
72
1
11
107.850
21
399.398
31
0.0
100
AcDbText
73
1
0
TEXT
5
697
100
AcDbEntity
8
0-0
62
3
370
-3
100
AcDbText
10
145.213
20
400.128
30
0.0
40
6.564
41
0.674
50
0.000
1
72.5
72
1
11
153.988
21
399.398
31
0.0
100
AcDbText
73
1
0
TEXT
5
698
100
AcDbEntity
8
0-0
62
3
370
-3
100
AcDbText
10
288.463
20
400.128
30
0.0
40
6.564
41
0.597
50
0.000
1
20
72
1
11
292.850
21
399.398
31
0.0
100
AcDbText
73
1
0
TEXT
5
699
100
AcDbEntity
8
0-0
62
3
370
-3
100
AcDbText
10
330.213
20
400.128
30
0.0
40
6.564
41
0.674
50
0.000
1
72.5
72
1
11
338.988
21
399.398
31
0.0
100
AcDbText
73
1
0
TEXT
5
69a
100
AcDbEntity
8
0-0
62
3
370
-3
100
AcDbText
10
380.963
20
400.128
30
0.0
40
6.564
41
0.597
50
0.000
1
20
72
1
11
385.350
21
399.398
31
0.0
100
AcDbText
73
1
0
TEXT
5
69b
100
AcDbEntity
8
0-0
62
3
370
-3
100
AcDbText
10
422.713
20
400.128
30
0.0
40
6.564
41
0.674
50
0.000
1
72.5
72
1
11
431.488
21
399.398
31
0.0
100
AcDbText
73
1
0
TEXT
5
69c
100
AcDbEntity
8
0-0
62
3
370
-3
100
AcDbText
10
145.213
20
235.128
30
0.0
40
6.564
41
0.675
50
0.000
1
92.5
72
1
11
153.988
21
234.398
31
0.0
100
AcDbText
73
1
0
TEXT
5
69d
100
AcDbEntity
8
0-0
62
3
370
-3
100
AcDbText
10
237.713
20
235.128
30
0.0
40
6.564
41
0.675
50
0.000
1
92.5
72
1
11
246.488
21
234.398
31
0.0
100
AcDbText
73
1
0
TEXT
5
69e
100
AcDbEntity
8
0-0
62
3
370
-3
100
AcDbText
10
330.213
20
235.128
30
0.0
40
6.564
41
0.675
50
0.000
1
92.5
72
1
11
338.988
21
234.398
31
0.0
100
AcDbText
73
1
0
TEXT
5
69f
100
AcDbEntity
8
0-0
62
3
370
-3
100
AcDbText
10
422.713
20
235.128
30
0.0
40
6.564
41
0.675
50
0.000
1
92.5
72
1
11
431.488
21
234.398
31
0.0
100
AcDbText
73
1
0
TEXT
5
6a0
100
AcDbEntity
8
0-0
62
3
370
-3
100
AcDbText
10
286.213
20
250.128
30
0.0
40
6.564
41
0.628
50
0.000
1
370
72
1
11
292.794
21
249.398
31
0.0
100
AcDbText
73
1
0
TEXT
5
6a1
100
AcDbEntity
8
0-0
62
3
370
-3
100
AcDbText
10
195.963
20
210.128
30
0.0
40
6.564
41
0.752
50
0.000
1
14
72
1
11
200.350
21
209.398
31
0.0
100
AcDbText
73
1
0
TEXT
5
6a2
100
AcDbEntity
8
0-0
62
3
370
-3
100
AcDbText
10
195.963
20
139.128
30
0.0
40
6.564
41
0.597
50
0.000
1
20
72
1
11
200.350
21
138.398
31
0.0
100
AcDbText
73
1
0
TEXT
5
6a3
100
AcDbEntity
8
0-0
62
3
370
-3
100
AcDbText
10
237.713
20
139.128
30
0.0
40
6.564
41
0.674
50
0.000
1
72.5
72
1
11
246.488
21
138.398
31
0.0
100
AcDbText
73
1
0
TEXT
5
6a4
100
AcDbEntity
8
0-0
62
3
370
-3
100
AcDbText
10
249.463
20
177.128
30
0.0
40
6.564
41
0.554
50
0.000
1
8
72
1
11
251.657
21
176.398
31
0.0
100
AcDbText
73
1
0
TEXT
5
6a5
100
AcDbEntity
8
0-0
62
3
370
-3
100
AcDbText
10
103.463
20
139.128
30
0.0
40
6.564
41
0.597
50
0.000
1
20
72
1
11
107.850
21
138.398
31
0.0
100
AcDbText
73
1
0
TEXT
5
6a6
100
AcDbEntity
8
0-0
62
3
370
-3
100
AcDbText
10
145.213
20
139.128
30
0.0
40
6.564
41
0.674
50
0.000
1
72.5
72
1
11
153.988
21
138.398
31
0.0
100
AcDbText
73
1
0
TEXT
5
6a7
100
AcDbEntity
8
0-0
62
3
370
-3
100
AcDbText
10
288.463
20
139.128
30
0.0
40
6.564
41
0.597
50
0.000
1
20
72
1
11
292.850
21
138.398
31
0.0
100
AcDbText
73
1
0
TEXT
5
6a8
100
AcDbEntity
8
0-0
62
3
370
-3
100
AcDbText
10
330.213
20
139.128
30
0.0
40
6.564
41
0.674
50
0.000
1
72.5
72
1
11
338.988
21
138.398
31
0.0
100
AcDbText
73
1
0
TEXT
5
6a9
100
AcDbEntity
8
0-0
62
3
370
-3
100
AcDbText
10
380.963
20
139.128
30
0.0
40
6.564
41
0.597
50
0.000
1
20
72
1
11
385.350
21
138.398
31
0.0
100
AcDbText
73
1
0
TEXT
5
6aa
100
AcDbEntity
8
0-0
62
3
370
-3
100
AcDbText
10
422.713
20
139.128
30
0.0
40
6.564
41
0.674
50
0.000
1
72.5
72
1
11
431.488
21
138.398
31
0.0
100
AcDbText
73
1
0
TEXT
5
6ab
100
AcDbEntity
8
0-0
62
3
370
-3
100
AcDbText
10
107.856
20
460.152
30
0.0
40
6.564
1
４行逆角波
41
0.963
50
0.000
100
AcDbText
0
TEXT
5
6ac
100
AcDbEntity
8
0-0
62
3
370
-3
100
AcDbText
10
107.856
20
270.152
30
0.0
40
6.564
1
４行正角波
41
0.963
50
0.000
100
AcDbText
0
MTEXT
5
6ad
100
AcDbEntity
8
F-F
62
3
370
-3
100
AcDbMText
10
637.422
20
530.735
30
0.0
40
6.199
41
0.000
71
7
72
1
1
\W1.093;４行{\W0.787; }逆・正{\W0.787; }角波{\W0.787; }（リブ無し、有り）　
7
STANDARD
11
1.00000
21
0.00000
31
0.0
0
TEXT
5
6ae
100
AcDbEntity
8
0-0
62
3
370
-3
100
AcDbText
10
653.113
20
400.128
30
0.0
40
6.564
41
0.574
50
0.000
1
36
72
1
11
657.500
21
399.398
31
0.0
100
AcDbText
73
1
0
TEXT
5
6af
100
AcDbEntity
8
0-0
62
3
370
-3
100
AcDbText
10
630.307
20
413.862
30
0.0
40
6.564
1
リブ付タイプ
41
0.963
50
0.000
100
AcDbText
0
TEXT
5
6b0
100
AcDbEntity
8
0-0
62
3
370
-3
100
AcDbText
10
653.800
20
318.625
30
0.0
40
6.564
41
0.597
50
0.000
1
20
72
1
11
658.188
21
317.896
31
0.0
100
AcDbText
73
1
0
TEXT
5
6b1
100
AcDbEntity
8
F-F
62
3
370
-3
100
AcDbText
10
658.923
20
17.145
30
0.0
40
3.282
1
４行　逆・正　角波　断面図
41
0.921
50
0.000
100
AcDbText
0
TEXT
5
6b2
100
AcDbEntity
8
F-F
62
3
370
-3
100
AcDbText
10
778.734
20
30.593
30
0.0
40
4.102
1
HAN-4-01
41
0.607
50
0.000
100
AcDbText
0
POLYLINE
5
6b3
100
AcDbEntity
  8
F-F
6
CONTINUOUS
62
3
100
AcDb2dPolyline
66
1
10
0
20
0
70
1
40
0.400
41
0.400
0
VERTEX
5
6b4
100
AcDbEntity
  8
F-F
6
CONTINUOUS
62
3
100
AcDbVertex
100
AcDb2dVertex
10
27.179
20
571.820
30
0.0
42
1.000
0
VERTEX
5
6b5
100
AcDbEntity
  8
F-F
6
CONTINUOUS
62
3
100
AcDbVertex
100
AcDb2dVertex
10
27.579
20
571.820
30
0.0
42
1.000
0
SEQEND
5
6b6
100
AcDbEntity
  8
F-F
0
POLYLINE
5
6b7
100
AcDbEntity
  8
0-0
6
CONTINUOUS
62
3
100
AcDb2dPolyline
66
1
10
0
20
0
70
1
40
0.400
41
0.400
0
VERTEX
5
6b8
100
AcDbEntity
  8
0-0
6
CONTINUOUS
62
3
100
AcDbVertex
100
AcDb2dVertex
10
189.701
20
397.930
30
0.0
42
1.000
0
VERTEX
5
6b9
100
AcDbEntity
  8
0-0
6
CONTINUOUS
62
3
100
AcDbVertex
100
AcDb2dVertex
10
190.101
20
397.930
30
0.0
42
1.000
0
SEQEND
5
6ba
100
AcDbEntity
  8
0-0
0
POLYLINE
5
6bb
100
AcDbEntity
  8
0-0
6
CONTINUOUS
62
3
100
AcDb2dPolyline
66
1
10
0
20
0
70
1
40
0.400
41
0.400
0
VERTEX
5
6bc
100
AcDbEntity
  8
0-0
6
CONTINUOUS
62
3
100
AcDbVertex
100
AcDb2dVertex
10
209.701
20
397.930
30
0.0
42
1.000
0
VERTEX
5
6bd
100
AcDbEntity
  8
0-0
6
CONTINUOUS
62
3
100
AcDbVertex
100
AcDb2dVertex
10
210.101
20
397.930
30
0.0
42
1.000
0
SEQEND
5
6be
100
AcDbEntity
  8
0-0
0
POLYLINE
5
6bf
100
AcDbEntity
  8
0-0
6
CONTINUOUS
62
3
100
AcDb2dPolyline
66
1
10
0
20
0
70
1
40
0.400
41
0.400
0
VERTEX
5
6c0
100
AcDbEntity
  8
0-0
6
CONTINUOUS
62
3
100
AcDbVertex
100
AcDb2dVertex
10
282.201
20
397.930
30
0.0
42
1.000
0
VERTEX
5
6c1
100
AcDbEntity
  8
0-0
6
CONTINUOUS
62
3
100
AcDbVertex
100
AcDb2dVertex
10
282.601
20
397.930
30
0.0
42
1.000
0
SEQEND
5
6c2
100
AcDbEntity
  8
0-0
0
POLYLINE
5
6c3
100
AcDbEntity
  8
0-0
6
CONTINUOUS
62
3
100
AcDb2dPolyline
66
1
10
0
20
0
70
1
40
0.400
41
0.400
0
VERTEX
5
6c4
100
AcDbEntity
  8
0-0
6
CONTINUOUS
62
3
100
AcDbVertex
100
AcDb2dVertex
10
107.201
20
422.930
30
0.0
42
1.000
0
VERTEX
5
6c5
100
AcDbEntity
  8
0-0
6
CONTINUOUS
62
3
100
AcDbVertex
100
AcDb2dVertex
10
107.601
20
422.930
30
0.0
42
1.000
0
SEQEND
5
6c6
100
AcDbEntity
  8
0-0
0
POLYLINE
5
6c7
100
AcDbEntity
  8
0-0
6
CONTINUOUS
62
3
100
AcDb2dPolyline
66
1
10
0
20
0
70
1
40
0.400
41
0.400
0
VERTEX
5
6c8
100
AcDbEntity
  8
0-0
6
CONTINUOUS
62
3
100
AcDbVertex
100
AcDb2dVertex
10
199.701
20
422.930
30
0.0
42
1.000
0
VERTEX
5
6c9
100
AcDbEntity
  8
0-0
6
CONTINUOUS
62
3
100
AcDbVertex
100
AcDb2dVertex
10
200.101
20
422.930
30
0.0
42
1.000
0
SEQEND
5
6ca
100
AcDbEntity
  8
0-0
0
POLYLINE
5
6cb
100
AcDbEntity
  8
0-0
6
CONTINUOUS
62
3
100
AcDb2dPolyline
66
1
10
0
20
0
70
1
40
0.400
41
0.400
0
VERTEX
5
6cc
100
AcDbEntity
  8
0-0
6
CONTINUOUS
62
3
100
AcDbVertex
100
AcDb2dVertex
10
292.201
20
422.930
30
0.0
42
1.000
0
VERTEX
5
6cd
100
AcDbEntity
  8
0-0
6
CONTINUOUS
62
3
100
AcDbVertex
100
AcDb2dVertex
10
292.601
20
422.930
30
0.0
42
1.000
0
SEQEND
5
6ce
100
AcDbEntity
  8
0-0
0
POLYLINE
5
6cf
100
AcDbEntity
  8
0-0
6
CONTINUOUS
62
3
100
AcDb2dPolyline
66
1
10
0
20
0
70
1
40
0.400
41
0.400
0
VERTEX
5
6d0
100
AcDbEntity
  8
0-0
6
CONTINUOUS
62
3
100
AcDbVertex
100
AcDb2dVertex
10
384.701
20
422.930
30
0.0
42
1.000
0
VERTEX
5
6d1
100
AcDbEntity
  8
0-0
6
CONTINUOUS
62
3
100
AcDbVertex
100
AcDb2dVertex
10
385.101
20
422.930
30
0.0
42
1.000
0
SEQEND
5
6d2
100
AcDbEntity
  8
0-0
0
POLYLINE
5
6d3
100
AcDbEntity
  8
0-0
6
CONTINUOUS
62
3
100
AcDb2dPolyline
66
1
10
0
20
0
70
1
40
0.400
41
0.400
0
VERTEX
5
6d4
100
AcDbEntity
  8
0-0
6
CONTINUOUS
62
3
100
AcDbVertex
100
AcDb2dVertex
10
477.201
20
422.930
30
0.0
42
1.000
0
VERTEX
5
6d5
100
AcDbEntity
  8
0-0
6
CONTINUOUS
62
3
100
AcDbVertex
100
AcDb2dVertex
10
477.601
20
422.930
30
0.0
42
1.000
0
SEQEND
5
6d6
100
AcDbEntity
  8
0-0
0
POLYLINE
5
6d7
100
AcDbEntity
  8
0-0
6
CONTINUOUS
62
3
100
AcDb2dPolyline
66
1
10
0
20
0
70
1
40
0.400
41
0.400
0
VERTEX
5
6d8
100
AcDbEntity
  8
0-0
6
CONTINUOUS
62
3
100
AcDbVertex
100
AcDb2dVertex
10
107.201
20
437.930
30
0.0
42
1.000
0
VERTEX
5
6d9
100
AcDbEntity
  8
0-0
6
CONTINUOUS
62
3
100
AcDbVertex
100
AcDb2dVertex
10
107.601
20
437.930
30
0.0
42
1.000
0
SEQEND
5
6da
100
AcDbEntity
  8
0-0
0
POLYLINE
5
6db
100
AcDbEntity
  8
0-0
6
CONTINUOUS
62
3
100
AcDb2dPolyline
66
1
10
0
20
0
70
1
40
0.400
41
0.400
0
VERTEX
5
6dc
100
AcDbEntity
  8
0-0
6
CONTINUOUS
62
3
100
AcDbVertex
100
AcDb2dVertex
10
477.201
20
437.930
30
0.0
42
1.000
0
VERTEX
5
6dd
100
AcDbEntity
  8
0-0
6
CONTINUOUS
62
3
100
AcDbVertex
100
AcDb2dVertex
10
477.601
20
437.930
30
0.0
42
1.000
0
SEQEND
5
6de
100
AcDbEntity
  8
0-0
0
POLYLINE
5
6df
100
AcDbEntity
  8
0-0
6
CONTINUOUS
62
3
100
AcDb2dPolyline
66
1
10
0
20
0
70
1
40
0.400
41
0.400
0
VERTEX
5
6e0
100
AcDbEntity
  8
0-0
6
CONTINUOUS
62
3
100
AcDbVertex
100
AcDb2dVertex
10
192.701
20
336.930
30
0.0
42
1.000
0
VERTEX
5
6e1
100
AcDbEntity
  8
0-0
6
CONTINUOUS
62
3
100
AcDbVertex
100
AcDb2dVertex
10
193.101
20
336.930
30
0.0
42
1.000
0
SEQEND
5
6e2
100
AcDbEntity
  8
0-0
0
POLYLINE
5
6e3
100
AcDbEntity
  8
0-0
6
CONTINUOUS
62
3
100
AcDb2dPolyline
66
1
10
0
20
0
70
1
40
0.400
41
0.400
0
VERTEX
5
6e4
100
AcDbEntity
  8
0-0
6
CONTINUOUS
62
3
100
AcDbVertex
100
AcDb2dVertex
10
206.701
20
336.930
30
0.0
42
1.000
0
VERTEX
5
6e5
100
AcDbEntity
  8
0-0
6
CONTINUOUS
62
3
100
AcDbVertex
100
AcDb2dVertex
10
207.101
20
336.930
30
0.0
42
1.000
0
SEQEND
5
6e6
100
AcDbEntity
  8
0-0
0
POLYLINE
5
6e7
100
AcDbEntity
  8
0-0
6
CONTINUOUS
62
3
100
AcDb2dPolyline
66
1
10
0
20
0
70
1
40
0.400
41
0.400
0
VERTEX
5
6e8
100
AcDbEntity
  8
0-0
6
CONTINUOUS
62
3
100
AcDbVertex
100
AcDb2dVertex
10
245.951
20
361.930
30
0.0
42
1.000
0
VERTEX
5
6e9
100
AcDbEntity
  8
0-0
6
CONTINUOUS
62
3
100
AcDbVertex
100
AcDb2dVertex
10
246.351
20
361.930
30
0.0
42
1.000
0
SEQEND
5
6ea
100
AcDbEntity
  8
0-0
0
POLYLINE
5
6eb
100
AcDbEntity
  8
0-0
6
CONTINUOUS
62
3
100
AcDb2dPolyline
66
1
10
0
20
0
70
1
40
0.400
41
0.400
0
VERTEX
5
6ec
100
AcDbEntity
  8
0-0
6
CONTINUOUS
62
3
100
AcDbVertex
100
AcDb2dVertex
10
245.951
20
369.930
30
0.0
42
1.000
0
VERTEX
5
6ed
100
AcDbEntity
  8
0-0
6
CONTINUOUS
62
3
100
AcDbVertex
100
AcDb2dVertex
10
246.351
20
369.930
30
0.0
42
1.000
0
SEQEND
5
6ee
100
AcDbEntity
  8
0-0
0
POLYLINE
5
6ef
100
AcDbEntity
  8
0-0
6
CONTINUOUS
62
3
100
AcDb2dPolyline
66
1
10
0
20
0
70
1
40
0.400
41
0.400
0
VERTEX
5
6f0
100
AcDbEntity
  8
0-0
6
CONTINUOUS
62
3
100
AcDbVertex
100
AcDb2dVertex
10
97.201
20
397.930
30
0.0
42
1.000
0
VERTEX
5
6f1
100
AcDbEntity
  8
0-0
6
CONTINUOUS
62
3
100
AcDbVertex
100
AcDb2dVertex
10
97.601
20
397.930
30
0.0
42
1.000
0
SEQEND
5
6f2
100
AcDbEntity
  8
0-0
0
POLYLINE
5
6f3
100
AcDbEntity
  8
0-0
6
CONTINUOUS
62
3
100
AcDb2dPolyline
66
1
10
0
20
0
70
1
40
0.400
41
0.400
0
VERTEX
5
6f4
100
AcDbEntity
  8
0-0
6
CONTINUOUS
62
3
100
AcDbVertex
100
AcDb2dVertex
10
117.201
20
397.930
30
0.0
42
1.000
0
VERTEX
5
6f5
100
AcDbEntity
  8
0-0
6
CONTINUOUS
62
3
100
AcDbVertex
100
AcDb2dVertex
10
117.601
20
397.930
30
0.0
42
1.000
0
SEQEND
5
6f6
100
AcDbEntity
  8
0-0
0
POLYLINE
5
6f7
100
AcDbEntity
  8
0-0
6
CONTINUOUS
62
3
100
AcDb2dPolyline
66
1
10
0
20
0
70
1
40
0.400
41
0.400
0
VERTEX
5
6f8
100
AcDbEntity
  8
0-0
6
CONTINUOUS
62
3
100
AcDbVertex
100
AcDb2dVertex
10
302.201
20
397.930
30
0.0
42
1.000
0
VERTEX
5
6f9
100
AcDbEntity
  8
0-0
6
CONTINUOUS
62
3
100
AcDbVertex
100
AcDb2dVertex
10
302.601
20
397.930
30
0.0
42
1.000
0
SEQEND
5
6fa
100
AcDbEntity
  8
0-0
0
POLYLINE
5
6fb
100
AcDbEntity
  8
0-0
6
CONTINUOUS
62
3
100
AcDb2dPolyline
66
1
10
0
20
0
70
1
40
0.400
41
0.400
0
VERTEX
5
6fc
100
AcDbEntity
  8
0-0
6
CONTINUOUS
62
3
100
AcDbVertex
100
AcDb2dVertex
10
374.701
20
397.930
30
0.0
42
1.000
0
VERTEX
5
6fd
100
AcDbEntity
  8
0-0
6
CONTINUOUS
62
3
100
AcDbVertex
100
AcDb2dVertex
10
375.101
20
397.930
30
0.0
42
1.000
0
SEQEND
5
6fe
100
AcDbEntity
  8
0-0
0
POLYLINE
5
6ff
100
AcDbEntity
  8
0-0
6
CONTINUOUS
62
3
100
AcDb2dPolyline
66
1
10
0
20
0
70
1
40
0.400
41
0.400
0
VERTEX
5
700
100
AcDbEntity
  8
0-0
6
CONTINUOUS
62
3
100
AcDbVertex
100
AcDb2dVertex
10
394.701
20
397.930
30
0.0
42
1.000
0
VERTEX
5
701
100
AcDbEntity
  8
0-0
6
CONTINUOUS
62
3
100
AcDbVertex
100
AcDb2dVertex
10
395.101
20
397.930
30
0.0
42
1.000
0
SEQEND
5
702
100
AcDbEntity
  8
0-0
0
POLYLINE
5
703
100
AcDbEntity
  8
0-0
6
CONTINUOUS
62
3
100
AcDb2dPolyline
66
1
10
0
20
0
70
1
40
0.400
41
0.400
0
VERTEX
5
704
100
AcDbEntity
  8
0-0
6
CONTINUOUS
62
3
100
AcDbVertex
100
AcDb2dVertex
10
467.201
20
397.930
30
0.0
42
1.000
0
VERTEX
5
705
100
AcDbEntity
  8
0-0
6
CONTINUOUS
62
3
100
AcDbVertex
100
AcDb2dVertex
10
467.601
20
397.930
30
0.0
42
1.000
0
SEQEND
5
706
100
AcDbEntity
  8
0-0
0
POLYLINE
5
707
100
AcDbEntity
  8
0-0
6
CONTINUOUS
62
3
100
AcDb2dPolyline
66
1
10
0
20
0
70
1
40
0.400
41
0.400
0
VERTEX
5
708
100
AcDbEntity
  8
0-0
6
CONTINUOUS
62
3
100
AcDbVertex
100
AcDb2dVertex
10
107.201
20
232.930
30
0.0
42
1.000
0
VERTEX
5
709
100
AcDbEntity
  8
0-0
6
CONTINUOUS
62
3
100
AcDbVertex
100
AcDb2dVertex
10
107.601
20
232.930
30
0.0
42
1.000
0
SEQEND
5
70a
100
AcDbEntity
  8
0-0
0
POLYLINE
5
70b
100
AcDbEntity
  8
0-0
6
CONTINUOUS
62
3
100
AcDb2dPolyline
66
1
10
0
20
0
70
1
40
0.400
41
0.400
0
VERTEX
5
70c
100
AcDbEntity
  8
0-0
6
CONTINUOUS
62
3
100
AcDbVertex
100
AcDb2dVertex
10
199.701
20
232.930
30
0.0
42
1.000
0
VERTEX
5
70d
100
AcDbEntity
  8
0-0
6
CONTINUOUS
62
3
100
AcDbVertex
100
AcDb2dVertex
10
200.101
20
232.930
30
0.0
42
1.000
0
SEQEND
5
70e
100
AcDbEntity
  8
0-0
0
POLYLINE
5
70f
100
AcDbEntity
  8
0-0
6
CONTINUOUS
62
3
100
AcDb2dPolyline
66
1
10
0
20
0
70
1
40
0.400
41
0.400
0
VERTEX
5
710
100
AcDbEntity
  8
0-0
6
CONTINUOUS
62
3
100
AcDbVertex
100
AcDb2dVertex
10
292.201
20
232.930
30
0.0
42
1.000
0
VERTEX
5
711
100
AcDbEntity
  8
0-0
6
CONTINUOUS
62
3
100
AcDbVertex
100
AcDb2dVertex
10
292.601
20
232.930
30
0.0
42
1.000
0
SEQEND
5
712
100
AcDbEntity
  8
0-0
0
POLYLINE
5
713
100
AcDbEntity
  8
0-0
6
CONTINUOUS
62
3
100
AcDb2dPolyline
66
1
10
0
20
0
70
1
40
0.400
41
0.400
0
VERTEX
5
714
100
AcDbEntity
  8
0-0
6
CONTINUOUS
62
3
100
AcDbVertex
100
AcDb2dVertex
10
384.701
20
232.930
30
0.0
42
1.000
0
VERTEX
5
715
100
AcDbEntity
  8
0-0
6
CONTINUOUS
62
3
100
AcDbVertex
100
AcDb2dVertex
10
385.101
20
232.930
30
0.0
42
1.000
0
SEQEND
5
716
100
AcDbEntity
  8
0-0
0
POLYLINE
5
717
100
AcDbEntity
  8
0-0
6
CONTINUOUS
62
3
100
AcDb2dPolyline
66
1
10
0
20
0
70
1
40
0.400
41
0.400
0
VERTEX
5
718
100
AcDbEntity
  8
0-0
6
CONTINUOUS
62
3
100
AcDbVertex
100
AcDb2dVertex
10
477.201
20
232.930
30
0.0
42
1.000
0
VERTEX
5
719
100
AcDbEntity
  8
0-0
6
CONTINUOUS
62
3
100
AcDbVertex
100
AcDb2dVertex
10
477.601
20
232.930
30
0.0
42
1.000
0
SEQEND
5
71a
100
AcDbEntity
  8
0-0
0
POLYLINE
5
71b
100
AcDbEntity
  8
0-0
6
CONTINUOUS
62
3
100
AcDb2dPolyline
66
1
10
0
20
0
70
1
40
0.400
41
0.400
0
VERTEX
5
71c
100
AcDbEntity
  8
0-0
6
CONTINUOUS
62
3
100
AcDbVertex
100
AcDb2dVertex
10
107.201
20
247.930
30
0.0
42
1.000
0
VERTEX
5
71d
100
AcDbEntity
  8
0-0
6
CONTINUOUS
62
3
100
AcDbVertex
100
AcDb2dVertex
10
107.601
20
247.930
30
0.0
42
1.000
0
SEQEND
5
71e
100
AcDbEntity
  8
0-0
0
POLYLINE
5
71f
100
AcDbEntity
  8
0-0
6
CONTINUOUS
62
3
100
AcDb2dPolyline
66
1
10
0
20
0
70
1
40
0.400
41
0.400
0
VERTEX
5
720
100
AcDbEntity
  8
0-0
6
CONTINUOUS
62
3
100
AcDbVertex
100
AcDb2dVertex
10
477.201
20
247.930
30
0.0
42
1.000
0
VERTEX
5
721
100
AcDbEntity
  8
0-0
6
CONTINUOUS
62
3
100
AcDbVertex
100
AcDb2dVertex
10
477.601
20
247.930
30
0.0
42
1.000
0
SEQEND
5
722
100
AcDbEntity
  8
0-0
0
POLYLINE
5
723
100
AcDbEntity
  8
0-0
6
CONTINUOUS
62
3
100
AcDb2dPolyline
66
1
10
0
20
0
70
1
40
0.400
41
0.400
0
VERTEX
5
724
100
AcDbEntity
  8
0-0
6
CONTINUOUS
62
3
100
AcDbVertex
100
AcDb2dVertex
10
192.701
20
207.930
30
0.0
42
1.000
0
VERTEX
5
725
100
AcDbEntity
  8
0-0
6
CONTINUOUS
62
3
100
AcDbVertex
100
AcDb2dVertex
10
193.101
20
207.930
30
0.0
42
1.000
0
SEQEND
5
726
100
AcDbEntity
  8
0-0
0
POLYLINE
5
727
100
AcDbEntity
  8
0-0
6
CONTINUOUS
62
3
100
AcDb2dPolyline
66
1
10
0
20
0
70
1
40
0.400
41
0.400
0
VERTEX
5
728
100
AcDbEntity
  8
0-0
6
CONTINUOUS
62
3
100
AcDbVertex
100
AcDb2dVertex
10
206.701
20
207.930
30
0.0
42
1.000
0
VERTEX
5
729
100
AcDbEntity
  8
0-0
6
CONTINUOUS
62
3
100
AcDbVertex
100
AcDb2dVertex
10
207.101
20
207.930
30
0.0
42
1.000
0
SEQEND
5
72a
100
AcDbEntity
  8
0-0
0
POLYLINE
5
72b
100
AcDbEntity
  8
0-0
6
CONTINUOUS
62
3
100
AcDb2dPolyline
66
1
10
0
20
0
70
1
40
0.400
41
0.400
0
VERTEX
5
72c
100
AcDbEntity
  8
0-0
6
CONTINUOUS
62
3
100
AcDbVertex
100
AcDb2dVertex
10
189.701
20
146.930
30
0.0
42
1.000
0
VERTEX
5
72d
100
AcDbEntity
  8
0-0
6
CONTINUOUS
62
3
100
AcDbVertex
100
AcDb2dVertex
10
190.101
20
146.930
30
0.0
42
1.000
0
SEQEND
5
72e
100
AcDbEntity
  8
0-0
0
POLYLINE
5
72f
100
AcDbEntity
  8
0-0
6
CONTINUOUS
62
3
100
AcDb2dPolyline
66
1
10
0
20
0
70
1
40
0.400
41
0.400
0
VERTEX
5
730
100
AcDbEntity
  8
0-0
6
CONTINUOUS
62
3
100
AcDbVertex
100
AcDb2dVertex
10
209.701
20
146.930
30
0.0
42
1.000
0
VERTEX
5
731
100
AcDbEntity
  8
0-0
6
CONTINUOUS
62
3
100
AcDbVertex
100
AcDb2dVertex
10
210.101
20
146.930
30
0.0
42
1.000
0
SEQEND
5
732
100
AcDbEntity
  8
0-0
0
POLYLINE
5
733
100
AcDbEntity
  8
0-0
6
CONTINUOUS
62
3
100
AcDb2dPolyline
66
1
10
0
20
0
70
1
40
0.400
41
0.400
0
VERTEX
5
734
100
AcDbEntity
  8
0-0
6
CONTINUOUS
62
3
100
AcDbVertex
100
AcDb2dVertex
10
282.201
20
146.930
30
0.0
42
1.000
0
VERTEX
5
735
100
AcDbEntity
  8
0-0
6
CONTINUOUS
62
3
100
AcDbVertex
100
AcDb2dVertex
10
282.601
20
146.930
30
0.0
42
1.000
0
SEQEND
5
736
100
AcDbEntity
  8
0-0
0
POLYLINE
5
737
100
AcDbEntity
  8
0-0
6
CONTINUOUS
62
3
100
AcDb2dPolyline
66
1
10
0
20
0
70
1
40
0.400
41
0.400
0
VERTEX
5
738
100
AcDbEntity
  8
0-0
6
CONTINUOUS
62
3
100
AcDbVertex
100
AcDb2dVertex
10
245.951
20
182.930
30
0.0
42
1.000
0
VERTEX
5
739
100
AcDbEntity
  8
0-0
6
CONTINUOUS
62
3
100
AcDbVertex
100
AcDb2dVertex
10
246.351
20
182.930
30
0.0
42
1.000
0
SEQEND
5
73a
100
AcDbEntity
  8
0-0
0
POLYLINE
5
73b
100
AcDbEntity
  8
0-0
6
CONTINUOUS
62
3
100
AcDb2dPolyline
66
1
10
0
20
0
70
1
40
0.400
41
0.400
0
VERTEX
5
73c
100
AcDbEntity
  8
0-0
6
CONTINUOUS
62
3
100
AcDbVertex
100
AcDb2dVertex
10
245.951
20
174.930
30
0.0
42
1.000
0
VERTEX
5
73d
100
AcDbEntity
  8
0-0
6
CONTINUOUS
62
3
100
AcDbVertex
100
AcDb2dVertex
10
246.351
20
174.930
30
0.0
42
1.000
0
SEQEND
5
73e
100
AcDbEntity
  8
0-0
0
POLYLINE
5
73f
100
AcDbEntity
  8
0-0
6
CONTINUOUS
62
3
100
AcDb2dPolyline
66
1
10
0
20
0
70
1
40
0.400
41
0.400
0
VERTEX
5
740
100
AcDbEntity
  8
0-0
6
CONTINUOUS
62
3
100
AcDbVertex
100
AcDb2dVertex
10
97.201
20
146.930
30
0.0
42
1.000
0
VERTEX
5
741
100
AcDbEntity
  8
0-0
6
CONTINUOUS
62
3
100
AcDbVertex
100
AcDb2dVertex
10
97.601
20
146.930
30
0.0
42
1.000
0
SEQEND
5
742
100
AcDbEntity
  8
0-0
0
POLYLINE
5
743
100
AcDbEntity
  8
0-0
6
CONTINUOUS
62
3
100
AcDb2dPolyline
66
1
10
0
20
0
70
1
40
0.400
41
0.400
0
VERTEX
5
744
100
AcDbEntity
  8
0-0
6
CONTINUOUS
62
3
100
AcDbVertex
100
AcDb2dVertex
10
117.201
20
146.930
30
0.0
42
1.000
0
VERTEX
5
745
100
AcDbEntity
  8
0-0
6
CONTINUOUS
62
3
100
AcDbVertex
100
AcDb2dVertex
10
117.601
20
146.930
30
0.0
42
1.000
0
SEQEND
5
746
100
AcDbEntity
  8
0-0
0
POLYLINE
5
747
100
AcDbEntity
  8
0-0
6
CONTINUOUS
62
3
100
AcDb2dPolyline
66
1
10
0
20
0
70
1
40
0.400
41
0.400
0
VERTEX
5
748
100
AcDbEntity
  8
0-0
6
CONTINUOUS
62
3
100
AcDbVertex
100
AcDb2dVertex
10
302.201
20
146.930
30
0.0
42
1.000
0
VERTEX
5
749
100
AcDbEntity
  8
0-0
6
CONTINUOUS
62
3
100
AcDbVertex
100
AcDb2dVertex
10
302.601
20
146.930
30
0.0
42
1.000
0
SEQEND
5
74a
100
AcDbEntity
  8
0-0
0
POLYLINE
5
74b
100
AcDbEntity
  8
0-0
6
CONTINUOUS
62
3
100
AcDb2dPolyline
66
1
10
0
20
0
70
1
40
0.400
41
0.400
0
VERTEX
5
74c
100
AcDbEntity
  8
0-0
6
CONTINUOUS
62
3
100
AcDbVertex
100
AcDb2dVertex
10
374.701
20
146.930
30
0.0
42
1.000
0
VERTEX
5
74d
100
AcDbEntity
  8
0-0
6
CONTINUOUS
62
3
100
AcDbVertex
100
AcDb2dVertex
10
375.101
20
146.930
30
0.0
42
1.000
0
SEQEND
5
74e
100
AcDbEntity
  8
0-0
0
POLYLINE
5
74f
100
AcDbEntity
  8
0-0
6
CONTINUOUS
62
3
100
AcDb2dPolyline
66
1
10
0
20
0
70
1
40
0.400
41
0.400
0
VERTEX
5
750
100
AcDbEntity
  8
0-0
6
CONTINUOUS
62
3
100
AcDbVertex
100
AcDb2dVertex
10
394.701
20
146.930
30
0.0
42
1.000
0
VERTEX
5
751
100
AcDbEntity
  8
0-0
6
CONTINUOUS
62
3
100
AcDbVertex
100
AcDb2dVertex
10
395.101
20
146.930
30
0.0
42
1.000
0
SEQEND
5
752
100
AcDbEntity
  8
0-0
0
POLYLINE
5
753
100
AcDbEntity
  8
0-0
6
CONTINUOUS
62
3
100
AcDb2dPolyline
66
1
10
0
20
0
70
1
40
0.400
41
0.400
0
VERTEX
5
754
100
AcDbEntity
  8
0-0
6
CONTINUOUS
62
3
100
AcDbVertex
100
AcDb2dVertex
10
467.201
20
146.930
30
0.0
42
1.000
0
VERTEX
5
755
100
AcDbEntity
  8
0-0
6
CONTINUOUS
62
3
100
AcDbVertex
100
AcDb2dVertex
10
467.601
20
146.930
30
0.0
42
1.000
0
SEQEND
5
756
100
AcDbEntity
  8
0-0
0
POLYLINE
5
757
100
AcDbEntity
  8
0-0
6
CONTINUOUS
62
3
100
AcDb2dPolyline
66
1
10
0
20
0
70
1
40
0.400
41
0.400
0
VERTEX
5
758
100
AcDbEntity
  8
0-0
6
CONTINUOUS
62
3
100
AcDbVertex
100
AcDb2dVertex
10
638.851
20
397.930
30
0.0
42
1.000
0
VERTEX
5
759
100
AcDbEntity
  8
0-0
6
CONTINUOUS
62
3
100
AcDbVertex
100
AcDb2dVertex
10
639.251
20
397.930
30
0.0
42
1.000
0
SEQEND
5
75a
100
AcDbEntity
  8
0-0
0
POLYLINE
5
75b
100
AcDbEntity
  8
0-0
6
CONTINUOUS
62
3
100
AcDb2dPolyline
66
1
10
0
20
0
70
1
40
0.400
41
0.400
0
VERTEX
5
75c
100
AcDbEntity
  8
0-0
6
CONTINUOUS
62
3
100
AcDbVertex
100
AcDb2dVertex
10
674.851
20
397.930
30
0.0
42
1.000
0
VERTEX
5
75d
100
AcDbEntity
  8
0-0
6
CONTINUOUS
62
3
100
AcDbVertex
100
AcDb2dVertex
10
675.251
20
397.930
30
0.0
42
1.000
0
SEQEND
5
75e
100
AcDbEntity
  8
0-0
0
POLYLINE
5
75f
100
AcDbEntity
  8
0-0
6
CONTINUOUS
62
3
100
AcDb2dPolyline
66
1
10
0
20
0
70
1
40
0.400
41
0.400
0
VERTEX
5
760
100
AcDbEntity
  8
0-0
6
CONTINUOUS
62
3
100
AcDbVertex
100
AcDb2dVertex
10
647.538
20
316.428
30
0.0
42
1.000
0
VERTEX
5
761
100
AcDbEntity
  8
0-0
6
CONTINUOUS
62
3
100
AcDbVertex
100
AcDb2dVertex
10
647.938
20
316.428
30
0.0
42
1.000
0
SEQEND
5
762
100
AcDbEntity
  8
0-0
0
POLYLINE
5
763
100
AcDbEntity
  8
0-0
6
CONTINUOUS
62
3
100
AcDb2dPolyline
66
1
10
0
20
0
70
1
40
0.400
41
0.400
0
VERTEX
5
764
100
AcDbEntity
  8
0-0
6
CONTINUOUS
62
3
100
AcDbVertex
100
AcDb2dVertex
10
667.538
20
316.428
30
0.0
42
1.000
0
VERTEX
5
765
100
AcDbEntity
  8
0-0
6
CONTINUOUS
62
3
100
AcDbVertex
100
AcDb2dVertex
10
667.938
20
316.428
30
0.0
42
1.000
0
SEQEND
5
766
100
AcDbEntity
  8
0-0
0
ENDSEC
 0
SECTION
  2
OBJECTS
 0
DICTIONARY
  5
C
100
AcDbDictionary
  3
ACAD_GROUP
350
D
  3
ACAD_MLINESTYLE
350
E
 0
DICTIONARY
  5
D
102
{ACAD_REACTORS
102
}
100
AcDbDictionary
 0
DICTIONARY
  5
E
102
{ACAD_REACTORS
102
}
100
AcDbDictionary
  3
STANDARD
350
13
0
MLINESTYLE
  5
13
102
{ACAD_REACTORS
102
}
100
AcDbMlineStyle
  2
STANDARD
 70
    0
3

62
256
51
90.0
52
90.0
71
0
0
ACDBPLACEHOLDER
  5
14
102
{ACAD_REACTORS
102
}
0
ENDSEC
0
EOF
