0
SECTION
2
HEADER
9
$ACADVER
1
AC1009
9
$DWGCODEPAGE
3
ANSI_932
9
$EXTMIN
10
0.000
20
0.000
30
0.0
9
$EXTMAX
10
841.000
20
594.000
30
0.0
9
$LTSCALE
40
2.000
9
$PDMODE
70
0
9
$PDSIZE
40
40.0
0
ENDSEC
0
SECTION
2
TABLES
0
TABLE
2
LTYPE
70
9
0
LTYPE
5
1f4
2
CONTINUOUS
70
64
3
SolidLine
72
65
73
0
40
0.0
0
LTYPE
5
1f5
2
DOT
70
64
3
--  --  --  --  --  --  --  --     
72
65
73
2
40
3.000
49
1.000
49
-2.000
0
LTYPE
5
1f6
2
DASHED
70
64
3
----    ----    ----    ----    
72
65
73
2
40
5.000
49
2.000
49
-3.000
0
LTYPE
5
1f7
2
DASHED2
70
64
3
------  ------  ------  ------ 
72
65
73
2
40
10.000
49
4.000
49
-6.000
0
LTYPE
5
1f8
2
CENTER
70
64
3
----- - ----- - ----- - ----- - 
72
65
73
4
40
10.000
49
6.000
49
-3.000
49
1.000
49
-3.000
0
LTYPE
5
1f9
2
CENTER2
70
64
3
----------  --  ----------  -- 
72
65
73
4
40
17.000
49
12.000
49
-5.000
49
2.000
49
-5.000
0
LTYPE
5
1fa
2
PHANTOM
70
64
3
--- - - --- - - --- - - --- - -
72
65
73
6
40
13.000
49
5.000
49
-3.000
49
1.000
49
-3.000
49
1.000
49
-3.000
0
LTYPE
5
1fb
2
PHANTOM2
70
64
3
--------  -  -  --------  -  -
72
65
73
6
40
20.000
49
6.000
49
-5.000
49
2.000
49
-5.000
49
2.000
49
-5.000
0
LTYPE
5
1fc
2
HIDDEN
70
64
3
-   -   -   -   -   -   -   -   
72
65
73
2
40
3.000
49
0.500
49
-2.500
0
ENDTAB
0
TABLE
2
STYLE
70
1
0
STYLE
5
1fd
100
AcDbSymbolTableRecord
100
AcDbTextStyleTableRecord
2
STANDARD
70
0
40
0.0
41
1.0
50
0.0
71
0
42
0.0
3
txt.shx
4
extfont.shx
0
STYLE
5
1fe
100
AcDbSymbolTableRecord
100
AcDbTextStyleTableRecord
2
TATEGAKI
70
4
40
0.0
41
1.0
50
0.0
71
0
42
0.0
3
txt.shx
4
extfont.shx
0
STYLE
5
1ff
100
AcDbSymbolTableRecord
100
AcDbTextStyleTableRecord
2
DIM
70
0
40
0.0
41
0.75
50
0.0
71
0
42
0.0
3
txt.shx
4
extfont.shx
0
STYLE
5
200
100
AcDbSymbolTableRecord
100
AcDbTextStyleTableRecord
2
_Gothic__
70
0
40
0.0
41
1.0
50
0.0
71
0
42
0.0
3
MS Gothic
4

0
STYLE
5
201
100
AcDbSymbolTableRecord
100
AcDbTextStyleTableRecord
2
_TateGothic_
70
4
40
0.0
41
1.0
50
0.0
71
0
42
0.0
3
@MS Gothic
4

0
ENDTAB
0
TABLE
2
LAYER
5
403
100
AcDbSymbolTable
70
10
0
LAYER
5
404
100
AcDbSymbolTableRecord
100
AcDbLayerTableRecord
2
0-000
70
0
62
7
6
CONTINUOUS
0
LAYER
5
405
100
AcDbSymbolTableRecord
100
AcDbLayerTableRecord
2
0-202
70
0
62
7
6
CONTINUOUS
0
LAYER
5
406
100
AcDbSymbolTableRecord
100
AcDbLayerTableRecord
2
F-F_J_ADD
70
0
62
-7
6
CONTINUOUS
0
ENDTAB
0
ENDSEC
0
SECTION
2
BLOCKS
0
ENDSEC
0
SECTION
2
ENTITIES
0
LINE
5
407
100
AcDbEntity
8
0-000
6
CONTINUOUS
62
3
100
AcDbLine
10
314.650000000000
20
440.100000000000
30
0.0
11
325.730000000000
21
439.600000000000
31
0.0
0
LINE
5
408
100
AcDbEntity
8
0-000
6
CONTINUOUS
62
3
100
AcDbLine
10
314.650000000000
20
440.100000000000
30
0.0
11
314.650000000000
21
440.100000000000
31
0.0
0
LINE
5
409
100
AcDbEntity
8
0-000
6
CONTINUOUS
62
3
100
AcDbLine
10
314.620000000000
20
439.600000000000
30
0.0
11
325.710000000000
21
439.100000000000
31
0.0
0
LINE
5
40a
100
AcDbEntity
8
0-000
6
CONTINUOUS
62
3
100
AcDbLine
10
348.360000000000
20
438.640000000000
30
0.0
11
350.590000000000
21
438.330000000000
31
0.0
0
LINE
5
40b
100
AcDbEntity
8
0-000
6
CONTINUOUS
62
3
100
AcDbLine
10
348.290000000000
20
438.150000000000
30
0.0
11
348.360000000000
21
438.640000000000
31
0.0
0
LINE
5
40c
100
AcDbEntity
8
0-000
6
CONTINUOUS
62
3
100
AcDbLine
10
348.290000000000
20
438.150000000000
30
0.0
11
350.520000000000
21
437.830000000000
31
0.0
0
LINE
5
40d
100
AcDbEntity
8
0-000
6
CONTINUOUS
62
3
100
AcDbLine
10
334.770000000000
20
439.050000000000
30
0.0
11
314.630000000000
21
441.890000000000
31
0.0
0
LINE
5
40e
100
AcDbEntity
8
0-000
6
CONTINUOUS
62
3
100
AcDbLine
10
335.220000000000
20
439.210000000000
30
0.0
11
335.740000000000
21
439.790000000000
31
0.0
0
LINE
5
40f
100
AcDbEntity
8
0-000
6
CONTINUOUS
62
3
100
AcDbLine
10
336.900000000000
20
438.970000000000
30
0.0
11
336.560000000000
21
439.680000000000
31
0.0
0
LINE
5
410
100
AcDbEntity
8
0-000
6
CONTINUOUS
62
3
100
AcDbLine
10
337.290000000000
20
438.690000000000
30
0.0
11
350.380000000000
21
436.840000000000
31
0.0
0
LINE
5
411
100
AcDbEntity
8
0-000
6
CONTINUOUS
62
3
100
AcDbLine
10
314.630000000000
20
442.390000000000
30
0.0
11
334.840000000000
21
439.540000000000
31
0.0
0
LINE
5
412
100
AcDbEntity
8
0-000
6
CONTINUOUS
62
3
100
AcDbLine
10
334.840000000000
20
439.540000000000
30
0.0
11
335.370000000000
21
440.130000000000
31
0.0
0
LINE
5
413
100
AcDbEntity
8
0-000
6
CONTINUOUS
62
3
100
AcDbLine
10
337.010000000000
20
439.890000000000
30
0.0
11
337.360000000000
21
439.190000000000
31
0.0
0
LINE
5
414
100
AcDbEntity
8
0-000
6
CONTINUOUS
62
3
100
AcDbLine
10
337.360000000000
20
439.190000000000
30
0.0
11
350.450000000000
21
437.340000000000
31
0.0
0
LINE
5
415
100
AcDbEntity
8
0-000
6
CONTINUOUS
62
3
100
AcDbLine
10
120.230000000000
20
438.390000000000
30
0.0
11
122.480000000000
21
437.850000000000
31
0.0
0
LINE
5
416
100
AcDbEntity
8
0-000
6
CONTINUOUS
62
3
100
AcDbLine
10
120.110000000000
20
437.910000000000
30
0.0
11
122.360000000000
21
437.360000000000
31
0.0
0
LINE
5
417
100
AcDbEntity
8
0-000
6
CONTINUOUS
62
3
100
AcDbLine
10
120.110000000000
20
437.910000000000
30
0.0
11
120.230000000000
21
438.390000000000
31
0.0
0
LINE
5
418
100
AcDbEntity
8
0-000
6
CONTINUOUS
62
3
100
AcDbLine
10
112.630000000000
20
439.100000000000
30
0.0
11
122.480000000000
21
438.850000000000
31
0.0
0
LINE
5
419
100
AcDbEntity
8
0-000
6
CONTINUOUS
62
3
100
AcDbLine
10
112.610000000000
20
438.600000000000
30
0.0
11
122.470000000000
21
438.350000000000
31
0.0
0
LINE
5
41a
100
AcDbEntity
8
0-000
6
CONTINUOUS
62
3
100
AcDbLine
10
112.630000000000
20
443.390000000000
30
0.0
11
140.230000000000
21
443.390000000000
31
0.0
0
LINE
5
41b
100
AcDbEntity
8
0-000
6
CONTINUOUS
62
3
100
AcDbLine
10
112.630000000000
20
442.890000000000
30
0.0
11
140.230000000000
21
442.890000000000
31
0.0
0
LINE
5
41c
100
AcDbEntity
8
0-000
6
CONTINUOUS
62
3
100
AcDbLine
10
140.230000000000
20
443.390000000000
30
0.0
11
235.230000000000
21
437.100000000000
31
0.0
0
LINE
5
41d
100
AcDbEntity
8
0-000
6
CONTINUOUS
62
3
100
AcDbLine
10
325.730000000000
20
437.100000000000
30
0.0
11
235.230000000000
21
437.100000000000
31
0.0
0
LINE
5
41e
100
AcDbEntity
8
0-000
6
CONTINUOUS
62
3
100
AcDbLine
10
140.200000000000
20
442.890000000000
30
0.0
11
235.210000000000
21
436.600000000000
31
0.0
0
LINE
5
41f
100
AcDbEntity
8
0-000
6
CONTINUOUS
62
3
100
AcDbLine
10
325.730000000000
20
436.600000000000
30
0.0
11
235.210000000000
21
436.600000000000
31
0.0
0
LINE
5
420
100
AcDbEntity
8
0-000
6
CONTINUOUS
62
7
100
AcDbLine
10
110.230000000000
20
467.600000000000
30
0.0
11
312.230000000000
21
467.600000000000
31
0.0
0
LINE
5
421
100
AcDbEntity
8
0-000
6
CONTINUOUS
62
7
100
AcDbLine
10
110.230000000000
20
452.600000000000
30
0.0
11
110.230000000000
21
467.600000000000
31
0.0
0
LINE
5
422
100
AcDbEntity
8
0-000
6
CONTINUOUS
62
7
100
AcDbLine
10
312.230000000000
20
452.600000000000
30
0.0
11
312.230000000000
21
467.600000000000
31
0.0
0
LINE
5
423
100
AcDbEntity
8
0-000
6
CONTINUOUS
62
7
100
AcDbLine
10
312.230000000000
20
467.600000000000
30
0.0
11
327.230000000000
21
467.600000000000
31
0.0
0
LINE
5
424
100
AcDbEntity
8
0-000
6
CONTINUOUS
62
7
100
AcDbLine
10
327.230000000000
20
452.600000000000
30
0.0
11
327.230000000000
21
467.600000000000
31
0.0
0
LINE
5
425
100
AcDbEntity
8
0-000
6
CONTINUOUS
62
7
100
AcDbLine
10
327.230000000000
20
467.600000000000
30
0.0
11
351.230000000000
21
467.600000000000
31
0.0
0
LINE
5
426
100
AcDbEntity
8
0-000
6
CONTINUOUS
62
7
100
AcDbLine
10
351.230000000000
20
452.600000000000
30
0.0
11
351.230000000000
21
467.600000000000
31
0.0
0
LINE
5
427
100
AcDbEntity
8
0-000
6
CONTINUOUS
62
7
100
AcDbLine
10
110.230000000000
20
411.600000000000
30
0.0
11
123.230000000000
21
411.600000000000
31
0.0
0
LINE
5
428
100
AcDbEntity
8
0-000
6
CONTINUOUS
62
7
100
AcDbLine
10
110.230000000000
20
426.600000000000
30
0.0
11
110.230000000000
21
411.600000000000
31
0.0
0
LINE
5
429
100
AcDbEntity
8
0-000
6
CONTINUOUS
62
7
100
AcDbLine
10
123.230000000000
20
426.600000000000
30
0.0
11
123.230000000000
21
411.600000000000
31
0.0
0
LINE
5
42a
100
AcDbEntity
8
0-000
6
CONTINUOUS
62
7
100
AcDbLine
10
287.230000000000
20
437.100000000000
30
0.0
11
287.230000000000
21
442.600000000000
31
0.0
0
LINE
5
42b
100
AcDbEntity
8
0-000
6
CONTINUOUS
62
7
100
AcDbLine
10
302.230000000000
20
442.600000000000
30
0.0
11
287.230000000000
21
442.600000000000
31
0.0
0
LINE
5
42c
100
AcDbEntity
8
0-202
6
CONTINUOUS
62
2
100
AcDbLine
10
27.380000000000
20
11.820000000000
30
0.0
11
27.380000000000
21
571.820000000000
31
0.0
0
LINE
5
42d
100
AcDbEntity
8
0-202
6
CONTINUOUS
62
2
100
AcDbLine
10
642.380000000000
20
41.450000000000
30
0.0
11
642.380000000000
21
11.820000000000
31
0.0
0
LINE
5
42e
100
AcDbEntity
8
0-202
6
CONTINUOUS
62
2
100
AcDbLine
10
607.270000000000
20
41.450000000000
30
0.0
11
607.270000000000
21
11.820000000000
31
0.0
0
LINE
5
42f
100
AcDbEntity
8
0-202
6
CONTINUOUS
62
2
100
AcDbLine
10
768.560000000000
20
11.820000000000
30
0.0
11
768.560000000000
21
41.450000000000
31
0.0
0
LINE
5
430
100
AcDbEntity
8
0-202
6
CONTINUOUS
62
2
100
AcDbLine
10
403.450000000000
20
41.450000000000
30
0.0
11
403.450000000000
21
11.820000000000
31
0.0
0
LINE
5
431
100
AcDbEntity
8
0-202
6
CONTINUOUS
62
2
100
AcDbLine
10
504.870000000000
20
41.450000000000
30
0.0
11
504.870000000000
21
11.820000000000
31
0.0
0
LINE
5
432
100
AcDbEntity
8
0-202
6
CONTINUOUS
62
2
100
AcDbLine
10
403.450000000000
20
31.570000000000
30
0.0
11
184.880000000000
21
31.570000000000
31
0.0
0
LINE
5
433
100
AcDbEntity
8
0-202
6
CONTINUOUS
62
2
100
AcDbLine
10
403.450000000000
20
21.690000000000
30
0.0
11
184.880000000000
21
21.690000000000
31
0.0
0
LINE
5
434
100
AcDbEntity
8
0-202
6
CONTINUOUS
62
2
100
AcDbLine
10
403.450000000000
20
16.760000000000
30
0.0
11
184.880000000000
21
16.760000000000
31
0.0
0
LINE
5
435
100
AcDbEntity
8
0-202
6
CONTINUOUS
62
2
100
AcDbLine
10
403.450000000000
20
36.510000000000
30
0.0
11
184.880000000000
21
36.510000000000
31
0.0
0
LINE
5
436
100
AcDbEntity
8
0-202
6
CONTINUOUS
62
2
100
AcDbLine
10
211.210000000000
20
41.450000000000
30
0.0
11
211.210000000000
21
11.820000000000
31
0.0
0
LINE
5
437
100
AcDbEntity
8
0-202
6
CONTINUOUS
62
2
100
AcDbLine
10
184.880000000000
20
41.450000000000
30
0.0
11
184.880000000000
21
11.820000000000
31
0.0
0
LINE
5
438
100
AcDbEntity
8
0-202
6
CONTINUOUS
62
2
100
AcDbLine
10
815.820000000000
20
11.820000000000
30
0.0
11
815.820000000000
21
571.820000000000
31
0.0
0
LINE
5
439
100
AcDbEntity
8
0-202
6
CONTINUOUS
62
2
100
AcDbLine
10
27.380000000000
20
571.820000000000
30
0.0
11
815.820000000000
21
571.820000000000
31
0.0
0
LINE
5
43a
100
AcDbEntity
8
0-202
6
CONTINUOUS
62
2
100
AcDbLine
10
27.380000000000
20
11.820000000000
30
0.0
11
815.820000000000
21
11.820000000000
31
0.0
0
LINE
5
43b
100
AcDbEntity
8
0-202
6
CONTINUOUS
62
2
100
AcDbLine
10
815.820000000000
20
41.450000000000
30
0.0
11
27.380000000000
21
41.450000000000
31
0.0
0
LINE
5
43c
100
AcDbEntity
8
0-202
6
CONTINUOUS
62
2
100
AcDbLine
10
184.880000000000
20
26.630000000000
30
0.0
11
815.820000000000
21
26.630000000000
31
0.0
0
LINE
5
43d
100
AcDbEntity
8
0-202
6
CONTINUOUS
62
3
100
AcDbLine
10
40.420000000000
20
29.050000000000
30
0.0
11
40.420000000000
21
37.050000000000
31
0.0
0
LINE
5
43e
100
AcDbEntity
8
0-202
6
CONTINUOUS
62
3
100
AcDbLine
10
40.420000000000
20
37.050000000000
30
0.0
11
48.420000000000
21
37.050000000000
31
0.0
0
LINE
5
43f
100
AcDbEntity
8
0-202
6
CONTINUOUS
62
3
100
AcDbLine
10
48.420000000000
20
37.050000000000
30
0.0
11
48.420000000000
21
29.050000000000
31
0.0
0
LINE
5
440
100
AcDbEntity
8
0-202
6
CONTINUOUS
62
3
100
AcDbLine
10
48.420000000000
20
29.050000000000
30
0.0
11
40.420000000000
21
29.050000000000
31
0.0
0
LINE
5
441
100
AcDbEntity
8
0-202
6
CONTINUOUS
62
3
100
AcDbLine
10
41.220000000000
20
30.130000000000
30
0.0
11
41.220000000000
21
36.250000000000
31
0.0
0
LINE
5
442
100
AcDbEntity
8
0-202
6
CONTINUOUS
62
3
100
AcDbLine
10
47.620000000000
20
29.850000000000
30
0.0
11
41.500000000000
21
29.850000000000
31
0.0
0
LINE
5
443
100
AcDbEntity
8
0-202
6
CONTINUOUS
62
3
100
AcDbLine
10
41.220000000000
20
36.250000000000
30
0.0
11
47.340000000000
21
36.250000000000
31
0.0
0
LINE
5
444
100
AcDbEntity
8
0-202
6
CONTINUOUS
62
3
100
AcDbLine
10
47.340000000000
20
36.250000000000
30
0.0
11
41.220000000000
21
30.130000000000
31
0.0
0
LINE
5
445
100
AcDbEntity
8
0-202
6
CONTINUOUS
62
3
100
AcDbLine
10
47.620000000000
20
35.960000000000
30
0.0
11
41.500000000000
21
29.850000000000
31
0.0
0
LINE
5
446
100
AcDbEntity
8
0-202
6
CONTINUOUS
62
3
100
AcDbLine
10
47.620000000000
20
35.960000000000
30
0.0
11
47.620000000000
21
29.850000000000
31
0.0
0
LINE
5
447
100
AcDbEntity
8
0-202
6
CONTINUOUS
62
4
100
AcDbLine
10
40.420000000000
20
36.970000000000
30
0.0
11
48.420000000000
21
36.970000000000
31
0.0
0
LINE
5
448
100
AcDbEntity
8
0-202
6
CONTINUOUS
62
4
100
AcDbLine
10
40.420000000000
20
36.810000000000
30
0.0
11
48.420000000000
21
36.810000000000
31
0.0
0
LINE
5
449
100
AcDbEntity
8
0-202
6
CONTINUOUS
62
4
100
AcDbLine
10
40.420000000000
20
36.650000000000
30
0.0
11
48.420000000000
21
36.650000000000
31
0.0
0
LINE
5
44a
100
AcDbEntity
8
0-202
6
CONTINUOUS
62
4
100
AcDbLine
10
40.420000000000
20
36.490000000000
30
0.0
11
48.420000000000
21
36.490000000000
31
0.0
0
LINE
5
44b
100
AcDbEntity
8
0-202
6
CONTINUOUS
62
4
100
AcDbLine
10
40.420000000000
20
36.330000000000
30
0.0
11
48.420000000000
21
36.330000000000
31
0.0
0
LINE
5
44c
100
AcDbEntity
8
0-202
6
CONTINUOUS
62
4
100
AcDbLine
10
40.420000000000
20
29.770000000000
30
0.0
11
48.420000000000
21
29.770000000000
31
0.0
0
LINE
5
44d
100
AcDbEntity
8
0-202
6
CONTINUOUS
62
4
100
AcDbLine
10
40.420000000000
20
29.610000000000
30
0.0
11
48.420000000000
21
29.610000000000
31
0.0
0
LINE
5
44e
100
AcDbEntity
8
0-202
6
CONTINUOUS
62
4
100
AcDbLine
10
40.420000000000
20
29.450000000000
30
0.0
11
48.420000000000
21
29.450000000000
31
0.0
0
LINE
5
44f
100
AcDbEntity
8
0-202
6
CONTINUOUS
62
4
100
AcDbLine
10
40.420000000000
20
29.290000000000
30
0.0
11
48.420000000000
21
29.290000000000
31
0.0
0
LINE
5
450
100
AcDbEntity
8
0-202
6
CONTINUOUS
62
4
100
AcDbLine
10
40.420000000000
20
29.130000000000
30
0.0
11
48.420000000000
21
29.130000000000
31
0.0
0
LINE
5
451
100
AcDbEntity
8
0-202
6
CONTINUOUS
62
4
100
AcDbLine
10
40.420000000000
20
30.250000000000
30
0.0
11
41.220000000000
21
30.250000000000
31
0.0
0
LINE
5
452
100
AcDbEntity
8
0-202
6
CONTINUOUS
62
4
100
AcDbLine
10
40.420000000000
20
30.410000000000
30
0.0
11
41.220000000000
21
30.410000000000
31
0.0
0
LINE
5
453
100
AcDbEntity
8
0-202
6
CONTINUOUS
62
4
100
AcDbLine
10
40.420000000000
20
30.570000000000
30
0.0
11
41.220000000000
21
30.570000000000
31
0.0
0
LINE
5
454
100
AcDbEntity
8
0-202
6
CONTINUOUS
62
4
100
AcDbLine
10
40.420000000000
20
30.730000000000
30
0.0
11
41.220000000000
21
30.730000000000
31
0.0
0
LINE
5
455
100
AcDbEntity
8
0-202
6
CONTINUOUS
62
4
100
AcDbLine
10
40.420000000000
20
30.890000000000
30
0.0
11
41.220000000000
21
30.890000000000
31
0.0
0
LINE
5
456
100
AcDbEntity
8
0-202
6
CONTINUOUS
62
4
100
AcDbLine
10
40.420000000000
20
31.050000000000
30
0.0
11
41.220000000000
21
31.050000000000
31
0.0
0
LINE
5
457
100
AcDbEntity
8
0-202
6
CONTINUOUS
62
4
100
AcDbLine
10
40.420000000000
20
31.210000000000
30
0.0
11
41.220000000000
21
31.210000000000
31
0.0
0
LINE
5
458
100
AcDbEntity
8
0-202
6
CONTINUOUS
62
4
100
AcDbLine
10
40.420000000000
20
31.370000000000
30
0.0
11
41.220000000000
21
31.370000000000
31
0.0
0
LINE
5
459
100
AcDbEntity
8
0-202
6
CONTINUOUS
62
4
100
AcDbLine
10
40.420000000000
20
31.530000000000
30
0.0
11
41.220000000000
21
31.530000000000
31
0.0
0
LINE
5
45a
100
AcDbEntity
8
0-202
6
CONTINUOUS
62
4
100
AcDbLine
10
40.420000000000
20
31.690000000000
30
0.0
11
41.220000000000
21
31.690000000000
31
0.0
0
LINE
5
45b
100
AcDbEntity
8
0-202
6
CONTINUOUS
62
4
100
AcDbLine
10
40.420000000000
20
31.850000000000
30
0.0
11
41.220000000000
21
31.850000000000
31
0.0
0
LINE
5
45c
100
AcDbEntity
8
0-202
6
CONTINUOUS
62
4
100
AcDbLine
10
40.420000000000
20
32.010000000000
30
0.0
11
41.220000000000
21
32.010000000000
31
0.0
0
LINE
5
45d
100
AcDbEntity
8
0-202
6
CONTINUOUS
62
4
100
AcDbLine
10
40.420000000000
20
32.170000000000
30
0.0
11
41.220000000000
21
32.170000000000
31
0.0
0
LINE
5
45e
100
AcDbEntity
8
0-202
6
CONTINUOUS
62
4
100
AcDbLine
10
40.420000000000
20
32.330000000000
30
0.0
11
41.220000000000
21
32.330000000000
31
0.0
0
LINE
5
45f
100
AcDbEntity
8
0-202
6
CONTINUOUS
62
4
100
AcDbLine
10
40.420000000000
20
32.490000000000
30
0.0
11
41.220000000000
21
32.490000000000
31
0.0
0
LINE
5
460
100
AcDbEntity
8
0-202
6
CONTINUOUS
62
4
100
AcDbLine
10
40.420000000000
20
32.650000000000
30
0.0
11
41.220000000000
21
32.650000000000
31
0.0
0
LINE
5
461
100
AcDbEntity
8
0-202
6
CONTINUOUS
62
4
100
AcDbLine
10
40.420000000000
20
32.810000000000
30
0.0
11
41.220000000000
21
32.810000000000
31
0.0
0
LINE
5
462
100
AcDbEntity
8
0-202
6
CONTINUOUS
62
4
100
AcDbLine
10
40.420000000000
20
32.970000000000
30
0.0
11
41.220000000000
21
32.970000000000
31
0.0
0
LINE
5
463
100
AcDbEntity
8
0-202
6
CONTINUOUS
62
4
100
AcDbLine
10
40.420000000000
20
33.130000000000
30
0.0
11
41.220000000000
21
33.130000000000
31
0.0
0
LINE
5
464
100
AcDbEntity
8
0-202
6
CONTINUOUS
62
4
100
AcDbLine
10
40.420000000000
20
33.290000000000
30
0.0
11
41.220000000000
21
33.290000000000
31
0.0
0
LINE
5
465
100
AcDbEntity
8
0-202
6
CONTINUOUS
62
4
100
AcDbLine
10
40.420000000000
20
33.450000000000
30
0.0
11
41.220000000000
21
33.450000000000
31
0.0
0
LINE
5
466
100
AcDbEntity
8
0-202
6
CONTINUOUS
62
4
100
AcDbLine
10
40.420000000000
20
33.610000000000
30
0.0
11
41.220000000000
21
33.610000000000
31
0.0
0
LINE
5
467
100
AcDbEntity
8
0-202
6
CONTINUOUS
62
4
100
AcDbLine
10
40.420000000000
20
33.770000000000
30
0.0
11
41.220000000000
21
33.770000000000
31
0.0
0
LINE
5
468
100
AcDbEntity
8
0-202
6
CONTINUOUS
62
4
100
AcDbLine
10
40.420000000000
20
33.930000000000
30
0.0
11
41.220000000000
21
33.930000000000
31
0.0
0
LINE
5
469
100
AcDbEntity
8
0-202
6
CONTINUOUS
62
4
100
AcDbLine
10
40.420000000000
20
34.410000000000
30
0.0
11
41.220000000000
21
34.410000000000
31
0.0
0
LINE
5
46a
100
AcDbEntity
8
0-202
6
CONTINUOUS
62
4
100
AcDbLine
10
40.420000000000
20
34.890000000000
30
0.0
11
41.220000000000
21
34.890000000000
31
0.0
0
LINE
5
46b
100
AcDbEntity
8
0-202
6
CONTINUOUS
62
4
100
AcDbLine
10
40.420000000000
20
35.050000000000
30
0.0
11
41.220000000000
21
35.050000000000
31
0.0
0
LINE
5
46c
100
AcDbEntity
8
0-202
6
CONTINUOUS
62
4
100
AcDbLine
10
40.420000000000
20
35.210000000000
30
0.0
11
41.220000000000
21
35.210000000000
31
0.0
0
LINE
5
46d
100
AcDbEntity
8
0-202
6
CONTINUOUS
62
4
100
AcDbLine
10
40.420000000000
20
35.370000000000
30
0.0
11
41.220000000000
21
35.370000000000
31
0.0
0
LINE
5
46e
100
AcDbEntity
8
0-202
6
CONTINUOUS
62
4
100
AcDbLine
10
40.420000000000
20
36.170000000000
30
0.0
11
41.220000000000
21
36.170000000000
31
0.0
0
LINE
5
46f
100
AcDbEntity
8
0-202
6
CONTINUOUS
62
4
100
AcDbLine
10
40.420000000000
20
36.010000000000
30
0.0
11
41.220000000000
21
36.010000000000
31
0.0
0
LINE
5
470
100
AcDbEntity
8
0-202
6
CONTINUOUS
62
4
100
AcDbLine
10
40.420000000000
20
35.850000000000
30
0.0
11
41.220000000000
21
35.850000000000
31
0.0
0
LINE
5
471
100
AcDbEntity
8
0-202
6
CONTINUOUS
62
4
100
AcDbLine
10
40.420000000000
20
35.690000000000
30
0.0
11
41.220000000000
21
35.690000000000
31
0.0
0
LINE
5
472
100
AcDbEntity
8
0-202
6
CONTINUOUS
62
4
100
AcDbLine
10
40.420000000000
20
35.530000000000
30
0.0
11
41.220000000000
21
35.530000000000
31
0.0
0
LINE
5
473
100
AcDbEntity
8
0-202
6
CONTINUOUS
62
4
100
AcDbLine
10
40.420000000000
20
34.570000000000
30
0.0
11
41.220000000000
21
34.570000000000
31
0.0
0
LINE
5
474
100
AcDbEntity
8
0-202
6
CONTINUOUS
62
4
100
AcDbLine
10
40.420000000000
20
34.730000000000
30
0.0
11
41.220000000000
21
34.730000000000
31
0.0
0
LINE
5
475
100
AcDbEntity
8
0-202
6
CONTINUOUS
62
4
100
AcDbLine
10
40.420000000000
20
34.250000000000
30
0.0
11
41.220000000000
21
34.250000000000
31
0.0
0
LINE
5
476
100
AcDbEntity
8
0-202
6
CONTINUOUS
62
4
100
AcDbLine
10
40.420000000000
20
34.090000000000
30
0.0
11
41.220000000000
21
34.090000000000
31
0.0
0
LINE
5
477
100
AcDbEntity
8
0-202
6
CONTINUOUS
62
4
100
AcDbLine
10
41.500000000000
20
30.410000000000
30
0.0
11
42.060000000000
21
30.410000000000
31
0.0
0
LINE
5
478
100
AcDbEntity
8
0-202
6
CONTINUOUS
62
4
100
AcDbLine
10
41.340000000000
20
30.250000000000
30
0.0
11
41.900000000000
21
30.250000000000
31
0.0
0
LINE
5
479
100
AcDbEntity
8
0-202
6
CONTINUOUS
62
4
100
AcDbLine
10
40.420000000000
20
30.090000000000
30
0.0
11
41.740000000000
21
30.090000000000
31
0.0
0
LINE
5
47a
100
AcDbEntity
8
0-202
6
CONTINUOUS
62
4
100
AcDbLine
10
40.420000000000
20
29.930000000000
30
0.0
11
41.580000000000
21
29.930000000000
31
0.0
0
LINE
5
47b
100
AcDbEntity
8
0-202
6
CONTINUOUS
62
4
100
AcDbLine
10
42.460000000000
20
31.370000000000
30
0.0
11
43.020000000000
21
31.370000000000
31
0.0
0
LINE
5
47c
100
AcDbEntity
8
0-202
6
CONTINUOUS
62
4
100
AcDbLine
10
42.300000000000
20
31.210000000000
30
0.0
11
42.860000000000
21
31.210000000000
31
0.0
0
LINE
5
47d
100
AcDbEntity
8
0-202
6
CONTINUOUS
62
4
100
AcDbLine
10
42.140000000000
20
31.050000000000
30
0.0
11
42.700000000000
21
31.050000000000
31
0.0
0
LINE
5
47e
100
AcDbEntity
8
0-202
6
CONTINUOUS
62
4
100
AcDbLine
10
41.980000000000
20
30.890000000000
30
0.0
11
42.540000000000
21
30.890000000000
31
0.0
0
LINE
5
47f
100
AcDbEntity
8
0-202
6
CONTINUOUS
62
4
100
AcDbLine
10
41.820000000000
20
30.730000000000
30
0.0
11
42.380000000000
21
30.730000000000
31
0.0
0
LINE
5
480
100
AcDbEntity
8
0-202
6
CONTINUOUS
62
4
100
AcDbLine
10
41.660000000000
20
30.570000000000
30
0.0
11
42.220000000000
21
30.570000000000
31
0.0
0
LINE
5
481
100
AcDbEntity
8
0-202
6
CONTINUOUS
62
4
100
AcDbLine
10
41.220000000000
20
36.250000000000
30
0.0
11
41.220000000000
21
36.410000000000
31
0.0
0
LINE
5
482
100
AcDbEntity
8
0-202
6
CONTINUOUS
62
4
100
AcDbLine
10
47.620000000000
20
30.250000000000
30
0.0
11
48.420000000000
21
30.250000000000
31
0.0
0
LINE
5
483
100
AcDbEntity
8
0-202
6
CONTINUOUS
62
4
100
AcDbLine
10
47.620000000000
20
30.410000000000
30
0.0
11
48.420000000000
21
30.410000000000
31
0.0
0
LINE
5
484
100
AcDbEntity
8
0-202
6
CONTINUOUS
62
4
100
AcDbLine
10
47.620000000000
20
30.570000000000
30
0.0
11
48.420000000000
21
30.570000000000
31
0.0
0
LINE
5
485
100
AcDbEntity
8
0-202
6
CONTINUOUS
62
4
100
AcDbLine
10
47.620000000000
20
30.730000000000
30
0.0
11
48.420000000000
21
30.730000000000
31
0.0
0
LINE
5
486
100
AcDbEntity
8
0-202
6
CONTINUOUS
62
4
100
AcDbLine
10
47.620000000000
20
30.890000000000
30
0.0
11
48.420000000000
21
30.890000000000
31
0.0
0
LINE
5
487
100
AcDbEntity
8
0-202
6
CONTINUOUS
62
4
100
AcDbLine
10
47.620000000000
20
31.050000000000
30
0.0
11
48.420000000000
21
31.050000000000
31
0.0
0
LINE
5
488
100
AcDbEntity
8
0-202
6
CONTINUOUS
62
4
100
AcDbLine
10
47.620000000000
20
31.210000000000
30
0.0
11
48.420000000000
21
31.210000000000
31
0.0
0
LINE
5
489
100
AcDbEntity
8
0-202
6
CONTINUOUS
62
4
100
AcDbLine
10
47.620000000000
20
31.370000000000
30
0.0
11
48.420000000000
21
31.370000000000
31
0.0
0
LINE
5
48a
100
AcDbEntity
8
0-202
6
CONTINUOUS
62
4
100
AcDbLine
10
47.620000000000
20
31.530000000000
30
0.0
11
48.420000000000
21
31.530000000000
31
0.0
0
LINE
5
48b
100
AcDbEntity
8
0-202
6
CONTINUOUS
62
4
100
AcDbLine
10
47.620000000000
20
31.690000000000
30
0.0
11
48.420000000000
21
31.690000000000
31
0.0
0
LINE
5
48c
100
AcDbEntity
8
0-202
6
CONTINUOUS
62
4
100
AcDbLine
10
47.620000000000
20
31.850000000000
30
0.0
11
48.420000000000
21
31.850000000000
31
0.0
0
LINE
5
48d
100
AcDbEntity
8
0-202
6
CONTINUOUS
62
4
100
AcDbLine
10
47.620000000000
20
32.010000000000
30
0.0
11
48.420000000000
21
32.010000000000
31
0.0
0
LINE
5
48e
100
AcDbEntity
8
0-202
6
CONTINUOUS
62
4
100
AcDbLine
10
47.620000000000
20
32.170000000000
30
0.0
11
48.420000000000
21
32.170000000000
31
0.0
0
LINE
5
48f
100
AcDbEntity
8
0-202
6
CONTINUOUS
62
4
100
AcDbLine
10
47.620000000000
20
32.490000000000
30
0.0
11
48.420000000000
21
32.490000000000
31
0.0
0
LINE
5
490
100
AcDbEntity
8
0-202
6
CONTINUOUS
62
4
100
AcDbLine
10
47.620000000000
20
32.650000000000
30
0.0
11
48.420000000000
21
32.650000000000
31
0.0
0
LINE
5
491
100
AcDbEntity
8
0-202
6
CONTINUOUS
62
4
100
AcDbLine
10
47.620000000000
20
32.810000000000
30
0.0
11
48.420000000000
21
32.810000000000
31
0.0
0
LINE
5
492
100
AcDbEntity
8
0-202
6
CONTINUOUS
62
4
100
AcDbLine
10
47.620000000000
20
32.970000000000
30
0.0
11
48.420000000000
21
32.970000000000
31
0.0
0
LINE
5
493
100
AcDbEntity
8
0-202
6
CONTINUOUS
62
4
100
AcDbLine
10
47.620000000000
20
33.130000000000
30
0.0
11
48.420000000000
21
33.130000000000
31
0.0
0
LINE
5
494
100
AcDbEntity
8
0-202
6
CONTINUOUS
62
4
100
AcDbLine
10
47.620000000000
20
33.290000000000
30
0.0
11
48.420000000000
21
33.290000000000
31
0.0
0
LINE
5
495
100
AcDbEntity
8
0-202
6
CONTINUOUS
62
4
100
AcDbLine
10
47.620000000000
20
33.450000000000
30
0.0
11
48.420000000000
21
33.450000000000
31
0.0
0
LINE
5
496
100
AcDbEntity
8
0-202
6
CONTINUOUS
62
4
100
AcDbLine
10
47.620000000000
20
33.610000000000
30
0.0
11
48.420000000000
21
33.610000000000
31
0.0
0
LINE
5
497
100
AcDbEntity
8
0-202
6
CONTINUOUS
62
4
100
AcDbLine
10
47.620000000000
20
33.770000000000
30
0.0
11
48.420000000000
21
33.770000000000
31
0.0
0
LINE
5
498
100
AcDbEntity
8
0-202
6
CONTINUOUS
62
4
100
AcDbLine
10
47.620000000000
20
33.930000000000
30
0.0
11
48.420000000000
21
33.930000000000
31
0.0
0
LINE
5
499
100
AcDbEntity
8
0-202
6
CONTINUOUS
62
4
100
AcDbLine
10
47.620000000000
20
34.410000000000
30
0.0
11
48.420000000000
21
34.410000000000
31
0.0
0
LINE
5
49a
100
AcDbEntity
8
0-202
6
CONTINUOUS
62
4
100
AcDbLine
10
47.620000000000
20
34.890000000000
30
0.0
11
48.420000000000
21
34.890000000000
31
0.0
0
LINE
5
49b
100
AcDbEntity
8
0-202
6
CONTINUOUS
62
4
100
AcDbLine
10
47.620000000000
20
35.050000000000
30
0.0
11
48.420000000000
21
35.050000000000
31
0.0
0
LINE
5
49c
100
AcDbEntity
8
0-202
6
CONTINUOUS
62
4
100
AcDbLine
10
47.620000000000
20
35.210000000000
30
0.0
11
48.420000000000
21
35.210000000000
31
0.0
0
LINE
5
49d
100
AcDbEntity
8
0-202
6
CONTINUOUS
62
4
100
AcDbLine
10
47.620000000000
20
35.370000000000
30
0.0
11
48.420000000000
21
35.370000000000
31
0.0
0
LINE
5
49e
100
AcDbEntity
8
0-202
6
CONTINUOUS
62
4
100
AcDbLine
10
47.620000000000
20
35.850000000000
30
0.0
11
48.420000000000
21
35.850000000000
31
0.0
0
LINE
5
49f
100
AcDbEntity
8
0-202
6
CONTINUOUS
62
4
100
AcDbLine
10
47.620000000000
20
35.690000000000
30
0.0
11
48.420000000000
21
35.690000000000
31
0.0
0
LINE
5
4a0
100
AcDbEntity
8
0-202
6
CONTINUOUS
62
4
100
AcDbLine
10
47.620000000000
20
35.530000000000
30
0.0
11
48.420000000000
21
35.530000000000
31
0.0
0
LINE
5
4a1
100
AcDbEntity
8
0-202
6
CONTINUOUS
62
4
100
AcDbLine
10
47.620000000000
20
34.570000000000
30
0.0
11
48.420000000000
21
34.570000000000
31
0.0
0
LINE
5
4a2
100
AcDbEntity
8
0-202
6
CONTINUOUS
62
4
100
AcDbLine
10
47.620000000000
20
34.730000000000
30
0.0
11
48.420000000000
21
34.730000000000
31
0.0
0
LINE
5
4a3
100
AcDbEntity
8
0-202
6
CONTINUOUS
62
4
100
AcDbLine
10
47.620000000000
20
34.250000000000
30
0.0
11
48.420000000000
21
34.250000000000
31
0.0
0
LINE
5
4a4
100
AcDbEntity
8
0-202
6
CONTINUOUS
62
4
100
AcDbLine
10
47.620000000000
20
34.090000000000
30
0.0
11
48.420000000000
21
34.090000000000
31
0.0
0
LINE
5
4a5
100
AcDbEntity
8
0-202
6
CONTINUOUS
62
4
100
AcDbLine
10
47.620000000000
20
29.930000000000
30
0.0
11
48.420000000000
21
29.930000000000
31
0.0
0
LINE
5
4a6
100
AcDbEntity
8
0-202
6
CONTINUOUS
62
4
100
AcDbLine
10
47.620000000000
20
30.090000000000
30
0.0
11
48.420000000000
21
30.090000000000
31
0.0
0
LINE
5
4a7
100
AcDbEntity
8
0-202
6
CONTINUOUS
62
4
100
AcDbLine
10
47.260000000000
20
36.170000000000
30
0.0
11
48.420000000000
21
36.170000000000
31
0.0
0
LINE
5
4a8
100
AcDbEntity
8
0-202
6
CONTINUOUS
62
4
100
AcDbLine
10
47.100000000000
20
36.010000000000
30
0.0
11
48.420000000000
21
36.010000000000
31
0.0
0
LINE
5
4a9
100
AcDbEntity
8
0-202
6
CONTINUOUS
62
4
100
AcDbLine
10
43.100000000000
20
32.010000000000
30
0.0
11
43.660000000000
21
32.010000000000
31
0.0
0
LINE
5
4aa
100
AcDbEntity
8
0-202
6
CONTINUOUS
62
4
100
AcDbLine
10
42.940000000000
20
31.850000000000
30
0.0
11
43.500000000000
21
31.850000000000
31
0.0
0
LINE
5
4ab
100
AcDbEntity
8
0-202
6
CONTINUOUS
62
4
100
AcDbLine
10
42.780000000000
20
31.690000000000
30
0.0
11
43.340000000000
21
31.690000000000
31
0.0
0
LINE
5
4ac
100
AcDbEntity
8
0-202
6
CONTINUOUS
62
4
100
AcDbLine
10
42.620000000000
20
31.530000000000
30
0.0
11
43.180000000000
21
31.530000000000
31
0.0
0
LINE
5
4ad
100
AcDbEntity
8
0-202
6
CONTINUOUS
62
4
100
AcDbLine
10
43.740000000000
20
32.650000000000
30
0.0
11
44.300000000000
21
32.650000000000
31
0.0
0
LINE
5
4ae
100
AcDbEntity
8
0-202
6
CONTINUOUS
62
4
100
AcDbLine
10
43.580000000000
20
32.490000000000
30
0.0
11
44.140000000000
21
32.490000000000
31
0.0
0
LINE
5
4af
100
AcDbEntity
8
0-202
6
CONTINUOUS
62
4
100
AcDbLine
10
43.420000000000
20
32.330000000000
30
0.0
11
43.980000000000
21
32.330000000000
31
0.0
0
LINE
5
4b0
100
AcDbEntity
8
0-202
6
CONTINUOUS
62
4
100
AcDbLine
10
43.260000000000
20
32.170000000000
30
0.0
11
43.820000000000
21
32.170000000000
31
0.0
0
LINE
5
4b1
100
AcDbEntity
8
0-202
6
CONTINUOUS
62
4
100
AcDbLine
10
44.380000000000
20
33.290000000000
30
0.0
11
44.940000000000
21
33.290000000000
31
0.0
0
LINE
5
4b2
100
AcDbEntity
8
0-202
6
CONTINUOUS
62
4
100
AcDbLine
10
44.220000000000
20
33.130000000000
30
0.0
11
44.780000000000
21
33.130000000000
31
0.0
0
LINE
5
4b3
100
AcDbEntity
8
0-202
6
CONTINUOUS
62
4
100
AcDbLine
10
44.060000000000
20
32.970000000000
30
0.0
11
44.620000000000
21
32.970000000000
31
0.0
0
LINE
5
4b4
100
AcDbEntity
8
0-202
6
CONTINUOUS
62
4
100
AcDbLine
10
43.900000000000
20
32.810000000000
30
0.0
11
44.460000000000
21
32.810000000000
31
0.0
0
LINE
5
4b5
100
AcDbEntity
8
0-202
6
CONTINUOUS
62
4
100
AcDbLine
10
45.020000000000
20
33.930000000000
30
0.0
11
45.580000000000
21
33.930000000000
31
0.0
0
LINE
5
4b6
100
AcDbEntity
8
0-202
6
CONTINUOUS
62
4
100
AcDbLine
10
44.860000000000
20
33.770000000000
30
0.0
11
45.420000000000
21
33.770000000000
31
0.0
0
LINE
5
4b7
100
AcDbEntity
8
0-202
6
CONTINUOUS
62
4
100
AcDbLine
10
44.700000000000
20
33.610000000000
30
0.0
11
45.260000000000
21
33.610000000000
31
0.0
0
LINE
5
4b8
100
AcDbEntity
8
0-202
6
CONTINUOUS
62
4
100
AcDbLine
10
44.540000000000
20
33.450000000000
30
0.0
11
45.100000000000
21
33.450000000000
31
0.0
0
LINE
5
4b9
100
AcDbEntity
8
0-202
6
CONTINUOUS
62
4
100
AcDbLine
10
45.660000000000
20
34.570000000000
30
0.0
11
46.220000000000
21
34.570000000000
31
0.0
0
LINE
5
4ba
100
AcDbEntity
8
0-202
6
CONTINUOUS
62
4
100
AcDbLine
10
45.500000000000
20
34.410000000000
30
0.0
11
46.060000000000
21
34.410000000000
31
0.0
0
LINE
5
4bb
100
AcDbEntity
8
0-202
6
CONTINUOUS
62
4
100
AcDbLine
10
45.340000000000
20
34.250000000000
30
0.0
11
45.900000000000
21
34.250000000000
31
0.0
0
LINE
5
4bc
100
AcDbEntity
8
0-202
6
CONTINUOUS
62
4
100
AcDbLine
10
45.180000000000
20
34.090000000000
30
0.0
11
45.740000000000
21
34.090000000000
31
0.0
0
LINE
5
4bd
100
AcDbEntity
8
0-202
6
CONTINUOUS
62
4
100
AcDbLine
10
46.300000000000
20
35.210000000000
30
0.0
11
46.860000000000
21
35.210000000000
31
0.0
0
LINE
5
4be
100
AcDbEntity
8
0-202
6
CONTINUOUS
62
4
100
AcDbLine
10
46.140000000000
20
35.050000000000
30
0.0
11
46.700000000000
21
35.050000000000
31
0.0
0
LINE
5
4bf
100
AcDbEntity
8
0-202
6
CONTINUOUS
62
4
100
AcDbLine
10
45.980000000000
20
34.890000000000
30
0.0
11
46.540000000000
21
34.890000000000
31
0.0
0
LINE
5
4c0
100
AcDbEntity
8
0-202
6
CONTINUOUS
62
4
100
AcDbLine
10
45.820000000000
20
34.730000000000
30
0.0
11
46.380000000000
21
34.730000000000
31
0.0
0
LINE
5
4c1
100
AcDbEntity
8
0-202
6
CONTINUOUS
62
4
100
AcDbLine
10
46.940000000000
20
35.850000000000
30
0.0
11
47.500000000000
21
35.850000000000
31
0.0
0
LINE
5
4c2
100
AcDbEntity
8
0-202
6
CONTINUOUS
62
4
100
AcDbLine
10
46.780000000000
20
35.690000000000
30
0.0
11
47.340000000000
21
35.690000000000
31
0.0
0
LINE
5
4c3
100
AcDbEntity
8
0-202
6
CONTINUOUS
62
4
100
AcDbLine
10
46.620000000000
20
35.530000000000
30
0.0
11
47.180000000000
21
35.530000000000
31
0.0
0
LINE
5
4c4
100
AcDbEntity
8
0-202
6
CONTINUOUS
62
4
100
AcDbLine
10
46.460000000000
20
35.370000000000
30
0.0
11
47.020000000000
21
35.370000000000
31
0.0
0
LINE
5
4c5
100
AcDbEntity
8
0-202
6
CONTINUOUS
62
4
100
AcDbLine
10
47.620000000000
20
32.330000000000
30
0.0
11
48.420000000000
21
32.330000000000
31
0.0
0
LINE
5
4c6
100
AcDbEntity
8
0-202
6
CONTINUOUS
62
3
100
AcDbLine
10
27.380000000000
20
336.630000000000
30
0.0
11
815.820000000000
21
336.630000000000
31
0.0
0
LINE
5
4c7
100
AcDbEntity
8
0-202
6
CONTINUOUS
62
3
100
AcDbLine
10
421.600000000000
20
571.820000000000
30
0.0
11
421.600000000000
21
41.450000000000
31
0.0
0
ARC
5
4c8
100
AcDbEntity
8
0-000
6
CONTINUOUS
62
3
100
AcDbCircle
10
325.730000000000
20
438.100000000000
30
0.0
40
0.999999984825
100
AcDbArc
50
270.000000000000
51
450.000000000000
0
ARC
5
4c9
100
AcDbEntity
8
0-000
6
CONTINUOUS
62
3
100
AcDbCircle
10
325.730000000000
20
438.100000000000
30
0.0
40
0.999999984825
100
AcDbArc
50
270.000000000000
51
450.000000000000
0
ARC
5
4ca
100
AcDbEntity
8
0-000
6
CONTINUOUS
62
3
100
AcDbCircle
10
325.730000000000
20
438.100000000000
30
0.0
40
1.499900012541
100
AcDbArc
50
270.000000000000
51
450.000000000000
0
ARC
5
4cb
100
AcDbEntity
8
0-000
6
CONTINUOUS
62
3
100
AcDbCircle
10
314.630000000000
20
441.000000000000
30
0.0
40
1.396799927863
100
AcDbArc
50
90.000000000000
51
270.000000000000
0
ARC
5
4cc
100
AcDbEntity
8
0-000
6
CONTINUOUS
62
3
100
AcDbCircle
10
314.640000000000
20
440.990000000000
30
0.0
40
0.894500070036
100
AcDbArc
50
90.591888427734
51
270.591888427734
0
ARC
5
4cd
100
AcDbEntity
8
0-000
6
CONTINUOUS
62
3
100
AcDbCircle
10
350.490000000000
20
437.590000000000
30
0.0
40
0.750000037004
100
AcDbArc
50
261.974014282227
51
441.974014282227
0
ARC
5
4ce
100
AcDbEntity
8
0-000
6
CONTINUOUS
62
3
100
AcDbCircle
10
350.490000000000
20
437.590000000000
30
0.0
40
0.249999996206
100
AcDbArc
50
261.974273681641
51
441.974273681641
0
ARC
5
4cf
100
AcDbEntity
8
0-000
6
CONTINUOUS
62
3
100
AcDbCircle
10
336.110000000000
20
439.460000000000
30
0.0
40
0.499999992412
100
AcDbArc
50
25.666183471680
51
138.281600952148
0
ARC
5
4d0
100
AcDbEntity
8
0-000
6
CONTINUOUS
62
3
100
AcDbCircle
10
336.110000000000
20
439.460000000000
30
0.0
40
0.999999984825
100
AcDbArc
50
25.666183471680
51
138.281600952148
0
ARC
5
4d1
100
AcDbEntity
8
0-000
6
CONTINUOUS
62
3
100
AcDbCircle
10
334.840000000000
20
439.540000000000
30
0.0
40
0.499999992412
100
AcDbArc
50
261.974273681641
51
318.281600952148
0
ARC
5
4d2
100
AcDbEntity
8
0-000
6
CONTINUOUS
62
3
100
AcDbCircle
10
337.360000000000
20
439.190000000000
30
0.0
40
0.499999992412
100
AcDbArc
50
205.661071777344
51
261.973480224609
0
ARC
5
4d3
100
AcDbEntity
8
0-000
6
CONTINUOUS
62
3
100
AcDbCircle
10
122.480000000000
20
438.100000000000
30
0.0
40
0.750000037004
100
AcDbArc
50
270.000000000000
51
450.000000000000
0
ARC
5
4d4
100
AcDbEntity
8
0-000
6
CONTINUOUS
62
3
100
AcDbCircle
10
122.480000000000
20
438.100000000000
30
0.0
40
0.249999996206
100
AcDbArc
50
270.000000000000
51
450.000000000000
0
ARC
5
4d5
100
AcDbEntity
8
0-000
6
CONTINUOUS
62
3
100
AcDbCircle
10
112.630000000000
20
441.000000000000
30
0.0
40
1.896800017047
100
AcDbArc
50
90.000000000000
51
270.000000000000
0
ARC
5
4d6
100
AcDbEntity
8
0-000
6
CONTINUOUS
62
3
100
AcDbCircle
10
112.630000000000
20
441.000000000000
30
0.0
40
2.396800009459
100
AcDbArc
50
90.000000000000
51
270.000000000000
0
CIRCLE
5
4d7
100
AcDbEntity
8
0-202
6
CONTINUOUS
62
3
100
AcDbCircle
10
44.420000000000
20
33.050000000000
30
0.0
40
5.656899781463
0
CIRCLE
5
4d8
100
AcDbEntity
8
0-202
6
CONTINUOUS
62
3
100
AcDbCircle
10
44.420000000000
20
33.050000000000
30
0.0
40
6.456899924157
0
CIRCLE
5
4d9
100
AcDbEntity
8
0-202
6
CONTINUOUS
62
4
100
AcDbCircle
10
44.420000000000
20
33.050000000000
30
0.0
40
5.736899795732
0
CIRCLE
5
4da
100
AcDbEntity
8
0-202
6
CONTINUOUS
62
4
100
AcDbCircle
10
44.420000000000
20
33.050000000000
30
0.0
40
5.896900211356
0
CIRCLE
5
4db
100
AcDbEntity
8
0-202
6
CONTINUOUS
62
4
100
AcDbCircle
10
44.420000000000
20
33.050000000000
30
0.0
40
6.056900239895
0
CIRCLE
5
4dc
100
AcDbEntity
8
0-202
6
CONTINUOUS
62
4
100
AcDbCircle
10
44.420000000000
20
33.050000000000
30
0.0
40
6.216900268434
0
CIRCLE
5
4dd
100
AcDbEntity
8
0-202
6
CONTINUOUS
62
4
100
AcDbCircle
10
44.420000000000
20
33.050000000000
30
0.0
40
6.376899909887
0
TEXT
5
4de
100
AcDbEntity
8
0-000
62
6
100
AcDbText
10
315.480
20
468.598
30
0.0
40
7.800
1
15
41
1.125
50
0.000
100
AcDbText
0
TEXT
5
4df
100
AcDbEntity
8
0-000
62
6
100
AcDbText
10
334.980
20
468.598
30
0.0
40
7.800
1
24
41
1.125
50
0.000
100
AcDbText
0
TEXT
5
4e0
100
AcDbEntity
8
0-000
62
6
100
AcDbText
10
112.480
20
412.598
30
0.0
40
7.800
1
13
41
1.125
50
0.000
100
AcDbText
0
TEXT
5
4e1
100
AcDbEntity
8
0-000
62
6
100
AcDbText
10
270.022
20
439.533
30
0.0
40
7.800
1
5.5
41
1.125
50
0.000
100
AcDbText
0
TEXT
5
4e2
100
AcDbEntity
8
0-202
62
3
100
AcDbText
10
83.176
20
21.202
30
0.0
40
3.900
1
静岡県静岡市流通センター１６番
41
1.125
50
0.000
100
AcDbText
0
TEXT
5
4e3
100
AcDbEntity
8
0-202
62
3
100
AcDbText
10
83.178
20
13.785
30
0.0
40
3.900
1
電話（０５４）２６３－２２８０（代表）
41
1.125
50
0.000
100
AcDbText
0
TEXT
5
4e4
100
AcDbEntity
8
0-202
62
7
100
AcDbText
10
265.928
20
37.427
30
0.0
40
2.925
1
変　　　　　　更　　　　　　記　　　　　　事
41
1.167
50
0.000
100
AcDbText
0
TEXT
5
4e5
100
AcDbEntity
8
0-202
62
7
100
AcDbText
10
407.795
20
37.027
30
0.0
40
2.925
1
受領　　日附
41
1.167
50
0.000
100
AcDbText
0
TEXT
5
4e6
100
AcDbEntity
8
0-202
62
7
100
AcDbText
10
506.904
20
22.311
30
0.0
40
2.925
1
施工者
41
1.167
50
0.000
100
AcDbText
0
TEXT
5
4e7
100
AcDbEntity
8
0-202
62
7
100
AcDbText
10
506.904
20
37.126
30
0.0
40
2.925
1
設計者
41
1.167
50
0.000
100
AcDbText
0
TEXT
5
4e8
100
AcDbEntity
8
0-202
62
7
100
AcDbText
10
609.646
20
22.040
30
0.0
40
2.925
1
作図
41
1.167
50
0.000
100
AcDbText
0
TEXT
5
4e9
100
AcDbEntity
8
0-202
62
7
100
AcDbText
10
645.559
20
22.305
30
0.0
40
2.925
1
図面名
41
1.167
50
0.000
100
AcDbText
0
TEXT
5
4ea
100
AcDbEntity
8
0-202
62
7
100
AcDbText
10
609.646
20
36.854
30
0.0
40
2.925
1
日附
41
1.167
50
0.000
100
AcDbText
0
TEXT
5
4eb
100
AcDbEntity
8
0-202
62
7
100
AcDbText
10
645.559
20
37.120
30
0.0
40
2.925
1
工事件名
41
1.167
50
0.000
100
AcDbText
0
TEXT
5
4ec
100
AcDbEntity
8
0-202
62
7
100
AcDbText
10
620.714
20
36.729
30
0.0
40
2.925
1
年　月　日
41
1.167
50
0.000
100
AcDbText
0
TEXT
5
4ed
100
AcDbEntity
8
0-202
62
7
100
AcDbText
10
620.714
20
21.914
30
0.0
40
2.925
1
年　月　日
41
1.167
50
0.000
100
AcDbText
0
TEXT
5
4ee
100
AcDbEntity
8
0-202
62
7
100
AcDbText
10
771.731
20
37.120
30
0.0
40
2.925
1
設計番号
41
1.167
50
0.000
100
AcDbText
0
TEXT
5
4ef
100
AcDbEntity
8
0-202
62
7
100
AcDbText
10
193.389
20
33.735
30
0.0
40
2.925
1
. 　.　 
41
1.167
50
0.000
100
AcDbText
0
TEXT
5
4f0
100
AcDbEntity
8
0-202
62
7
100
AcDbText
10
193.389
20
28.797
30
0.0
40
2.925
1
. 　.　 
41
1.167
50
0.000
100
AcDbText
0
TEXT
5
4f1
100
AcDbEntity
8
0-202
62
7
100
AcDbText
10
193.389
20
23.859
30
0.0
40
2.925
1
. 　.　 
41
1.167
50
0.000
100
AcDbText
0
TEXT
5
4f2
100
AcDbEntity
8
0-202
62
7
100
AcDbText
10
193.389
20
18.920
30
0.0
40
2.925
1
. 　.　 
41
1.167
50
0.000
100
AcDbText
0
TEXT
5
4f3
100
AcDbEntity
8
0-202
62
7
100
AcDbText
10
193.389
20
13.982
30
0.0
40
2.925
1
. 　.　 
41
1.167
50
0.000
100
AcDbText
0
TEXT
5
4f4
100
AcDbEntity
8
0-202
62
3
100
AcDbText
10
517.035
20
30.588
30
0.0
40
3.900
1
　　　　　　　　　　
41
1.125
50
0.000
100
AcDbText
0
TEXT
5
4f5
100
AcDbEntity
8
0-202
62
3
100
AcDbText
10
517.035
20
15.773
30
0.0
40
3.900
1
　　　　　　　　　　
41
1.125
50
0.000
100
AcDbText
0
TEXT
5
4f6
100
AcDbEntity
8
0-202
62
3
100
AcDbText
10
658.767
20
31.362
30
0.0
40
3.900
1
　　　　　　　　　　　　　
41
1.125
50
0.000
100
AcDbText
0
TEXT
5
4f7
100
AcDbEntity
8
0-202
62
7
100
AcDbText
10
188.903
20
37.395
30
0.0
40
2.925
1
年　月　日
41
1.167
50
0.000
100
AcDbText
0
TEXT
5
4f8
100
AcDbEntity
8
0-202
62
7
100
AcDbText
10
436.381
20
36.735
30
0.0
40
2.925
1
年　　月　　日
41
1.167
50
0.000
100
AcDbText
0
TEXT
5
4f9
100
AcDbEntity
8
0-202
62
7
100
AcDbText
10
442.657
20
31.524
30
0.0
40
2.925
1
.　 　.
41
1.167
50
0.000
100
AcDbText
0
TEXT
5
4fa
100
AcDbEntity
8
0-202
62
7
100
AcDbText
10
407.795
20
22.212
30
0.0
40
2.925
1
受領　　日附
41
1.167
50
0.000
100
AcDbText
0
TEXT
5
4fb
100
AcDbEntity
8
0-202
62
7
100
AcDbText
10
436.381
20
21.920
30
0.0
40
2.925
1
年　　月　　日
41
1.167
50
0.000
100
AcDbText
0
TEXT
5
4fc
100
AcDbEntity
8
0-202
62
7
100
AcDbText
10
442.657
20
16.709
30
0.0
40
2.925
1
.　 　.
41
1.167
50
0.000
100
AcDbText
0
TEXT
5
4fd
100
AcDbEntity
8
0-202
62
7
100
AcDbText
10
624.100
20
30.667
30
0.0
40
2.925
1
.　　.　
41
1.167
50
0.000
100
AcDbText
0
TEXT
5
4fe
100
AcDbEntity
8
0-202
62
6
100
AcDbText
10
57.073
20
29.382
30
0.0
40
7.800
1
小　池　弥　太　郎　商　店
41
1.125
50
0.000
100
AcDbText
0
TEXT
5
4ff
100
AcDbEntity
8
0-202
62
7
100
AcDbText
10
771.731
20
22.305
30
0.0
40
2.925
1
縮　尺
41
1.167
50
0.000
100
AcDbText
0
TEXT
5
500
100
AcDbEntity
8
0-202
62
3
100
AcDbText
10
783.350
20
20.225
30
0.0
40
3.900
1
Ａ１－１／１　
41
1.125
50
0.000
100
AcDbText
0
TEXT
5
501
100
AcDbEntity
8
0-202
62
3
100
AcDbText
10
783.350
20
12.817
30
0.0
40
3.900
1
Ａ３－１／２　
41
1.125
50
0.000
100
AcDbText
0
TEXT
5
502
100
AcDbEntity
8
0-202
62
2
100
AcDbText
10
778.539
20
29.844
30
0.0
40
4.875
1
KR-APO-01
41
1.100
50
0.000
100
AcDbText
0
TEXT
5
503
100
AcDbEntity
8
0-000
62
6
100
AcDbText
10
111.173
20
502.333
30
0.0
40
7.800
1
アポロルーフ（一文字屋根葺工法）
41
1.125
50
0.000
100
AcDbText
0
TEXT
5
504
100
AcDbEntity
8
0-202
62
3
100
AcDbText
10
658.767
20
16.546
30
0.0
40
3.900
1
アポロルーフ（一文字屋根葺工法）　製品図
41
1.125
50
0.000
100
AcDbText
0
TEXT
5
505
100
AcDbEntity
8
0-000
62
6
100
AcDbText
10
184.730
20
468.598
30
0.0
40
7.800
1
働き巾　200
41
1.125
50
0.000
100
AcDbText
0
TEXT
5
506
100
AcDbEntity
8
0-202
62
7
100
AcDbText
10
611.241
20
15.334
30
0.0
40
2.925
1
MA 2022-07-26
41
1.167
50
0.000
100
AcDbText
0
TEXT
5
507
100
AcDbEntity
8
0-000
62
2
100
AcDbText
10
141.354
20
379.911
30
0.0
40
4.875
1
※本体製品の長さは、最長５０００ｍｍ以下での施工をお願い致します。
41
1.100
50
0.000
100
AcDbText
0
POINT
5
508
100
AcDbEntity
8
0-000
62
4
100
AcDbPoint
10
232.700000000000
20
438.250000000000
30
0.0
0
POINT
5
509
100
AcDbEntity
8
0-000
62
4
100
AcDbPoint
10
232.700000000000
20
438.250000000000
30
0.0
0
POINT
5
50a
100
AcDbEntity
8
0-000
62
3
100
AcDbPoint
10
110.230000000000
20
467.600000000000
30
0.0
0
POINT
5
50b
100
AcDbEntity
8
0-000
62
3
100
AcDbPoint
10
312.230000000000
20
467.600000000000
30
0.0
0
POINT
5
50c
100
AcDbEntity
8
0-000
62
3
100
AcDbPoint
10
327.230000000000
20
467.600000000000
30
0.0
0
POINT
5
50d
100
AcDbEntity
8
0-000
62
3
100
AcDbPoint
10
351.230000000000
20
467.600000000000
30
0.0
0
POINT
5
50e
100
AcDbEntity
8
0-000
62
3
100
AcDbPoint
10
110.230000000000
20
411.600000000000
30
0.0
0
POINT
5
50f
100
AcDbEntity
8
0-000
62
3
100
AcDbPoint
10
123.230000000000
20
411.600000000000
30
0.0
0
POINT
5
510
100
AcDbEntity
8
0-000
62
3
100
AcDbPoint
10
287.230000000000
20
437.100000000000
30
0.0
0
POINT
5
511
100
AcDbEntity
8
0-000
62
3
100
AcDbPoint
10
287.230000000000
20
442.600000000000
30
0.0
0
POINT
5
512
100
AcDbEntity
8
0-202
62
3
100
AcDbPoint
10
27.380000000000
20
571.820000000000
30
0.0
0
ENDSEC
0
EOF
