0
SECTION
2
HEADER
9
$ACADVER
1
AC1009
9
$DWGCODEPAGE
3
ANSI_932
9
$EXTMIN
10
0.000
20
0.000
30
0.0
9
$EXTMAX
10
1189.000
20
841.000
30
0.0
9
$LTSCALE
40
2.000
9
$PDMODE
70
0
9
$PDSIZE
40
40.0
0
ENDSEC
0
SECTION
2
TABLES
0
TABLE
2
LTYPE
70
9
0
LTYPE
5
1f4
2
CONTINUOUS
70
64
3
SolidLine
72
65
73
0
40
0.0
0
LTYPE
5
1f5
2
DOT
70
64
3
--  --  --  --  --  --  --  --     
72
65
73
2
40
3.000
49
1.000
49
-2.000
0
LTYPE
5
1f6
2
DASHED
70
64
3
----    ----    ----    ----    
72
65
73
2
40
5.000
49
2.000
49
-3.000
0
LTYPE
5
1f7
2
DASHED2
70
64
3
------  ------  ------  ------ 
72
65
73
2
40
10.000
49
4.000
49
-6.000
0
LTYPE
5
1f8
2
CENTER
70
64
3
----- - ----- - ----- - ----- - 
72
65
73
4
40
10.000
49
6.000
49
-3.000
49
1.000
49
-3.000
0
LTYPE
5
1f9
2
CENTER2
70
64
3
----------  --  ----------  -- 
72
65
73
4
40
17.000
49
12.000
49
-5.000
49
2.000
49
-5.000
0
LTYPE
5
1fa
2
PHANTOM
70
64
3
--- - - --- - - --- - - --- - -
72
65
73
6
40
13.000
49
5.000
49
-3.000
49
1.000
49
-3.000
49
1.000
49
-3.000
0
LTYPE
5
1fb
2
PHANTOM2
70
64
3
--------  -  -  --------  -  -
72
65
73
6
40
20.000
49
6.000
49
-5.000
49
2.000
49
-5.000
49
2.000
49
-5.000
0
LTYPE
5
1fc
2
HIDDEN
70
64
3
-   -   -   -   -   -   -   -   
72
65
73
2
40
3.000
49
0.500
49
-2.500
0
ENDTAB
0
TABLE
2
STYLE
70
1
0
STYLE
5
1fd
100
AcDbSymbolTableRecord
100
AcDbTextStyleTableRecord
2
STANDARD
70
0
40
0.0
41
1.0
50
0.0
71
0
42
0.0
3
txt.shx
4
extfont.shx
0
STYLE
5
1fe
100
AcDbSymbolTableRecord
100
AcDbTextStyleTableRecord
2
TATEGAKI
70
4
40
0.0
41
1.0
50
0.0
71
0
42
0.0
3
txt.shx
4
extfont.shx
0
STYLE
5
1ff
100
AcDbSymbolTableRecord
100
AcDbTextStyleTableRecord
2
DIM
70
0
40
0.0
41
0.75
50
0.0
71
0
42
0.0
3
txt.shx
4
extfont.shx
0
STYLE
5
200
100
AcDbSymbolTableRecord
100
AcDbTextStyleTableRecord
2
_Gothic__
70
0
40
0.0
41
1.0
50
0.0
71
0
42
0.0
3
MS Gothic
4

0
STYLE
5
201
100
AcDbSymbolTableRecord
100
AcDbTextStyleTableRecord
2
_TateGothic_
70
4
40
0.0
41
1.0
50
0.0
71
0
42
0.0
3
@MS Gothic
4

0
ENDTAB
0
TABLE
2
LAYER
5
403
100
AcDbSymbolTable
70
10
0
LAYER
5
404
100
AcDbSymbolTableRecord
100
AcDbLayerTableRecord
2
0-0
70
0
62
7
6
CONTINUOUS
0
LAYER
5
405
100
AcDbSymbolTableRecord
100
AcDbLayerTableRecord
2
F-F_J_ADD
70
0
62
-7
6
CONTINUOUS
0
ENDTAB
0
ENDSEC
0
SECTION
2
ENTITIES
0
LINE
5
406
100
AcDbEntity
8
0-0
6
CONTINUOUS
62
2
100
AcDbLine
10
27.380000000000
20
11.820000000000
30
0.0
11
27.380000000000
21
571.820000000000
31
0.0
0
LINE
5
407
100
AcDbEntity
8
0-0
6
CONTINUOUS
62
2
100
AcDbLine
10
27.380000000000
20
11.820000000000
30
0.0
11
27.380000000000
21
11.820000000000
31
0.0
0
LINE
5
408
100
AcDbEntity
8
0-0
6
CONTINUOUS
62
2
100
AcDbLine
10
642.380000000000
20
41.450000000000
30
0.0
11
642.380000000000
21
11.820000000000
31
0.0
0
LINE
5
409
100
AcDbEntity
8
0-0
6
CONTINUOUS
62
2
100
AcDbLine
10
607.270000000000
20
41.450000000000
30
0.0
11
607.270000000000
21
11.820000000000
31
0.0
0
LINE
5
40a
100
AcDbEntity
8
0-0
6
CONTINUOUS
62
2
100
AcDbLine
10
768.560000000000
20
11.820000000000
30
0.0
11
768.560000000000
21
41.450000000000
31
0.0
0
LINE
5
40b
100
AcDbEntity
8
0-0
6
CONTINUOUS
62
2
100
AcDbLine
10
403.450000000000
20
41.450000000000
30
0.0
11
403.450000000000
21
11.820000000000
31
0.0
0
LINE
5
40c
100
AcDbEntity
8
0-0
6
CONTINUOUS
62
2
100
AcDbLine
10
504.870000000000
20
41.450000000000
30
0.0
11
504.870000000000
21
11.820000000000
31
0.0
0
LINE
5
40d
100
AcDbEntity
8
0-0
6
CONTINUOUS
62
2
100
AcDbLine
10
403.450000000000
20
31.570000000000
30
0.0
11
184.880000000000
21
31.570000000000
31
0.0
0
LINE
5
40e
100
AcDbEntity
8
0-0
6
CONTINUOUS
62
2
100
AcDbLine
10
403.450000000000
20
21.690000000000
30
0.0
11
184.880000000000
21
21.690000000000
31
0.0
0
LINE
5
40f
100
AcDbEntity
8
0-0
6
CONTINUOUS
62
2
100
AcDbLine
10
403.450000000000
20
16.760000000000
30
0.0
11
184.880000000000
21
16.760000000000
31
0.0
0
LINE
5
410
100
AcDbEntity
8
0-0
6
CONTINUOUS
62
2
100
AcDbLine
10
403.450000000000
20
36.510000000000
30
0.0
11
184.880000000000
21
36.510000000000
31
0.0
0
LINE
5
411
100
AcDbEntity
8
0-0
6
CONTINUOUS
62
2
100
AcDbLine
10
211.210000000000
20
41.450000000000
30
0.0
11
211.210000000000
21
11.820000000000
31
0.0
0
LINE
5
412
100
AcDbEntity
8
0-0
6
CONTINUOUS
62
2
100
AcDbLine
10
184.880000000000
20
41.450000000000
30
0.0
11
184.880000000000
21
11.820000000000
31
0.0
0
LINE
5
413
100
AcDbEntity
8
0-0
6
CONTINUOUS
62
2
100
AcDbLine
10
815.820000000000
20
11.820000000000
30
0.0
11
815.820000000000
21
571.820000000000
31
0.0
0
LINE
5
414
100
AcDbEntity
8
0-0
6
CONTINUOUS
62
2
100
AcDbLine
10
27.380000000000
20
571.820000000000
30
0.0
11
815.820000000000
21
571.820000000000
31
0.0
0
LINE
5
415
100
AcDbEntity
8
0-0
6
CONTINUOUS
62
2
100
AcDbLine
10
27.380000000000
20
11.820000000000
30
0.0
11
815.820000000000
21
11.820000000000
31
0.0
0
LINE
5
416
100
AcDbEntity
8
0-0
6
CONTINUOUS
62
2
100
AcDbLine
10
815.820000000000
20
41.450000000000
30
0.0
11
27.380000000000
21
41.450000000000
31
0.0
0
LINE
5
417
100
AcDbEntity
8
0-0
6
CONTINUOUS
62
2
100
AcDbLine
10
184.880000000000
20
26.630000000000
30
0.0
11
815.820000000000
21
26.630000000000
31
0.0
0
LINE
5
418
100
AcDbEntity
8
0-0
6
CONTINUOUS
62
3
100
AcDbLine
10
154.580000000000
20
469.280000000000
30
0.0
11
154.580000000000
21
460.780000000000
31
0.0
0
LINE
5
419
100
AcDbEntity
8
0-0
6
CONTINUOUS
62
3
100
AcDbLine
10
154.080000000000
20
460.780000000000
30
0.0
11
154.080000000000
21
469.280000000000
31
0.0
0
LINE
5
41a
100
AcDbEntity
8
0-0
6
CONTINUOUS
62
4
100
AcDbLine
10
114.580000000000
20
459.780000000000
30
0.0
11
114.580000000000
21
470.780000000000
31
0.0
0
LINE
5
41b
100
AcDbEntity
8
0-0
6
CONTINUOUS
62
4
100
AcDbLine
10
124.580000000000
20
459.780000000000
30
0.0
11
114.580000000000
21
459.780000000000
31
0.0
0
LINE
5
41c
100
AcDbEntity
8
0-0
6
CONTINUOUS
62
4
100
AcDbLine
10
124.580000000000
20
470.780000000000
30
0.0
11
114.580000000000
21
470.780000000000
31
0.0
0
LINE
5
41d
100
AcDbEntity
8
0-0
6
CONTINUOUS
62
4
100
AcDbLine
10
133.950000000000
20
446.780000000000
30
0.0
11
133.950000000000
21
436.780000000000
31
0.0
0
LINE
5
41e
100
AcDbEntity
8
0-0
6
CONTINUOUS
62
4
100
AcDbLine
10
133.950000000000
20
436.780000000000
30
0.0
11
133.950000000000
21
426.780000000000
31
0.0
0
LINE
5
41f
100
AcDbEntity
8
0-0
6
CONTINUOUS
62
4
100
AcDbLine
10
154.580000000000
20
446.780000000000
30
0.0
11
154.580000000000
21
426.780000000000
31
0.0
0
LINE
5
420
100
AcDbEntity
8
0-0
6
CONTINUOUS
62
4
100
AcDbLine
10
388.830000000000
20
456.780000000000
30
0.0
11
388.830000000000
21
470.780000000000
31
0.0
0
LINE
5
421
100
AcDbEntity
8
0-0
6
CONTINUOUS
62
4
100
AcDbLine
10
378.830000000000
20
456.780000000000
30
0.0
11
388.830000000000
21
456.780000000000
31
0.0
0
LINE
5
422
100
AcDbEntity
8
0-0
6
CONTINUOUS
62
4
100
AcDbLine
10
378.830000000000
20
470.780000000000
30
0.0
11
388.830000000000
21
470.780000000000
31
0.0
0
LINE
5
423
100
AcDbEntity
8
0-0
6
CONTINUOUS
62
4
100
AcDbLine
10
153.950000000000
20
480.780000000000
30
0.0
11
153.950000000000
21
490.780000000000
31
0.0
0
LINE
5
424
100
AcDbEntity
8
0-0
6
CONTINUOUS
62
4
100
AcDbLine
10
353.950000000000
20
480.780000000000
30
0.0
11
353.950000000000
21
490.780000000000
31
0.0
0
LINE
5
425
100
AcDbEntity
8
0-0
6
CONTINUOUS
62
4
100
AcDbLine
10
446.950000000000
20
490.780000000000
30
0.0
11
451.780000000000
21
489.490000000000
31
0.0
0
LINE
5
426
100
AcDbEntity
8
0-0
6
CONTINUOUS
62
4
100
AcDbLine
10
446.950000000000
20
490.780000000000
30
0.0
11
451.780000000000
21
492.080000000000
31
0.0
0
LINE
5
427
100
AcDbEntity
8
0-0
6
CONTINUOUS
62
4
100
AcDbLine
10
486.950000000000
20
490.780000000000
30
0.0
11
446.950000000000
21
490.780000000000
31
0.0
0
LINE
5
428
100
AcDbEntity
8
0-0
6
CONTINUOUS
62
4
100
AcDbLine
10
726.950000000000
20
490.780000000000
30
0.0
11
722.120000000000
21
489.490000000000
31
0.0
0
LINE
5
429
100
AcDbEntity
8
0-0
6
CONTINUOUS
62
4
100
AcDbLine
10
726.950000000000
20
490.780000000000
30
0.0
11
722.120000000000
21
492.080000000000
31
0.0
0
LINE
5
42a
100
AcDbEntity
8
0-0
6
CONTINUOUS
62
3
100
AcDbLine
10
352.330000000000
20
470.280000000000
30
0.0
11
155.580000000000
21
470.280000000000
31
0.0
0
LINE
5
42b
100
AcDbEntity
8
0-0
6
CONTINUOUS
62
3
100
AcDbLine
10
155.580000000000
20
470.780000000000
30
0.0
11
352.330000000000
21
470.780000000000
31
0.0
0
LINE
5
42c
100
AcDbEntity
8
0-0
6
CONTINUOUS
62
4
100
AcDbLine
10
153.950000000000
20
490.780000000000
30
0.0
11
353.950000000000
21
490.780000000000
31
0.0
0
LINE
5
42d
100
AcDbEntity
8
0-0
6
CONTINUOUS
62
4
100
AcDbLine
10
486.950000000000
20
490.780000000000
30
0.0
11
686.950000000000
21
490.780000000000
31
0.0
0
LINE
5
42e
100
AcDbEntity
8
0-0
6
CONTINUOUS
62
3
100
AcDbLine
10
488.580000000000
20
470.780000000000
30
0.0
11
685.320000000000
21
470.780000000000
31
0.0
0
LINE
5
42f
100
AcDbEntity
8
0-0
6
CONTINUOUS
62
3
100
AcDbLine
10
685.320000000000
20
470.280000000000
30
0.0
11
488.580000000000
21
470.280000000000
31
0.0
0
LINE
5
430
100
AcDbEntity
8
0-0
6
CONTINUOUS
62
3
100
AcDbLine
10
35.860000000000
20
29.550000000000
30
0.0
11
35.860000000000
21
37.550000000000
31
0.0
0
LINE
5
431
100
AcDbEntity
8
0-0
6
CONTINUOUS
62
3
100
AcDbLine
10
35.860000000000
20
37.550000000000
30
0.0
11
43.860000000000
21
37.550000000000
31
0.0
0
LINE
5
432
100
AcDbEntity
8
0-0
6
CONTINUOUS
62
3
100
AcDbLine
10
43.860000000000
20
37.550000000000
30
0.0
11
43.860000000000
21
29.550000000000
31
0.0
0
LINE
5
433
100
AcDbEntity
8
0-0
6
CONTINUOUS
62
3
100
AcDbLine
10
43.860000000000
20
29.550000000000
30
0.0
11
35.860000000000
21
29.550000000000
31
0.0
0
LINE
5
434
100
AcDbEntity
8
0-0
6
CONTINUOUS
62
3
100
AcDbLine
10
36.660000000000
20
30.630000000000
30
0.0
11
36.660000000000
21
36.750000000000
31
0.0
0
LINE
5
435
100
AcDbEntity
8
0-0
6
CONTINUOUS
62
3
100
AcDbLine
10
43.060000000000
20
30.350000000000
30
0.0
11
36.940000000000
21
30.350000000000
31
0.0
0
LINE
5
436
100
AcDbEntity
8
0-0
6
CONTINUOUS
62
3
100
AcDbLine
10
36.660000000000
20
36.750000000000
30
0.0
11
42.780000000000
21
36.750000000000
31
0.0
0
LINE
5
437
100
AcDbEntity
8
0-0
6
CONTINUOUS
62
3
100
AcDbLine
10
42.780000000000
20
36.750000000000
30
0.0
11
36.660000000000
21
30.630000000000
31
0.0
0
LINE
5
438
100
AcDbEntity
8
0-0
6
CONTINUOUS
62
3
100
AcDbLine
10
43.060000000000
20
36.470000000000
30
0.0
11
36.940000000000
21
30.350000000000
31
0.0
0
LINE
5
439
100
AcDbEntity
8
0-0
6
CONTINUOUS
62
3
100
AcDbLine
10
43.060000000000
20
36.470000000000
30
0.0
11
43.060000000000
21
30.350000000000
31
0.0
0
LINE
5
43a
100
AcDbEntity
8
0-0
6
CONTINUOUS
62
4
100
AcDbLine
10
35.860000000000
20
37.470000000000
30
0.0
11
43.860000000000
21
37.470000000000
31
0.0
0
LINE
5
43b
100
AcDbEntity
8
0-0
6
CONTINUOUS
62
4
100
AcDbLine
10
35.860000000000
20
37.310000000000
30
0.0
11
43.860000000000
21
37.310000000000
31
0.0
0
LINE
5
43c
100
AcDbEntity
8
0-0
6
CONTINUOUS
62
4
100
AcDbLine
10
35.860000000000
20
37.150000000000
30
0.0
11
43.860000000000
21
37.150000000000
31
0.0
0
LINE
5
43d
100
AcDbEntity
8
0-0
6
CONTINUOUS
62
4
100
AcDbLine
10
35.860000000000
20
36.990000000000
30
0.0
11
43.860000000000
21
36.990000000000
31
0.0
0
LINE
5
43e
100
AcDbEntity
8
0-0
6
CONTINUOUS
62
4
100
AcDbLine
10
35.860000000000
20
36.830000000000
30
0.0
11
43.860000000000
21
36.830000000000
31
0.0
0
LINE
5
43f
100
AcDbEntity
8
0-0
6
CONTINUOUS
62
4
100
AcDbLine
10
35.860000000000
20
30.270000000000
30
0.0
11
43.860000000000
21
30.270000000000
31
0.0
0
LINE
5
440
100
AcDbEntity
8
0-0
6
CONTINUOUS
62
4
100
AcDbLine
10
35.860000000000
20
30.110000000000
30
0.0
11
43.860000000000
21
30.110000000000
31
0.0
0
LINE
5
441
100
AcDbEntity
8
0-0
6
CONTINUOUS
62
4
100
AcDbLine
10
35.860000000000
20
29.950000000000
30
0.0
11
43.860000000000
21
29.950000000000
31
0.0
0
LINE
5
442
100
AcDbEntity
8
0-0
6
CONTINUOUS
62
4
100
AcDbLine
10
35.860000000000
20
29.790000000000
30
0.0
11
43.860000000000
21
29.790000000000
31
0.0
0
LINE
5
443
100
AcDbEntity
8
0-0
6
CONTINUOUS
62
4
100
AcDbLine
10
35.860000000000
20
29.630000000000
30
0.0
11
43.860000000000
21
29.630000000000
31
0.0
0
LINE
5
444
100
AcDbEntity
8
0-0
6
CONTINUOUS
62
4
100
AcDbLine
10
35.860000000000
20
30.750000000000
30
0.0
11
36.660000000000
21
30.750000000000
31
0.0
0
LINE
5
445
100
AcDbEntity
8
0-0
6
CONTINUOUS
62
4
100
AcDbLine
10
35.860000000000
20
30.910000000000
30
0.0
11
36.660000000000
21
30.910000000000
31
0.0
0
LINE
5
446
100
AcDbEntity
8
0-0
6
CONTINUOUS
62
4
100
AcDbLine
10
35.860000000000
20
31.070000000000
30
0.0
11
36.660000000000
21
31.070000000000
31
0.0
0
LINE
5
447
100
AcDbEntity
8
0-0
6
CONTINUOUS
62
4
100
AcDbLine
10
35.860000000000
20
31.230000000000
30
0.0
11
36.660000000000
21
31.230000000000
31
0.0
0
LINE
5
448
100
AcDbEntity
8
0-0
6
CONTINUOUS
62
4
100
AcDbLine
10
35.860000000000
20
31.390000000000
30
0.0
11
36.660000000000
21
31.390000000000
31
0.0
0
LINE
5
449
100
AcDbEntity
8
0-0
6
CONTINUOUS
62
4
100
AcDbLine
10
35.860000000000
20
31.550000000000
30
0.0
11
36.660000000000
21
31.550000000000
31
0.0
0
LINE
5
44a
100
AcDbEntity
8
0-0
6
CONTINUOUS
62
4
100
AcDbLine
10
35.860000000000
20
31.710000000000
30
0.0
11
36.660000000000
21
31.710000000000
31
0.0
0
LINE
5
44b
100
AcDbEntity
8
0-0
6
CONTINUOUS
62
4
100
AcDbLine
10
35.860000000000
20
31.870000000000
30
0.0
11
36.660000000000
21
31.870000000000
31
0.0
0
LINE
5
44c
100
AcDbEntity
8
0-0
6
CONTINUOUS
62
4
100
AcDbLine
10
35.860000000000
20
32.030000000000
30
0.0
11
36.660000000000
21
32.030000000000
31
0.0
0
LINE
5
44d
100
AcDbEntity
8
0-0
6
CONTINUOUS
62
4
100
AcDbLine
10
35.860000000000
20
32.190000000000
30
0.0
11
36.660000000000
21
32.190000000000
31
0.0
0
LINE
5
44e
100
AcDbEntity
8
0-0
6
CONTINUOUS
62
4
100
AcDbLine
10
35.860000000000
20
32.350000000000
30
0.0
11
36.660000000000
21
32.350000000000
31
0.0
0
LINE
5
44f
100
AcDbEntity
8
0-0
6
CONTINUOUS
62
4
100
AcDbLine
10
35.860000000000
20
32.510000000000
30
0.0
11
36.660000000000
21
32.510000000000
31
0.0
0
LINE
5
450
100
AcDbEntity
8
0-0
6
CONTINUOUS
62
4
100
AcDbLine
10
35.860000000000
20
32.670000000000
30
0.0
11
36.660000000000
21
32.670000000000
31
0.0
0
LINE
5
451
100
AcDbEntity
8
0-0
6
CONTINUOUS
62
4
100
AcDbLine
10
35.860000000000
20
32.830000000000
30
0.0
11
36.660000000000
21
32.830000000000
31
0.0
0
LINE
5
452
100
AcDbEntity
8
0-0
6
CONTINUOUS
62
4
100
AcDbLine
10
35.860000000000
20
32.990000000000
30
0.0
11
36.660000000000
21
32.990000000000
31
0.0
0
LINE
5
453
100
AcDbEntity
8
0-0
6
CONTINUOUS
62
4
100
AcDbLine
10
35.860000000000
20
33.150000000000
30
0.0
11
36.660000000000
21
33.150000000000
31
0.0
0
LINE
5
454
100
AcDbEntity
8
0-0
6
CONTINUOUS
62
4
100
AcDbLine
10
35.860000000000
20
33.310000000000
30
0.0
11
36.660000000000
21
33.310000000000
31
0.0
0
LINE
5
455
100
AcDbEntity
8
0-0
6
CONTINUOUS
62
4
100
AcDbLine
10
35.860000000000
20
33.470000000000
30
0.0
11
36.660000000000
21
33.470000000000
31
0.0
0
LINE
5
456
100
AcDbEntity
8
0-0
6
CONTINUOUS
62
4
100
AcDbLine
10
35.860000000000
20
33.630000000000
30
0.0
11
36.660000000000
21
33.630000000000
31
0.0
0
LINE
5
457
100
AcDbEntity
8
0-0
6
CONTINUOUS
62
4
100
AcDbLine
10
35.860000000000
20
33.790000000000
30
0.0
11
36.660000000000
21
33.790000000000
31
0.0
0
LINE
5
458
100
AcDbEntity
8
0-0
6
CONTINUOUS
62
4
100
AcDbLine
10
35.860000000000
20
33.950000000000
30
0.0
11
36.660000000000
21
33.950000000000
31
0.0
0
LINE
5
459
100
AcDbEntity
8
0-0
6
CONTINUOUS
62
4
100
AcDbLine
10
35.860000000000
20
34.110000000000
30
0.0
11
36.660000000000
21
34.110000000000
31
0.0
0
LINE
5
45a
100
AcDbEntity
8
0-0
6
CONTINUOUS
62
4
100
AcDbLine
10
35.860000000000
20
34.270000000000
30
0.0
11
36.660000000000
21
34.270000000000
31
0.0
0
LINE
5
45b
100
AcDbEntity
8
0-0
6
CONTINUOUS
62
4
100
AcDbLine
10
35.860000000000
20
34.430000000000
30
0.0
11
36.660000000000
21
34.430000000000
31
0.0
0
LINE
5
45c
100
AcDbEntity
8
0-0
6
CONTINUOUS
62
4
100
AcDbLine
10
35.860000000000
20
34.910000000000
30
0.0
11
36.660000000000
21
34.910000000000
31
0.0
0
LINE
5
45d
100
AcDbEntity
8
0-0
6
CONTINUOUS
62
4
100
AcDbLine
10
35.860000000000
20
35.390000000000
30
0.0
11
36.660000000000
21
35.390000000000
31
0.0
0
LINE
5
45e
100
AcDbEntity
8
0-0
6
CONTINUOUS
62
4
100
AcDbLine
10
35.860000000000
20
35.550000000000
30
0.0
11
36.660000000000
21
35.550000000000
31
0.0
0
LINE
5
45f
100
AcDbEntity
8
0-0
6
CONTINUOUS
62
4
100
AcDbLine
10
35.860000000000
20
35.710000000000
30
0.0
11
36.660000000000
21
35.710000000000
31
0.0
0
LINE
5
460
100
AcDbEntity
8
0-0
6
CONTINUOUS
62
4
100
AcDbLine
10
35.860000000000
20
35.870000000000
30
0.0
11
36.660000000000
21
35.870000000000
31
0.0
0
LINE
5
461
100
AcDbEntity
8
0-0
6
CONTINUOUS
62
4
100
AcDbLine
10
35.860000000000
20
36.670000000000
30
0.0
11
36.660000000000
21
36.670000000000
31
0.0
0
LINE
5
462
100
AcDbEntity
8
0-0
6
CONTINUOUS
62
4
100
AcDbLine
10
35.860000000000
20
36.510000000000
30
0.0
11
36.660000000000
21
36.510000000000
31
0.0
0
LINE
5
463
100
AcDbEntity
8
0-0
6
CONTINUOUS
62
4
100
AcDbLine
10
35.860000000000
20
36.350000000000
30
0.0
11
36.660000000000
21
36.350000000000
31
0.0
0
LINE
5
464
100
AcDbEntity
8
0-0
6
CONTINUOUS
62
4
100
AcDbLine
10
35.860000000000
20
36.190000000000
30
0.0
11
36.660000000000
21
36.190000000000
31
0.0
0
LINE
5
465
100
AcDbEntity
8
0-0
6
CONTINUOUS
62
4
100
AcDbLine
10
35.860000000000
20
36.030000000000
30
0.0
11
36.660000000000
21
36.030000000000
31
0.0
0
LINE
5
466
100
AcDbEntity
8
0-0
6
CONTINUOUS
62
4
100
AcDbLine
10
35.860000000000
20
35.070000000000
30
0.0
11
36.660000000000
21
35.070000000000
31
0.0
0
LINE
5
467
100
AcDbEntity
8
0-0
6
CONTINUOUS
62
4
100
AcDbLine
10
35.860000000000
20
35.230000000000
30
0.0
11
36.660000000000
21
35.230000000000
31
0.0
0
LINE
5
468
100
AcDbEntity
8
0-0
6
CONTINUOUS
62
4
100
AcDbLine
10
35.860000000000
20
34.750000000000
30
0.0
11
36.660000000000
21
34.750000000000
31
0.0
0
LINE
5
469
100
AcDbEntity
8
0-0
6
CONTINUOUS
62
4
100
AcDbLine
10
35.860000000000
20
34.590000000000
30
0.0
11
36.660000000000
21
34.590000000000
31
0.0
0
LINE
5
46a
100
AcDbEntity
8
0-0
6
CONTINUOUS
62
4
100
AcDbLine
10
36.930000000000
20
30.910000000000
30
0.0
11
37.500000000000
21
30.910000000000
31
0.0
0
LINE
5
46b
100
AcDbEntity
8
0-0
6
CONTINUOUS
62
4
100
AcDbLine
10
36.770000000000
20
30.750000000000
30
0.0
11
37.340000000000
21
30.750000000000
31
0.0
0
LINE
5
46c
100
AcDbEntity
8
0-0
6
CONTINUOUS
62
4
100
AcDbLine
10
35.860000000000
20
30.590000000000
30
0.0
11
37.180000000000
21
30.590000000000
31
0.0
0
LINE
5
46d
100
AcDbEntity
8
0-0
6
CONTINUOUS
62
4
100
AcDbLine
10
35.860000000000
20
30.430000000000
30
0.0
11
37.020000000000
21
30.430000000000
31
0.0
0
LINE
5
46e
100
AcDbEntity
8
0-0
6
CONTINUOUS
62
4
100
AcDbLine
10
37.890000000000
20
31.870000000000
30
0.0
11
38.460000000000
21
31.870000000000
31
0.0
0
LINE
5
46f
100
AcDbEntity
8
0-0
6
CONTINUOUS
62
4
100
AcDbLine
10
37.730000000000
20
31.710000000000
30
0.0
11
38.300000000000
21
31.710000000000
31
0.0
0
LINE
5
470
100
AcDbEntity
8
0-0
6
CONTINUOUS
62
4
100
AcDbLine
10
37.580000000000
20
31.550000000000
30
0.0
11
38.140000000000
21
31.550000000000
31
0.0
0
LINE
5
471
100
AcDbEntity
8
0-0
6
CONTINUOUS
62
4
100
AcDbLine
10
37.410000000000
20
31.390000000000
30
0.0
11
37.980000000000
21
31.390000000000
31
0.0
0
LINE
5
472
100
AcDbEntity
8
0-0
6
CONTINUOUS
62
4
100
AcDbLine
10
37.260000000000
20
31.230000000000
30
0.0
11
37.820000000000
21
31.230000000000
31
0.0
0
LINE
5
473
100
AcDbEntity
8
0-0
6
CONTINUOUS
62
4
100
AcDbLine
10
37.100000000000
20
31.070000000000
30
0.0
11
37.660000000000
21
31.070000000000
31
0.0
0
LINE
5
474
100
AcDbEntity
8
0-0
6
CONTINUOUS
62
4
100
AcDbLine
10
36.660000000000
20
36.750000000000
30
0.0
11
36.660000000000
21
36.910000000000
31
0.0
0
LINE
5
475
100
AcDbEntity
8
0-0
6
CONTINUOUS
62
4
100
AcDbLine
10
43.060000000000
20
30.750000000000
30
0.0
11
43.860000000000
21
30.750000000000
31
0.0
0
LINE
5
476
100
AcDbEntity
8
0-0
6
CONTINUOUS
62
4
100
AcDbLine
10
43.060000000000
20
30.910000000000
30
0.0
11
43.860000000000
21
30.910000000000
31
0.0
0
LINE
5
477
100
AcDbEntity
8
0-0
6
CONTINUOUS
62
4
100
AcDbLine
10
43.060000000000
20
31.070000000000
30
0.0
11
43.860000000000
21
31.070000000000
31
0.0
0
LINE
5
478
100
AcDbEntity
8
0-0
6
CONTINUOUS
62
4
100
AcDbLine
10
43.060000000000
20
31.230000000000
30
0.0
11
43.860000000000
21
31.230000000000
31
0.0
0
LINE
5
479
100
AcDbEntity
8
0-0
6
CONTINUOUS
62
4
100
AcDbLine
10
43.060000000000
20
31.390000000000
30
0.0
11
43.860000000000
21
31.390000000000
31
0.0
0
LINE
5
47a
100
AcDbEntity
8
0-0
6
CONTINUOUS
62
4
100
AcDbLine
10
43.060000000000
20
31.550000000000
30
0.0
11
43.860000000000
21
31.550000000000
31
0.0
0
LINE
5
47b
100
AcDbEntity
8
0-0
6
CONTINUOUS
62
4
100
AcDbLine
10
43.060000000000
20
31.710000000000
30
0.0
11
43.860000000000
21
31.710000000000
31
0.0
0
LINE
5
47c
100
AcDbEntity
8
0-0
6
CONTINUOUS
62
4
100
AcDbLine
10
43.060000000000
20
31.870000000000
30
0.0
11
43.860000000000
21
31.870000000000
31
0.0
0
LINE
5
47d
100
AcDbEntity
8
0-0
6
CONTINUOUS
62
4
100
AcDbLine
10
43.060000000000
20
32.030000000000
30
0.0
11
43.860000000000
21
32.030000000000
31
0.0
0
LINE
5
47e
100
AcDbEntity
8
0-0
6
CONTINUOUS
62
4
100
AcDbLine
10
43.060000000000
20
32.190000000000
30
0.0
11
43.860000000000
21
32.190000000000
31
0.0
0
LINE
5
47f
100
AcDbEntity
8
0-0
6
CONTINUOUS
62
4
100
AcDbLine
10
43.060000000000
20
32.350000000000
30
0.0
11
43.860000000000
21
32.350000000000
31
0.0
0
LINE
5
480
100
AcDbEntity
8
0-0
6
CONTINUOUS
62
4
100
AcDbLine
10
43.060000000000
20
32.510000000000
30
0.0
11
43.860000000000
21
32.510000000000
31
0.0
0
LINE
5
481
100
AcDbEntity
8
0-0
6
CONTINUOUS
62
4
100
AcDbLine
10
43.060000000000
20
32.670000000000
30
0.0
11
43.860000000000
21
32.670000000000
31
0.0
0
LINE
5
482
100
AcDbEntity
8
0-0
6
CONTINUOUS
62
4
100
AcDbLine
10
43.060000000000
20
32.990000000000
30
0.0
11
43.860000000000
21
32.990000000000
31
0.0
0
LINE
5
483
100
AcDbEntity
8
0-0
6
CONTINUOUS
62
4
100
AcDbLine
10
43.060000000000
20
33.150000000000
30
0.0
11
43.860000000000
21
33.150000000000
31
0.0
0
LINE
5
484
100
AcDbEntity
8
0-0
6
CONTINUOUS
62
4
100
AcDbLine
10
43.060000000000
20
33.310000000000
30
0.0
11
43.860000000000
21
33.310000000000
31
0.0
0
LINE
5
485
100
AcDbEntity
8
0-0
6
CONTINUOUS
62
4
100
AcDbLine
10
43.060000000000
20
33.470000000000
30
0.0
11
43.860000000000
21
33.470000000000
31
0.0
0
LINE
5
486
100
AcDbEntity
8
0-0
6
CONTINUOUS
62
4
100
AcDbLine
10
43.060000000000
20
33.630000000000
30
0.0
11
43.860000000000
21
33.630000000000
31
0.0
0
LINE
5
487
100
AcDbEntity
8
0-0
6
CONTINUOUS
62
4
100
AcDbLine
10
43.060000000000
20
33.790000000000
30
0.0
11
43.860000000000
21
33.790000000000
31
0.0
0
LINE
5
488
100
AcDbEntity
8
0-0
6
CONTINUOUS
62
4
100
AcDbLine
10
43.060000000000
20
33.950000000000
30
0.0
11
43.860000000000
21
33.950000000000
31
0.0
0
LINE
5
489
100
AcDbEntity
8
0-0
6
CONTINUOUS
62
4
100
AcDbLine
10
43.060000000000
20
34.110000000000
30
0.0
11
43.860000000000
21
34.110000000000
31
0.0
0
LINE
5
48a
100
AcDbEntity
8
0-0
6
CONTINUOUS
62
4
100
AcDbLine
10
43.060000000000
20
34.270000000000
30
0.0
11
43.860000000000
21
34.270000000000
31
0.0
0
LINE
5
48b
100
AcDbEntity
8
0-0
6
CONTINUOUS
62
4
100
AcDbLine
10
43.060000000000
20
34.430000000000
30
0.0
11
43.860000000000
21
34.430000000000
31
0.0
0
LINE
5
48c
100
AcDbEntity
8
0-0
6
CONTINUOUS
62
4
100
AcDbLine
10
43.060000000000
20
34.910000000000
30
0.0
11
43.860000000000
21
34.910000000000
31
0.0
0
LINE
5
48d
100
AcDbEntity
8
0-0
6
CONTINUOUS
62
4
100
AcDbLine
10
43.060000000000
20
35.390000000000
30
0.0
11
43.860000000000
21
35.390000000000
31
0.0
0
LINE
5
48e
100
AcDbEntity
8
0-0
6
CONTINUOUS
62
4
100
AcDbLine
10
43.060000000000
20
35.550000000000
30
0.0
11
43.860000000000
21
35.550000000000
31
0.0
0
LINE
5
48f
100
AcDbEntity
8
0-0
6
CONTINUOUS
62
4
100
AcDbLine
10
43.060000000000
20
35.710000000000
30
0.0
11
43.860000000000
21
35.710000000000
31
0.0
0
LINE
5
490
100
AcDbEntity
8
0-0
6
CONTINUOUS
62
4
100
AcDbLine
10
43.060000000000
20
35.870000000000
30
0.0
11
43.860000000000
21
35.870000000000
31
0.0
0
LINE
5
491
100
AcDbEntity
8
0-0
6
CONTINUOUS
62
4
100
AcDbLine
10
43.060000000000
20
36.350000000000
30
0.0
11
43.860000000000
21
36.350000000000
31
0.0
0
LINE
5
492
100
AcDbEntity
8
0-0
6
CONTINUOUS
62
4
100
AcDbLine
10
43.060000000000
20
36.190000000000
30
0.0
11
43.860000000000
21
36.190000000000
31
0.0
0
LINE
5
493
100
AcDbEntity
8
0-0
6
CONTINUOUS
62
4
100
AcDbLine
10
43.060000000000
20
36.030000000000
30
0.0
11
43.860000000000
21
36.030000000000
31
0.0
0
LINE
5
494
100
AcDbEntity
8
0-0
6
CONTINUOUS
62
4
100
AcDbLine
10
43.060000000000
20
35.070000000000
30
0.0
11
43.860000000000
21
35.070000000000
31
0.0
0
LINE
5
495
100
AcDbEntity
8
0-0
6
CONTINUOUS
62
4
100
AcDbLine
10
43.060000000000
20
35.230000000000
30
0.0
11
43.860000000000
21
35.230000000000
31
0.0
0
LINE
5
496
100
AcDbEntity
8
0-0
6
CONTINUOUS
62
4
100
AcDbLine
10
43.060000000000
20
34.750000000000
30
0.0
11
43.860000000000
21
34.750000000000
31
0.0
0
LINE
5
497
100
AcDbEntity
8
0-0
6
CONTINUOUS
62
4
100
AcDbLine
10
43.060000000000
20
34.590000000000
30
0.0
11
43.860000000000
21
34.590000000000
31
0.0
0
LINE
5
498
100
AcDbEntity
8
0-0
6
CONTINUOUS
62
4
100
AcDbLine
10
43.060000000000
20
30.430000000000
30
0.0
11
43.860000000000
21
30.430000000000
31
0.0
0
LINE
5
499
100
AcDbEntity
8
0-0
6
CONTINUOUS
62
4
100
AcDbLine
10
43.060000000000
20
30.590000000000
30
0.0
11
43.860000000000
21
30.590000000000
31
0.0
0
LINE
5
49a
100
AcDbEntity
8
0-0
6
CONTINUOUS
62
4
100
AcDbLine
10
42.700000000000
20
36.670000000000
30
0.0
11
43.860000000000
21
36.670000000000
31
0.0
0
LINE
5
49b
100
AcDbEntity
8
0-0
6
CONTINUOUS
62
4
100
AcDbLine
10
42.530000000000
20
36.510000000000
30
0.0
11
43.860000000000
21
36.510000000000
31
0.0
0
LINE
5
49c
100
AcDbEntity
8
0-0
6
CONTINUOUS
62
4
100
AcDbLine
10
38.530000000000
20
32.510000000000
30
0.0
11
39.100000000000
21
32.510000000000
31
0.0
0
LINE
5
49d
100
AcDbEntity
8
0-0
6
CONTINUOUS
62
4
100
AcDbLine
10
38.380000000000
20
32.350000000000
30
0.0
11
38.940000000000
21
32.350000000000
31
0.0
0
LINE
5
49e
100
AcDbEntity
8
0-0
6
CONTINUOUS
62
4
100
AcDbLine
10
38.210000000000
20
32.190000000000
30
0.0
11
38.780000000000
21
32.190000000000
31
0.0
0
LINE
5
49f
100
AcDbEntity
8
0-0
6
CONTINUOUS
62
4
100
AcDbLine
10
38.060000000000
20
32.030000000000
30
0.0
11
38.620000000000
21
32.030000000000
31
0.0
0
LINE
5
4a0
100
AcDbEntity
8
0-0
6
CONTINUOUS
62
4
100
AcDbLine
10
39.180000000000
20
33.150000000000
30
0.0
11
39.740000000000
21
33.150000000000
31
0.0
0
LINE
5
4a1
100
AcDbEntity
8
0-0
6
CONTINUOUS
62
4
100
AcDbLine
10
39.020000000000
20
32.990000000000
30
0.0
11
39.580000000000
21
32.990000000000
31
0.0
0
LINE
5
4a2
100
AcDbEntity
8
0-0
6
CONTINUOUS
62
4
100
AcDbLine
10
38.850000000000
20
32.830000000000
30
0.0
11
39.420000000000
21
32.830000000000
31
0.0
0
LINE
5
4a3
100
AcDbEntity
8
0-0
6
CONTINUOUS
62
4
100
AcDbLine
10
38.690000000000
20
32.670000000000
30
0.0
11
39.260000000000
21
32.670000000000
31
0.0
0
LINE
5
4a4
100
AcDbEntity
8
0-0
6
CONTINUOUS
62
4
100
AcDbLine
10
39.820000000000
20
33.790000000000
30
0.0
11
40.380000000000
21
33.790000000000
31
0.0
0
LINE
5
4a5
100
AcDbEntity
8
0-0
6
CONTINUOUS
62
4
100
AcDbLine
10
39.650000000000
20
33.630000000000
30
0.0
11
40.220000000000
21
33.630000000000
31
0.0
0
LINE
5
4a6
100
AcDbEntity
8
0-0
6
CONTINUOUS
62
4
100
AcDbLine
10
39.490000000000
20
33.470000000000
30
0.0
11
40.060000000000
21
33.470000000000
31
0.0
0
LINE
5
4a7
100
AcDbEntity
8
0-0
6
CONTINUOUS
62
4
100
AcDbLine
10
39.330000000000
20
33.310000000000
30
0.0
11
39.900000000000
21
33.310000000000
31
0.0
0
LINE
5
4a8
100
AcDbEntity
8
0-0
6
CONTINUOUS
62
4
100
AcDbLine
10
40.450000000000
20
34.430000000000
30
0.0
11
41.020000000000
21
34.430000000000
31
0.0
0
LINE
5
4a9
100
AcDbEntity
8
0-0
6
CONTINUOUS
62
4
100
AcDbLine
10
40.300000000000
20
34.270000000000
30
0.0
11
40.860000000000
21
34.270000000000
31
0.0
0
LINE
5
4aa
100
AcDbEntity
8
0-0
6
CONTINUOUS
62
4
100
AcDbLine
10
40.130000000000
20
34.110000000000
30
0.0
11
40.700000000000
21
34.110000000000
31
0.0
0
LINE
5
4ab
100
AcDbEntity
8
0-0
6
CONTINUOUS
62
4
100
AcDbLine
10
39.980000000000
20
33.950000000000
30
0.0
11
40.540000000000
21
33.950000000000
31
0.0
0
LINE
5
4ac
100
AcDbEntity
8
0-0
6
CONTINUOUS
62
4
100
AcDbLine
10
41.100000000000
20
35.070000000000
30
0.0
11
41.660000000000
21
35.070000000000
31
0.0
0
LINE
5
4ad
100
AcDbEntity
8
0-0
6
CONTINUOUS
62
4
100
AcDbLine
10
40.930000000000
20
34.910000000000
30
0.0
11
41.500000000000
21
34.910000000000
31
0.0
0
LINE
5
4ae
100
AcDbEntity
8
0-0
6
CONTINUOUS
62
4
100
AcDbLine
10
40.770000000000
20
34.750000000000
30
0.0
11
41.340000000000
21
34.750000000000
31
0.0
0
LINE
5
4af
100
AcDbEntity
8
0-0
6
CONTINUOUS
62
4
100
AcDbLine
10
40.620000000000
20
34.590000000000
30
0.0
11
41.180000000000
21
34.590000000000
31
0.0
0
LINE
5
4b0
100
AcDbEntity
8
0-0
6
CONTINUOUS
62
4
100
AcDbLine
10
41.730000000000
20
35.710000000000
30
0.0
11
42.300000000000
21
35.710000000000
31
0.0
0
LINE
5
4b1
100
AcDbEntity
8
0-0
6
CONTINUOUS
62
4
100
AcDbLine
10
41.570000000000
20
35.550000000000
30
0.0
11
42.140000000000
21
35.550000000000
31
0.0
0
LINE
5
4b2
100
AcDbEntity
8
0-0
6
CONTINUOUS
62
4
100
AcDbLine
10
41.420000000000
20
35.390000000000
30
0.0
11
41.980000000000
21
35.390000000000
31
0.0
0
LINE
5
4b3
100
AcDbEntity
8
0-0
6
CONTINUOUS
62
4
100
AcDbLine
10
41.260000000000
20
35.230000000000
30
0.0
11
41.820000000000
21
35.230000000000
31
0.0
0
LINE
5
4b4
100
AcDbEntity
8
0-0
6
CONTINUOUS
62
4
100
AcDbLine
10
42.370000000000
20
36.350000000000
30
0.0
11
42.940000000000
21
36.350000000000
31
0.0
0
LINE
5
4b5
100
AcDbEntity
8
0-0
6
CONTINUOUS
62
4
100
AcDbLine
10
42.210000000000
20
36.190000000000
30
0.0
11
42.780000000000
21
36.190000000000
31
0.0
0
LINE
5
4b6
100
AcDbEntity
8
0-0
6
CONTINUOUS
62
4
100
AcDbLine
10
42.050000000000
20
36.030000000000
30
0.0
11
42.620000000000
21
36.030000000000
31
0.0
0
LINE
5
4b7
100
AcDbEntity
8
0-0
6
CONTINUOUS
62
4
100
AcDbLine
10
41.890000000000
20
35.870000000000
30
0.0
11
42.460000000000
21
35.870000000000
31
0.0
0
LINE
5
4b8
100
AcDbEntity
8
0-0
6
CONTINUOUS
62
4
100
AcDbLine
10
43.060000000000
20
32.830000000000
30
0.0
11
43.860000000000
21
32.830000000000
31
0.0
0
LINE
5
4b9
100
AcDbEntity
8
0-0
6
CONTINUOUS
62
2
100
AcDbLine
10
27.380000000000
20
306.630000000000
30
0.0
11
815.820000000000
21
306.630000000000
31
0.0
0
LINE
5
4ba
100
AcDbEntity
8
0-0
6
CONTINUOUS
62
2
100
AcDbLine
10
642.380000000000
20
631.080000000000
30
0.0
11
642.380000000000
21
601.450000000000
31
0.0
0
LINE
5
4bb
100
AcDbEntity
8
0-0
6
CONTINUOUS
62
2
100
AcDbLine
10
607.270000000000
20
631.080000000000
30
0.0
11
607.270000000000
21
601.450000000000
31
0.0
0
LINE
5
4bc
100
AcDbEntity
8
0-0
6
CONTINUOUS
62
2
100
AcDbLine
10
768.560000000000
20
601.450000000000
30
0.0
11
768.560000000000
21
631.080000000000
31
0.0
0
LINE
5
4bd
100
AcDbEntity
8
0-0
6
CONTINUOUS
62
2
100
AcDbLine
10
403.450000000000
20
631.080000000000
30
0.0
11
403.450000000000
21
601.450000000000
31
0.0
0
LINE
5
4be
100
AcDbEntity
8
0-0
6
CONTINUOUS
62
2
100
AcDbLine
10
504.870000000000
20
631.080000000000
30
0.0
11
504.870000000000
21
601.450000000000
31
0.0
0
LINE
5
4bf
100
AcDbEntity
8
0-0
6
CONTINUOUS
62
2
100
AcDbLine
10
403.450000000000
20
621.200000000000
30
0.0
11
184.880000000000
21
621.200000000000
31
0.0
0
LINE
5
4c0
100
AcDbEntity
8
0-0
6
CONTINUOUS
62
2
100
AcDbLine
10
403.450000000000
20
611.330000000000
30
0.0
11
184.880000000000
21
611.330000000000
31
0.0
0
LINE
5
4c1
100
AcDbEntity
8
0-0
6
CONTINUOUS
62
2
100
AcDbLine
10
403.450000000000
20
606.390000000000
30
0.0
11
184.880000000000
21
606.390000000000
31
0.0
0
LINE
5
4c2
100
AcDbEntity
8
0-0
6
CONTINUOUS
62
2
100
AcDbLine
10
403.450000000000
20
626.140000000000
30
0.0
11
184.880000000000
21
626.140000000000
31
0.0
0
LINE
5
4c3
100
AcDbEntity
8
0-0
6
CONTINUOUS
62
2
100
AcDbLine
10
211.210000000000
20
631.080000000000
30
0.0
11
211.210000000000
21
601.450000000000
31
0.0
0
LINE
5
4c4
100
AcDbEntity
8
0-0
6
CONTINUOUS
62
2
100
AcDbLine
10
184.880000000000
20
631.080000000000
30
0.0
11
184.880000000000
21
601.450000000000
31
0.0
0
LINE
5
4c5
100
AcDbEntity
8
0-0
6
CONTINUOUS
62
2
100
AcDbLine
10
815.820000000000
20
601.450000000000
30
0.0
11
815.820000000000
21
1161.450000000000
31
0.0
0
LINE
5
4c6
100
AcDbEntity
8
0-0
6
CONTINUOUS
62
2
100
AcDbLine
10
27.380000000000
20
601.450000000000
30
0.0
11
815.820000000000
21
601.450000000000
31
0.0
0
LINE
5
4c7
100
AcDbEntity
8
0-0
6
CONTINUOUS
62
2
100
AcDbLine
10
815.820000000000
20
631.080000000000
30
0.0
11
27.380000000000
21
631.080000000000
31
0.0
0
LINE
5
4c8
100
AcDbEntity
8
0-0
6
CONTINUOUS
62
2
100
AcDbLine
10
184.880000000000
20
616.270000000000
30
0.0
11
815.820000000000
21
616.270000000000
31
0.0
0
LINE
5
4c9
100
AcDbEntity
8
0-0
6
CONTINUOUS
62
3
100
AcDbLine
10
35.860000000000
20
619.180000000000
30
0.0
11
35.860000000000
21
627.180000000000
31
0.0
0
LINE
5
4ca
100
AcDbEntity
8
0-0
6
CONTINUOUS
62
3
100
AcDbLine
10
35.860000000000
20
627.180000000000
30
0.0
11
43.860000000000
21
627.180000000000
31
0.0
0
LINE
5
4cb
100
AcDbEntity
8
0-0
6
CONTINUOUS
62
3
100
AcDbLine
10
43.860000000000
20
627.180000000000
30
0.0
11
43.860000000000
21
619.180000000000
31
0.0
0
LINE
5
4cc
100
AcDbEntity
8
0-0
6
CONTINUOUS
62
3
100
AcDbLine
10
43.860000000000
20
619.180000000000
30
0.0
11
35.860000000000
21
619.180000000000
31
0.0
0
LINE
5
4cd
100
AcDbEntity
8
0-0
6
CONTINUOUS
62
3
100
AcDbLine
10
36.660000000000
20
620.260000000000
30
0.0
11
36.660000000000
21
626.380000000000
31
0.0
0
LINE
5
4ce
100
AcDbEntity
8
0-0
6
CONTINUOUS
62
3
100
AcDbLine
10
43.060000000000
20
619.980000000000
30
0.0
11
36.940000000000
21
619.980000000000
31
0.0
0
LINE
5
4cf
100
AcDbEntity
8
0-0
6
CONTINUOUS
62
3
100
AcDbLine
10
36.660000000000
20
626.380000000000
30
0.0
11
42.780000000000
21
626.380000000000
31
0.0
0
LINE
5
4d0
100
AcDbEntity
8
0-0
6
CONTINUOUS
62
3
100
AcDbLine
10
42.780000000000
20
626.380000000000
30
0.0
11
36.660000000000
21
620.260000000000
31
0.0
0
LINE
5
4d1
100
AcDbEntity
8
0-0
6
CONTINUOUS
62
3
100
AcDbLine
10
43.060000000000
20
626.100000000000
30
0.0
11
36.940000000000
21
619.980000000000
31
0.0
0
LINE
5
4d2
100
AcDbEntity
8
0-0
6
CONTINUOUS
62
3
100
AcDbLine
10
43.060000000000
20
626.100000000000
30
0.0
11
43.060000000000
21
619.980000000000
31
0.0
0
LINE
5
4d3
100
AcDbEntity
8
0-0
6
CONTINUOUS
62
4
100
AcDbLine
10
35.860000000000
20
627.100000000000
30
0.0
11
43.860000000000
21
627.100000000000
31
0.0
0
LINE
5
4d4
100
AcDbEntity
8
0-0
6
CONTINUOUS
62
4
100
AcDbLine
10
35.860000000000
20
626.940000000000
30
0.0
11
43.860000000000
21
626.940000000000
31
0.0
0
LINE
5
4d5
100
AcDbEntity
8
0-0
6
CONTINUOUS
62
4
100
AcDbLine
10
35.860000000000
20
626.780000000000
30
0.0
11
43.860000000000
21
626.780000000000
31
0.0
0
LINE
5
4d6
100
AcDbEntity
8
0-0
6
CONTINUOUS
62
4
100
AcDbLine
10
35.860000000000
20
626.620000000000
30
0.0
11
43.860000000000
21
626.620000000000
31
0.0
0
LINE
5
4d7
100
AcDbEntity
8
0-0
6
CONTINUOUS
62
4
100
AcDbLine
10
35.860000000000
20
626.460000000000
30
0.0
11
43.860000000000
21
626.460000000000
31
0.0
0
LINE
5
4d8
100
AcDbEntity
8
0-0
6
CONTINUOUS
62
4
100
AcDbLine
10
35.860000000000
20
619.900000000000
30
0.0
11
43.860000000000
21
619.900000000000
31
0.0
0
LINE
5
4d9
100
AcDbEntity
8
0-0
6
CONTINUOUS
62
4
100
AcDbLine
10
35.860000000000
20
619.740000000000
30
0.0
11
43.860000000000
21
619.740000000000
31
0.0
0
LINE
5
4da
100
AcDbEntity
8
0-0
6
CONTINUOUS
62
4
100
AcDbLine
10
35.860000000000
20
619.580000000000
30
0.0
11
43.860000000000
21
619.580000000000
31
0.0
0
LINE
5
4db
100
AcDbEntity
8
0-0
6
CONTINUOUS
62
4
100
AcDbLine
10
35.860000000000
20
619.420000000000
30
0.0
11
43.860000000000
21
619.420000000000
31
0.0
0
LINE
5
4dc
100
AcDbEntity
8
0-0
6
CONTINUOUS
62
4
100
AcDbLine
10
35.860000000000
20
619.260000000000
30
0.0
11
43.860000000000
21
619.260000000000
31
0.0
0
LINE
5
4dd
100
AcDbEntity
8
0-0
6
CONTINUOUS
62
4
100
AcDbLine
10
35.860000000000
20
620.380000000000
30
0.0
11
36.660000000000
21
620.380000000000
31
0.0
0
LINE
5
4de
100
AcDbEntity
8
0-0
6
CONTINUOUS
62
4
100
AcDbLine
10
35.860000000000
20
620.540000000000
30
0.0
11
36.660000000000
21
620.540000000000
31
0.0
0
LINE
5
4df
100
AcDbEntity
8
0-0
6
CONTINUOUS
62
4
100
AcDbLine
10
35.860000000000
20
620.700000000000
30
0.0
11
36.660000000000
21
620.700000000000
31
0.0
0
LINE
5
4e0
100
AcDbEntity
8
0-0
6
CONTINUOUS
62
4
100
AcDbLine
10
35.860000000000
20
620.860000000000
30
0.0
11
36.660000000000
21
620.860000000000
31
0.0
0
LINE
5
4e1
100
AcDbEntity
8
0-0
6
CONTINUOUS
62
4
100
AcDbLine
10
35.860000000000
20
621.020000000000
30
0.0
11
36.660000000000
21
621.020000000000
31
0.0
0
LINE
5
4e2
100
AcDbEntity
8
0-0
6
CONTINUOUS
62
4
100
AcDbLine
10
35.860000000000
20
621.180000000000
30
0.0
11
36.660000000000
21
621.180000000000
31
0.0
0
LINE
5
4e3
100
AcDbEntity
8
0-0
6
CONTINUOUS
62
4
100
AcDbLine
10
35.860000000000
20
621.340000000000
30
0.0
11
36.660000000000
21
621.340000000000
31
0.0
0
LINE
5
4e4
100
AcDbEntity
8
0-0
6
CONTINUOUS
62
4
100
AcDbLine
10
35.860000000000
20
621.500000000000
30
0.0
11
36.660000000000
21
621.500000000000
31
0.0
0
LINE
5
4e5
100
AcDbEntity
8
0-0
6
CONTINUOUS
62
4
100
AcDbLine
10
35.860000000000
20
621.660000000000
30
0.0
11
36.660000000000
21
621.660000000000
31
0.0
0
LINE
5
4e6
100
AcDbEntity
8
0-0
6
CONTINUOUS
62
4
100
AcDbLine
10
35.860000000000
20
621.820000000000
30
0.0
11
36.660000000000
21
621.820000000000
31
0.0
0
LINE
5
4e7
100
AcDbEntity
8
0-0
6
CONTINUOUS
62
4
100
AcDbLine
10
35.860000000000
20
621.980000000000
30
0.0
11
36.660000000000
21
621.980000000000
31
0.0
0
LINE
5
4e8
100
AcDbEntity
8
0-0
6
CONTINUOUS
62
4
100
AcDbLine
10
35.860000000000
20
622.140000000000
30
0.0
11
36.660000000000
21
622.140000000000
31
0.0
0
LINE
5
4e9
100
AcDbEntity
8
0-0
6
CONTINUOUS
62
4
100
AcDbLine
10
35.860000000000
20
622.300000000000
30
0.0
11
36.660000000000
21
622.300000000000
31
0.0
0
LINE
5
4ea
100
AcDbEntity
8
0-0
6
CONTINUOUS
62
4
100
AcDbLine
10
35.860000000000
20
622.460000000000
30
0.0
11
36.660000000000
21
622.460000000000
31
0.0
0
LINE
5
4eb
100
AcDbEntity
8
0-0
6
CONTINUOUS
62
4
100
AcDbLine
10
35.860000000000
20
622.620000000000
30
0.0
11
36.660000000000
21
622.620000000000
31
0.0
0
LINE
5
4ec
100
AcDbEntity
8
0-0
6
CONTINUOUS
62
4
100
AcDbLine
10
35.860000000000
20
622.780000000000
30
0.0
11
36.660000000000
21
622.780000000000
31
0.0
0
LINE
5
4ed
100
AcDbEntity
8
0-0
6
CONTINUOUS
62
4
100
AcDbLine
10
35.860000000000
20
622.940000000000
30
0.0
11
36.660000000000
21
622.940000000000
31
0.0
0
LINE
5
4ee
100
AcDbEntity
8
0-0
6
CONTINUOUS
62
4
100
AcDbLine
10
35.860000000000
20
623.100000000000
30
0.0
11
36.660000000000
21
623.100000000000
31
0.0
0
LINE
5
4ef
100
AcDbEntity
8
0-0
6
CONTINUOUS
62
4
100
AcDbLine
10
35.860000000000
20
623.260000000000
30
0.0
11
36.660000000000
21
623.260000000000
31
0.0
0
LINE
5
4f0
100
AcDbEntity
8
0-0
6
CONTINUOUS
62
4
100
AcDbLine
10
35.860000000000
20
623.420000000000
30
0.0
11
36.660000000000
21
623.420000000000
31
0.0
0
LINE
5
4f1
100
AcDbEntity
8
0-0
6
CONTINUOUS
62
4
100
AcDbLine
10
35.860000000000
20
623.580000000000
30
0.0
11
36.660000000000
21
623.580000000000
31
0.0
0
LINE
5
4f2
100
AcDbEntity
8
0-0
6
CONTINUOUS
62
4
100
AcDbLine
10
35.860000000000
20
623.740000000000
30
0.0
11
36.660000000000
21
623.740000000000
31
0.0
0
LINE
5
4f3
100
AcDbEntity
8
0-0
6
CONTINUOUS
62
4
100
AcDbLine
10
35.860000000000
20
623.900000000000
30
0.0
11
36.660000000000
21
623.900000000000
31
0.0
0
LINE
5
4f4
100
AcDbEntity
8
0-0
6
CONTINUOUS
62
4
100
AcDbLine
10
35.860000000000
20
624.060000000000
30
0.0
11
36.660000000000
21
624.060000000000
31
0.0
0
LINE
5
4f5
100
AcDbEntity
8
0-0
6
CONTINUOUS
62
4
100
AcDbLine
10
35.860000000000
20
624.540000000000
30
0.0
11
36.660000000000
21
624.540000000000
31
0.0
0
LINE
5
4f6
100
AcDbEntity
8
0-0
6
CONTINUOUS
62
4
100
AcDbLine
10
35.860000000000
20
625.020000000000
30
0.0
11
36.660000000000
21
625.020000000000
31
0.0
0
LINE
5
4f7
100
AcDbEntity
8
0-0
6
CONTINUOUS
62
4
100
AcDbLine
10
35.860000000000
20
625.180000000000
30
0.0
11
36.660000000000
21
625.180000000000
31
0.0
0
LINE
5
4f8
100
AcDbEntity
8
0-0
6
CONTINUOUS
62
4
100
AcDbLine
10
35.860000000000
20
625.340000000000
30
0.0
11
36.660000000000
21
625.340000000000
31
0.0
0
LINE
5
4f9
100
AcDbEntity
8
0-0
6
CONTINUOUS
62
4
100
AcDbLine
10
35.860000000000
20
625.500000000000
30
0.0
11
36.660000000000
21
625.500000000000
31
0.0
0
LINE
5
4fa
100
AcDbEntity
8
0-0
6
CONTINUOUS
62
4
100
AcDbLine
10
35.860000000000
20
626.300000000000
30
0.0
11
36.660000000000
21
626.300000000000
31
0.0
0
LINE
5
4fb
100
AcDbEntity
8
0-0
6
CONTINUOUS
62
4
100
AcDbLine
10
35.860000000000
20
626.140000000000
30
0.0
11
36.660000000000
21
626.140000000000
31
0.0
0
LINE
5
4fc
100
AcDbEntity
8
0-0
6
CONTINUOUS
62
4
100
AcDbLine
10
35.860000000000
20
625.980000000000
30
0.0
11
36.660000000000
21
625.980000000000
31
0.0
0
LINE
5
4fd
100
AcDbEntity
8
0-0
6
CONTINUOUS
62
4
100
AcDbLine
10
35.860000000000
20
625.820000000000
30
0.0
11
36.660000000000
21
625.820000000000
31
0.0
0
LINE
5
4fe
100
AcDbEntity
8
0-0
6
CONTINUOUS
62
4
100
AcDbLine
10
35.860000000000
20
625.660000000000
30
0.0
11
36.660000000000
21
625.660000000000
31
0.0
0
LINE
5
4ff
100
AcDbEntity
8
0-0
6
CONTINUOUS
62
4
100
AcDbLine
10
35.860000000000
20
624.700000000000
30
0.0
11
36.660000000000
21
624.700000000000
31
0.0
0
LINE
5
500
100
AcDbEntity
8
0-0
6
CONTINUOUS
62
4
100
AcDbLine
10
35.860000000000
20
624.860000000000
30
0.0
11
36.660000000000
21
624.860000000000
31
0.0
0
LINE
5
501
100
AcDbEntity
8
0-0
6
CONTINUOUS
62
4
100
AcDbLine
10
35.860000000000
20
624.380000000000
30
0.0
11
36.660000000000
21
624.380000000000
31
0.0
0
LINE
5
502
100
AcDbEntity
8
0-0
6
CONTINUOUS
62
4
100
AcDbLine
10
35.860000000000
20
624.220000000000
30
0.0
11
36.660000000000
21
624.220000000000
31
0.0
0
LINE
5
503
100
AcDbEntity
8
0-0
6
CONTINUOUS
62
4
100
AcDbLine
10
36.930000000000
20
620.540000000000
30
0.0
11
37.500000000000
21
620.540000000000
31
0.0
0
LINE
5
504
100
AcDbEntity
8
0-0
6
CONTINUOUS
62
4
100
AcDbLine
10
36.770000000000
20
620.380000000000
30
0.0
11
37.340000000000
21
620.380000000000
31
0.0
0
LINE
5
505
100
AcDbEntity
8
0-0
6
CONTINUOUS
62
4
100
AcDbLine
10
35.860000000000
20
620.220000000000
30
0.0
11
37.180000000000
21
620.220000000000
31
0.0
0
LINE
5
506
100
AcDbEntity
8
0-0
6
CONTINUOUS
62
4
100
AcDbLine
10
35.860000000000
20
620.060000000000
30
0.0
11
37.020000000000
21
620.060000000000
31
0.0
0
LINE
5
507
100
AcDbEntity
8
0-0
6
CONTINUOUS
62
4
100
AcDbLine
10
37.890000000000
20
621.500000000000
30
0.0
11
38.460000000000
21
621.500000000000
31
0.0
0
LINE
5
508
100
AcDbEntity
8
0-0
6
CONTINUOUS
62
4
100
AcDbLine
10
37.730000000000
20
621.340000000000
30
0.0
11
38.300000000000
21
621.340000000000
31
0.0
0
LINE
5
509
100
AcDbEntity
8
0-0
6
CONTINUOUS
62
4
100
AcDbLine
10
37.580000000000
20
621.180000000000
30
0.0
11
38.140000000000
21
621.180000000000
31
0.0
0
LINE
5
50a
100
AcDbEntity
8
0-0
6
CONTINUOUS
62
4
100
AcDbLine
10
37.410000000000
20
621.020000000000
30
0.0
11
37.980000000000
21
621.020000000000
31
0.0
0
LINE
5
50b
100
AcDbEntity
8
0-0
6
CONTINUOUS
62
4
100
AcDbLine
10
37.260000000000
20
620.860000000000
30
0.0
11
37.820000000000
21
620.860000000000
31
0.0
0
LINE
5
50c
100
AcDbEntity
8
0-0
6
CONTINUOUS
62
4
100
AcDbLine
10
37.100000000000
20
620.700000000000
30
0.0
11
37.660000000000
21
620.700000000000
31
0.0
0
LINE
5
50d
100
AcDbEntity
8
0-0
6
CONTINUOUS
62
4
100
AcDbLine
10
36.660000000000
20
626.380000000000
30
0.0
11
36.660000000000
21
626.540000000000
31
0.0
0
LINE
5
50e
100
AcDbEntity
8
0-0
6
CONTINUOUS
62
4
100
AcDbLine
10
43.060000000000
20
620.380000000000
30
0.0
11
43.860000000000
21
620.380000000000
31
0.0
0
LINE
5
50f
100
AcDbEntity
8
0-0
6
CONTINUOUS
62
4
100
AcDbLine
10
43.060000000000
20
620.540000000000
30
0.0
11
43.860000000000
21
620.540000000000
31
0.0
0
LINE
5
510
100
AcDbEntity
8
0-0
6
CONTINUOUS
62
4
100
AcDbLine
10
43.060000000000
20
620.700000000000
30
0.0
11
43.860000000000
21
620.700000000000
31
0.0
0
LINE
5
511
100
AcDbEntity
8
0-0
6
CONTINUOUS
62
4
100
AcDbLine
10
43.060000000000
20
620.860000000000
30
0.0
11
43.860000000000
21
620.860000000000
31
0.0
0
LINE
5
512
100
AcDbEntity
8
0-0
6
CONTINUOUS
62
4
100
AcDbLine
10
43.060000000000
20
621.020000000000
30
0.0
11
43.860000000000
21
621.020000000000
31
0.0
0
LINE
5
513
100
AcDbEntity
8
0-0
6
CONTINUOUS
62
4
100
AcDbLine
10
43.060000000000
20
621.180000000000
30
0.0
11
43.860000000000
21
621.180000000000
31
0.0
0
LINE
5
514
100
AcDbEntity
8
0-0
6
CONTINUOUS
62
4
100
AcDbLine
10
43.060000000000
20
621.340000000000
30
0.0
11
43.860000000000
21
621.340000000000
31
0.0
0
LINE
5
515
100
AcDbEntity
8
0-0
6
CONTINUOUS
62
4
100
AcDbLine
10
43.060000000000
20
621.500000000000
30
0.0
11
43.860000000000
21
621.500000000000
31
0.0
0
LINE
5
516
100
AcDbEntity
8
0-0
6
CONTINUOUS
62
4
100
AcDbLine
10
43.060000000000
20
621.660000000000
30
0.0
11
43.860000000000
21
621.660000000000
31
0.0
0
LINE
5
517
100
AcDbEntity
8
0-0
6
CONTINUOUS
62
4
100
AcDbLine
10
43.060000000000
20
621.820000000000
30
0.0
11
43.860000000000
21
621.820000000000
31
0.0
0
LINE
5
518
100
AcDbEntity
8
0-0
6
CONTINUOUS
62
4
100
AcDbLine
10
43.060000000000
20
621.980000000000
30
0.0
11
43.860000000000
21
621.980000000000
31
0.0
0
LINE
5
519
100
AcDbEntity
8
0-0
6
CONTINUOUS
62
4
100
AcDbLine
10
43.060000000000
20
622.140000000000
30
0.0
11
43.860000000000
21
622.140000000000
31
0.0
0
LINE
5
51a
100
AcDbEntity
8
0-0
6
CONTINUOUS
62
4
100
AcDbLine
10
43.060000000000
20
622.300000000000
30
0.0
11
43.860000000000
21
622.300000000000
31
0.0
0
LINE
5
51b
100
AcDbEntity
8
0-0
6
CONTINUOUS
62
4
100
AcDbLine
10
43.060000000000
20
622.620000000000
30
0.0
11
43.860000000000
21
622.620000000000
31
0.0
0
LINE
5
51c
100
AcDbEntity
8
0-0
6
CONTINUOUS
62
4
100
AcDbLine
10
43.060000000000
20
622.780000000000
30
0.0
11
43.860000000000
21
622.780000000000
31
0.0
0
LINE
5
51d
100
AcDbEntity
8
0-0
6
CONTINUOUS
62
4
100
AcDbLine
10
43.060000000000
20
622.940000000000
30
0.0
11
43.860000000000
21
622.940000000000
31
0.0
0
LINE
5
51e
100
AcDbEntity
8
0-0
6
CONTINUOUS
62
4
100
AcDbLine
10
43.060000000000
20
623.100000000000
30
0.0
11
43.860000000000
21
623.100000000000
31
0.0
0
LINE
5
51f
100
AcDbEntity
8
0-0
6
CONTINUOUS
62
4
100
AcDbLine
10
43.060000000000
20
623.260000000000
30
0.0
11
43.860000000000
21
623.260000000000
31
0.0
0
LINE
5
520
100
AcDbEntity
8
0-0
6
CONTINUOUS
62
4
100
AcDbLine
10
43.060000000000
20
623.420000000000
30
0.0
11
43.860000000000
21
623.420000000000
31
0.0
0
LINE
5
521
100
AcDbEntity
8
0-0
6
CONTINUOUS
62
4
100
AcDbLine
10
43.060000000000
20
623.580000000000
30
0.0
11
43.860000000000
21
623.580000000000
31
0.0
0
LINE
5
522
100
AcDbEntity
8
0-0
6
CONTINUOUS
62
4
100
AcDbLine
10
43.060000000000
20
623.740000000000
30
0.0
11
43.860000000000
21
623.740000000000
31
0.0
0
LINE
5
523
100
AcDbEntity
8
0-0
6
CONTINUOUS
62
4
100
AcDbLine
10
43.060000000000
20
623.900000000000
30
0.0
11
43.860000000000
21
623.900000000000
31
0.0
0
LINE
5
524
100
AcDbEntity
8
0-0
6
CONTINUOUS
62
4
100
AcDbLine
10
43.060000000000
20
624.060000000000
30
0.0
11
43.860000000000
21
624.060000000000
31
0.0
0
LINE
5
525
100
AcDbEntity
8
0-0
6
CONTINUOUS
62
4
100
AcDbLine
10
43.060000000000
20
624.540000000000
30
0.0
11
43.860000000000
21
624.540000000000
31
0.0
0
LINE
5
526
100
AcDbEntity
8
0-0
6
CONTINUOUS
62
4
100
AcDbLine
10
43.060000000000
20
625.020000000000
30
0.0
11
43.860000000000
21
625.020000000000
31
0.0
0
LINE
5
527
100
AcDbEntity
8
0-0
6
CONTINUOUS
62
4
100
AcDbLine
10
43.060000000000
20
625.180000000000
30
0.0
11
43.860000000000
21
625.180000000000
31
0.0
0
LINE
5
528
100
AcDbEntity
8
0-0
6
CONTINUOUS
62
4
100
AcDbLine
10
43.060000000000
20
625.340000000000
30
0.0
11
43.860000000000
21
625.340000000000
31
0.0
0
LINE
5
529
100
AcDbEntity
8
0-0
6
CONTINUOUS
62
4
100
AcDbLine
10
43.060000000000
20
625.500000000000
30
0.0
11
43.860000000000
21
625.500000000000
31
0.0
0
LINE
5
52a
100
AcDbEntity
8
0-0
6
CONTINUOUS
62
4
100
AcDbLine
10
43.060000000000
20
625.980000000000
30
0.0
11
43.860000000000
21
625.980000000000
31
0.0
0
LINE
5
52b
100
AcDbEntity
8
0-0
6
CONTINUOUS
62
4
100
AcDbLine
10
43.060000000000
20
625.820000000000
30
0.0
11
43.860000000000
21
625.820000000000
31
0.0
0
LINE
5
52c
100
AcDbEntity
8
0-0
6
CONTINUOUS
62
4
100
AcDbLine
10
43.060000000000
20
625.660000000000
30
0.0
11
43.860000000000
21
625.660000000000
31
0.0
0
LINE
5
52d
100
AcDbEntity
8
0-0
6
CONTINUOUS
62
4
100
AcDbLine
10
43.060000000000
20
624.700000000000
30
0.0
11
43.860000000000
21
624.700000000000
31
0.0
0
LINE
5
52e
100
AcDbEntity
8
0-0
6
CONTINUOUS
62
4
100
AcDbLine
10
43.060000000000
20
624.860000000000
30
0.0
11
43.860000000000
21
624.860000000000
31
0.0
0
LINE
5
52f
100
AcDbEntity
8
0-0
6
CONTINUOUS
62
4
100
AcDbLine
10
43.060000000000
20
624.380000000000
30
0.0
11
43.860000000000
21
624.380000000000
31
0.0
0
LINE
5
530
100
AcDbEntity
8
0-0
6
CONTINUOUS
62
4
100
AcDbLine
10
43.060000000000
20
624.220000000000
30
0.0
11
43.860000000000
21
624.220000000000
31
0.0
0
LINE
5
531
100
AcDbEntity
8
0-0
6
CONTINUOUS
62
4
100
AcDbLine
10
43.060000000000
20
620.060000000000
30
0.0
11
43.860000000000
21
620.060000000000
31
0.0
0
LINE
5
532
100
AcDbEntity
8
0-0
6
CONTINUOUS
62
4
100
AcDbLine
10
43.060000000000
20
620.220000000000
30
0.0
11
43.860000000000
21
620.220000000000
31
0.0
0
LINE
5
533
100
AcDbEntity
8
0-0
6
CONTINUOUS
62
4
100
AcDbLine
10
42.700000000000
20
626.300000000000
30
0.0
11
43.860000000000
21
626.300000000000
31
0.0
0
LINE
5
534
100
AcDbEntity
8
0-0
6
CONTINUOUS
62
4
100
AcDbLine
10
42.530000000000
20
626.140000000000
30
0.0
11
43.860000000000
21
626.140000000000
31
0.0
0
LINE
5
535
100
AcDbEntity
8
0-0
6
CONTINUOUS
62
4
100
AcDbLine
10
38.530000000000
20
622.140000000000
30
0.0
11
39.100000000000
21
622.140000000000
31
0.0
0
LINE
5
536
100
AcDbEntity
8
0-0
6
CONTINUOUS
62
4
100
AcDbLine
10
38.380000000000
20
621.980000000000
30
0.0
11
38.940000000000
21
621.980000000000
31
0.0
0
LINE
5
537
100
AcDbEntity
8
0-0
6
CONTINUOUS
62
4
100
AcDbLine
10
38.210000000000
20
621.820000000000
30
0.0
11
38.780000000000
21
621.820000000000
31
0.0
0
LINE
5
538
100
AcDbEntity
8
0-0
6
CONTINUOUS
62
4
100
AcDbLine
10
38.060000000000
20
621.660000000000
30
0.0
11
38.620000000000
21
621.660000000000
31
0.0
0
LINE
5
539
100
AcDbEntity
8
0-0
6
CONTINUOUS
62
4
100
AcDbLine
10
39.180000000000
20
622.780000000000
30
0.0
11
39.740000000000
21
622.780000000000
31
0.0
0
LINE
5
53a
100
AcDbEntity
8
0-0
6
CONTINUOUS
62
4
100
AcDbLine
10
39.020000000000
20
622.620000000000
30
0.0
11
39.580000000000
21
622.620000000000
31
0.0
0
LINE
5
53b
100
AcDbEntity
8
0-0
6
CONTINUOUS
62
4
100
AcDbLine
10
38.850000000000
20
622.460000000000
30
0.0
11
39.420000000000
21
622.460000000000
31
0.0
0
LINE
5
53c
100
AcDbEntity
8
0-0
6
CONTINUOUS
62
4
100
AcDbLine
10
38.690000000000
20
622.300000000000
30
0.0
11
39.260000000000
21
622.300000000000
31
0.0
0
LINE
5
53d
100
AcDbEntity
8
0-0
6
CONTINUOUS
62
4
100
AcDbLine
10
39.820000000000
20
623.420000000000
30
0.0
11
40.380000000000
21
623.420000000000
31
0.0
0
LINE
5
53e
100
AcDbEntity
8
0-0
6
CONTINUOUS
62
4
100
AcDbLine
10
39.650000000000
20
623.260000000000
30
0.0
11
40.220000000000
21
623.260000000000
31
0.0
0
LINE
5
53f
100
AcDbEntity
8
0-0
6
CONTINUOUS
62
4
100
AcDbLine
10
39.500000000000
20
623.100000000000
30
0.0
11
40.060000000000
21
623.100000000000
31
0.0
0
LINE
5
540
100
AcDbEntity
8
0-0
6
CONTINUOUS
62
4
100
AcDbLine
10
39.330000000000
20
622.940000000000
30
0.0
11
39.900000000000
21
622.940000000000
31
0.0
0
LINE
5
541
100
AcDbEntity
8
0-0
6
CONTINUOUS
62
4
100
AcDbLine
10
40.450000000000
20
624.060000000000
30
0.0
11
41.020000000000
21
624.060000000000
31
0.0
0
LINE
5
542
100
AcDbEntity
8
0-0
6
CONTINUOUS
62
4
100
AcDbLine
10
40.300000000000
20
623.900000000000
30
0.0
11
40.860000000000
21
623.900000000000
31
0.0
0
LINE
5
543
100
AcDbEntity
8
0-0
6
CONTINUOUS
62
4
100
AcDbLine
10
40.130000000000
20
623.740000000000
30
0.0
11
40.700000000000
21
623.740000000000
31
0.0
0
LINE
5
544
100
AcDbEntity
8
0-0
6
CONTINUOUS
62
4
100
AcDbLine
10
39.980000000000
20
623.580000000000
30
0.0
11
40.540000000000
21
623.580000000000
31
0.0
0
LINE
5
545
100
AcDbEntity
8
0-0
6
CONTINUOUS
62
4
100
AcDbLine
10
41.100000000000
20
624.700000000000
30
0.0
11
41.660000000000
21
624.700000000000
31
0.0
0
LINE
5
546
100
AcDbEntity
8
0-0
6
CONTINUOUS
62
4
100
AcDbLine
10
40.930000000000
20
624.540000000000
30
0.0
11
41.500000000000
21
624.540000000000
31
0.0
0
LINE
5
547
100
AcDbEntity
8
0-0
6
CONTINUOUS
62
4
100
AcDbLine
10
40.780000000000
20
624.380000000000
30
0.0
11
41.340000000000
21
624.380000000000
31
0.0
0
LINE
5
548
100
AcDbEntity
8
0-0
6
CONTINUOUS
62
4
100
AcDbLine
10
40.620000000000
20
624.220000000000
30
0.0
11
41.180000000000
21
624.220000000000
31
0.0
0
LINE
5
549
100
AcDbEntity
8
0-0
6
CONTINUOUS
62
4
100
AcDbLine
10
41.740000000000
20
625.340000000000
30
0.0
11
42.300000000000
21
625.340000000000
31
0.0
0
LINE
5
54a
100
AcDbEntity
8
0-0
6
CONTINUOUS
62
4
100
AcDbLine
10
41.570000000000
20
625.180000000000
30
0.0
11
42.140000000000
21
625.180000000000
31
0.0
0
LINE
5
54b
100
AcDbEntity
8
0-0
6
CONTINUOUS
62
4
100
AcDbLine
10
41.420000000000
20
625.020000000000
30
0.0
11
41.980000000000
21
625.020000000000
31
0.0
0
LINE
5
54c
100
AcDbEntity
8
0-0
6
CONTINUOUS
62
4
100
AcDbLine
10
41.260000000000
20
624.860000000000
30
0.0
11
41.820000000000
21
624.860000000000
31
0.0
0
LINE
5
54d
100
AcDbEntity
8
0-0
6
CONTINUOUS
62
4
100
AcDbLine
10
42.370000000000
20
625.980000000000
30
0.0
11
42.940000000000
21
625.980000000000
31
0.0
0
LINE
5
54e
100
AcDbEntity
8
0-0
6
CONTINUOUS
62
4
100
AcDbLine
10
42.210000000000
20
625.820000000000
30
0.0
11
42.780000000000
21
625.820000000000
31
0.0
0
LINE
5
54f
100
AcDbEntity
8
0-0
6
CONTINUOUS
62
4
100
AcDbLine
10
42.060000000000
20
625.660000000000
30
0.0
11
42.620000000000
21
625.660000000000
31
0.0
0
LINE
5
550
100
AcDbEntity
8
0-0
6
CONTINUOUS
62
4
100
AcDbLine
10
41.900000000000
20
625.500000000000
30
0.0
11
42.460000000000
21
625.500000000000
31
0.0
0
LINE
5
551
100
AcDbEntity
8
0-0
6
CONTINUOUS
62
4
100
AcDbLine
10
43.060000000000
20
622.460000000000
30
0.0
11
43.860000000000
21
622.460000000000
31
0.0
0
LINE
5
552
100
AcDbEntity
8
0-0
6
CONTINUOUS
62
2
100
AcDbLine
10
27.380000000000
20
601.450000000000
30
0.0
11
27.380000000000
21
1161.450000000000
31
0.0
0
LINE
5
553
100
AcDbEntity
8
0-0
6
CONTINUOUS
62
2
100
AcDbLine
10
815.820000000000
20
1161.450000000000
30
0.0
11
27.380000000000
21
1161.450000000000
31
0.0
0
LINE
5
554
100
AcDbEntity
8
0-0
6
CONTINUOUS
62
4
100
AcDbLine
10
653.340000000000
20
875.410000000000
30
0.0
11
664.340000000000
21
875.410000000000
31
0.0
0
LINE
5
555
100
AcDbEntity
8
0-0
6
CONTINUOUS
62
4
100
AcDbLine
10
653.340000000000
20
865.410000000000
30
0.0
11
653.340000000000
21
875.410000000000
31
0.0
0
LINE
5
556
100
AcDbEntity
8
0-0
6
CONTINUOUS
62
4
100
AcDbLine
10
664.340000000000
20
865.410000000000
30
0.0
11
664.340000000000
21
875.410000000000
31
0.0
0
LINE
5
557
100
AcDbEntity
8
0-0
6
CONTINUOUS
62
4
100
AcDbLine
10
640.340000000000
20
842.370000000000
30
0.0
11
630.340000000000
21
842.370000000000
31
0.0
0
LINE
5
558
100
AcDbEntity
8
0-0
6
CONTINUOUS
62
4
100
AcDbLine
10
640.340000000000
20
835.910000000000
30
0.0
11
620.340000000000
21
835.910000000000
31
0.0
0
LINE
5
559
100
AcDbEntity
8
0-0
6
CONTINUOUS
62
4
100
AcDbLine
10
764.340000000000
20
746.030000000000
30
0.0
11
764.340000000000
21
756.030000000000
31
0.0
0
LINE
5
55a
100
AcDbEntity
8
0-0
6
CONTINUOUS
62
4
100
AcDbLine
10
444.680000000000
20
854.910000000000
30
0.0
11
434.680000000000
21
854.910000000000
31
0.0
0
LINE
5
55b
100
AcDbEntity
8
0-0
6
CONTINUOUS
62
4
100
AcDbLine
10
458.680000000000
20
865.410000000000
30
0.0
11
458.680000000000
21
875.410000000000
31
0.0
0
LINE
5
55c
100
AcDbEntity
8
0-0
6
CONTINUOUS
62
4
100
AcDbLine
10
458.680000000000
20
875.410000000000
30
0.0
11
558.680000000000
21
875.410000000000
31
0.0
0
LINE
5
55d
100
AcDbEntity
8
0-0
6
CONTINUOUS
62
4
100
AcDbLine
10
558.680000000000
20
865.410000000000
30
0.0
11
558.680000000000
21
875.410000000000
31
0.0
0
LINE
5
55e
100
AcDbEntity
8
0-0
6
CONTINUOUS
62
3
100
AcDbLine
10
459.180000000000
20
854.910000000000
30
0.0
11
557.050000000000
21
854.910000000000
31
0.0
0
LINE
5
55f
100
AcDbEntity
8
0-0
6
CONTINUOUS
62
3
100
AcDbLine
10
458.680000000000
20
854.410000000000
30
0.0
11
458.680000000000
21
756.530000000000
31
0.0
0
LINE
5
560
100
AcDbEntity
8
0-0
6
CONTINUOUS
62
3
100
AcDbLine
10
459.180000000000
20
855.410000000000
30
0.0
11
557.050000000000
21
855.410000000000
31
0.0
0
LINE
5
561
100
AcDbEntity
8
0-0
6
CONTINUOUS
62
3
100
AcDbLine
10
458.180000000000
20
756.530000000000
30
0.0
11
458.180000000000
21
854.410000000000
31
0.0
0
LINE
5
562
100
AcDbEntity
8
0-0
6
CONTINUOUS
62
4
100
AcDbLine
10
434.680000000000
20
755.030000000000
30
0.0
11
434.680000000000
21
854.910000000000
31
0.0
0
LINE
5
563
100
AcDbEntity
8
0-0
6
CONTINUOUS
62
4
100
AcDbLine
10
469.180000000000
20
715.530000000000
30
0.0
11
458.180000000000
21
715.530000000000
31
0.0
0
LINE
5
564
100
AcDbEntity
8
0-0
6
CONTINUOUS
62
4
100
AcDbLine
10
469.180000000000
20
725.530000000000
30
0.0
11
469.180000000000
21
715.530000000000
31
0.0
0
LINE
5
565
100
AcDbEntity
8
0-0
6
CONTINUOUS
62
4
100
AcDbLine
10
458.180000000000
20
725.530000000000
30
0.0
11
458.180000000000
21
715.530000000000
31
0.0
0
LINE
5
566
100
AcDbEntity
8
0-0
6
CONTINUOUS
62
4
100
AcDbLine
10
664.340000000000
20
756.030000000000
30
0.0
11
764.340000000000
21
756.030000000000
31
0.0
0
LINE
5
567
100
AcDbEntity
8
0-0
6
CONTINUOUS
62
3
100
AcDbLine
10
664.840000000000
20
736.030000000000
30
0.0
11
762.720000000000
21
736.030000000000
31
0.0
0
LINE
5
568
100
AcDbEntity
8
0-0
6
CONTINUOUS
62
3
100
AcDbLine
10
664.340000000000
20
736.530000000000
30
0.0
11
664.340000000000
21
834.410000000000
31
0.0
0
LINE
5
569
100
AcDbEntity
8
0-0
6
CONTINUOUS
62
3
100
AcDbLine
10
663.840000000000
20
736.530000000000
30
0.0
11
663.840000000000
21
834.410000000000
31
0.0
0
LINE
5
56a
100
AcDbEntity
8
0-0
6
CONTINUOUS
62
3
100
AcDbLine
10
762.720000000000
20
735.530000000000
30
0.0
11
664.840000000000
21
735.530000000000
31
0.0
0
LINE
5
56b
100
AcDbEntity
8
0-0
6
CONTINUOUS
62
4
100
AcDbLine
10
640.340000000000
20
736.030000000000
30
0.0
11
630.340000000000
21
736.030000000000
31
0.0
0
LINE
5
56c
100
AcDbEntity
8
0-0
6
CONTINUOUS
62
3
100
AcDbLine
10
147.580000000000
20
459.780000000000
30
0.0
11
153.080000000000
21
459.780000000000
31
0.0
0
LINE
5
56d
100
AcDbEntity
8
0-0
6
CONTINUOUS
62
3
100
AcDbLine
10
133.950000000000
20
458.800000000000
30
0.0
11
134.080000000000
21
458.320000000000
31
0.0
0
LINE
5
56e
100
AcDbEntity
8
0-0
6
CONTINUOUS
62
3
100
AcDbLine
10
147.680000000000
20
459.280000000000
30
0.0
11
153.080000000000
21
459.280000000000
31
0.0
0
LINE
5
56f
100
AcDbEntity
8
0-0
6
CONTINUOUS
62
4
100
AcDbLine
10
137.450000000000
20
446.780000000000
30
0.0
11
137.450000000000
21
436.780000000000
31
0.0
0
LINE
5
570
100
AcDbEntity
8
0-0
6
CONTINUOUS
62
3
100
AcDbLine
10
459.680000000000
20
755.530000000000
30
0.0
11
468.180000000000
21
755.530000000000
31
0.0
0
LINE
5
571
100
AcDbEntity
8
0-0
6
CONTINUOUS
62
3
100
AcDbLine
10
468.180000000000
20
755.030000000000
30
0.0
11
459.680000000000
21
755.030000000000
31
0.0
0
LINE
5
572
100
AcDbEntity
8
0-0
6
CONTINUOUS
62
4
100
AcDbLine
10
482.180000000000
20
745.030000000000
30
0.0
11
492.180000000000
21
745.030000000000
31
0.0
0
LINE
5
573
100
AcDbEntity
8
0-0
6
CONTINUOUS
62
4
100
AcDbLine
10
492.180000000000
20
745.030000000000
30
0.0
11
502.180000000000
21
745.030000000000
31
0.0
0
LINE
5
574
100
AcDbEntity
8
0-0
6
CONTINUOUS
62
4
100
AcDbLine
10
482.180000000000
20
755.530000000000
30
0.0
11
502.180000000000
21
755.530000000000
31
0.0
0
LINE
5
575
100
AcDbEntity
8
0-0
6
CONTINUOUS
62
3
100
AcDbLine
10
469.180000000000
20
748.530000000000
30
0.0
11
469.180000000000
21
754.030000000000
31
0.0
0
LINE
5
576
100
AcDbEntity
8
0-0
6
CONTINUOUS
62
3
100
AcDbLine
10
470.160000000000
20
745.030000000000
30
0.0
11
470.640000000000
21
745.160000000000
31
0.0
0
LINE
5
577
100
AcDbEntity
8
0-0
6
CONTINUOUS
62
3
100
AcDbLine
10
470.160000000000
20
745.030000000000
30
0.0
11
469.180000000000
21
748.570000000000
31
0.0
0
LINE
5
578
100
AcDbEntity
8
0-0
6
CONTINUOUS
62
3
100
AcDbLine
10
469.180000000000
20
748.570000000000
30
0.0
11
469.180000000000
21
754.030000000000
31
0.0
0
LINE
5
579
100
AcDbEntity
8
0-0
6
CONTINUOUS
62
3
100
AcDbLine
10
469.680000000000
20
748.630000000000
30
0.0
11
469.680000000000
21
754.030000000000
31
0.0
0
LINE
5
57a
100
AcDbEntity
8
0-0
6
CONTINUOUS
62
3
100
AcDbLine
10
469.680000000000
20
748.630000000000
30
0.0
11
469.680000000000
21
754.030000000000
31
0.0
0
LINE
5
57b
100
AcDbEntity
8
0-0
6
CONTINUOUS
62
3
100
AcDbLine
10
470.640000000000
20
745.160000000000
30
0.0
11
469.680000000000
21
748.630000000000
31
0.0
0
LINE
5
57c
100
AcDbEntity
8
0-0
6
CONTINUOUS
62
4
100
AcDbLine
10
492.180000000000
20
745.030000000000
30
0.0
11
492.180000000000
21
755.530000000000
31
0.0
0
LINE
5
57d
100
AcDbEntity
8
0-0
6
CONTINUOUS
62
4
100
AcDbLine
10
502.180000000000
20
745.030000000000
30
0.0
11
502.180000000000
21
755.530000000000
31
0.0
0
LINE
5
57e
100
AcDbEntity
8
0-0
6
CONTINUOUS
62
4
100
AcDbLine
10
482.180000000000
20
748.530000000000
30
0.0
11
492.180000000000
21
748.530000000000
31
0.0
0
LINE
5
57f
100
AcDbEntity
8
0-0
6
CONTINUOUS
62
4
100
AcDbLine
10
444.680000000000
20
755.030000000000
30
0.0
11
434.680000000000
21
755.030000000000
31
0.0
0
LINE
5
580
100
AcDbEntity
8
0-0
6
CONTINUOUS
62
3
100
AcDbLine
10
662.840000000000
20
835.410000000000
30
0.0
11
654.340000000000
21
835.410000000000
31
0.0
0
LINE
5
581
100
AcDbEntity
8
0-0
6
CONTINUOUS
62
3
100
AcDbLine
10
654.340000000000
20
835.910000000000
30
0.0
11
662.840000000000
21
835.910000000000
31
0.0
0
LINE
5
582
100
AcDbEntity
8
0-0
6
CONTINUOUS
62
3
100
AcDbLine
10
653.340000000000
20
842.410000000000
30
0.0
11
653.340000000000
21
836.910000000000
31
0.0
0
LINE
5
583
100
AcDbEntity
8
0-0
6
CONTINUOUS
62
3
100
AcDbLine
10
652.360000000000
20
845.910000000000
30
0.0
11
651.880000000000
21
845.770000000000
31
0.0
0
LINE
5
584
100
AcDbEntity
8
0-0
6
CONTINUOUS
62
3
100
AcDbLine
10
652.360000000000
20
845.910000000000
30
0.0
11
653.340000000000
21
842.370000000000
31
0.0
0
LINE
5
585
100
AcDbEntity
8
0-0
6
CONTINUOUS
62
3
100
AcDbLine
10
653.340000000000
20
842.370000000000
30
0.0
11
653.340000000000
21
836.910000000000
31
0.0
0
LINE
5
586
100
AcDbEntity
8
0-0
6
CONTINUOUS
62
3
100
AcDbLine
10
652.840000000000
20
842.300000000000
30
0.0
11
652.840000000000
21
836.910000000000
31
0.0
0
LINE
5
587
100
AcDbEntity
8
0-0
6
CONTINUOUS
62
3
100
AcDbLine
10
652.840000000000
20
842.300000000000
30
0.0
11
652.840000000000
21
836.910000000000
31
0.0
0
LINE
5
588
100
AcDbEntity
8
0-0
6
CONTINUOUS
62
3
100
AcDbLine
10
651.880000000000
20
845.770000000000
30
0.0
11
652.840000000000
21
842.300000000000
31
0.0
0
LINE
5
589
100
AcDbEntity
8
0-0
6
CONTINUOUS
62
4
100
AcDbLine
10
640.340000000000
20
845.910000000000
30
0.0
11
620.340000000000
21
845.910000000000
31
0.0
0
LINE
5
58a
100
AcDbEntity
8
0-0
6
CONTINUOUS
62
4
100
AcDbLine
10
620.340000000000
20
845.910000000000
30
0.0
11
620.340000000000
21
835.910000000000
31
0.0
0
LINE
5
58b
100
AcDbEntity
8
0-0
6
CONTINUOUS
62
4
100
AcDbLine
10
630.340000000000
20
845.910000000000
30
0.0
11
630.340000000000
21
736.030000000000
31
0.0
0
LINE
5
58c
100
AcDbEntity
8
0-0
6
CONTINUOUS
62
4
100
AcDbLine
10
114.580000000000
20
358.750000000000
30
0.0
11
114.580000000000
21
369.750000000000
31
0.0
0
LINE
5
58d
100
AcDbEntity
8
0-0
6
CONTINUOUS
62
4
100
AcDbLine
10
124.580000000000
20
358.750000000000
30
0.0
11
114.580000000000
21
358.750000000000
31
0.0
0
LINE
5
58e
100
AcDbEntity
8
0-0
6
CONTINUOUS
62
4
100
AcDbLine
10
124.580000000000
20
369.750000000000
30
0.0
11
114.580000000000
21
369.750000000000
31
0.0
0
LINE
5
58f
100
AcDbEntity
8
0-0
6
CONTINUOUS
62
4
100
AcDbLine
10
388.830000000000
20
355.750000000000
30
0.0
11
388.830000000000
21
369.750000000000
31
0.0
0
LINE
5
590
100
AcDbEntity
8
0-0
6
CONTINUOUS
62
4
100
AcDbLine
10
378.830000000000
20
355.750000000000
30
0.0
11
388.830000000000
21
355.750000000000
31
0.0
0
LINE
5
591
100
AcDbEntity
8
0-0
6
CONTINUOUS
62
4
100
AcDbLine
10
378.830000000000
20
369.750000000000
30
0.0
11
388.830000000000
21
369.750000000000
31
0.0
0
LINE
5
592
100
AcDbEntity
8
0-0
6
CONTINUOUS
62
4
100
AcDbLine
10
153.950000000000
20
379.750000000000
30
0.0
11
153.950000000000
21
389.750000000000
31
0.0
0
LINE
5
593
100
AcDbEntity
8
0-0
6
CONTINUOUS
62
4
100
AcDbLine
10
353.950000000000
20
379.750000000000
30
0.0
11
353.950000000000
21
389.750000000000
31
0.0
0
LINE
5
594
100
AcDbEntity
8
0-0
6
CONTINUOUS
62
4
100
AcDbLine
10
153.950000000000
20
389.750000000000
30
0.0
11
353.950000000000
21
389.750000000000
31
0.0
0
LINE
5
595
100
AcDbEntity
8
0-0
6
CONTINUOUS
62
4
100
AcDbLine
10
486.950000000000
20
389.750000000000
30
0.0
11
686.950000000000
21
389.750000000000
31
0.0
0
LINE
5
596
100
AcDbEntity
8
0-0
6
CONTINUOUS
62
3
100
AcDbLine
10
278.120000000000
20
369.040000000000
30
0.0
11
278.390000000000
21
369.310000000000
31
0.0
0
LINE
5
597
100
AcDbEntity
8
0-0
6
CONTINUOUS
62
3
100
AcDbLine
10
278.740000000000
20
368.950000000000
30
0.0
11
278.470000000000
21
368.690000000000
31
0.0
0
LINE
5
598
100
AcDbEntity
8
0-0
6
CONTINUOUS
62
3
100
AcDbLine
10
277.410000000000
20
368.750000000000
30
0.0
11
253.830000000000
21
368.750000000000
31
0.0
0
LINE
5
599
100
AcDbEntity
8
0-0
6
CONTINUOUS
62
3
100
AcDbLine
10
253.830000000000
20
368.250000000000
30
0.0
11
277.410000000000
21
368.250000000000
31
0.0
0
LINE
5
59a
100
AcDbEntity
8
0-0
6
CONTINUOUS
62
3
100
AcDbLine
10
229.530000000000
20
369.040000000000
30
0.0
11
229.260000000000
21
369.310000000000
31
0.0
0
LINE
5
59b
100
AcDbEntity
8
0-0
6
CONTINUOUS
62
3
100
AcDbLine
10
228.910000000000
20
368.950000000000
30
0.0
11
229.180000000000
21
368.690000000000
31
0.0
0
LINE
5
59c
100
AcDbEntity
8
0-0
6
CONTINUOUS
62
3
100
AcDbLine
10
230.240000000000
20
368.750000000000
30
0.0
11
253.830000000000
21
368.750000000000
31
0.0
0
LINE
5
59d
100
AcDbEntity
8
0-0
6
CONTINUOUS
62
3
100
AcDbLine
10
253.830000000000
20
368.250000000000
30
0.0
11
230.240000000000
21
368.250000000000
31
0.0
0
LINE
5
59e
100
AcDbEntity
8
0-0
6
CONTINUOUS
62
4
100
AcDbLine
10
228.830000000000
20
345.750000000000
30
0.0
11
278.830000000000
21
345.750000000000
31
0.0
0
LINE
5
59f
100
AcDbEntity
8
0-0
6
CONTINUOUS
62
4
100
AcDbLine
10
228.830000000000
20
355.750000000000
30
0.0
11
228.830000000000
21
345.750000000000
31
0.0
0
LINE
5
5a0
100
AcDbEntity
8
0-0
6
CONTINUOUS
62
4
100
AcDbLine
10
278.830000000000
20
355.750000000000
30
0.0
11
278.830000000000
21
345.750000000000
31
0.0
0
LINE
5
5a1
100
AcDbEntity
8
0-0
6
CONTINUOUS
62
3
100
AcDbLine
10
155.580000000000
20
369.750000000000
30
0.0
11
228.200000000000
21
369.750000000000
31
0.0
0
LINE
5
5a2
100
AcDbEntity
8
0-0
6
CONTINUOUS
62
3
100
AcDbLine
10
228.200000000000
20
369.250000000000
30
0.0
11
155.580000000000
21
369.250000000000
31
0.0
0
LINE
5
5a3
100
AcDbEntity
8
0-0
6
CONTINUOUS
62
3
100
AcDbLine
10
279.450000000000
20
369.750000000000
30
0.0
11
352.330000000000
21
369.750000000000
31
0.0
0
LINE
5
5a4
100
AcDbEntity
8
0-0
6
CONTINUOUS
62
3
100
AcDbLine
10
352.330000000000
20
369.250000000000
30
0.0
11
279.450000000000
21
369.250000000000
31
0.0
0
LINE
5
5a5
100
AcDbEntity
8
0-0
6
CONTINUOUS
62
3
100
AcDbLine
10
611.120000000000
20
369.040000000000
30
0.0
11
611.390000000000
21
369.310000000000
31
0.0
0
LINE
5
5a6
100
AcDbEntity
8
0-0
6
CONTINUOUS
62
3
100
AcDbLine
10
611.740000000000
20
368.950000000000
30
0.0
11
611.470000000000
21
368.690000000000
31
0.0
0
LINE
5
5a7
100
AcDbEntity
8
0-0
6
CONTINUOUS
62
3
100
AcDbLine
10
610.410000000000
20
368.750000000000
30
0.0
11
586.820000000000
21
368.750000000000
31
0.0
0
LINE
5
5a8
100
AcDbEntity
8
0-0
6
CONTINUOUS
62
3
100
AcDbLine
10
586.820000000000
20
368.250000000000
30
0.0
11
610.410000000000
21
368.250000000000
31
0.0
0
LINE
5
5a9
100
AcDbEntity
8
0-0
6
CONTINUOUS
62
3
100
AcDbLine
10
562.530000000000
20
369.040000000000
30
0.0
11
562.260000000000
21
369.310000000000
31
0.0
0
LINE
5
5aa
100
AcDbEntity
8
0-0
6
CONTINUOUS
62
3
100
AcDbLine
10
561.910000000000
20
368.950000000000
30
0.0
11
562.180000000000
21
368.690000000000
31
0.0
0
LINE
5
5ab
100
AcDbEntity
8
0-0
6
CONTINUOUS
62
3
100
AcDbLine
10
563.240000000000
20
368.750000000000
30
0.0
11
586.820000000000
21
368.750000000000
31
0.0
0
LINE
5
5ac
100
AcDbEntity
8
0-0
6
CONTINUOUS
62
3
100
AcDbLine
10
586.820000000000
20
368.250000000000
30
0.0
11
563.240000000000
21
368.250000000000
31
0.0
0
LINE
5
5ad
100
AcDbEntity
8
0-0
6
CONTINUOUS
62
4
100
AcDbLine
10
561.820000000000
20
345.750000000000
30
0.0
11
611.820000000000
21
345.750000000000
31
0.0
0
LINE
5
5ae
100
AcDbEntity
8
0-0
6
CONTINUOUS
62
4
100
AcDbLine
10
561.820000000000
20
355.750000000000
30
0.0
11
561.820000000000
21
345.750000000000
31
0.0
0
LINE
5
5af
100
AcDbEntity
8
0-0
6
CONTINUOUS
62
4
100
AcDbLine
10
611.820000000000
20
355.750000000000
30
0.0
11
611.820000000000
21
345.750000000000
31
0.0
0
LINE
5
5b0
100
AcDbEntity
8
0-0
6
CONTINUOUS
62
3
100
AcDbLine
10
488.580000000000
20
369.750000000000
30
0.0
11
561.200000000000
21
369.750000000000
31
0.0
0
LINE
5
5b1
100
AcDbEntity
8
0-0
6
CONTINUOUS
62
3
100
AcDbLine
10
561.200000000000
20
369.250000000000
30
0.0
11
488.580000000000
21
369.250000000000
31
0.0
0
LINE
5
5b2
100
AcDbEntity
8
0-0
6
CONTINUOUS
62
3
100
AcDbLine
10
612.450000000000
20
369.750000000000
30
0.0
11
685.320000000000
21
369.750000000000
31
0.0
0
LINE
5
5b3
100
AcDbEntity
8
0-0
6
CONTINUOUS
62
3
100
AcDbLine
10
685.320000000000
20
369.250000000000
30
0.0
11
612.450000000000
21
369.250000000000
31
0.0
0
LINE
5
5b4
100
AcDbEntity
8
0-0
6
CONTINUOUS
62
3
100
AcDbLine
10
487.580000000000
20
204.100000000000
30
0.0
11
487.580000000000
21
195.600000000000
31
0.0
0
LINE
5
5b5
100
AcDbEntity
8
0-0
6
CONTINUOUS
62
3
100
AcDbLine
10
487.080000000000
20
195.600000000000
30
0.0
11
487.080000000000
21
204.100000000000
31
0.0
0
LINE
5
5b6
100
AcDbEntity
8
0-0
6
CONTINUOUS
62
3
100
AcDbLine
10
154.580000000000
20
204.100000000000
30
0.0
11
154.580000000000
21
195.600000000000
31
0.0
0
LINE
5
5b7
100
AcDbEntity
8
0-0
6
CONTINUOUS
62
3
100
AcDbLine
10
154.080000000000
20
195.600000000000
30
0.0
11
154.080000000000
21
204.100000000000
31
0.0
0
LINE
5
5b8
100
AcDbEntity
8
0-0
6
CONTINUOUS
62
3
100
AcDbLine
10
446.950000000000
20
205.600000000000
30
0.0
11
485.330000000000
21
205.600000000000
31
0.0
0
LINE
5
5b9
100
AcDbEntity
8
0-0
6
CONTINUOUS
62
3
100
AcDbLine
10
485.330000000000
20
205.100000000000
30
0.0
11
446.950000000000
21
205.100000000000
31
0.0
0
LINE
5
5ba
100
AcDbEntity
8
0-0
6
CONTINUOUS
62
3
100
AcDbLine
10
688.580000000000
20
205.600000000000
30
0.0
11
726.950000000000
21
205.600000000000
31
0.0
0
LINE
5
5bb
100
AcDbEntity
8
0-0
6
CONTINUOUS
62
3
100
AcDbLine
10
726.950000000000
20
205.100000000000
30
0.0
11
688.580000000000
21
205.100000000000
31
0.0
0
LINE
5
5bc
100
AcDbEntity
8
0-0
6
CONTINUOUS
62
4
100
AcDbLine
10
114.580000000000
20
194.600000000000
30
0.0
11
114.580000000000
21
205.600000000000
31
0.0
0
LINE
5
5bd
100
AcDbEntity
8
0-0
6
CONTINUOUS
62
4
100
AcDbLine
10
124.580000000000
20
194.600000000000
30
0.0
11
114.580000000000
21
194.600000000000
31
0.0
0
LINE
5
5be
100
AcDbEntity
8
0-0
6
CONTINUOUS
62
4
100
AcDbLine
10
124.580000000000
20
205.600000000000
30
0.0
11
114.580000000000
21
205.600000000000
31
0.0
0
LINE
5
5bf
100
AcDbEntity
8
0-0
6
CONTINUOUS
62
4
100
AcDbLine
10
144.080000000000
20
181.600000000000
30
0.0
11
144.080000000000
21
171.600000000000
31
0.0
0
LINE
5
5c0
100
AcDbEntity
8
0-0
6
CONTINUOUS
62
4
100
AcDbLine
10
144.080000000000
20
171.600000000000
30
0.0
11
144.080000000000
21
161.600000000000
31
0.0
0
LINE
5
5c1
100
AcDbEntity
8
0-0
6
CONTINUOUS
62
4
100
AcDbLine
10
154.580000000000
20
181.600000000000
30
0.0
11
154.580000000000
21
161.600000000000
31
0.0
0
LINE
5
5c2
100
AcDbEntity
8
0-0
6
CONTINUOUS
62
4
100
AcDbLine
10
388.830000000000
20
191.600000000000
30
0.0
11
388.830000000000
21
205.600000000000
31
0.0
0
LINE
5
5c3
100
AcDbEntity
8
0-0
6
CONTINUOUS
62
4
100
AcDbLine
10
378.830000000000
20
191.600000000000
30
0.0
11
388.830000000000
21
191.600000000000
31
0.0
0
LINE
5
5c4
100
AcDbEntity
8
0-0
6
CONTINUOUS
62
4
100
AcDbLine
10
378.830000000000
20
205.600000000000
30
0.0
11
388.830000000000
21
205.600000000000
31
0.0
0
LINE
5
5c5
100
AcDbEntity
8
0-0
6
CONTINUOUS
62
4
100
AcDbLine
10
153.950000000000
20
215.600000000000
30
0.0
11
153.950000000000
21
225.600000000000
31
0.0
0
LINE
5
5c6
100
AcDbEntity
8
0-0
6
CONTINUOUS
62
4
100
AcDbLine
10
353.950000000000
20
215.600000000000
30
0.0
11
353.950000000000
21
225.600000000000
31
0.0
0
LINE
5
5c7
100
AcDbEntity
8
0-0
6
CONTINUOUS
62
4
100
AcDbLine
10
486.950000000000
20
215.600000000000
30
0.0
11
486.950000000000
21
225.600000000000
31
0.0
0
LINE
5
5c8
100
AcDbEntity
8
0-0
6
CONTINUOUS
62
4
100
AcDbLine
10
686.950000000000
20
215.600000000000
30
0.0
11
686.950000000000
21
225.600000000000
31
0.0
0
LINE
5
5c9
100
AcDbEntity
8
0-0
6
CONTINUOUS
62
4
100
AcDbLine
10
446.950000000000
20
225.600000000000
30
0.0
11
451.780000000000
21
224.300000000000
31
0.0
0
LINE
5
5ca
100
AcDbEntity
8
0-0
6
CONTINUOUS
62
4
100
AcDbLine
10
446.950000000000
20
225.600000000000
30
0.0
11
451.780000000000
21
226.890000000000
31
0.0
0
LINE
5
5cb
100
AcDbEntity
8
0-0
6
CONTINUOUS
62
4
100
AcDbLine
10
486.950000000000
20
225.600000000000
30
0.0
11
446.950000000000
21
225.600000000000
31
0.0
0
LINE
5
5cc
100
AcDbEntity
8
0-0
6
CONTINUOUS
62
4
100
AcDbLine
10
726.950000000000
20
225.600000000000
30
0.0
11
722.120000000000
21
224.300000000000
31
0.0
0
LINE
5
5cd
100
AcDbEntity
8
0-0
6
CONTINUOUS
62
4
100
AcDbLine
10
726.950000000000
20
225.600000000000
30
0.0
11
722.120000000000
21
226.890000000000
31
0.0
0
LINE
5
5ce
100
AcDbEntity
8
0-0
6
CONTINUOUS
62
4
100
AcDbLine
10
686.950000000000
20
225.600000000000
30
0.0
11
726.950000000000
21
225.600000000000
31
0.0
0
LINE
5
5cf
100
AcDbEntity
8
0-0
6
CONTINUOUS
62
3
100
AcDbLine
10
352.330000000000
20
205.100000000000
30
0.0
11
155.580000000000
21
205.100000000000
31
0.0
0
LINE
5
5d0
100
AcDbEntity
8
0-0
6
CONTINUOUS
62
3
100
AcDbLine
10
155.580000000000
20
205.600000000000
30
0.0
11
352.330000000000
21
205.600000000000
31
0.0
0
LINE
5
5d1
100
AcDbEntity
8
0-0
6
CONTINUOUS
62
4
100
AcDbLine
10
153.950000000000
20
225.600000000000
30
0.0
11
353.950000000000
21
225.600000000000
31
0.0
0
LINE
5
5d2
100
AcDbEntity
8
0-0
6
CONTINUOUS
62
4
100
AcDbLine
10
486.950000000000
20
225.600000000000
30
0.0
11
686.950000000000
21
225.600000000000
31
0.0
0
LINE
5
5d3
100
AcDbEntity
8
0-0
6
CONTINUOUS
62
3
100
AcDbLine
10
488.580000000000
20
205.600000000000
30
0.0
11
685.320000000000
21
205.600000000000
31
0.0
0
LINE
5
5d4
100
AcDbEntity
8
0-0
6
CONTINUOUS
62
3
100
AcDbLine
10
685.320000000000
20
205.100000000000
30
0.0
11
488.580000000000
21
205.100000000000
31
0.0
0
LINE
5
5d5
100
AcDbEntity
8
0-0
6
CONTINUOUS
62
3
100
AcDbLine
10
478.450000000000
20
195.600000000000
30
0.0
11
484.530000000000
21
196.510000000000
31
0.0
0
LINE
5
5d6
100
AcDbEntity
8
0-0
6
CONTINUOUS
62
3
100
AcDbLine
10
478.520000000000
20
195.100000000000
30
0.0
11
484.640000000000
21
196.020000000000
31
0.0
0
LINE
5
5d7
100
AcDbEntity
8
0-0
6
CONTINUOUS
62
3
100
AcDbLine
10
486.820000000000
20
204.020000000000
30
0.0
11
485.680000000000
21
197.000000000000
31
0.0
0
LINE
5
5d8
100
AcDbEntity
8
0-0
6
CONTINUOUS
62
3
100
AcDbLine
10
486.330000000000
20
204.100000000000
30
0.0
11
485.200000000000
21
197.120000000000
31
0.0
0
LINE
5
5d9
100
AcDbEntity
8
0-0
6
CONTINUOUS
62
3
100
AcDbLine
10
491.200000000000
20
192.950000000000
30
0.0
11
493.330000000000
21
192.100000000000
31
0.0
0
LINE
5
5da
100
AcDbEntity
8
0-0
6
CONTINUOUS
62
3
100
AcDbLine
10
493.330000000000
20
192.100000000000
30
0.0
11
498.450000000000
21
192.100000000000
31
0.0
0
LINE
5
5db
100
AcDbEntity
8
0-0
6
CONTINUOUS
62
3
100
AcDbLine
10
493.230000000000
20
191.600000000000
30
0.0
11
498.580000000000
21
191.600000000000
31
0.0
0
LINE
5
5dc
100
AcDbEntity
8
0-0
6
CONTINUOUS
62
3
100
AcDbLine
10
491.010000000000
20
192.480000000000
30
0.0
11
493.230000000000
21
191.600000000000
31
0.0
0
LINE
5
5dd
100
AcDbEntity
8
0-0
6
CONTINUOUS
62
3
100
AcDbLine
10
478.450000000000
20
192.100000000000
30
0.0
11
488.330000000000
21
192.100000000000
31
0.0
0
LINE
5
5de
100
AcDbEntity
8
0-0
6
CONTINUOUS
62
3
100
AcDbLine
10
488.330000000000
20
192.100000000000
30
0.0
11
490.450000000000
21
192.950000000000
31
0.0
0
LINE
5
5df
100
AcDbEntity
8
0-0
6
CONTINUOUS
62
3
100
AcDbLine
10
488.420000000000
20
191.600000000000
30
0.0
11
478.450000000000
21
191.600000000000
31
0.0
0
LINE
5
5e0
100
AcDbEntity
8
0-0
6
CONTINUOUS
62
3
100
AcDbLine
10
490.640000000000
20
192.480000000000
30
0.0
11
488.420000000000
21
191.600000000000
31
0.0
0
LINE
5
5e1
100
AcDbEntity
8
0-0
6
CONTINUOUS
62
3
100
AcDbLine
10
480.580000000000
20
194.600000000000
30
0.0
11
486.080000000000
21
194.600000000000
31
0.0
0
LINE
5
5e2
100
AcDbEntity
8
0-0
6
CONTINUOUS
62
3
100
AcDbLine
10
480.680000000000
20
194.100000000000
30
0.0
11
486.080000000000
21
194.100000000000
31
0.0
0
LINE
5
5e3
100
AcDbEntity
8
0-0
6
CONTINUOUS
62
3
100
AcDbLine
10
477.080000000000
20
193.620000000000
30
0.0
11
477.210000000000
21
193.130000000000
31
0.0
0
LINE
5
5e4
100
AcDbEntity
8
0-0
6
CONTINUOUS
62
3
100
AcDbLine
10
477.210000000000
20
193.130000000000
30
0.0
11
480.680000000000
21
194.100000000000
31
0.0
0
LINE
5
5e5
100
AcDbEntity
8
0-0
6
CONTINUOUS
62
3
100
AcDbLine
10
477.080000000000
20
193.620000000000
30
0.0
11
480.610000000000
21
194.600000000000
31
0.0
0
LINE
5
5e6
100
AcDbEntity
8
0-0
6
CONTINUOUS
62
3
100
AcDbLine
10
147.580000000000
20
194.600000000000
30
0.0
11
153.080000000000
21
194.600000000000
31
0.0
0
LINE
5
5e7
100
AcDbEntity
8
0-0
6
CONTINUOUS
62
3
100
AcDbLine
10
144.080000000000
20
193.620000000000
30
0.0
11
144.210000000000
21
193.130000000000
31
0.0
0
LINE
5
5e8
100
AcDbEntity
8
0-0
6
CONTINUOUS
62
3
100
AcDbLine
10
144.080000000000
20
193.620000000000
30
0.0
11
147.610000000000
21
194.600000000000
31
0.0
0
LINE
5
5e9
100
AcDbEntity
8
0-0
6
CONTINUOUS
62
3
100
AcDbLine
10
147.610000000000
20
194.600000000000
30
0.0
11
153.080000000000
21
194.600000000000
31
0.0
0
LINE
5
5ea
100
AcDbEntity
8
0-0
6
CONTINUOUS
62
3
100
AcDbLine
10
147.680000000000
20
194.100000000000
30
0.0
11
153.080000000000
21
194.100000000000
31
0.0
0
LINE
5
5eb
100
AcDbEntity
8
0-0
6
CONTINUOUS
62
3
100
AcDbLine
10
147.680000000000
20
194.100000000000
30
0.0
11
153.080000000000
21
194.100000000000
31
0.0
0
LINE
5
5ec
100
AcDbEntity
8
0-0
6
CONTINUOUS
62
3
100
AcDbLine
10
144.210000000000
20
193.130000000000
30
0.0
11
147.680000000000
21
194.100000000000
31
0.0
0
LINE
5
5ed
100
AcDbEntity
8
0-0
6
CONTINUOUS
62
4
100
AcDbLine
10
144.080000000000
20
171.600000000000
30
0.0
11
154.580000000000
21
171.600000000000
31
0.0
0
LINE
5
5ee
100
AcDbEntity
8
0-0
6
CONTINUOUS
62
4
100
AcDbLine
10
144.080000000000
20
161.600000000000
30
0.0
11
154.580000000000
21
161.600000000000
31
0.0
0
LINE
5
5ef
100
AcDbEntity
8
0-0
6
CONTINUOUS
62
4
100
AcDbLine
10
147.580000000000
20
181.600000000000
30
0.0
11
147.580000000000
21
171.600000000000
31
0.0
0
LINE
5
5f0
100
AcDbEntity
8
0-0
6
CONTINUOUS
62
3
100
AcDbLine
10
687.570000000000
20
204.100000000000
30
0.0
11
687.570000000000
21
195.600000000000
31
0.0
0
LINE
5
5f1
100
AcDbEntity
8
0-0
6
CONTINUOUS
62
3
100
AcDbLine
10
687.070000000000
20
195.600000000000
30
0.0
11
687.070000000000
21
204.100000000000
31
0.0
0
LINE
5
5f2
100
AcDbEntity
8
0-0
6
CONTINUOUS
62
3
100
AcDbLine
10
678.450000000000
20
195.600000000000
30
0.0
11
684.530000000000
21
196.510000000000
31
0.0
0
LINE
5
5f3
100
AcDbEntity
8
0-0
6
CONTINUOUS
62
3
100
AcDbLine
10
678.520000000000
20
195.100000000000
30
0.0
11
684.630000000000
21
196.020000000000
31
0.0
0
LINE
5
5f4
100
AcDbEntity
8
0-0
6
CONTINUOUS
62
3
100
AcDbLine
10
686.820000000000
20
204.020000000000
30
0.0
11
685.680000000000
21
197.000000000000
31
0.0
0
LINE
5
5f5
100
AcDbEntity
8
0-0
6
CONTINUOUS
62
3
100
AcDbLine
10
686.320000000000
20
204.100000000000
30
0.0
11
685.200000000000
21
197.120000000000
31
0.0
0
LINE
5
5f6
100
AcDbEntity
8
0-0
6
CONTINUOUS
62
3
100
AcDbLine
10
691.200000000000
20
192.950000000000
30
0.0
11
693.330000000000
21
192.100000000000
31
0.0
0
LINE
5
5f7
100
AcDbEntity
8
0-0
6
CONTINUOUS
62
3
100
AcDbLine
10
693.330000000000
20
192.100000000000
30
0.0
11
698.450000000000
21
192.100000000000
31
0.0
0
LINE
5
5f8
100
AcDbEntity
8
0-0
6
CONTINUOUS
62
3
100
AcDbLine
10
693.230000000000
20
191.600000000000
30
0.0
11
698.580000000000
21
191.600000000000
31
0.0
0
LINE
5
5f9
100
AcDbEntity
8
0-0
6
CONTINUOUS
62
3
100
AcDbLine
10
691.010000000000
20
192.480000000000
30
0.0
11
693.230000000000
21
191.600000000000
31
0.0
0
LINE
5
5fa
100
AcDbEntity
8
0-0
6
CONTINUOUS
62
3
100
AcDbLine
10
678.450000000000
20
192.100000000000
30
0.0
11
688.320000000000
21
192.100000000000
31
0.0
0
LINE
5
5fb
100
AcDbEntity
8
0-0
6
CONTINUOUS
62
3
100
AcDbLine
10
688.320000000000
20
192.100000000000
30
0.0
11
690.450000000000
21
192.950000000000
31
0.0
0
LINE
5
5fc
100
AcDbEntity
8
0-0
6
CONTINUOUS
62
3
100
AcDbLine
10
688.420000000000
20
191.600000000000
30
0.0
11
678.450000000000
21
191.600000000000
31
0.0
0
LINE
5
5fd
100
AcDbEntity
8
0-0
6
CONTINUOUS
62
3
100
AcDbLine
10
690.640000000000
20
192.480000000000
30
0.0
11
688.420000000000
21
191.600000000000
31
0.0
0
LINE
5
5fe
100
AcDbEntity
8
0-0
6
CONTINUOUS
62
3
100
AcDbLine
10
680.570000000000
20
194.600000000000
30
0.0
11
686.070000000000
21
194.600000000000
31
0.0
0
LINE
5
5ff
100
AcDbEntity
8
0-0
6
CONTINUOUS
62
3
100
AcDbLine
10
680.680000000000
20
194.100000000000
30
0.0
11
686.070000000000
21
194.100000000000
31
0.0
0
LINE
5
600
100
AcDbEntity
8
0-0
6
CONTINUOUS
62
3
100
AcDbLine
10
677.070000000000
20
193.620000000000
30
0.0
11
677.210000000000
21
193.130000000000
31
0.0
0
LINE
5
601
100
AcDbEntity
8
0-0
6
CONTINUOUS
62
3
100
AcDbLine
10
677.210000000000
20
193.130000000000
30
0.0
11
680.680000000000
21
194.100000000000
31
0.0
0
LINE
5
602
100
AcDbEntity
8
0-0
6
CONTINUOUS
62
3
100
AcDbLine
10
677.070000000000
20
193.620000000000
30
0.0
11
680.610000000000
21
194.600000000000
31
0.0
0
LINE
5
603
100
AcDbEntity
8
0-0
6
CONTINUOUS
62
3
100
AcDbLine
10
487.580000000000
20
103.060000000000
30
0.0
11
487.580000000000
21
94.560000000000
31
0.0
0
LINE
5
604
100
AcDbEntity
8
0-0
6
CONTINUOUS
62
3
100
AcDbLine
10
487.080000000000
20
94.560000000000
30
0.0
11
487.080000000000
21
103.060000000000
31
0.0
0
LINE
5
605
100
AcDbEntity
8
0-0
6
CONTINUOUS
62
3
100
AcDbLine
10
154.580000000000
20
103.060000000000
30
0.0
11
154.580000000000
21
94.560000000000
31
0.0
0
LINE
5
606
100
AcDbEntity
8
0-0
6
CONTINUOUS
62
3
100
AcDbLine
10
154.080000000000
20
94.560000000000
30
0.0
11
154.080000000000
21
103.060000000000
31
0.0
0
LINE
5
607
100
AcDbEntity
8
0-0
6
CONTINUOUS
62
3
100
AcDbLine
10
446.950000000000
20
104.560000000000
30
0.0
11
485.330000000000
21
104.560000000000
31
0.0
0
LINE
5
608
100
AcDbEntity
8
0-0
6
CONTINUOUS
62
3
100
AcDbLine
10
485.330000000000
20
104.060000000000
30
0.0
11
446.950000000000
21
104.060000000000
31
0.0
0
LINE
5
609
100
AcDbEntity
8
0-0
6
CONTINUOUS
62
3
100
AcDbLine
10
688.580000000000
20
104.560000000000
30
0.0
11
726.950000000000
21
104.560000000000
31
0.0
0
LINE
5
60a
100
AcDbEntity
8
0-0
6
CONTINUOUS
62
3
100
AcDbLine
10
726.950000000000
20
104.060000000000
30
0.0
11
688.580000000000
21
104.060000000000
31
0.0
0
LINE
5
60b
100
AcDbEntity
8
0-0
6
CONTINUOUS
62
4
100
AcDbLine
10
114.580000000000
20
93.560000000000
30
0.0
11
114.580000000000
21
104.560000000000
31
0.0
0
LINE
5
60c
100
AcDbEntity
8
0-0
6
CONTINUOUS
62
4
100
AcDbLine
10
124.580000000000
20
93.560000000000
30
0.0
11
114.580000000000
21
93.560000000000
31
0.0
0
LINE
5
60d
100
AcDbEntity
8
0-0
6
CONTINUOUS
62
4
100
AcDbLine
10
124.580000000000
20
104.560000000000
30
0.0
11
114.580000000000
21
104.560000000000
31
0.0
0
LINE
5
60e
100
AcDbEntity
8
0-0
6
CONTINUOUS
62
4
100
AcDbLine
10
144.080000000000
20
80.560000000000
30
0.0
11
144.080000000000
21
70.560000000000
31
0.0
0
LINE
5
60f
100
AcDbEntity
8
0-0
6
CONTINUOUS
62
4
100
AcDbLine
10
144.080000000000
20
70.560000000000
30
0.0
11
144.080000000000
21
60.560000000000
31
0.0
0
LINE
5
610
100
AcDbEntity
8
0-0
6
CONTINUOUS
62
4
100
AcDbLine
10
154.580000000000
20
80.560000000000
30
0.0
11
154.580000000000
21
60.560000000000
31
0.0
0
LINE
5
611
100
AcDbEntity
8
0-0
6
CONTINUOUS
62
4
100
AcDbLine
10
388.830000000000
20
90.560000000000
30
0.0
11
388.830000000000
21
104.560000000000
31
0.0
0
LINE
5
612
100
AcDbEntity
8
0-0
6
CONTINUOUS
62
4
100
AcDbLine
10
378.830000000000
20
90.560000000000
30
0.0
11
388.830000000000
21
90.560000000000
31
0.0
0
LINE
5
613
100
AcDbEntity
8
0-0
6
CONTINUOUS
62
4
100
AcDbLine
10
378.830000000000
20
104.560000000000
30
0.0
11
388.830000000000
21
104.560000000000
31
0.0
0
LINE
5
614
100
AcDbEntity
8
0-0
6
CONTINUOUS
62
4
100
AcDbLine
10
153.950000000000
20
114.560000000000
30
0.0
11
153.950000000000
21
124.560000000000
31
0.0
0
LINE
5
615
100
AcDbEntity
8
0-0
6
CONTINUOUS
62
4
100
AcDbLine
10
353.950000000000
20
114.560000000000
30
0.0
11
353.950000000000
21
124.560000000000
31
0.0
0
LINE
5
616
100
AcDbEntity
8
0-0
6
CONTINUOUS
62
4
100
AcDbLine
10
486.950000000000
20
114.560000000000
30
0.0
11
486.950000000000
21
124.560000000000
31
0.0
0
LINE
5
617
100
AcDbEntity
8
0-0
6
CONTINUOUS
62
4
100
AcDbLine
10
686.950000000000
20
114.560000000000
30
0.0
11
686.950000000000
21
124.560000000000
31
0.0
0
LINE
5
618
100
AcDbEntity
8
0-0
6
CONTINUOUS
62
4
100
AcDbLine
10
446.950000000000
20
124.560000000000
30
0.0
11
451.780000000000
21
123.270000000000
31
0.0
0
LINE
5
619
100
AcDbEntity
8
0-0
6
CONTINUOUS
62
4
100
AcDbLine
10
446.950000000000
20
124.560000000000
30
0.0
11
451.780000000000
21
125.850000000000
31
0.0
0
LINE
5
61a
100
AcDbEntity
8
0-0
6
CONTINUOUS
62
4
100
AcDbLine
10
486.950000000000
20
124.560000000000
30
0.0
11
446.950000000000
21
124.560000000000
31
0.0
0
LINE
5
61b
100
AcDbEntity
8
0-0
6
CONTINUOUS
62
4
100
AcDbLine
10
726.950000000000
20
124.560000000000
30
0.0
11
722.120000000000
21
123.270000000000
31
0.0
0
LINE
5
61c
100
AcDbEntity
8
0-0
6
CONTINUOUS
62
4
100
AcDbLine
10
726.950000000000
20
124.560000000000
30
0.0
11
722.120000000000
21
125.850000000000
31
0.0
0
LINE
5
61d
100
AcDbEntity
8
0-0
6
CONTINUOUS
62
4
100
AcDbLine
10
686.950000000000
20
124.560000000000
30
0.0
11
726.950000000000
21
124.560000000000
31
0.0
0
LINE
5
61e
100
AcDbEntity
8
0-0
6
CONTINUOUS
62
4
100
AcDbLine
10
153.950000000000
20
124.560000000000
30
0.0
11
353.950000000000
21
124.560000000000
31
0.0
0
LINE
5
61f
100
AcDbEntity
8
0-0
6
CONTINUOUS
62
4
100
AcDbLine
10
486.950000000000
20
124.560000000000
30
0.0
11
686.950000000000
21
124.560000000000
31
0.0
0
LINE
5
620
100
AcDbEntity
8
0-0
6
CONTINUOUS
62
3
100
AcDbLine
10
478.450000000000
20
94.560000000000
30
0.0
11
484.530000000000
21
95.470000000000
31
0.0
0
LINE
5
621
100
AcDbEntity
8
0-0
6
CONTINUOUS
62
3
100
AcDbLine
10
478.520000000000
20
94.060000000000
30
0.0
11
484.640000000000
21
94.980000000000
31
0.0
0
LINE
5
622
100
AcDbEntity
8
0-0
6
CONTINUOUS
62
3
100
AcDbLine
10
486.820000000000
20
102.980000000000
30
0.0
11
485.680000000000
21
95.960000000000
31
0.0
0
LINE
5
623
100
AcDbEntity
8
0-0
6
CONTINUOUS
62
3
100
AcDbLine
10
486.330000000000
20
103.060000000000
30
0.0
11
485.200000000000
21
96.080000000000
31
0.0
0
LINE
5
624
100
AcDbEntity
8
0-0
6
CONTINUOUS
62
3
100
AcDbLine
10
491.200000000000
20
91.910000000000
30
0.0
11
493.330000000000
21
91.060000000000
31
0.0
0
LINE
5
625
100
AcDbEntity
8
0-0
6
CONTINUOUS
62
3
100
AcDbLine
10
493.330000000000
20
91.060000000000
30
0.0
11
498.450000000000
21
91.060000000000
31
0.0
0
LINE
5
626
100
AcDbEntity
8
0-0
6
CONTINUOUS
62
3
100
AcDbLine
10
493.230000000000
20
90.560000000000
30
0.0
11
498.580000000000
21
90.560000000000
31
0.0
0
LINE
5
627
100
AcDbEntity
8
0-0
6
CONTINUOUS
62
3
100
AcDbLine
10
491.010000000000
20
91.450000000000
30
0.0
11
493.230000000000
21
90.560000000000
31
0.0
0
LINE
5
628
100
AcDbEntity
8
0-0
6
CONTINUOUS
62
3
100
AcDbLine
10
478.450000000000
20
91.060000000000
30
0.0
11
488.330000000000
21
91.060000000000
31
0.0
0
LINE
5
629
100
AcDbEntity
8
0-0
6
CONTINUOUS
62
3
100
AcDbLine
10
488.330000000000
20
91.060000000000
30
0.0
11
490.450000000000
21
91.910000000000
31
0.0
0
LINE
5
62a
100
AcDbEntity
8
0-0
6
CONTINUOUS
62
3
100
AcDbLine
10
488.420000000000
20
90.560000000000
30
0.0
11
478.450000000000
21
90.560000000000
31
0.0
0
LINE
5
62b
100
AcDbEntity
8
0-0
6
CONTINUOUS
62
3
100
AcDbLine
10
490.640000000000
20
91.450000000000
30
0.0
11
488.420000000000
21
90.560000000000
31
0.0
0
LINE
5
62c
100
AcDbEntity
8
0-0
6
CONTINUOUS
62
3
100
AcDbLine
10
480.580000000000
20
93.560000000000
30
0.0
11
486.080000000000
21
93.560000000000
31
0.0
0
LINE
5
62d
100
AcDbEntity
8
0-0
6
CONTINUOUS
62
3
100
AcDbLine
10
480.680000000000
20
93.060000000000
30
0.0
11
486.080000000000
21
93.060000000000
31
0.0
0
LINE
5
62e
100
AcDbEntity
8
0-0
6
CONTINUOUS
62
3
100
AcDbLine
10
477.080000000000
20
92.580000000000
30
0.0
11
477.210000000000
21
92.100000000000
31
0.0
0
LINE
5
62f
100
AcDbEntity
8
0-0
6
CONTINUOUS
62
3
100
AcDbLine
10
477.210000000000
20
92.100000000000
30
0.0
11
480.680000000000
21
93.060000000000
31
0.0
0
LINE
5
630
100
AcDbEntity
8
0-0
6
CONTINUOUS
62
3
100
AcDbLine
10
477.080000000000
20
92.580000000000
30
0.0
11
480.610000000000
21
93.560000000000
31
0.0
0
LINE
5
631
100
AcDbEntity
8
0-0
6
CONTINUOUS
62
3
100
AcDbLine
10
147.580000000000
20
93.560000000000
30
0.0
11
153.080000000000
21
93.560000000000
31
0.0
0
LINE
5
632
100
AcDbEntity
8
0-0
6
CONTINUOUS
62
3
100
AcDbLine
10
144.080000000000
20
92.580000000000
30
0.0
11
144.210000000000
21
92.100000000000
31
0.0
0
LINE
5
633
100
AcDbEntity
8
0-0
6
CONTINUOUS
62
3
100
AcDbLine
10
144.080000000000
20
92.580000000000
30
0.0
11
147.610000000000
21
93.560000000000
31
0.0
0
LINE
5
634
100
AcDbEntity
8
0-0
6
CONTINUOUS
62
3
100
AcDbLine
10
147.610000000000
20
93.560000000000
30
0.0
11
153.080000000000
21
93.560000000000
31
0.0
0
LINE
5
635
100
AcDbEntity
8
0-0
6
CONTINUOUS
62
3
100
AcDbLine
10
147.680000000000
20
93.060000000000
30
0.0
11
153.080000000000
21
93.060000000000
31
0.0
0
LINE
5
636
100
AcDbEntity
8
0-0
6
CONTINUOUS
62
3
100
AcDbLine
10
147.680000000000
20
93.060000000000
30
0.0
11
153.080000000000
21
93.060000000000
31
0.0
0
LINE
5
637
100
AcDbEntity
8
0-0
6
CONTINUOUS
62
3
100
AcDbLine
10
144.210000000000
20
92.100000000000
30
0.0
11
147.680000000000
21
93.060000000000
31
0.0
0
LINE
5
638
100
AcDbEntity
8
0-0
6
CONTINUOUS
62
4
100
AcDbLine
10
144.080000000000
20
70.560000000000
30
0.0
11
154.580000000000
21
70.560000000000
31
0.0
0
LINE
5
639
100
AcDbEntity
8
0-0
6
CONTINUOUS
62
4
100
AcDbLine
10
144.080000000000
20
60.560000000000
30
0.0
11
154.580000000000
21
60.560000000000
31
0.0
0
LINE
5
63a
100
AcDbEntity
8
0-0
6
CONTINUOUS
62
4
100
AcDbLine
10
147.580000000000
20
80.560000000000
30
0.0
11
147.580000000000
21
70.560000000000
31
0.0
0
LINE
5
63b
100
AcDbEntity
8
0-0
6
CONTINUOUS
62
3
100
AcDbLine
10
687.570000000000
20
103.060000000000
30
0.0
11
687.570000000000
21
94.560000000000
31
0.0
0
LINE
5
63c
100
AcDbEntity
8
0-0
6
CONTINUOUS
62
3
100
AcDbLine
10
687.070000000000
20
94.560000000000
30
0.0
11
687.070000000000
21
103.060000000000
31
0.0
0
LINE
5
63d
100
AcDbEntity
8
0-0
6
CONTINUOUS
62
3
100
AcDbLine
10
678.450000000000
20
94.560000000000
30
0.0
11
684.530000000000
21
95.470000000000
31
0.0
0
LINE
5
63e
100
AcDbEntity
8
0-0
6
CONTINUOUS
62
3
100
AcDbLine
10
678.520000000000
20
94.060000000000
30
0.0
11
684.630000000000
21
94.980000000000
31
0.0
0
LINE
5
63f
100
AcDbEntity
8
0-0
6
CONTINUOUS
62
3
100
AcDbLine
10
686.820000000000
20
102.980000000000
30
0.0
11
685.680000000000
21
95.960000000000
31
0.0
0
LINE
5
640
100
AcDbEntity
8
0-0
6
CONTINUOUS
62
3
100
AcDbLine
10
686.320000000000
20
103.060000000000
30
0.0
11
685.200000000000
21
96.080000000000
31
0.0
0
LINE
5
641
100
AcDbEntity
8
0-0
6
CONTINUOUS
62
3
100
AcDbLine
10
691.200000000000
20
91.910000000000
30
0.0
11
693.330000000000
21
91.060000000000
31
0.0
0
LINE
5
642
100
AcDbEntity
8
0-0
6
CONTINUOUS
62
3
100
AcDbLine
10
693.330000000000
20
91.060000000000
30
0.0
11
698.450000000000
21
91.060000000000
31
0.0
0
LINE
5
643
100
AcDbEntity
8
0-0
6
CONTINUOUS
62
3
100
AcDbLine
10
693.230000000000
20
90.560000000000
30
0.0
11
698.580000000000
21
90.560000000000
31
0.0
0
LINE
5
644
100
AcDbEntity
8
0-0
6
CONTINUOUS
62
3
100
AcDbLine
10
691.010000000000
20
91.450000000000
30
0.0
11
693.230000000000
21
90.560000000000
31
0.0
0
LINE
5
645
100
AcDbEntity
8
0-0
6
CONTINUOUS
62
3
100
AcDbLine
10
678.450000000000
20
91.060000000000
30
0.0
11
688.320000000000
21
91.060000000000
31
0.0
0
LINE
5
646
100
AcDbEntity
8
0-0
6
CONTINUOUS
62
3
100
AcDbLine
10
688.320000000000
20
91.060000000000
30
0.0
11
690.450000000000
21
91.910000000000
31
0.0
0
LINE
5
647
100
AcDbEntity
8
0-0
6
CONTINUOUS
62
3
100
AcDbLine
10
688.420000000000
20
90.560000000000
30
0.0
11
678.450000000000
21
90.560000000000
31
0.0
0
LINE
5
648
100
AcDbEntity
8
0-0
6
CONTINUOUS
62
3
100
AcDbLine
10
690.640000000000
20
91.450000000000
30
0.0
11
688.420000000000
21
90.560000000000
31
0.0
0
LINE
5
649
100
AcDbEntity
8
0-0
6
CONTINUOUS
62
3
100
AcDbLine
10
680.570000000000
20
93.560000000000
30
0.0
11
686.070000000000
21
93.560000000000
31
0.0
0
LINE
5
64a
100
AcDbEntity
8
0-0
6
CONTINUOUS
62
3
100
AcDbLine
10
680.680000000000
20
93.060000000000
30
0.0
11
686.070000000000
21
93.060000000000
31
0.0
0
LINE
5
64b
100
AcDbEntity
8
0-0
6
CONTINUOUS
62
3
100
AcDbLine
10
677.070000000000
20
92.580000000000
30
0.0
11
677.210000000000
21
92.100000000000
31
0.0
0
LINE
5
64c
100
AcDbEntity
8
0-0
6
CONTINUOUS
62
3
100
AcDbLine
10
677.210000000000
20
92.100000000000
30
0.0
11
680.680000000000
21
93.060000000000
31
0.0
0
LINE
5
64d
100
AcDbEntity
8
0-0
6
CONTINUOUS
62
3
100
AcDbLine
10
677.070000000000
20
92.580000000000
30
0.0
11
680.610000000000
21
93.560000000000
31
0.0
0
LINE
5
64e
100
AcDbEntity
8
0-0
6
CONTINUOUS
62
3
100
AcDbLine
10
278.120000000000
20
103.850000000000
30
0.0
11
278.390000000000
21
104.120000000000
31
0.0
0
LINE
5
64f
100
AcDbEntity
8
0-0
6
CONTINUOUS
62
3
100
AcDbLine
10
278.740000000000
20
103.770000000000
30
0.0
11
278.470000000000
21
103.500000000000
31
0.0
0
LINE
5
650
100
AcDbEntity
8
0-0
6
CONTINUOUS
62
3
100
AcDbLine
10
277.410000000000
20
103.560000000000
30
0.0
11
253.830000000000
21
103.560000000000
31
0.0
0
LINE
5
651
100
AcDbEntity
8
0-0
6
CONTINUOUS
62
3
100
AcDbLine
10
253.830000000000
20
103.060000000000
30
0.0
11
277.410000000000
21
103.060000000000
31
0.0
0
LINE
5
652
100
AcDbEntity
8
0-0
6
CONTINUOUS
62
3
100
AcDbLine
10
229.530000000000
20
103.850000000000
30
0.0
11
229.260000000000
21
104.120000000000
31
0.0
0
LINE
5
653
100
AcDbEntity
8
0-0
6
CONTINUOUS
62
3
100
AcDbLine
10
228.910000000000
20
103.770000000000
30
0.0
11
229.180000000000
21
103.500000000000
31
0.0
0
LINE
5
654
100
AcDbEntity
8
0-0
6
CONTINUOUS
62
3
100
AcDbLine
10
230.240000000000
20
103.560000000000
30
0.0
11
253.830000000000
21
103.560000000000
31
0.0
0
LINE
5
655
100
AcDbEntity
8
0-0
6
CONTINUOUS
62
3
100
AcDbLine
10
253.830000000000
20
103.060000000000
30
0.0
11
230.240000000000
21
103.060000000000
31
0.0
0
LINE
5
656
100
AcDbEntity
8
0-0
6
CONTINUOUS
62
4
100
AcDbLine
10
228.830000000000
20
80.560000000000
30
0.0
11
278.830000000000
21
80.560000000000
31
0.0
0
LINE
5
657
100
AcDbEntity
8
0-0
6
CONTINUOUS
62
4
100
AcDbLine
10
228.830000000000
20
90.560000000000
30
0.0
11
228.830000000000
21
80.560000000000
31
0.0
0
LINE
5
658
100
AcDbEntity
8
0-0
6
CONTINUOUS
62
4
100
AcDbLine
10
278.830000000000
20
90.560000000000
30
0.0
11
278.830000000000
21
80.560000000000
31
0.0
0
LINE
5
659
100
AcDbEntity
8
0-0
6
CONTINUOUS
62
3
100
AcDbLine
10
155.580000000000
20
104.560000000000
30
0.0
11
228.200000000000
21
104.560000000000
31
0.0
0
LINE
5
65a
100
AcDbEntity
8
0-0
6
CONTINUOUS
62
3
100
AcDbLine
10
228.200000000000
20
104.060000000000
30
0.0
11
155.580000000000
21
104.060000000000
31
0.0
0
LINE
5
65b
100
AcDbEntity
8
0-0
6
CONTINUOUS
62
3
100
AcDbLine
10
279.450000000000
20
104.560000000000
30
0.0
11
352.330000000000
21
104.560000000000
31
0.0
0
LINE
5
65c
100
AcDbEntity
8
0-0
6
CONTINUOUS
62
3
100
AcDbLine
10
352.330000000000
20
104.060000000000
30
0.0
11
279.450000000000
21
104.060000000000
31
0.0
0
LINE
5
65d
100
AcDbEntity
8
0-0
6
CONTINUOUS
62
3
100
AcDbLine
10
611.120000000000
20
103.850000000000
30
0.0
11
611.390000000000
21
104.120000000000
31
0.0
0
LINE
5
65e
100
AcDbEntity
8
0-0
6
CONTINUOUS
62
3
100
AcDbLine
10
611.740000000000
20
103.770000000000
30
0.0
11
611.470000000000
21
103.500000000000
31
0.0
0
LINE
5
65f
100
AcDbEntity
8
0-0
6
CONTINUOUS
62
3
100
AcDbLine
10
610.410000000000
20
103.560000000000
30
0.0
11
586.820000000000
21
103.560000000000
31
0.0
0
LINE
5
660
100
AcDbEntity
8
0-0
6
CONTINUOUS
62
3
100
AcDbLine
10
586.820000000000
20
103.060000000000
30
0.0
11
610.410000000000
21
103.060000000000
31
0.0
0
LINE
5
661
100
AcDbEntity
8
0-0
6
CONTINUOUS
62
3
100
AcDbLine
10
562.530000000000
20
103.850000000000
30
0.0
11
562.260000000000
21
104.120000000000
31
0.0
0
LINE
5
662
100
AcDbEntity
8
0-0
6
CONTINUOUS
62
3
100
AcDbLine
10
561.910000000000
20
103.770000000000
30
0.0
11
562.180000000000
21
103.500000000000
31
0.0
0
LINE
5
663
100
AcDbEntity
8
0-0
6
CONTINUOUS
62
3
100
AcDbLine
10
563.240000000000
20
103.560000000000
30
0.0
11
586.820000000000
21
103.560000000000
31
0.0
0
LINE
5
664
100
AcDbEntity
8
0-0
6
CONTINUOUS
62
3
100
AcDbLine
10
586.820000000000
20
103.060000000000
30
0.0
11
563.240000000000
21
103.060000000000
31
0.0
0
LINE
5
665
100
AcDbEntity
8
0-0
6
CONTINUOUS
62
4
100
AcDbLine
10
561.820000000000
20
80.560000000000
30
0.0
11
611.820000000000
21
80.560000000000
31
0.0
0
LINE
5
666
100
AcDbEntity
8
0-0
6
CONTINUOUS
62
4
100
AcDbLine
10
561.820000000000
20
90.560000000000
30
0.0
11
561.820000000000
21
80.560000000000
31
0.0
0
LINE
5
667
100
AcDbEntity
8
0-0
6
CONTINUOUS
62
4
100
AcDbLine
10
611.820000000000
20
90.560000000000
30
0.0
11
611.820000000000
21
80.560000000000
31
0.0
0
LINE
5
668
100
AcDbEntity
8
0-0
6
CONTINUOUS
62
3
100
AcDbLine
10
488.580000000000
20
104.560000000000
30
0.0
11
561.200000000000
21
104.560000000000
31
0.0
0
LINE
5
669
100
AcDbEntity
8
0-0
6
CONTINUOUS
62
3
100
AcDbLine
10
561.200000000000
20
104.060000000000
30
0.0
11
488.580000000000
21
104.060000000000
31
0.0
0
LINE
5
66a
100
AcDbEntity
8
0-0
6
CONTINUOUS
62
3
100
AcDbLine
10
612.450000000000
20
104.560000000000
30
0.0
11
685.320000000000
21
104.560000000000
31
0.0
0
LINE
5
66b
100
AcDbEntity
8
0-0
6
CONTINUOUS
62
3
100
AcDbLine
10
685.320000000000
20
104.060000000000
30
0.0
11
612.450000000000
21
104.060000000000
31
0.0
0
LINE
5
66c
100
AcDbEntity
8
0-0
6
CONTINUOUS
62
4
100
AcDbLine
10
133.950000000000
20
436.780000000000
30
0.0
11
154.580000000000
21
436.780000000000
31
0.0
0
LINE
5
66d
100
AcDbEntity
8
0-0
6
CONTINUOUS
62
4
100
AcDbLine
10
133.950000000000
20
426.780000000000
30
0.0
11
154.580000000000
21
426.780000000000
31
0.0
0
LINE
5
66e
100
AcDbEntity
8
0-0
6
CONTINUOUS
62
3
100
AcDbLine
10
133.950000000000
20
458.800000000000
30
0.0
11
137.490000000000
21
459.780000000000
31
0.0
0
LINE
5
66f
100
AcDbEntity
8
0-0
6
CONTINUOUS
62
3
100
AcDbLine
10
137.490000000000
20
459.780000000000
30
0.0
11
153.080000000000
21
459.780000000000
31
0.0
0
LINE
5
670
100
AcDbEntity
8
0-0
6
CONTINUOUS
62
3
100
AcDbLine
10
137.550000000000
20
459.280000000000
30
0.0
11
153.080000000000
21
459.280000000000
31
0.0
0
LINE
5
671
100
AcDbEntity
8
0-0
6
CONTINUOUS
62
3
100
AcDbLine
10
134.080000000000
20
458.320000000000
30
0.0
11
137.550000000000
21
459.280000000000
31
0.0
0
LINE
5
672
100
AcDbEntity
8
0-0
6
CONTINUOUS
62
3
100
AcDbLine
10
154.580000000000
20
368.250000000000
30
0.0
11
154.580000000000
21
359.750000000000
31
0.0
0
LINE
5
673
100
AcDbEntity
8
0-0
6
CONTINUOUS
62
3
100
AcDbLine
10
154.080000000000
20
359.750000000000
30
0.0
11
154.080000000000
21
368.250000000000
31
0.0
0
LINE
5
674
100
AcDbEntity
8
0-0
6
CONTINUOUS
62
4
100
AcDbLine
10
133.950000000000
20
345.750000000000
30
0.0
11
133.950000000000
21
335.750000000000
31
0.0
0
LINE
5
675
100
AcDbEntity
8
0-0
6
CONTINUOUS
62
4
100
AcDbLine
10
133.950000000000
20
335.750000000000
30
0.0
11
133.950000000000
21
325.750000000000
31
0.0
0
LINE
5
676
100
AcDbEntity
8
0-0
6
CONTINUOUS
62
4
100
AcDbLine
10
154.580000000000
20
345.750000000000
30
0.0
11
154.580000000000
21
325.750000000000
31
0.0
0
LINE
5
677
100
AcDbEntity
8
0-0
6
CONTINUOUS
62
3
100
AcDbLine
10
147.580000000000
20
358.750000000000
30
0.0
11
153.080000000000
21
358.750000000000
31
0.0
0
LINE
5
678
100
AcDbEntity
8
0-0
6
CONTINUOUS
62
3
100
AcDbLine
10
133.950000000000
20
357.760000000000
30
0.0
11
134.080000000000
21
357.280000000000
31
0.0
0
LINE
5
679
100
AcDbEntity
8
0-0
6
CONTINUOUS
62
3
100
AcDbLine
10
147.680000000000
20
358.250000000000
30
0.0
11
153.080000000000
21
358.250000000000
31
0.0
0
LINE
5
67a
100
AcDbEntity
8
0-0
6
CONTINUOUS
62
4
100
AcDbLine
10
137.450000000000
20
345.750000000000
30
0.0
11
137.450000000000
21
335.750000000000
31
0.0
0
LINE
5
67b
100
AcDbEntity
8
0-0
6
CONTINUOUS
62
4
100
AcDbLine
10
133.950000000000
20
335.750000000000
30
0.0
11
154.580000000000
21
335.750000000000
31
0.0
0
LINE
5
67c
100
AcDbEntity
8
0-0
6
CONTINUOUS
62
4
100
AcDbLine
10
133.950000000000
20
325.750000000000
30
0.0
11
154.580000000000
21
325.750000000000
31
0.0
0
LINE
5
67d
100
AcDbEntity
8
0-0
6
CONTINUOUS
62
3
100
AcDbLine
10
133.950000000000
20
357.760000000000
30
0.0
11
137.490000000000
21
358.750000000000
31
0.0
0
LINE
5
67e
100
AcDbEntity
8
0-0
6
CONTINUOUS
62
3
100
AcDbLine
10
137.490000000000
20
358.750000000000
30
0.0
11
153.080000000000
21
358.750000000000
31
0.0
0
LINE
5
67f
100
AcDbEntity
8
0-0
6
CONTINUOUS
62
3
100
AcDbLine
10
137.550000000000
20
358.250000000000
30
0.0
11
153.080000000000
21
358.250000000000
31
0.0
0
LINE
5
680
100
AcDbEntity
8
0-0
6
CONTINUOUS
62
3
100
AcDbLine
10
134.080000000000
20
357.280000000000
30
0.0
11
137.550000000000
21
358.250000000000
31
0.0
0
LINE
5
681
100
AcDbEntity
8
0-0
6
CONTINUOUS
62
4
100
AcDbLine
10
446.950000000000
20
500.780000000000
30
0.0
11
451.780000000000
21
499.490000000000
31
0.0
0
LINE
5
682
100
AcDbEntity
8
0-0
6
CONTINUOUS
62
4
100
AcDbLine
10
446.950000000000
20
500.780000000000
30
0.0
11
451.780000000000
21
502.080000000000
31
0.0
0
LINE
5
683
100
AcDbEntity
8
0-0
6
CONTINUOUS
62
4
100
AcDbLine
10
486.950000000000
20
500.780000000000
30
0.0
11
446.950000000000
21
500.780000000000
31
0.0
0
LINE
5
684
100
AcDbEntity
8
0-0
6
CONTINUOUS
62
4
100
AcDbLine
10
486.950000000000
20
480.780000000000
30
0.0
11
486.950000000000
21
500.780000000000
31
0.0
0
LINE
5
685
100
AcDbEntity
8
0-0
6
CONTINUOUS
62
4
100
AcDbLine
10
486.950000000000
20
500.780000000000
30
0.0
11
696.950000000000
21
500.780000000000
31
0.0
0
LINE
5
686
100
AcDbEntity
8
0-0
6
CONTINUOUS
62
4
100
AcDbLine
10
726.950000000000
20
500.780000000000
30
0.0
11
722.120000000000
21
499.490000000000
31
0.0
0
LINE
5
687
100
AcDbEntity
8
0-0
6
CONTINUOUS
62
4
100
AcDbLine
10
726.950000000000
20
500.780000000000
30
0.0
11
722.120000000000
21
502.080000000000
31
0.0
0
LINE
5
688
100
AcDbEntity
8
0-0
6
CONTINUOUS
62
4
100
AcDbLine
10
726.950000000000
20
500.780000000000
30
0.0
11
696.950000000000
21
500.780000000000
31
0.0
0
LINE
5
689
100
AcDbEntity
8
0-0
6
CONTINUOUS
62
4
100
AcDbLine
10
686.950000000000
20
490.780000000000
30
0.0
11
726.950000000000
21
490.780000000000
31
0.0
0
LINE
5
68a
100
AcDbEntity
8
0-0
6
CONTINUOUS
62
4
100
AcDbLine
10
446.950000000000
20
389.750000000000
30
0.0
11
451.780000000000
21
388.450000000000
31
0.0
0
LINE
5
68b
100
AcDbEntity
8
0-0
6
CONTINUOUS
62
4
100
AcDbLine
10
446.950000000000
20
389.750000000000
30
0.0
11
451.780000000000
21
391.040000000000
31
0.0
0
LINE
5
68c
100
AcDbEntity
8
0-0
6
CONTINUOUS
62
4
100
AcDbLine
10
486.950000000000
20
389.750000000000
30
0.0
11
446.950000000000
21
389.750000000000
31
0.0
0
LINE
5
68d
100
AcDbEntity
8
0-0
6
CONTINUOUS
62
4
100
AcDbLine
10
446.950000000000
20
399.750000000000
30
0.0
11
451.780000000000
21
398.450000000000
31
0.0
0
LINE
5
68e
100
AcDbEntity
8
0-0
6
CONTINUOUS
62
4
100
AcDbLine
10
446.950000000000
20
399.750000000000
30
0.0
11
451.780000000000
21
401.040000000000
31
0.0
0
LINE
5
68f
100
AcDbEntity
8
0-0
6
CONTINUOUS
62
4
100
AcDbLine
10
486.950000000000
20
399.750000000000
30
0.0
11
446.950000000000
21
399.750000000000
31
0.0
0
LINE
5
690
100
AcDbEntity
8
0-0
6
CONTINUOUS
62
4
100
AcDbLine
10
486.950000000000
20
379.750000000000
30
0.0
11
486.950000000000
21
399.750000000000
31
0.0
0
LINE
5
691
100
AcDbEntity
8
0-0
6
CONTINUOUS
62
4
100
AcDbLine
10
686.950000000000
20
379.750000000000
30
0.0
11
686.950000000000
21
389.750000000000
31
0.0
0
LINE
5
692
100
AcDbEntity
8
0-0
6
CONTINUOUS
62
4
100
AcDbLine
10
726.950000000000
20
389.750000000000
30
0.0
11
722.120000000000
21
388.450000000000
31
0.0
0
LINE
5
693
100
AcDbEntity
8
0-0
6
CONTINUOUS
62
4
100
AcDbLine
10
726.950000000000
20
389.750000000000
30
0.0
11
722.120000000000
21
391.040000000000
31
0.0
0
LINE
5
694
100
AcDbEntity
8
0-0
6
CONTINUOUS
62
4
100
AcDbLine
10
486.950000000000
20
399.750000000000
30
0.0
11
696.950000000000
21
399.750000000000
31
0.0
0
LINE
5
695
100
AcDbEntity
8
0-0
6
CONTINUOUS
62
4
100
AcDbLine
10
726.950000000000
20
399.750000000000
30
0.0
11
722.120000000000
21
398.450000000000
31
0.0
0
LINE
5
696
100
AcDbEntity
8
0-0
6
CONTINUOUS
62
4
100
AcDbLine
10
726.950000000000
20
399.750000000000
30
0.0
11
722.120000000000
21
401.040000000000
31
0.0
0
LINE
5
697
100
AcDbEntity
8
0-0
6
CONTINUOUS
62
4
100
AcDbLine
10
726.950000000000
20
399.750000000000
30
0.0
11
696.950000000000
21
399.750000000000
31
0.0
0
LINE
5
698
100
AcDbEntity
8
0-0
6
CONTINUOUS
62
4
100
AcDbLine
10
686.950000000000
20
389.750000000000
30
0.0
11
726.950000000000
21
389.750000000000
31
0.0
0
LINE
5
699
100
AcDbEntity
8
0-0
6
CONTINUOUS
62
4
100
AcDbLine
10
259.120000000000
20
875.410000000000
30
0.0
11
270.120000000000
21
875.410000000000
31
0.0
0
LINE
5
69a
100
AcDbEntity
8
0-0
6
CONTINUOUS
62
4
100
AcDbLine
10
259.120000000000
20
865.410000000000
30
0.0
11
259.120000000000
21
875.410000000000
31
0.0
0
LINE
5
69b
100
AcDbEntity
8
0-0
6
CONTINUOUS
62
4
100
AcDbLine
10
270.120000000000
20
865.410000000000
30
0.0
11
270.120000000000
21
875.410000000000
31
0.0
0
LINE
5
69c
100
AcDbEntity
8
0-0
6
CONTINUOUS
62
4
100
AcDbLine
10
246.120000000000
20
852.370000000000
30
0.0
11
236.120000000000
21
852.370000000000
31
0.0
0
LINE
5
69d
100
AcDbEntity
8
0-0
6
CONTINUOUS
62
4
100
AcDbLine
10
246.120000000000
20
835.910000000000
30
0.0
11
226.120000000000
21
835.910000000000
31
0.0
0
LINE
5
69e
100
AcDbEntity
8
0-0
6
CONTINUOUS
62
4
100
AcDbLine
10
370.120000000000
20
746.030000000000
30
0.0
11
370.120000000000
21
756.030000000000
31
0.0
0
LINE
5
69f
100
AcDbEntity
8
0-0
6
CONTINUOUS
62
4
100
AcDbLine
10
50.460000000000
20
854.910000000000
30
0.0
11
40.460000000000
21
854.910000000000
31
0.0
0
LINE
5
6a0
100
AcDbEntity
8
0-0
6
CONTINUOUS
62
4
100
AcDbLine
10
64.460000000000
20
865.410000000000
30
0.0
11
64.460000000000
21
875.410000000000
31
0.0
0
LINE
5
6a1
100
AcDbEntity
8
0-0
6
CONTINUOUS
62
4
100
AcDbLine
10
64.460000000000
20
875.410000000000
30
0.0
11
164.460000000000
21
875.410000000000
31
0.0
0
LINE
5
6a2
100
AcDbEntity
8
0-0
6
CONTINUOUS
62
4
100
AcDbLine
10
164.460000000000
20
865.410000000000
30
0.0
11
164.460000000000
21
875.410000000000
31
0.0
0
LINE
5
6a3
100
AcDbEntity
8
0-0
6
CONTINUOUS
62
3
100
AcDbLine
10
64.960000000000
20
854.910000000000
30
0.0
11
162.830000000000
21
854.910000000000
31
0.0
0
LINE
5
6a4
100
AcDbEntity
8
0-0
6
CONTINUOUS
62
3
100
AcDbLine
10
64.460000000000
20
854.410000000000
30
0.0
11
64.460000000000
21
756.530000000000
31
0.0
0
LINE
5
6a5
100
AcDbEntity
8
0-0
6
CONTINUOUS
62
3
100
AcDbLine
10
64.960000000000
20
855.410000000000
30
0.0
11
162.830000000000
21
855.410000000000
31
0.0
0
LINE
5
6a6
100
AcDbEntity
8
0-0
6
CONTINUOUS
62
3
100
AcDbLine
10
63.960000000000
20
756.530000000000
30
0.0
11
63.960000000000
21
854.410000000000
31
0.0
0
LINE
5
6a7
100
AcDbEntity
8
0-0
6
CONTINUOUS
62
4
100
AcDbLine
10
40.460000000000
20
755.030000000000
30
0.0
11
40.460000000000
21
854.910000000000
31
0.0
0
LINE
5
6a8
100
AcDbEntity
8
0-0
6
CONTINUOUS
62
4
100
AcDbLine
10
74.960000000000
20
715.530000000000
30
0.0
11
63.960000000000
21
715.530000000000
31
0.0
0
LINE
5
6a9
100
AcDbEntity
8
0-0
6
CONTINUOUS
62
4
100
AcDbLine
10
74.960000000000
20
725.530000000000
30
0.0
11
74.960000000000
21
715.530000000000
31
0.0
0
LINE
5
6aa
100
AcDbEntity
8
0-0
6
CONTINUOUS
62
4
100
AcDbLine
10
63.960000000000
20
725.530000000000
30
0.0
11
63.960000000000
21
715.530000000000
31
0.0
0
LINE
5
6ab
100
AcDbEntity
8
0-0
6
CONTINUOUS
62
4
100
AcDbLine
10
270.120000000000
20
756.030000000000
30
0.0
11
370.120000000000
21
756.030000000000
31
0.0
0
LINE
5
6ac
100
AcDbEntity
8
0-0
6
CONTINUOUS
62
3
100
AcDbLine
10
270.620000000000
20
736.030000000000
30
0.0
11
368.500000000000
21
736.030000000000
31
0.0
0
LINE
5
6ad
100
AcDbEntity
8
0-0
6
CONTINUOUS
62
3
100
AcDbLine
10
270.120000000000
20
736.530000000000
30
0.0
11
270.120000000000
21
834.410000000000
31
0.0
0
LINE
5
6ae
100
AcDbEntity
8
0-0
6
CONTINUOUS
62
3
100
AcDbLine
10
269.620000000000
20
736.530000000000
30
0.0
11
269.620000000000
21
834.410000000000
31
0.0
0
LINE
5
6af
100
AcDbEntity
8
0-0
6
CONTINUOUS
62
3
100
AcDbLine
10
368.500000000000
20
735.530000000000
30
0.0
11
270.620000000000
21
735.530000000000
31
0.0
0
LINE
5
6b0
100
AcDbEntity
8
0-0
6
CONTINUOUS
62
4
100
AcDbLine
10
246.120000000000
20
736.030000000000
30
0.0
11
236.120000000000
21
736.030000000000
31
0.0
0
LINE
5
6b1
100
AcDbEntity
8
0-0
6
CONTINUOUS
62
3
100
AcDbLine
10
65.460000000000
20
755.530000000000
30
0.0
11
73.960000000000
21
755.530000000000
31
0.0
0
LINE
5
6b2
100
AcDbEntity
8
0-0
6
CONTINUOUS
62
3
100
AcDbLine
10
73.960000000000
20
755.030000000000
30
0.0
11
65.460000000000
21
755.030000000000
31
0.0
0
LINE
5
6b3
100
AcDbEntity
8
0-0
6
CONTINUOUS
62
4
100
AcDbLine
10
87.960000000000
20
735.030000000000
30
0.0
11
97.960000000000
21
735.030000000000
31
0.0
0
LINE
5
6b4
100
AcDbEntity
8
0-0
6
CONTINUOUS
62
4
100
AcDbLine
10
97.960000000000
20
735.030000000000
30
0.0
11
107.960000000000
21
735.030000000000
31
0.0
0
LINE
5
6b5
100
AcDbEntity
8
0-0
6
CONTINUOUS
62
4
100
AcDbLine
10
87.960000000000
20
755.530000000000
30
0.0
11
107.960000000000
21
755.530000000000
31
0.0
0
LINE
5
6b6
100
AcDbEntity
8
0-0
6
CONTINUOUS
62
3
100
AcDbLine
10
74.960000000000
20
748.530000000000
30
0.0
11
74.960000000000
21
754.030000000000
31
0.0
0
LINE
5
6b7
100
AcDbEntity
8
0-0
6
CONTINUOUS
62
3
100
AcDbLine
10
75.940000000000
20
735.030000000000
30
0.0
11
76.420000000000
21
735.160000000000
31
0.0
0
LINE
5
6b8
100
AcDbEntity
8
0-0
6
CONTINUOUS
62
3
100
AcDbLine
10
75.460000000000
20
748.630000000000
30
0.0
11
75.460000000000
21
754.030000000000
31
0.0
0
LINE
5
6b9
100
AcDbEntity
8
0-0
6
CONTINUOUS
62
4
100
AcDbLine
10
87.960000000000
20
738.530000000000
30
0.0
11
97.960000000000
21
738.530000000000
31
0.0
0
LINE
5
6ba
100
AcDbEntity
8
0-0
6
CONTINUOUS
62
4
100
AcDbLine
10
50.460000000000
20
755.030000000000
30
0.0
11
40.460000000000
21
755.030000000000
31
0.0
0
LINE
5
6bb
100
AcDbEntity
8
0-0
6
CONTINUOUS
62
3
100
AcDbLine
10
268.620000000000
20
835.410000000000
30
0.0
11
260.120000000000
21
835.410000000000
31
0.0
0
LINE
5
6bc
100
AcDbEntity
8
0-0
6
CONTINUOUS
62
3
100
AcDbLine
10
260.120000000000
20
835.910000000000
30
0.0
11
268.620000000000
21
835.910000000000
31
0.0
0
LINE
5
6bd
100
AcDbEntity
8
0-0
6
CONTINUOUS
62
3
100
AcDbLine
10
259.120000000000
20
842.410000000000
30
0.0
11
259.120000000000
21
836.910000000000
31
0.0
0
LINE
5
6be
100
AcDbEntity
8
0-0
6
CONTINUOUS
62
3
100
AcDbLine
10
258.140000000000
20
855.910000000000
30
0.0
11
257.660000000000
21
855.770000000000
31
0.0
0
LINE
5
6bf
100
AcDbEntity
8
0-0
6
CONTINUOUS
62
3
100
AcDbLine
10
258.620000000000
20
842.300000000000
30
0.0
11
258.620000000000
21
836.910000000000
31
0.0
0
LINE
5
6c0
100
AcDbEntity
8
0-0
6
CONTINUOUS
62
4
100
AcDbLine
10
246.120000000000
20
855.910000000000
30
0.0
11
226.120000000000
21
855.910000000000
31
0.0
0
LINE
5
6c1
100
AcDbEntity
8
0-0
6
CONTINUOUS
62
4
100
AcDbLine
10
236.120000000000
20
855.910000000000
30
0.0
11
236.120000000000
21
736.030000000000
31
0.0
0
LINE
5
6c2
100
AcDbEntity
8
0-0
6
CONTINUOUS
62
4
100
AcDbLine
10
226.120000000000
20
855.910000000000
30
0.0
11
226.120000000000
21
835.910000000000
31
0.0
0
LINE
5
6c3
100
AcDbEntity
8
0-0
6
CONTINUOUS
62
3
100
AcDbLine
10
257.660000000000
20
855.770000000000
30
0.0
11
258.620000000000
21
852.300000000000
31
0.0
0
LINE
5
6c4
100
AcDbEntity
8
0-0
6
CONTINUOUS
62
3
100
AcDbLine
10
258.620000000000
20
852.300000000000
30
0.0
11
258.620000000000
21
836.910000000000
31
0.0
0
LINE
5
6c5
100
AcDbEntity
8
0-0
6
CONTINUOUS
62
3
100
AcDbLine
10
258.140000000000
20
855.910000000000
30
0.0
11
259.120000000000
21
852.370000000000
31
0.0
0
LINE
5
6c6
100
AcDbEntity
8
0-0
6
CONTINUOUS
62
3
100
AcDbLine
10
259.120000000000
20
852.370000000000
30
0.0
11
259.120000000000
21
836.910000000000
31
0.0
0
LINE
5
6c7
100
AcDbEntity
8
0-0
6
CONTINUOUS
62
4
100
AcDbLine
10
97.960000000000
20
735.030000000000
30
0.0
11
97.960000000000
21
755.530000000000
31
0.0
0
LINE
5
6c8
100
AcDbEntity
8
0-0
6
CONTINUOUS
62
4
100
AcDbLine
10
107.960000000000
20
735.030000000000
30
0.0
11
107.960000000000
21
755.530000000000
31
0.0
0
LINE
5
6c9
100
AcDbEntity
8
0-0
6
CONTINUOUS
62
3
100
AcDbLine
10
75.460000000000
20
738.630000000000
30
0.0
11
75.460000000000
21
754.030000000000
31
0.0
0
LINE
5
6ca
100
AcDbEntity
8
0-0
6
CONTINUOUS
62
3
100
AcDbLine
10
76.420000000000
20
735.160000000000
30
0.0
11
75.460000000000
21
738.630000000000
31
0.0
0
LINE
5
6cb
100
AcDbEntity
8
0-0
6
CONTINUOUS
62
3
100
AcDbLine
10
75.940000000000
20
735.030000000000
30
0.0
11
74.960000000000
21
738.570000000000
31
0.0
0
LINE
5
6cc
100
AcDbEntity
8
0-0
6
CONTINUOUS
62
3
100
AcDbLine
10
74.960000000000
20
738.570000000000
30
0.0
11
74.960000000000
21
754.030000000000
31
0.0
0
LINE
5
6cd
100
AcDbEntity
8
0-0
6
CONTINUOUS
62
4
100
AcDbLine
10
388.830000000000
20
456.780000000000
30
0.0
11
388.830000000000
21
470.780000000000
31
0.0
0
LINE
5
6ce
100
AcDbEntity
8
0-0
6
CONTINUOUS
62
4
100
AcDbLine
10
378.830000000000
20
456.780000000000
30
0.0
11
388.830000000000
21
456.780000000000
31
0.0
0
LINE
5
6cf
100
AcDbEntity
8
0-0
6
CONTINUOUS
62
4
100
AcDbLine
10
378.830000000000
20
470.780000000000
30
0.0
11
388.830000000000
21
470.780000000000
31
0.0
0
LINE
5
6d0
100
AcDbEntity
8
0-0
6
CONTINUOUS
62
4
100
AcDbLine
10
343.830000000000
20
446.780000000000
30
0.0
11
343.830000000000
21
436.780000000000
31
0.0
0
LINE
5
6d1
100
AcDbEntity
8
0-0
6
CONTINUOUS
62
4
100
AcDbLine
10
343.830000000000
20
436.780000000000
30
0.0
11
353.830000000000
21
436.780000000000
31
0.0
0
LINE
5
6d2
100
AcDbEntity
8
0-0
6
CONTINUOUS
62
4
100
AcDbLine
10
353.830000000000
20
446.780000000000
30
0.0
11
353.830000000000
21
436.780000000000
31
0.0
0
LINE
5
6d3
100
AcDbEntity
8
0-0
6
CONTINUOUS
62
4
100
AcDbLine
10
358.830000000000
20
446.780000000000
30
0.0
11
358.830000000000
21
436.780000000000
31
0.0
0
LINE
5
6d4
100
AcDbEntity
8
0-0
6
CONTINUOUS
62
4
100
AcDbLine
10
343.830000000000
20
436.780000000000
30
0.0
11
343.830000000000
21
426.780000000000
31
0.0
0
LINE
5
6d5
100
AcDbEntity
8
0-0
6
CONTINUOUS
62
4
100
AcDbLine
10
333.830000000000
20
456.780000000000
30
0.0
11
333.830000000000
21
460.780000000000
31
0.0
0
LINE
5
6d6
100
AcDbEntity
8
0-0
6
CONTINUOUS
62
4
100
AcDbLine
10
338.830000000000
20
456.780000000000
30
0.0
11
333.830000000000
21
456.780000000000
31
0.0
0
LINE
5
6d7
100
AcDbEntity
8
0-0
6
CONTINUOUS
62
4
100
AcDbLine
10
338.830000000000
20
460.780000000000
30
0.0
11
333.830000000000
21
460.780000000000
31
0.0
0
LINE
5
6d8
100
AcDbEntity
8
0-0
6
CONTINUOUS
62
3
100
AcDbLine
10
345.450000000000
20
460.780000000000
30
0.0
11
351.530000000000
21
461.700000000000
31
0.0
0
LINE
5
6d9
100
AcDbEntity
8
0-0
6
CONTINUOUS
62
3
100
AcDbLine
10
345.520000000000
20
460.290000000000
30
0.0
11
351.640000000000
21
461.210000000000
31
0.0
0
LINE
5
6da
100
AcDbEntity
8
0-0
6
CONTINUOUS
62
3
100
AcDbLine
10
353.820000000000
20
469.200000000000
30
0.0
11
352.680000000000
21
462.190000000000
31
0.0
0
LINE
5
6db
100
AcDbEntity
8
0-0
6
CONTINUOUS
62
3
100
AcDbLine
10
353.330000000000
20
469.280000000000
30
0.0
11
352.200000000000
21
462.310000000000
31
0.0
0
LINE
5
6dc
100
AcDbEntity
8
0-0
6
CONTINUOUS
62
3
100
AcDbLine
10
359.200000000000
20
458.130000000000
30
0.0
11
361.330000000000
21
457.280000000000
31
0.0
0
LINE
5
6dd
100
AcDbEntity
8
0-0
6
CONTINUOUS
62
3
100
AcDbLine
10
361.330000000000
20
457.280000000000
30
0.0
11
366.450000000000
21
457.280000000000
31
0.0
0
LINE
5
6de
100
AcDbEntity
8
0-0
6
CONTINUOUS
62
3
100
AcDbLine
10
361.230000000000
20
456.780000000000
30
0.0
11
366.580000000000
21
456.780000000000
31
0.0
0
LINE
5
6df
100
AcDbEntity
8
0-0
6
CONTINUOUS
62
3
100
AcDbLine
10
359.010000000000
20
457.670000000000
30
0.0
11
361.230000000000
21
456.780000000000
31
0.0
0
LINE
5
6e0
100
AcDbEntity
8
0-0
6
CONTINUOUS
62
3
100
AcDbLine
10
345.450000000000
20
457.280000000000
30
0.0
11
356.330000000000
21
457.280000000000
31
0.0
0
LINE
5
6e1
100
AcDbEntity
8
0-0
6
CONTINUOUS
62
3
100
AcDbLine
10
356.330000000000
20
457.280000000000
30
0.0
11
358.450000000000
21
458.130000000000
31
0.0
0
LINE
5
6e2
100
AcDbEntity
8
0-0
6
CONTINUOUS
62
3
100
AcDbLine
10
358.640000000000
20
457.670000000000
30
0.0
11
356.420000000000
21
456.780000000000
31
0.0
0
LINE
5
6e3
100
AcDbEntity
8
0-0
6
CONTINUOUS
62
3
100
AcDbLine
10
356.420000000000
20
456.780000000000
30
0.0
11
345.450000000000
21
456.780000000000
31
0.0
0
LINE
5
6e4
100
AcDbEntity
8
0-0
6
CONTINUOUS
62
4
100
AcDbLine
10
371.830000000000
20
446.780000000000
30
0.0
11
371.830000000000
21
436.780000000000
31
0.0
0
LINE
5
6e5
100
AcDbEntity
8
0-0
6
CONTINUOUS
62
4
100
AcDbLine
10
371.830000000000
20
436.780000000000
30
0.0
11
371.830000000000
21
426.780000000000
31
0.0
0
LINE
5
6e6
100
AcDbEntity
8
0-0
6
CONTINUOUS
62
4
100
AcDbLine
10
353.830000000000
20
436.780000000000
30
0.0
11
371.830000000000
21
436.780000000000
31
0.0
0
LINE
5
6e7
100
AcDbEntity
8
0-0
6
CONTINUOUS
62
4
100
AcDbLine
10
343.830000000000
20
426.780000000000
30
0.0
11
371.830000000000
21
426.780000000000
31
0.0
0
LINE
5
6e8
100
AcDbEntity
8
0-0
6
CONTINUOUS
62
3
100
AcDbLine
10
366.450000000000
20
457.280000000000
30
0.0
11
371.590000000000
21
460.080000000000
31
0.0
0
LINE
5
6e9
100
AcDbEntity
8
0-0
6
CONTINUOUS
62
3
100
AcDbLine
10
371.590000000000
20
460.080000000000
30
0.0
11
371.830000000000
21
459.650000000000
31
0.0
0
LINE
5
6ea
100
AcDbEntity
8
0-0
6
CONTINUOUS
62
3
100
AcDbLine
10
366.580000000000
20
456.780000000000
30
0.0
11
371.830000000000
21
459.650000000000
31
0.0
0
LINE
5
6eb
100
AcDbEntity
8
0-0
6
CONTINUOUS
62
4
100
AcDbLine
10
343.830000000000
20
345.750000000000
30
0.0
11
343.830000000000
21
335.750000000000
31
0.0
0
LINE
5
6ec
100
AcDbEntity
8
0-0
6
CONTINUOUS
62
4
100
AcDbLine
10
343.830000000000
20
335.750000000000
30
0.0
11
353.830000000000
21
335.750000000000
31
0.0
0
LINE
5
6ed
100
AcDbEntity
8
0-0
6
CONTINUOUS
62
4
100
AcDbLine
10
353.830000000000
20
345.750000000000
30
0.0
11
353.830000000000
21
335.750000000000
31
0.0
0
LINE
5
6ee
100
AcDbEntity
8
0-0
6
CONTINUOUS
62
4
100
AcDbLine
10
358.830000000000
20
345.750000000000
30
0.0
11
358.830000000000
21
335.750000000000
31
0.0
0
LINE
5
6ef
100
AcDbEntity
8
0-0
6
CONTINUOUS
62
4
100
AcDbLine
10
343.830000000000
20
335.750000000000
30
0.0
11
343.830000000000
21
325.750000000000
31
0.0
0
LINE
5
6f0
100
AcDbEntity
8
0-0
6
CONTINUOUS
62
4
100
AcDbLine
10
333.830000000000
20
355.750000000000
30
0.0
11
333.830000000000
21
359.750000000000
31
0.0
0
LINE
5
6f1
100
AcDbEntity
8
0-0
6
CONTINUOUS
62
4
100
AcDbLine
10
338.830000000000
20
355.750000000000
30
0.0
11
333.830000000000
21
355.750000000000
31
0.0
0
LINE
5
6f2
100
AcDbEntity
8
0-0
6
CONTINUOUS
62
4
100
AcDbLine
10
338.830000000000
20
359.750000000000
30
0.0
11
333.830000000000
21
359.750000000000
31
0.0
0
LINE
5
6f3
100
AcDbEntity
8
0-0
6
CONTINUOUS
62
3
100
AcDbLine
10
345.450000000000
20
359.750000000000
30
0.0
11
351.530000000000
21
360.660000000000
31
0.0
0
LINE
5
6f4
100
AcDbEntity
8
0-0
6
CONTINUOUS
62
3
100
AcDbLine
10
345.520000000000
20
359.250000000000
30
0.0
11
351.640000000000
21
360.170000000000
31
0.0
0
LINE
5
6f5
100
AcDbEntity
8
0-0
6
CONTINUOUS
62
3
100
AcDbLine
10
353.820000000000
20
368.170000000000
30
0.0
11
352.680000000000
21
361.150000000000
31
0.0
0
LINE
5
6f6
100
AcDbEntity
8
0-0
6
CONTINUOUS
62
3
100
AcDbLine
10
353.330000000000
20
368.250000000000
30
0.0
11
352.200000000000
21
361.270000000000
31
0.0
0
LINE
5
6f7
100
AcDbEntity
8
0-0
6
CONTINUOUS
62
3
100
AcDbLine
10
359.200000000000
20
357.100000000000
30
0.0
11
361.330000000000
21
356.250000000000
31
0.0
0
LINE
5
6f8
100
AcDbEntity
8
0-0
6
CONTINUOUS
62
3
100
AcDbLine
10
361.330000000000
20
356.250000000000
30
0.0
11
366.450000000000
21
356.250000000000
31
0.0
0
LINE
5
6f9
100
AcDbEntity
8
0-0
6
CONTINUOUS
62
3
100
AcDbLine
10
361.230000000000
20
355.750000000000
30
0.0
11
366.580000000000
21
355.750000000000
31
0.0
0
LINE
5
6fa
100
AcDbEntity
8
0-0
6
CONTINUOUS
62
3
100
AcDbLine
10
359.010000000000
20
356.630000000000
30
0.0
11
361.230000000000
21
355.750000000000
31
0.0
0
LINE
5
6fb
100
AcDbEntity
8
0-0
6
CONTINUOUS
62
3
100
AcDbLine
10
345.450000000000
20
356.250000000000
30
0.0
11
356.330000000000
21
356.250000000000
31
0.0
0
LINE
5
6fc
100
AcDbEntity
8
0-0
6
CONTINUOUS
62
3
100
AcDbLine
10
356.330000000000
20
356.250000000000
30
0.0
11
358.450000000000
21
357.100000000000
31
0.0
0
LINE
5
6fd
100
AcDbEntity
8
0-0
6
CONTINUOUS
62
3
100
AcDbLine
10
358.640000000000
20
356.630000000000
30
0.0
11
356.420000000000
21
355.750000000000
31
0.0
0
LINE
5
6fe
100
AcDbEntity
8
0-0
6
CONTINUOUS
62
3
100
AcDbLine
10
356.420000000000
20
355.750000000000
30
0.0
11
345.450000000000
21
355.750000000000
31
0.0
0
LINE
5
6ff
100
AcDbEntity
8
0-0
6
CONTINUOUS
62
4
100
AcDbLine
10
371.830000000000
20
345.750000000000
30
0.0
11
371.830000000000
21
335.750000000000
31
0.0
0
LINE
5
700
100
AcDbEntity
8
0-0
6
CONTINUOUS
62
4
100
AcDbLine
10
371.830000000000
20
335.750000000000
30
0.0
11
371.830000000000
21
325.750000000000
31
0.0
0
LINE
5
701
100
AcDbEntity
8
0-0
6
CONTINUOUS
62
4
100
AcDbLine
10
353.830000000000
20
335.750000000000
30
0.0
11
371.830000000000
21
335.750000000000
31
0.0
0
LINE
5
702
100
AcDbEntity
8
0-0
6
CONTINUOUS
62
4
100
AcDbLine
10
343.830000000000
20
325.750000000000
30
0.0
11
371.830000000000
21
325.750000000000
31
0.0
0
LINE
5
703
100
AcDbEntity
8
0-0
6
CONTINUOUS
62
3
100
AcDbLine
10
366.450000000000
20
356.250000000000
30
0.0
11
371.590000000000
21
359.050000000000
31
0.0
0
LINE
5
704
100
AcDbEntity
8
0-0
6
CONTINUOUS
62
3
100
AcDbLine
10
371.590000000000
20
359.050000000000
30
0.0
11
371.830000000000
21
358.610000000000
31
0.0
0
LINE
5
705
100
AcDbEntity
8
0-0
6
CONTINUOUS
62
3
100
AcDbLine
10
366.580000000000
20
355.750000000000
30
0.0
11
371.830000000000
21
358.610000000000
31
0.0
0
LINE
5
706
100
AcDbEntity
8
0-0
6
CONTINUOUS
62
4
100
AcDbLine
10
343.830000000000
20
181.600000000000
30
0.0
11
343.830000000000
21
171.600000000000
31
0.0
0
LINE
5
707
100
AcDbEntity
8
0-0
6
CONTINUOUS
62
4
100
AcDbLine
10
343.830000000000
20
171.600000000000
30
0.0
11
353.830000000000
21
171.600000000000
31
0.0
0
LINE
5
708
100
AcDbEntity
8
0-0
6
CONTINUOUS
62
4
100
AcDbLine
10
353.830000000000
20
181.600000000000
30
0.0
11
353.830000000000
21
171.600000000000
31
0.0
0
LINE
5
709
100
AcDbEntity
8
0-0
6
CONTINUOUS
62
4
100
AcDbLine
10
358.830000000000
20
181.600000000000
30
0.0
11
358.830000000000
21
171.600000000000
31
0.0
0
LINE
5
70a
100
AcDbEntity
8
0-0
6
CONTINUOUS
62
4
100
AcDbLine
10
343.830000000000
20
171.600000000000
30
0.0
11
343.830000000000
21
161.600000000000
31
0.0
0
LINE
5
70b
100
AcDbEntity
8
0-0
6
CONTINUOUS
62
4
100
AcDbLine
10
333.830000000000
20
191.600000000000
30
0.0
11
333.830000000000
21
195.600000000000
31
0.0
0
LINE
5
70c
100
AcDbEntity
8
0-0
6
CONTINUOUS
62
4
100
AcDbLine
10
338.830000000000
20
191.600000000000
30
0.0
11
333.830000000000
21
191.600000000000
31
0.0
0
LINE
5
70d
100
AcDbEntity
8
0-0
6
CONTINUOUS
62
4
100
AcDbLine
10
338.830000000000
20
195.600000000000
30
0.0
11
333.830000000000
21
195.600000000000
31
0.0
0
LINE
5
70e
100
AcDbEntity
8
0-0
6
CONTINUOUS
62
3
100
AcDbLine
10
345.450000000000
20
195.600000000000
30
0.0
11
351.530000000000
21
196.510000000000
31
0.0
0
LINE
5
70f
100
AcDbEntity
8
0-0
6
CONTINUOUS
62
3
100
AcDbLine
10
345.520000000000
20
195.100000000000
30
0.0
11
351.640000000000
21
196.020000000000
31
0.0
0
LINE
5
710
100
AcDbEntity
8
0-0
6
CONTINUOUS
62
3
100
AcDbLine
10
353.820000000000
20
204.020000000000
30
0.0
11
352.680000000000
21
197.000000000000
31
0.0
0
LINE
5
711
100
AcDbEntity
8
0-0
6
CONTINUOUS
62
3
100
AcDbLine
10
353.330000000000
20
204.100000000000
30
0.0
11
352.200000000000
21
197.120000000000
31
0.0
0
LINE
5
712
100
AcDbEntity
8
0-0
6
CONTINUOUS
62
3
100
AcDbLine
10
359.200000000000
20
192.950000000000
30
0.0
11
361.330000000000
21
192.100000000000
31
0.0
0
LINE
5
713
100
AcDbEntity
8
0-0
6
CONTINUOUS
62
3
100
AcDbLine
10
361.330000000000
20
192.100000000000
30
0.0
11
366.450000000000
21
192.100000000000
31
0.0
0
LINE
5
714
100
AcDbEntity
8
0-0
6
CONTINUOUS
62
3
100
AcDbLine
10
361.230000000000
20
191.600000000000
30
0.0
11
366.580000000000
21
191.600000000000
31
0.0
0
LINE
5
715
100
AcDbEntity
8
0-0
6
CONTINUOUS
62
3
100
AcDbLine
10
359.010000000000
20
192.480000000000
30
0.0
11
361.230000000000
21
191.600000000000
31
0.0
0
LINE
5
716
100
AcDbEntity
8
0-0
6
CONTINUOUS
62
3
100
AcDbLine
10
345.450000000000
20
192.100000000000
30
0.0
11
356.330000000000
21
192.100000000000
31
0.0
0
LINE
5
717
100
AcDbEntity
8
0-0
6
CONTINUOUS
62
3
100
AcDbLine
10
356.330000000000
20
192.100000000000
30
0.0
11
358.450000000000
21
192.950000000000
31
0.0
0
LINE
5
718
100
AcDbEntity
8
0-0
6
CONTINUOUS
62
3
100
AcDbLine
10
358.640000000000
20
192.480000000000
30
0.0
11
356.420000000000
21
191.600000000000
31
0.0
0
LINE
5
719
100
AcDbEntity
8
0-0
6
CONTINUOUS
62
3
100
AcDbLine
10
356.420000000000
20
191.600000000000
30
0.0
11
345.450000000000
21
191.600000000000
31
0.0
0
LINE
5
71a
100
AcDbEntity
8
0-0
6
CONTINUOUS
62
4
100
AcDbLine
10
371.830000000000
20
181.600000000000
30
0.0
11
371.830000000000
21
171.600000000000
31
0.0
0
LINE
5
71b
100
AcDbEntity
8
0-0
6
CONTINUOUS
62
4
100
AcDbLine
10
371.830000000000
20
171.600000000000
30
0.0
11
371.830000000000
21
161.600000000000
31
0.0
0
LINE
5
71c
100
AcDbEntity
8
0-0
6
CONTINUOUS
62
4
100
AcDbLine
10
353.830000000000
20
171.600000000000
30
0.0
11
371.830000000000
21
171.600000000000
31
0.0
0
LINE
5
71d
100
AcDbEntity
8
0-0
6
CONTINUOUS
62
4
100
AcDbLine
10
343.830000000000
20
161.600000000000
30
0.0
11
371.830000000000
21
161.600000000000
31
0.0
0
LINE
5
71e
100
AcDbEntity
8
0-0
6
CONTINUOUS
62
3
100
AcDbLine
10
366.450000000000
20
192.100000000000
30
0.0
11
371.590000000000
21
194.900000000000
31
0.0
0
LINE
5
71f
100
AcDbEntity
8
0-0
6
CONTINUOUS
62
3
100
AcDbLine
10
371.590000000000
20
194.900000000000
30
0.0
11
371.830000000000
21
194.460000000000
31
0.0
0
LINE
5
720
100
AcDbEntity
8
0-0
6
CONTINUOUS
62
3
100
AcDbLine
10
366.580000000000
20
191.600000000000
30
0.0
11
371.830000000000
21
194.460000000000
31
0.0
0
LINE
5
721
100
AcDbEntity
8
0-0
6
CONTINUOUS
62
4
100
AcDbLine
10
343.830000000000
20
80.560000000000
30
0.0
11
343.830000000000
21
70.560000000000
31
0.0
0
LINE
5
722
100
AcDbEntity
8
0-0
6
CONTINUOUS
62
4
100
AcDbLine
10
343.830000000000
20
70.560000000000
30
0.0
11
353.830000000000
21
70.560000000000
31
0.0
0
LINE
5
723
100
AcDbEntity
8
0-0
6
CONTINUOUS
62
4
100
AcDbLine
10
353.830000000000
20
80.560000000000
30
0.0
11
353.830000000000
21
70.560000000000
31
0.0
0
LINE
5
724
100
AcDbEntity
8
0-0
6
CONTINUOUS
62
4
100
AcDbLine
10
358.830000000000
20
80.560000000000
30
0.0
11
358.830000000000
21
70.560000000000
31
0.0
0
LINE
5
725
100
AcDbEntity
8
0-0
6
CONTINUOUS
62
4
100
AcDbLine
10
343.830000000000
20
70.560000000000
30
0.0
11
343.830000000000
21
60.560000000000
31
0.0
0
LINE
5
726
100
AcDbEntity
8
0-0
6
CONTINUOUS
62
4
100
AcDbLine
10
333.830000000000
20
90.560000000000
30
0.0
11
333.830000000000
21
94.560000000000
31
0.0
0
LINE
5
727
100
AcDbEntity
8
0-0
6
CONTINUOUS
62
4
100
AcDbLine
10
338.830000000000
20
90.560000000000
30
0.0
11
333.830000000000
21
90.560000000000
31
0.0
0
LINE
5
728
100
AcDbEntity
8
0-0
6
CONTINUOUS
62
4
100
AcDbLine
10
338.830000000000
20
94.560000000000
30
0.0
11
333.830000000000
21
94.560000000000
31
0.0
0
LINE
5
729
100
AcDbEntity
8
0-0
6
CONTINUOUS
62
3
100
AcDbLine
10
345.450000000000
20
94.560000000000
30
0.0
11
351.530000000000
21
95.470000000000
31
0.0
0
LINE
5
72a
100
AcDbEntity
8
0-0
6
CONTINUOUS
62
3
100
AcDbLine
10
345.520000000000
20
94.060000000000
30
0.0
11
351.640000000000
21
94.980000000000
31
0.0
0
LINE
5
72b
100
AcDbEntity
8
0-0
6
CONTINUOUS
62
3
100
AcDbLine
10
353.820000000000
20
102.980000000000
30
0.0
11
352.680000000000
21
95.960000000000
31
0.0
0
LINE
5
72c
100
AcDbEntity
8
0-0
6
CONTINUOUS
62
3
100
AcDbLine
10
353.330000000000
20
103.060000000000
30
0.0
11
352.200000000000
21
96.080000000000
31
0.0
0
LINE
5
72d
100
AcDbEntity
8
0-0
6
CONTINUOUS
62
3
100
AcDbLine
10
359.200000000000
20
91.910000000000
30
0.0
11
361.330000000000
21
91.060000000000
31
0.0
0
LINE
5
72e
100
AcDbEntity
8
0-0
6
CONTINUOUS
62
3
100
AcDbLine
10
361.330000000000
20
91.060000000000
30
0.0
11
366.450000000000
21
91.060000000000
31
0.0
0
LINE
5
72f
100
AcDbEntity
8
0-0
6
CONTINUOUS
62
3
100
AcDbLine
10
361.230000000000
20
90.560000000000
30
0.0
11
366.580000000000
21
90.560000000000
31
0.0
0
LINE
5
730
100
AcDbEntity
8
0-0
6
CONTINUOUS
62
3
100
AcDbLine
10
359.010000000000
20
91.450000000000
30
0.0
11
361.230000000000
21
90.560000000000
31
0.0
0
LINE
5
731
100
AcDbEntity
8
0-0
6
CONTINUOUS
62
3
100
AcDbLine
10
345.450000000000
20
91.060000000000
30
0.0
11
356.330000000000
21
91.060000000000
31
0.0
0
LINE
5
732
100
AcDbEntity
8
0-0
6
CONTINUOUS
62
3
100
AcDbLine
10
356.330000000000
20
91.060000000000
30
0.0
11
358.450000000000
21
91.910000000000
31
0.0
0
LINE
5
733
100
AcDbEntity
8
0-0
6
CONTINUOUS
62
3
100
AcDbLine
10
358.640000000000
20
91.450000000000
30
0.0
11
356.420000000000
21
90.560000000000
31
0.0
0
LINE
5
734
100
AcDbEntity
8
0-0
6
CONTINUOUS
62
3
100
AcDbLine
10
356.420000000000
20
90.560000000000
30
0.0
11
345.450000000000
21
90.560000000000
31
0.0
0
LINE
5
735
100
AcDbEntity
8
0-0
6
CONTINUOUS
62
4
100
AcDbLine
10
371.830000000000
20
80.560000000000
30
0.0
11
371.830000000000
21
70.560000000000
31
0.0
0
LINE
5
736
100
AcDbEntity
8
0-0
6
CONTINUOUS
62
4
100
AcDbLine
10
371.830000000000
20
70.560000000000
30
0.0
11
371.830000000000
21
60.560000000000
31
0.0
0
LINE
5
737
100
AcDbEntity
8
0-0
6
CONTINUOUS
62
4
100
AcDbLine
10
353.830000000000
20
70.560000000000
30
0.0
11
371.830000000000
21
70.560000000000
31
0.0
0
LINE
5
738
100
AcDbEntity
8
0-0
6
CONTINUOUS
62
4
100
AcDbLine
10
343.830000000000
20
60.560000000000
30
0.0
11
371.830000000000
21
60.560000000000
31
0.0
0
LINE
5
739
100
AcDbEntity
8
0-0
6
CONTINUOUS
62
3
100
AcDbLine
10
366.450000000000
20
91.060000000000
30
0.0
11
371.590000000000
21
93.860000000000
31
0.0
0
LINE
5
73a
100
AcDbEntity
8
0-0
6
CONTINUOUS
62
3
100
AcDbLine
10
371.590000000000
20
93.860000000000
30
0.0
11
371.830000000000
21
93.420000000000
31
0.0
0
LINE
5
73b
100
AcDbEntity
8
0-0
6
CONTINUOUS
62
3
100
AcDbLine
10
366.580000000000
20
90.560000000000
30
0.0
11
371.830000000000
21
93.420000000000
31
0.0
0
LINE
5
73c
100
AcDbEntity
8
0-0
6
CONTINUOUS
62
4
100
AcDbLine
10
475.950000000000
20
480.780000000000
30
0.0
11
475.950000000000
21
490.780000000000
31
0.0
0
LINE
5
73d
100
AcDbEntity
8
0-0
6
CONTINUOUS
62
3
100
AcDbLine
10
487.580000000000
20
469.280000000000
30
0.0
11
487.580000000000
21
460.780000000000
31
0.0
0
LINE
5
73e
100
AcDbEntity
8
0-0
6
CONTINUOUS
62
3
100
AcDbLine
10
487.080000000000
20
460.780000000000
30
0.0
11
487.080000000000
21
469.280000000000
31
0.0
0
LINE
5
73f
100
AcDbEntity
8
0-0
6
CONTINUOUS
62
3
100
AcDbLine
10
467.950000000000
20
460.780000000000
30
0.0
11
474.030000000000
21
461.700000000000
31
0.0
0
LINE
5
740
100
AcDbEntity
8
0-0
6
CONTINUOUS
62
3
100
AcDbLine
10
468.020000000000
20
460.290000000000
30
0.0
11
474.140000000000
21
461.210000000000
31
0.0
0
LINE
5
741
100
AcDbEntity
8
0-0
6
CONTINUOUS
62
3
100
AcDbLine
10
476.320000000000
20
469.200000000000
30
0.0
11
475.180000000000
21
462.190000000000
31
0.0
0
LINE
5
742
100
AcDbEntity
8
0-0
6
CONTINUOUS
62
3
100
AcDbLine
10
475.830000000000
20
469.280000000000
30
0.0
11
474.700000000000
21
462.310000000000
31
0.0
0
LINE
5
743
100
AcDbEntity
8
0-0
6
CONTINUOUS
62
3
100
AcDbLine
10
480.700000000000
20
458.130000000000
30
0.0
11
482.830000000000
21
457.280000000000
31
0.0
0
LINE
5
744
100
AcDbEntity
8
0-0
6
CONTINUOUS
62
3
100
AcDbLine
10
482.830000000000
20
457.280000000000
30
0.0
11
487.950000000000
21
457.280000000000
31
0.0
0
LINE
5
745
100
AcDbEntity
8
0-0
6
CONTINUOUS
62
3
100
AcDbLine
10
482.730000000000
20
456.780000000000
30
0.0
11
488.080000000000
21
456.780000000000
31
0.0
0
LINE
5
746
100
AcDbEntity
8
0-0
6
CONTINUOUS
62
3
100
AcDbLine
10
480.510000000000
20
457.670000000000
30
0.0
11
482.730000000000
21
456.780000000000
31
0.0
0
LINE
5
747
100
AcDbEntity
8
0-0
6
CONTINUOUS
62
3
100
AcDbLine
10
467.950000000000
20
457.280000000000
30
0.0
11
477.830000000000
21
457.280000000000
31
0.0
0
LINE
5
748
100
AcDbEntity
8
0-0
6
CONTINUOUS
62
3
100
AcDbLine
10
477.830000000000
20
457.280000000000
30
0.0
11
479.950000000000
21
458.130000000000
31
0.0
0
LINE
5
749
100
AcDbEntity
8
0-0
6
CONTINUOUS
62
3
100
AcDbLine
10
477.920000000000
20
456.780000000000
30
0.0
11
467.950000000000
21
456.780000000000
31
0.0
0
LINE
5
74a
100
AcDbEntity
8
0-0
6
CONTINUOUS
62
3
100
AcDbLine
10
480.140000000000
20
457.670000000000
30
0.0
11
477.920000000000
21
456.780000000000
31
0.0
0
LINE
5
74b
100
AcDbEntity
8
0-0
6
CONTINUOUS
62
3
100
AcDbLine
10
470.580000000000
20
459.780000000000
30
0.0
11
486.080000000000
21
459.780000000000
31
0.0
0
LINE
5
74c
100
AcDbEntity
8
0-0
6
CONTINUOUS
62
3
100
AcDbLine
10
470.680000000000
20
459.280000000000
30
0.0
11
486.080000000000
21
459.280000000000
31
0.0
0
LINE
5
74d
100
AcDbEntity
8
0-0
6
CONTINUOUS
62
3
100
AcDbLine
10
446.450000000000
20
470.780000000000
30
0.0
11
474.830000000000
21
470.780000000000
31
0.0
0
LINE
5
74e
100
AcDbEntity
8
0-0
6
CONTINUOUS
62
3
100
AcDbLine
10
474.830000000000
20
470.280000000000
30
0.0
11
446.450000000000
21
470.280000000000
31
0.0
0
LINE
5
74f
100
AcDbEntity
8
0-0
6
CONTINUOUS
62
3
100
AcDbLine
10
466.580000000000
20
458.660000000000
30
0.0
11
470.610000000000
21
459.780000000000
31
0.0
0
LINE
5
750
100
AcDbEntity
8
0-0
6
CONTINUOUS
62
3
100
AcDbLine
10
466.580000000000
20
458.660000000000
30
0.0
11
466.710000000000
21
458.180000000000
31
0.0
0
LINE
5
751
100
AcDbEntity
8
0-0
6
CONTINUOUS
62
3
100
AcDbLine
10
466.710000000000
20
458.180000000000
30
0.0
11
470.680000000000
21
459.280000000000
31
0.0
0
LINE
5
752
100
AcDbEntity
8
0-0
6
CONTINUOUS
62
3
100
AcDbLine
10
487.950000000000
20
457.280000000000
30
0.0
11
493.090000000000
21
460.080000000000
31
0.0
0
LINE
5
753
100
AcDbEntity
8
0-0
6
CONTINUOUS
62
3
100
AcDbLine
10
493.090000000000
20
460.080000000000
30
0.0
11
493.330000000000
21
459.650000000000
31
0.0
0
LINE
5
754
100
AcDbEntity
8
0-0
6
CONTINUOUS
62
3
100
AcDbLine
10
488.080000000000
20
456.780000000000
30
0.0
11
493.330000000000
21
459.650000000000
31
0.0
0
LINE
5
755
100
AcDbEntity
8
0-0
6
CONTINUOUS
62
3
100
AcDbLine
10
487.580000000000
20
368.250000000000
30
0.0
11
487.580000000000
21
359.750000000000
31
0.0
0
LINE
5
756
100
AcDbEntity
8
0-0
6
CONTINUOUS
62
3
100
AcDbLine
10
487.080000000000
20
359.750000000000
30
0.0
11
487.080000000000
21
368.250000000000
31
0.0
0
LINE
5
757
100
AcDbEntity
8
0-0
6
CONTINUOUS
62
3
100
AcDbLine
10
467.950000000000
20
359.750000000000
30
0.0
11
474.030000000000
21
360.660000000000
31
0.0
0
LINE
5
758
100
AcDbEntity
8
0-0
6
CONTINUOUS
62
3
100
AcDbLine
10
468.020000000000
20
359.250000000000
30
0.0
11
474.140000000000
21
360.170000000000
31
0.0
0
LINE
5
759
100
AcDbEntity
8
0-0
6
CONTINUOUS
62
3
100
AcDbLine
10
476.320000000000
20
368.170000000000
30
0.0
11
475.180000000000
21
361.150000000000
31
0.0
0
LINE
5
75a
100
AcDbEntity
8
0-0
6
CONTINUOUS
62
3
100
AcDbLine
10
475.830000000000
20
368.250000000000
30
0.0
11
474.700000000000
21
361.270000000000
31
0.0
0
LINE
5
75b
100
AcDbEntity
8
0-0
6
CONTINUOUS
62
3
100
AcDbLine
10
480.700000000000
20
357.100000000000
30
0.0
11
482.830000000000
21
356.250000000000
31
0.0
0
LINE
5
75c
100
AcDbEntity
8
0-0
6
CONTINUOUS
62
3
100
AcDbLine
10
482.830000000000
20
356.250000000000
30
0.0
11
487.950000000000
21
356.250000000000
31
0.0
0
LINE
5
75d
100
AcDbEntity
8
0-0
6
CONTINUOUS
62
3
100
AcDbLine
10
482.730000000000
20
355.750000000000
30
0.0
11
488.080000000000
21
355.750000000000
31
0.0
0
LINE
5
75e
100
AcDbEntity
8
0-0
6
CONTINUOUS
62
3
100
AcDbLine
10
480.510000000000
20
356.630000000000
30
0.0
11
482.730000000000
21
355.750000000000
31
0.0
0
LINE
5
75f
100
AcDbEntity
8
0-0
6
CONTINUOUS
62
3
100
AcDbLine
10
467.950000000000
20
356.250000000000
30
0.0
11
477.830000000000
21
356.250000000000
31
0.0
0
LINE
5
760
100
AcDbEntity
8
0-0
6
CONTINUOUS
62
3
100
AcDbLine
10
477.830000000000
20
356.250000000000
30
0.0
11
479.950000000000
21
357.100000000000
31
0.0
0
LINE
5
761
100
AcDbEntity
8
0-0
6
CONTINUOUS
62
3
100
AcDbLine
10
477.920000000000
20
355.750000000000
30
0.0
11
467.950000000000
21
355.750000000000
31
0.0
0
LINE
5
762
100
AcDbEntity
8
0-0
6
CONTINUOUS
62
3
100
AcDbLine
10
480.140000000000
20
356.630000000000
30
0.0
11
477.920000000000
21
355.750000000000
31
0.0
0
LINE
5
763
100
AcDbEntity
8
0-0
6
CONTINUOUS
62
3
100
AcDbLine
10
470.580000000000
20
358.750000000000
30
0.0
11
486.080000000000
21
358.750000000000
31
0.0
0
LINE
5
764
100
AcDbEntity
8
0-0
6
CONTINUOUS
62
3
100
AcDbLine
10
470.680000000000
20
358.250000000000
30
0.0
11
486.080000000000
21
358.250000000000
31
0.0
0
LINE
5
765
100
AcDbEntity
8
0-0
6
CONTINUOUS
62
3
100
AcDbLine
10
446.450000000000
20
369.750000000000
30
0.0
11
474.830000000000
21
369.750000000000
31
0.0
0
LINE
5
766
100
AcDbEntity
8
0-0
6
CONTINUOUS
62
3
100
AcDbLine
10
474.830000000000
20
369.250000000000
30
0.0
11
446.450000000000
21
369.250000000000
31
0.0
0
LINE
5
767
100
AcDbEntity
8
0-0
6
CONTINUOUS
62
3
100
AcDbLine
10
466.580000000000
20
357.630000000000
30
0.0
11
470.610000000000
21
358.750000000000
31
0.0
0
LINE
5
768
100
AcDbEntity
8
0-0
6
CONTINUOUS
62
3
100
AcDbLine
10
466.580000000000
20
357.630000000000
30
0.0
11
466.710000000000
21
357.140000000000
31
0.0
0
LINE
5
769
100
AcDbEntity
8
0-0
6
CONTINUOUS
62
3
100
AcDbLine
10
466.710000000000
20
357.140000000000
30
0.0
11
470.680000000000
21
358.250000000000
31
0.0
0
LINE
5
76a
100
AcDbEntity
8
0-0
6
CONTINUOUS
62
3
100
AcDbLine
10
487.950000000000
20
356.250000000000
30
0.0
11
493.090000000000
21
359.050000000000
31
0.0
0
LINE
5
76b
100
AcDbEntity
8
0-0
6
CONTINUOUS
62
3
100
AcDbLine
10
493.090000000000
20
359.050000000000
30
0.0
11
493.330000000000
21
358.610000000000
31
0.0
0
LINE
5
76c
100
AcDbEntity
8
0-0
6
CONTINUOUS
62
3
100
AcDbLine
10
488.080000000000
20
355.750000000000
30
0.0
11
493.330000000000
21
358.610000000000
31
0.0
0
LINE
5
76d
100
AcDbEntity
8
0-0
6
CONTINUOUS
62
4
100
AcDbLine
10
475.950000000000
20
379.750000000000
30
0.0
11
475.950000000000
21
389.750000000000
31
0.0
0
LINE
5
76e
100
AcDbEntity
8
0-0
6
CONTINUOUS
62
4
100
AcDbLine
10
686.950000000000
20
480.780000000000
30
0.0
11
686.950000000000
21
490.780000000000
31
0.0
0
LINE
5
76f
100
AcDbEntity
8
0-0
6
CONTINUOUS
62
4
100
AcDbLine
10
697.950000000000
20
480.780000000000
30
0.0
11
697.950000000000
21
500.780000000000
31
0.0
0
LINE
5
770
100
AcDbEntity
8
0-0
6
CONTINUOUS
62
3
100
AcDbLine
10
698.070000000000
20
469.280000000000
30
0.0
11
698.070000000000
21
460.780000000000
31
0.0
0
LINE
5
771
100
AcDbEntity
8
0-0
6
CONTINUOUS
62
3
100
AcDbLine
10
697.570000000000
20
460.780000000000
30
0.0
11
697.570000000000
21
469.280000000000
31
0.0
0
LINE
5
772
100
AcDbEntity
8
0-0
6
CONTINUOUS
62
3
100
AcDbLine
10
678.450000000000
20
460.780000000000
30
0.0
11
684.530000000000
21
461.700000000000
31
0.0
0
LINE
5
773
100
AcDbEntity
8
0-0
6
CONTINUOUS
62
3
100
AcDbLine
10
678.520000000000
20
460.290000000000
30
0.0
11
684.630000000000
21
461.210000000000
31
0.0
0
LINE
5
774
100
AcDbEntity
8
0-0
6
CONTINUOUS
62
3
100
AcDbLine
10
686.820000000000
20
469.200000000000
30
0.0
11
685.680000000000
21
462.190000000000
31
0.0
0
LINE
5
775
100
AcDbEntity
8
0-0
6
CONTINUOUS
62
3
100
AcDbLine
10
686.330000000000
20
469.280000000000
30
0.0
11
685.200000000000
21
462.310000000000
31
0.0
0
LINE
5
776
100
AcDbEntity
8
0-0
6
CONTINUOUS
62
3
100
AcDbLine
10
691.200000000000
20
458.130000000000
30
0.0
11
693.330000000000
21
457.280000000000
31
0.0
0
LINE
5
777
100
AcDbEntity
8
0-0
6
CONTINUOUS
62
3
100
AcDbLine
10
693.330000000000
20
457.280000000000
30
0.0
11
698.450000000000
21
457.280000000000
31
0.0
0
LINE
5
778
100
AcDbEntity
8
0-0
6
CONTINUOUS
62
3
100
AcDbLine
10
693.230000000000
20
456.780000000000
30
0.0
11
698.580000000000
21
456.780000000000
31
0.0
0
LINE
5
779
100
AcDbEntity
8
0-0
6
CONTINUOUS
62
3
100
AcDbLine
10
691.010000000000
20
457.670000000000
30
0.0
11
693.230000000000
21
456.780000000000
31
0.0
0
LINE
5
77a
100
AcDbEntity
8
0-0
6
CONTINUOUS
62
3
100
AcDbLine
10
678.450000000000
20
457.280000000000
30
0.0
11
688.330000000000
21
457.280000000000
31
0.0
0
LINE
5
77b
100
AcDbEntity
8
0-0
6
CONTINUOUS
62
3
100
AcDbLine
10
688.330000000000
20
457.280000000000
30
0.0
11
690.450000000000
21
458.130000000000
31
0.0
0
LINE
5
77c
100
AcDbEntity
8
0-0
6
CONTINUOUS
62
3
100
AcDbLine
10
688.420000000000
20
456.780000000000
30
0.0
11
678.450000000000
21
456.780000000000
31
0.0
0
LINE
5
77d
100
AcDbEntity
8
0-0
6
CONTINUOUS
62
3
100
AcDbLine
10
690.640000000000
20
457.670000000000
30
0.0
11
688.420000000000
21
456.780000000000
31
0.0
0
LINE
5
77e
100
AcDbEntity
8
0-0
6
CONTINUOUS
62
3
100
AcDbLine
10
681.070000000000
20
459.780000000000
30
0.0
11
696.570000000000
21
459.780000000000
31
0.0
0
LINE
5
77f
100
AcDbEntity
8
0-0
6
CONTINUOUS
62
3
100
AcDbLine
10
681.180000000000
20
459.280000000000
30
0.0
11
696.570000000000
21
459.280000000000
31
0.0
0
LINE
5
780
100
AcDbEntity
8
0-0
6
CONTINUOUS
62
3
100
AcDbLine
10
677.070000000000
20
458.660000000000
30
0.0
11
681.110000000000
21
459.780000000000
31
0.0
0
LINE
5
781
100
AcDbEntity
8
0-0
6
CONTINUOUS
62
3
100
AcDbLine
10
677.070000000000
20
458.660000000000
30
0.0
11
677.210000000000
21
458.180000000000
31
0.0
0
LINE
5
782
100
AcDbEntity
8
0-0
6
CONTINUOUS
62
3
100
AcDbLine
10
677.210000000000
20
458.180000000000
30
0.0
11
681.180000000000
21
459.280000000000
31
0.0
0
LINE
5
783
100
AcDbEntity
8
0-0
6
CONTINUOUS
62
3
100
AcDbLine
10
698.450000000000
20
457.280000000000
30
0.0
11
703.590000000000
21
460.080000000000
31
0.0
0
LINE
5
784
100
AcDbEntity
8
0-0
6
CONTINUOUS
62
3
100
AcDbLine
10
703.590000000000
20
460.080000000000
30
0.0
11
703.830000000000
21
459.650000000000
31
0.0
0
LINE
5
785
100
AcDbEntity
8
0-0
6
CONTINUOUS
62
3
100
AcDbLine
10
698.580000000000
20
456.780000000000
30
0.0
11
703.830000000000
21
459.650000000000
31
0.0
0
LINE
5
786
100
AcDbEntity
8
0-0
6
CONTINUOUS
62
4
100
AcDbLine
10
697.950000000000
20
379.750000000000
30
0.0
11
697.950000000000
21
399.750000000000
31
0.0
0
LINE
5
787
100
AcDbEntity
8
0-0
6
CONTINUOUS
62
3
100
AcDbLine
10
698.070000000000
20
368.250000000000
30
0.0
11
698.070000000000
21
359.750000000000
31
0.0
0
LINE
5
788
100
AcDbEntity
8
0-0
6
CONTINUOUS
62
3
100
AcDbLine
10
697.570000000000
20
359.750000000000
30
0.0
11
697.570000000000
21
368.250000000000
31
0.0
0
LINE
5
789
100
AcDbEntity
8
0-0
6
CONTINUOUS
62
3
100
AcDbLine
10
678.450000000000
20
359.750000000000
30
0.0
11
684.530000000000
21
360.660000000000
31
0.0
0
LINE
5
78a
100
AcDbEntity
8
0-0
6
CONTINUOUS
62
3
100
AcDbLine
10
678.520000000000
20
359.250000000000
30
0.0
11
684.630000000000
21
360.170000000000
31
0.0
0
LINE
5
78b
100
AcDbEntity
8
0-0
6
CONTINUOUS
62
3
100
AcDbLine
10
686.820000000000
20
368.170000000000
30
0.0
11
685.680000000000
21
361.150000000000
31
0.0
0
LINE
5
78c
100
AcDbEntity
8
0-0
6
CONTINUOUS
62
3
100
AcDbLine
10
686.330000000000
20
368.250000000000
30
0.0
11
685.200000000000
21
361.270000000000
31
0.0
0
LINE
5
78d
100
AcDbEntity
8
0-0
6
CONTINUOUS
62
3
100
AcDbLine
10
691.200000000000
20
357.100000000000
30
0.0
11
693.330000000000
21
356.250000000000
31
0.0
0
LINE
5
78e
100
AcDbEntity
8
0-0
6
CONTINUOUS
62
3
100
AcDbLine
10
693.330000000000
20
356.250000000000
30
0.0
11
698.450000000000
21
356.250000000000
31
0.0
0
LINE
5
78f
100
AcDbEntity
8
0-0
6
CONTINUOUS
62
3
100
AcDbLine
10
693.230000000000
20
355.750000000000
30
0.0
11
698.580000000000
21
355.750000000000
31
0.0
0
LINE
5
790
100
AcDbEntity
8
0-0
6
CONTINUOUS
62
3
100
AcDbLine
10
691.010000000000
20
356.630000000000
30
0.0
11
693.230000000000
21
355.750000000000
31
0.0
0
LINE
5
791
100
AcDbEntity
8
0-0
6
CONTINUOUS
62
3
100
AcDbLine
10
678.450000000000
20
356.250000000000
30
0.0
11
688.330000000000
21
356.250000000000
31
0.0
0
LINE
5
792
100
AcDbEntity
8
0-0
6
CONTINUOUS
62
3
100
AcDbLine
10
688.330000000000
20
356.250000000000
30
0.0
11
690.450000000000
21
357.100000000000
31
0.0
0
LINE
5
793
100
AcDbEntity
8
0-0
6
CONTINUOUS
62
3
100
AcDbLine
10
688.420000000000
20
355.750000000000
30
0.0
11
678.450000000000
21
355.750000000000
31
0.0
0
LINE
5
794
100
AcDbEntity
8
0-0
6
CONTINUOUS
62
3
100
AcDbLine
10
690.640000000000
20
356.630000000000
30
0.0
11
688.420000000000
21
355.750000000000
31
0.0
0
LINE
5
795
100
AcDbEntity
8
0-0
6
CONTINUOUS
62
3
100
AcDbLine
10
681.070000000000
20
358.750000000000
30
0.0
11
696.570000000000
21
358.750000000000
31
0.0
0
LINE
5
796
100
AcDbEntity
8
0-0
6
CONTINUOUS
62
3
100
AcDbLine
10
681.180000000000
20
358.250000000000
30
0.0
11
696.570000000000
21
358.250000000000
31
0.0
0
LINE
5
797
100
AcDbEntity
8
0-0
6
CONTINUOUS
62
3
100
AcDbLine
10
677.070000000000
20
357.630000000000
30
0.0
11
681.110000000000
21
358.750000000000
31
0.0
0
LINE
5
798
100
AcDbEntity
8
0-0
6
CONTINUOUS
62
3
100
AcDbLine
10
677.070000000000
20
357.630000000000
30
0.0
11
677.210000000000
21
357.140000000000
31
0.0
0
LINE
5
799
100
AcDbEntity
8
0-0
6
CONTINUOUS
62
3
100
AcDbLine
10
677.210000000000
20
357.140000000000
30
0.0
11
681.180000000000
21
358.250000000000
31
0.0
0
LINE
5
79a
100
AcDbEntity
8
0-0
6
CONTINUOUS
62
3
100
AcDbLine
10
698.450000000000
20
356.250000000000
30
0.0
11
703.590000000000
21
359.050000000000
31
0.0
0
LINE
5
79b
100
AcDbEntity
8
0-0
6
CONTINUOUS
62
3
100
AcDbLine
10
703.590000000000
20
359.050000000000
30
0.0
11
703.830000000000
21
358.610000000000
31
0.0
0
LINE
5
79c
100
AcDbEntity
8
0-0
6
CONTINUOUS
62
3
100
AcDbLine
10
698.580000000000
20
355.750000000000
30
0.0
11
703.830000000000
21
358.610000000000
31
0.0
0
LINE
5
79d
100
AcDbEntity
8
0-0
6
CONTINUOUS
62
3
100
AcDbLine
10
699.070000000000
20
369.750000000000
30
0.0
11
726.950000000000
21
369.750000000000
31
0.0
0
LINE
5
79e
100
AcDbEntity
8
0-0
6
CONTINUOUS
62
3
100
AcDbLine
10
699.070000000000
20
369.250000000000
30
0.0
11
726.950000000000
21
369.250000000000
31
0.0
0
LINE
5
79f
100
AcDbEntity
8
0-0
6
CONTINUOUS
62
3
100
AcDbLine
10
699.070000000000
20
470.780000000000
30
0.0
11
726.950000000000
21
470.780000000000
31
0.0
0
LINE
5
7a0
100
AcDbEntity
8
0-0
6
CONTINUOUS
62
3
100
AcDbLine
10
699.070000000000
20
470.280000000000
30
0.0
11
726.950000000000
21
470.280000000000
31
0.0
0
LINE
5
7a1
100
AcDbEntity
8
0-0
6
CONTINUOUS
62
3
100
AcDbLine
10
498.450000000000
20
192.100000000000
30
0.0
11
503.590000000000
21
194.900000000000
31
0.0
0
LINE
5
7a2
100
AcDbEntity
8
0-0
6
CONTINUOUS
62
3
100
AcDbLine
10
503.590000000000
20
194.900000000000
30
0.0
11
503.830000000000
21
194.460000000000
31
0.0
0
LINE
5
7a3
100
AcDbEntity
8
0-0
6
CONTINUOUS
62
3
100
AcDbLine
10
498.580000000000
20
191.600000000000
30
0.0
11
503.830000000000
21
194.460000000000
31
0.0
0
LINE
5
7a4
100
AcDbEntity
8
0-0
6
CONTINUOUS
62
3
100
AcDbLine
10
698.450000000000
20
192.100000000000
30
0.0
11
703.590000000000
21
194.900000000000
31
0.0
0
LINE
5
7a5
100
AcDbEntity
8
0-0
6
CONTINUOUS
62
3
100
AcDbLine
10
703.590000000000
20
194.900000000000
30
0.0
11
703.830000000000
21
194.460000000000
31
0.0
0
LINE
5
7a6
100
AcDbEntity
8
0-0
6
CONTINUOUS
62
3
100
AcDbLine
10
698.580000000000
20
191.600000000000
30
0.0
11
703.830000000000
21
194.460000000000
31
0.0
0
LINE
5
7a7
100
AcDbEntity
8
0-0
6
CONTINUOUS
62
3
100
AcDbLine
10
698.450000000000
20
91.060000000000
30
0.0
11
703.590000000000
21
93.860000000000
31
0.0
0
LINE
5
7a8
100
AcDbEntity
8
0-0
6
CONTINUOUS
62
3
100
AcDbLine
10
703.590000000000
20
93.860000000000
30
0.0
11
703.830000000000
21
93.420000000000
31
0.0
0
LINE
5
7a9
100
AcDbEntity
8
0-0
6
CONTINUOUS
62
3
100
AcDbLine
10
698.580000000000
20
90.560000000000
30
0.0
11
703.830000000000
21
93.420000000000
31
0.0
0
LINE
5
7aa
100
AcDbEntity
8
0-0
6
CONTINUOUS
62
3
100
AcDbLine
10
498.450000000000
20
91.060000000000
30
0.0
11
503.590000000000
21
93.860000000000
31
0.0
0
LINE
5
7ab
100
AcDbEntity
8
0-0
6
CONTINUOUS
62
3
100
AcDbLine
10
503.590000000000
20
93.860000000000
30
0.0
11
503.830000000000
21
93.420000000000
31
0.0
0
LINE
5
7ac
100
AcDbEntity
8
0-0
6
CONTINUOUS
62
3
100
AcDbLine
10
498.580000000000
20
90.560000000000
30
0.0
11
503.830000000000
21
93.420000000000
31
0.0
0
LINE
5
7ad
100
AcDbEntity
8
0-0
6
CONTINUOUS
62
4
100
AcDbLine
10
154.330000000000
20
831.410000000000
30
0.0
11
154.330000000000
21
821.410000000000
31
0.0
0
LINE
5
7ae
100
AcDbEntity
8
0-0
6
CONTINUOUS
62
4
100
AcDbLine
10
154.330000000000
20
821.410000000000
30
0.0
11
164.330000000000
21
821.410000000000
31
0.0
0
LINE
5
7af
100
AcDbEntity
8
0-0
6
CONTINUOUS
62
4
100
AcDbLine
10
164.330000000000
20
831.410000000000
30
0.0
11
164.330000000000
21
821.410000000000
31
0.0
0
LINE
5
7b0
100
AcDbEntity
8
0-0
6
CONTINUOUS
62
4
100
AcDbLine
10
169.330000000000
20
831.410000000000
30
0.0
11
169.330000000000
21
821.410000000000
31
0.0
0
LINE
5
7b1
100
AcDbEntity
8
0-0
6
CONTINUOUS
62
4
100
AcDbLine
10
154.330000000000
20
821.410000000000
30
0.0
11
154.330000000000
21
811.410000000000
31
0.0
0
LINE
5
7b2
100
AcDbEntity
8
0-0
6
CONTINUOUS
62
4
100
AcDbLine
10
144.330000000000
20
841.410000000000
30
0.0
11
144.330000000000
21
845.410000000000
31
0.0
0
LINE
5
7b3
100
AcDbEntity
8
0-0
6
CONTINUOUS
62
4
100
AcDbLine
10
149.330000000000
20
841.410000000000
30
0.0
11
144.330000000000
21
841.410000000000
31
0.0
0
LINE
5
7b4
100
AcDbEntity
8
0-0
6
CONTINUOUS
62
4
100
AcDbLine
10
149.330000000000
20
845.410000000000
30
0.0
11
144.330000000000
21
845.410000000000
31
0.0
0
LINE
5
7b5
100
AcDbEntity
8
0-0
6
CONTINUOUS
62
3
100
AcDbLine
10
155.960000000000
20
845.410000000000
30
0.0
11
162.040000000000
21
846.320000000000
31
0.0
0
LINE
5
7b6
100
AcDbEntity
8
0-0
6
CONTINUOUS
62
3
100
AcDbLine
10
156.030000000000
20
844.910000000000
30
0.0
11
162.140000000000
21
845.830000000000
31
0.0
0
LINE
5
7b7
100
AcDbEntity
8
0-0
6
CONTINUOUS
62
3
100
AcDbLine
10
164.330000000000
20
853.830000000000
30
0.0
11
163.190000000000
21
846.810000000000
31
0.0
0
LINE
5
7b8
100
AcDbEntity
8
0-0
6
CONTINUOUS
62
3
100
AcDbLine
10
163.830000000000
20
853.910000000000
30
0.0
11
162.700000000000
21
846.930000000000
31
0.0
0
LINE
5
7b9
100
AcDbEntity
8
0-0
6
CONTINUOUS
62
3
100
AcDbLine
10
169.700000000000
20
842.760000000000
30
0.0
11
171.830000000000
21
841.910000000000
31
0.0
0
LINE
5
7ba
100
AcDbEntity
8
0-0
6
CONTINUOUS
62
3
100
AcDbLine
10
171.830000000000
20
841.910000000000
30
0.0
11
176.960000000000
21
841.910000000000
31
0.0
0
LINE
5
7bb
100
AcDbEntity
8
0-0
6
CONTINUOUS
62
3
100
AcDbLine
10
171.740000000000
20
841.410000000000
30
0.0
11
177.090000000000
21
841.410000000000
31
0.0
0
LINE
5
7bc
100
AcDbEntity
8
0-0
6
CONTINUOUS
62
3
100
AcDbLine
10
169.520000000000
20
842.290000000000
30
0.0
11
171.740000000000
21
841.410000000000
31
0.0
0
LINE
5
7bd
100
AcDbEntity
8
0-0
6
CONTINUOUS
62
3
100
AcDbLine
10
155.960000000000
20
841.910000000000
30
0.0
11
166.830000000000
21
841.910000000000
31
0.0
0
LINE
5
7be
100
AcDbEntity
8
0-0
6
CONTINUOUS
62
3
100
AcDbLine
10
166.830000000000
20
841.910000000000
30
0.0
11
168.960000000000
21
842.760000000000
31
0.0
0
LINE
5
7bf
100
AcDbEntity
8
0-0
6
CONTINUOUS
62
3
100
AcDbLine
10
169.150000000000
20
842.290000000000
30
0.0
11
166.930000000000
21
841.410000000000
31
0.0
0
LINE
5
7c0
100
AcDbEntity
8
0-0
6
CONTINUOUS
62
3
100
AcDbLine
10
166.930000000000
20
841.410000000000
30
0.0
11
155.960000000000
21
841.410000000000
31
0.0
0
LINE
5
7c1
100
AcDbEntity
8
0-0
6
CONTINUOUS
62
4
100
AcDbLine
10
182.330000000000
20
831.410000000000
30
0.0
11
182.330000000000
21
821.410000000000
31
0.0
0
LINE
5
7c2
100
AcDbEntity
8
0-0
6
CONTINUOUS
62
4
100
AcDbLine
10
182.330000000000
20
821.410000000000
30
0.0
11
182.330000000000
21
811.410000000000
31
0.0
0
LINE
5
7c3
100
AcDbEntity
8
0-0
6
CONTINUOUS
62
4
100
AcDbLine
10
164.330000000000
20
821.410000000000
30
0.0
11
182.330000000000
21
821.410000000000
31
0.0
0
LINE
5
7c4
100
AcDbEntity
8
0-0
6
CONTINUOUS
62
4
100
AcDbLine
10
154.330000000000
20
811.410000000000
30
0.0
11
182.330000000000
21
811.410000000000
31
0.0
0
LINE
5
7c5
100
AcDbEntity
8
0-0
6
CONTINUOUS
62
3
100
AcDbLine
10
176.960000000000
20
841.910000000000
30
0.0
11
182.090000000000
21
844.710000000000
31
0.0
0
LINE
5
7c6
100
AcDbEntity
8
0-0
6
CONTINUOUS
62
3
100
AcDbLine
10
182.090000000000
20
844.710000000000
30
0.0
11
182.330000000000
21
844.270000000000
31
0.0
0
LINE
5
7c7
100
AcDbEntity
8
0-0
6
CONTINUOUS
62
3
100
AcDbLine
10
177.090000000000
20
841.410000000000
30
0.0
11
182.330000000000
21
844.270000000000
31
0.0
0
LINE
5
7c8
100
AcDbEntity
8
0-0
6
CONTINUOUS
62
4
100
AcDbLine
10
197.330000000000
20
841.410000000000
30
0.0
11
197.330000000000
21
855.410000000000
31
0.0
0
LINE
5
7c9
100
AcDbEntity
8
0-0
6
CONTINUOUS
62
4
100
AcDbLine
10
187.330000000000
20
841.410000000000
30
0.0
11
197.330000000000
21
841.410000000000
31
0.0
0
LINE
5
7ca
100
AcDbEntity
8
0-0
6
CONTINUOUS
62
4
100
AcDbLine
10
187.330000000000
20
855.410000000000
30
0.0
11
197.330000000000
21
855.410000000000
31
0.0
0
LINE
5
7cb
100
AcDbEntity
8
0-0
6
CONTINUOUS
62
4
100
AcDbLine
10
360.000000000000
20
712.030000000000
30
0.0
11
360.000000000000
21
702.030000000000
31
0.0
0
LINE
5
7cc
100
AcDbEntity
8
0-0
6
CONTINUOUS
62
4
100
AcDbLine
10
360.000000000000
20
702.030000000000
30
0.0
11
370.000000000000
21
702.030000000000
31
0.0
0
LINE
5
7cd
100
AcDbEntity
8
0-0
6
CONTINUOUS
62
4
100
AcDbLine
10
370.000000000000
20
712.030000000000
30
0.0
11
370.000000000000
21
702.030000000000
31
0.0
0
LINE
5
7ce
100
AcDbEntity
8
0-0
6
CONTINUOUS
62
4
100
AcDbLine
10
375.000000000000
20
712.030000000000
30
0.0
11
375.000000000000
21
702.030000000000
31
0.0
0
LINE
5
7cf
100
AcDbEntity
8
0-0
6
CONTINUOUS
62
4
100
AcDbLine
10
360.000000000000
20
702.030000000000
30
0.0
11
360.000000000000
21
692.030000000000
31
0.0
0
LINE
5
7d0
100
AcDbEntity
8
0-0
6
CONTINUOUS
62
4
100
AcDbLine
10
350.000000000000
20
722.030000000000
30
0.0
11
350.000000000000
21
726.030000000000
31
0.0
0
LINE
5
7d1
100
AcDbEntity
8
0-0
6
CONTINUOUS
62
4
100
AcDbLine
10
355.000000000000
20
722.030000000000
30
0.0
11
350.000000000000
21
722.030000000000
31
0.0
0
LINE
5
7d2
100
AcDbEntity
8
0-0
6
CONTINUOUS
62
4
100
AcDbLine
10
355.000000000000
20
726.030000000000
30
0.0
11
350.000000000000
21
726.030000000000
31
0.0
0
LINE
5
7d3
100
AcDbEntity
8
0-0
6
CONTINUOUS
62
3
100
AcDbLine
10
361.620000000000
20
726.030000000000
30
0.0
11
367.700000000000
21
726.940000000000
31
0.0
0
LINE
5
7d4
100
AcDbEntity
8
0-0
6
CONTINUOUS
62
3
100
AcDbLine
10
361.690000000000
20
725.540000000000
30
0.0
11
367.810000000000
21
726.450000000000
31
0.0
0
LINE
5
7d5
100
AcDbEntity
8
0-0
6
CONTINUOUS
62
3
100
AcDbLine
10
369.990000000000
20
734.450000000000
30
0.0
11
368.850000000000
21
727.430000000000
31
0.0
0
LINE
5
7d6
100
AcDbEntity
8
0-0
6
CONTINUOUS
62
3
100
AcDbLine
10
369.500000000000
20
734.530000000000
30
0.0
11
368.370000000000
21
727.560000000000
31
0.0
0
LINE
5
7d7
100
AcDbEntity
8
0-0
6
CONTINUOUS
62
3
100
AcDbLine
10
375.370000000000
20
723.380000000000
30
0.0
11
377.500000000000
21
722.530000000000
31
0.0
0
LINE
5
7d8
100
AcDbEntity
8
0-0
6
CONTINUOUS
62
3
100
AcDbLine
10
377.500000000000
20
722.530000000000
30
0.0
11
382.620000000000
21
722.530000000000
31
0.0
0
LINE
5
7d9
100
AcDbEntity
8
0-0
6
CONTINUOUS
62
3
100
AcDbLine
10
377.400000000000
20
722.030000000000
30
0.0
11
382.750000000000
21
722.030000000000
31
0.0
0
LINE
5
7da
100
AcDbEntity
8
0-0
6
CONTINUOUS
62
3
100
AcDbLine
10
375.180000000000
20
722.920000000000
30
0.0
11
377.400000000000
21
722.030000000000
31
0.0
0
LINE
5
7db
100
AcDbEntity
8
0-0
6
CONTINUOUS
62
3
100
AcDbLine
10
361.620000000000
20
722.530000000000
30
0.0
11
372.500000000000
21
722.530000000000
31
0.0
0
LINE
5
7dc
100
AcDbEntity
8
0-0
6
CONTINUOUS
62
3
100
AcDbLine
10
372.500000000000
20
722.530000000000
30
0.0
11
374.620000000000
21
723.380000000000
31
0.0
0
LINE
5
7dd
100
AcDbEntity
8
0-0
6
CONTINUOUS
62
3
100
AcDbLine
10
374.810000000000
20
722.920000000000
30
0.0
11
372.590000000000
21
722.030000000000
31
0.0
0
LINE
5
7de
100
AcDbEntity
8
0-0
6
CONTINUOUS
62
3
100
AcDbLine
10
372.590000000000
20
722.030000000000
30
0.0
11
361.620000000000
21
722.030000000000
31
0.0
0
LINE
5
7df
100
AcDbEntity
8
0-0
6
CONTINUOUS
62
4
100
AcDbLine
10
388.000000000000
20
712.030000000000
30
0.0
11
388.000000000000
21
702.030000000000
31
0.0
0
LINE
5
7e0
100
AcDbEntity
8
0-0
6
CONTINUOUS
62
4
100
AcDbLine
10
388.000000000000
20
702.030000000000
30
0.0
11
388.000000000000
21
692.030000000000
31
0.0
0
LINE
5
7e1
100
AcDbEntity
8
0-0
6
CONTINUOUS
62
4
100
AcDbLine
10
370.000000000000
20
702.030000000000
30
0.0
11
388.000000000000
21
702.030000000000
31
0.0
0
LINE
5
7e2
100
AcDbEntity
8
0-0
6
CONTINUOUS
62
4
100
AcDbLine
10
360.000000000000
20
692.030000000000
30
0.0
11
388.000000000000
21
692.030000000000
31
0.0
0
LINE
5
7e3
100
AcDbEntity
8
0-0
6
CONTINUOUS
62
3
100
AcDbLine
10
382.620000000000
20
722.530000000000
30
0.0
11
387.760000000000
21
725.330000000000
31
0.0
0
LINE
5
7e4
100
AcDbEntity
8
0-0
6
CONTINUOUS
62
3
100
AcDbLine
10
387.760000000000
20
725.330000000000
30
0.0
11
388.000000000000
21
724.890000000000
31
0.0
0
LINE
5
7e5
100
AcDbEntity
8
0-0
6
CONTINUOUS
62
3
100
AcDbLine
10
382.750000000000
20
722.030000000000
30
0.0
11
388.000000000000
21
724.890000000000
31
0.0
0
LINE
5
7e6
100
AcDbEntity
8
0-0
6
CONTINUOUS
62
4
100
AcDbLine
10
403.000000000000
20
722.030000000000
30
0.0
11
403.000000000000
21
736.030000000000
31
0.0
0
LINE
5
7e7
100
AcDbEntity
8
0-0
6
CONTINUOUS
62
4
100
AcDbLine
10
393.000000000000
20
722.030000000000
30
0.0
11
403.000000000000
21
722.030000000000
31
0.0
0
LINE
5
7e8
100
AcDbEntity
8
0-0
6
CONTINUOUS
62
4
100
AcDbLine
10
393.000000000000
20
736.030000000000
30
0.0
11
403.000000000000
21
736.030000000000
31
0.0
0
LINE
5
7e9
100
AcDbEntity
8
0-0
6
CONTINUOUS
62
4
100
AcDbLine
10
548.550000000000
20
831.410000000000
30
0.0
11
548.550000000000
21
821.410000000000
31
0.0
0
LINE
5
7ea
100
AcDbEntity
8
0-0
6
CONTINUOUS
62
4
100
AcDbLine
10
548.550000000000
20
821.410000000000
30
0.0
11
558.560000000000
21
821.410000000000
31
0.0
0
LINE
5
7eb
100
AcDbEntity
8
0-0
6
CONTINUOUS
62
4
100
AcDbLine
10
558.560000000000
20
831.410000000000
30
0.0
11
558.560000000000
21
821.410000000000
31
0.0
0
LINE
5
7ec
100
AcDbEntity
8
0-0
6
CONTINUOUS
62
4
100
AcDbLine
10
563.550000000000
20
831.410000000000
30
0.0
11
563.550000000000
21
821.410000000000
31
0.0
0
LINE
5
7ed
100
AcDbEntity
8
0-0
6
CONTINUOUS
62
4
100
AcDbLine
10
548.550000000000
20
821.410000000000
30
0.0
11
548.550000000000
21
811.410000000000
31
0.0
0
LINE
5
7ee
100
AcDbEntity
8
0-0
6
CONTINUOUS
62
4
100
AcDbLine
10
538.550000000000
20
841.410000000000
30
0.0
11
538.550000000000
21
845.410000000000
31
0.0
0
LINE
5
7ef
100
AcDbEntity
8
0-0
6
CONTINUOUS
62
4
100
AcDbLine
10
543.560000000000
20
841.410000000000
30
0.0
11
538.550000000000
21
841.410000000000
31
0.0
0
LINE
5
7f0
100
AcDbEntity
8
0-0
6
CONTINUOUS
62
4
100
AcDbLine
10
543.560000000000
20
845.410000000000
30
0.0
11
538.550000000000
21
845.410000000000
31
0.0
0
LINE
5
7f1
100
AcDbEntity
8
0-0
6
CONTINUOUS
62
3
100
AcDbLine
10
550.180000000000
20
845.410000000000
30
0.0
11
556.260000000000
21
846.320000000000
31
0.0
0
LINE
5
7f2
100
AcDbEntity
8
0-0
6
CONTINUOUS
62
3
100
AcDbLine
10
550.250000000000
20
844.910000000000
30
0.0
11
556.360000000000
21
845.830000000000
31
0.0
0
LINE
5
7f3
100
AcDbEntity
8
0-0
6
CONTINUOUS
62
3
100
AcDbLine
10
558.550000000000
20
853.830000000000
30
0.0
11
557.410000000000
21
846.810000000000
31
0.0
0
LINE
5
7f4
100
AcDbEntity
8
0-0
6
CONTINUOUS
62
3
100
AcDbLine
10
558.050000000000
20
853.910000000000
30
0.0
11
556.930000000000
21
846.930000000000
31
0.0
0
LINE
5
7f5
100
AcDbEntity
8
0-0
6
CONTINUOUS
62
3
100
AcDbLine
10
563.930000000000
20
842.760000000000
30
0.0
11
566.060000000000
21
841.910000000000
31
0.0
0
LINE
5
7f6
100
AcDbEntity
8
0-0
6
CONTINUOUS
62
3
100
AcDbLine
10
566.060000000000
20
841.910000000000
30
0.0
11
571.180000000000
21
841.910000000000
31
0.0
0
LINE
5
7f7
100
AcDbEntity
8
0-0
6
CONTINUOUS
62
3
100
AcDbLine
10
565.960000000000
20
841.410000000000
30
0.0
11
571.310000000000
21
841.410000000000
31
0.0
0
LINE
5
7f8
100
AcDbEntity
8
0-0
6
CONTINUOUS
62
3
100
AcDbLine
10
563.740000000000
20
842.290000000000
30
0.0
11
565.960000000000
21
841.410000000000
31
0.0
0
LINE
5
7f9
100
AcDbEntity
8
0-0
6
CONTINUOUS
62
3
100
AcDbLine
10
550.180000000000
20
841.910000000000
30
0.0
11
561.050000000000
21
841.910000000000
31
0.0
0
LINE
5
7fa
100
AcDbEntity
8
0-0
6
CONTINUOUS
62
3
100
AcDbLine
10
561.050000000000
20
841.910000000000
30
0.0
11
563.180000000000
21
842.760000000000
31
0.0
0
LINE
5
7fb
100
AcDbEntity
8
0-0
6
CONTINUOUS
62
3
100
AcDbLine
10
563.370000000000
20
842.290000000000
30
0.0
11
561.150000000000
21
841.410000000000
31
0.0
0
LINE
5
7fc
100
AcDbEntity
8
0-0
6
CONTINUOUS
62
3
100
AcDbLine
10
561.150000000000
20
841.410000000000
30
0.0
11
550.180000000000
21
841.410000000000
31
0.0
0
LINE
5
7fd
100
AcDbEntity
8
0-0
6
CONTINUOUS
62
4
100
AcDbLine
10
576.560000000000
20
831.410000000000
30
0.0
11
576.560000000000
21
821.410000000000
31
0.0
0
LINE
5
7fe
100
AcDbEntity
8
0-0
6
CONTINUOUS
62
4
100
AcDbLine
10
576.560000000000
20
821.410000000000
30
0.0
11
576.560000000000
21
811.410000000000
31
0.0
0
LINE
5
7ff
100
AcDbEntity
8
0-0
6
CONTINUOUS
62
4
100
AcDbLine
10
558.560000000000
20
821.410000000000
30
0.0
11
576.560000000000
21
821.410000000000
31
0.0
0
LINE
5
800
100
AcDbEntity
8
0-0
6
CONTINUOUS
62
4
100
AcDbLine
10
548.550000000000
20
811.410000000000
30
0.0
11
576.560000000000
21
811.410000000000
31
0.0
0
LINE
5
801
100
AcDbEntity
8
0-0
6
CONTINUOUS
62
3
100
AcDbLine
10
571.180000000000
20
841.910000000000
30
0.0
11
576.320000000000
21
844.710000000000
31
0.0
0
LINE
5
802
100
AcDbEntity
8
0-0
6
CONTINUOUS
62
3
100
AcDbLine
10
576.320000000000
20
844.710000000000
30
0.0
11
576.560000000000
21
844.270000000000
31
0.0
0
LINE
5
803
100
AcDbEntity
8
0-0
6
CONTINUOUS
62
3
100
AcDbLine
10
571.310000000000
20
841.410000000000
30
0.0
11
576.560000000000
21
844.270000000000
31
0.0
0
LINE
5
804
100
AcDbEntity
8
0-0
6
CONTINUOUS
62
4
100
AcDbLine
10
591.560000000000
20
841.410000000000
30
0.0
11
591.560000000000
21
855.410000000000
31
0.0
0
LINE
5
805
100
AcDbEntity
8
0-0
6
CONTINUOUS
62
4
100
AcDbLine
10
581.560000000000
20
841.410000000000
30
0.0
11
591.560000000000
21
841.410000000000
31
0.0
0
LINE
5
806
100
AcDbEntity
8
0-0
6
CONTINUOUS
62
4
100
AcDbLine
10
581.560000000000
20
855.410000000000
30
0.0
11
591.560000000000
21
855.410000000000
31
0.0
0
LINE
5
807
100
AcDbEntity
8
0-0
6
CONTINUOUS
62
4
100
AcDbLine
10
754.220000000000
20
712.030000000000
30
0.0
11
754.220000000000
21
702.030000000000
31
0.0
0
LINE
5
808
100
AcDbEntity
8
0-0
6
CONTINUOUS
62
4
100
AcDbLine
10
754.220000000000
20
702.030000000000
30
0.0
11
764.220000000000
21
702.030000000000
31
0.0
0
LINE
5
809
100
AcDbEntity
8
0-0
6
CONTINUOUS
62
4
100
AcDbLine
10
764.220000000000
20
712.030000000000
30
0.0
11
764.220000000000
21
702.030000000000
31
0.0
0
LINE
5
80a
100
AcDbEntity
8
0-0
6
CONTINUOUS
62
4
100
AcDbLine
10
769.220000000000
20
712.030000000000
30
0.0
11
769.220000000000
21
702.030000000000
31
0.0
0
LINE
5
80b
100
AcDbEntity
8
0-0
6
CONTINUOUS
62
4
100
AcDbLine
10
754.220000000000
20
702.030000000000
30
0.0
11
754.220000000000
21
692.030000000000
31
0.0
0
LINE
5
80c
100
AcDbEntity
8
0-0
6
CONTINUOUS
62
4
100
AcDbLine
10
744.220000000000
20
722.030000000000
30
0.0
11
744.220000000000
21
726.030000000000
31
0.0
0
LINE
5
80d
100
AcDbEntity
8
0-0
6
CONTINUOUS
62
4
100
AcDbLine
10
749.220000000000
20
722.030000000000
30
0.0
11
744.220000000000
21
722.030000000000
31
0.0
0
LINE
5
80e
100
AcDbEntity
8
0-0
6
CONTINUOUS
62
4
100
AcDbLine
10
749.220000000000
20
726.030000000000
30
0.0
11
744.220000000000
21
726.030000000000
31
0.0
0
LINE
5
80f
100
AcDbEntity
8
0-0
6
CONTINUOUS
62
3
100
AcDbLine
10
755.840000000000
20
726.030000000000
30
0.0
11
761.930000000000
21
726.940000000000
31
0.0
0
LINE
5
810
100
AcDbEntity
8
0-0
6
CONTINUOUS
62
3
100
AcDbLine
10
755.920000000000
20
725.540000000000
30
0.0
11
762.030000000000
21
726.450000000000
31
0.0
0
LINE
5
811
100
AcDbEntity
8
0-0
6
CONTINUOUS
62
3
100
AcDbLine
10
764.210000000000
20
734.450000000000
30
0.0
11
763.080000000000
21
727.430000000000
31
0.0
0
LINE
5
812
100
AcDbEntity
8
0-0
6
CONTINUOUS
62
3
100
AcDbLine
10
763.720000000000
20
734.530000000000
30
0.0
11
762.590000000000
21
727.560000000000
31
0.0
0
LINE
5
813
100
AcDbEntity
8
0-0
6
CONTINUOUS
62
3
100
AcDbLine
10
769.590000000000
20
723.380000000000
30
0.0
11
771.720000000000
21
722.530000000000
31
0.0
0
LINE
5
814
100
AcDbEntity
8
0-0
6
CONTINUOUS
62
3
100
AcDbLine
10
771.720000000000
20
722.530000000000
30
0.0
11
776.840000000000
21
722.530000000000
31
0.0
0
LINE
5
815
100
AcDbEntity
8
0-0
6
CONTINUOUS
62
3
100
AcDbLine
10
771.620000000000
20
722.030000000000
30
0.0
11
776.970000000000
21
722.030000000000
31
0.0
0
LINE
5
816
100
AcDbEntity
8
0-0
6
CONTINUOUS
62
3
100
AcDbLine
10
769.400000000000
20
722.920000000000
30
0.0
11
771.620000000000
21
722.030000000000
31
0.0
0
LINE
5
817
100
AcDbEntity
8
0-0
6
CONTINUOUS
62
3
100
AcDbLine
10
755.840000000000
20
722.530000000000
30
0.0
11
766.720000000000
21
722.530000000000
31
0.0
0
LINE
5
818
100
AcDbEntity
8
0-0
6
CONTINUOUS
62
3
100
AcDbLine
10
766.720000000000
20
722.530000000000
30
0.0
11
768.850000000000
21
723.380000000000
31
0.0
0
LINE
5
819
100
AcDbEntity
8
0-0
6
CONTINUOUS
62
3
100
AcDbLine
10
769.030000000000
20
722.920000000000
30
0.0
11
766.810000000000
21
722.030000000000
31
0.0
0
LINE
5
81a
100
AcDbEntity
8
0-0
6
CONTINUOUS
62
3
100
AcDbLine
10
766.810000000000
20
722.030000000000
30
0.0
11
755.840000000000
21
722.030000000000
31
0.0
0
LINE
5
81b
100
AcDbEntity
8
0-0
6
CONTINUOUS
62
4
100
AcDbLine
10
782.220000000000
20
712.030000000000
30
0.0
11
782.220000000000
21
702.030000000000
31
0.0
0
LINE
5
81c
100
AcDbEntity
8
0-0
6
CONTINUOUS
62
4
100
AcDbLine
10
782.220000000000
20
702.030000000000
30
0.0
11
782.220000000000
21
692.030000000000
31
0.0
0
LINE
5
81d
100
AcDbEntity
8
0-0
6
CONTINUOUS
62
4
100
AcDbLine
10
764.220000000000
20
702.030000000000
30
0.0
11
782.220000000000
21
702.030000000000
31
0.0
0
LINE
5
81e
100
AcDbEntity
8
0-0
6
CONTINUOUS
62
4
100
AcDbLine
10
754.220000000000
20
692.030000000000
30
0.0
11
782.220000000000
21
692.030000000000
31
0.0
0
LINE
5
81f
100
AcDbEntity
8
0-0
6
CONTINUOUS
62
3
100
AcDbLine
10
776.840000000000
20
722.530000000000
30
0.0
11
781.980000000000
21
725.330000000000
31
0.0
0
LINE
5
820
100
AcDbEntity
8
0-0
6
CONTINUOUS
62
3
100
AcDbLine
10
781.980000000000
20
725.330000000000
30
0.0
11
782.220000000000
21
724.890000000000
31
0.0
0
LINE
5
821
100
AcDbEntity
8
0-0
6
CONTINUOUS
62
3
100
AcDbLine
10
776.970000000000
20
722.030000000000
30
0.0
11
782.220000000000
21
724.890000000000
31
0.0
0
LINE
5
822
100
AcDbEntity
8
0-0
6
CONTINUOUS
62
4
100
AcDbLine
10
797.220000000000
20
722.030000000000
30
0.0
11
797.220000000000
21
736.030000000000
31
0.0
0
LINE
5
823
100
AcDbEntity
8
0-0
6
CONTINUOUS
62
4
100
AcDbLine
10
787.220000000000
20
722.030000000000
30
0.0
11
797.220000000000
21
722.030000000000
31
0.0
0
LINE
5
824
100
AcDbEntity
8
0-0
6
CONTINUOUS
62
4
100
AcDbLine
10
787.220000000000
20
736.030000000000
30
0.0
11
797.220000000000
21
736.030000000000
31
0.0
0
LINE
5
825
100
AcDbEntity
8
0-0
6
CONTINUOUS
62
3
100
AcDbLine
10
139.080000000000
20
1025.610000000000
30
0.0
11
121.080000000000
21
1025.610000000000
31
0.0
0
LINE
5
826
100
AcDbEntity
8
0-0
6
CONTINUOUS
62
3
100
AcDbLine
10
139.580000000000
20
1026.110000000000
30
0.0
11
139.580000000000
21
1033.110000000000
31
0.0
0
LINE
5
827
100
AcDbEntity
8
0-0
6
CONTINUOUS
62
3
100
AcDbLine
10
140.080000000000
20
1026.110000000000
30
0.0
11
140.080000000000
21
1033.110000000000
31
0.0
0
LINE
5
828
100
AcDbEntity
8
0-0
6
CONTINUOUS
62
3
100
AcDbLine
10
121.080000000000
20
1025.110000000000
30
0.0
11
139.080000000000
21
1025.110000000000
31
0.0
0
LINE
5
829
100
AcDbEntity
8
0-0
6
CONTINUOUS
62
4
100
AcDbLine
10
120.080000000000
20
1058.110000000000
30
0.0
11
170.080000000000
21
1058.110000000000
31
0.0
0
LINE
5
82a
100
AcDbEntity
8
0-0
6
CONTINUOUS
62
4
100
AcDbLine
10
120.080000000000
20
1053.110000000000
30
0.0
11
120.080000000000
21
1058.110000000000
31
0.0
0
LINE
5
82b
100
AcDbEntity
8
0-0
6
CONTINUOUS
62
4
100
AcDbLine
10
170.080000000000
20
1053.110000000000
30
0.0
11
170.080000000000
21
1058.110000000000
31
0.0
0
LINE
5
82c
100
AcDbEntity
8
0-0
6
CONTINUOUS
62
4
100
AcDbLine
10
140.080000000000
20
1020.110000000000
30
0.0
11
140.080000000000
21
1015.110000000000
31
0.0
0
LINE
5
82d
100
AcDbEntity
8
0-0
6
CONTINUOUS
62
4
100
AcDbLine
10
115.080000000000
20
1048.110000000000
30
0.0
11
110.080000000000
21
1048.110000000000
31
0.0
0
LINE
5
82e
100
AcDbEntity
8
0-0
6
CONTINUOUS
62
4
100
AcDbLine
10
150.080000000000
20
1034.110000000000
30
0.0
11
150.080000000000
21
1025.110000000000
31
0.0
0
LINE
5
82f
100
AcDbEntity
8
0-0
6
CONTINUOUS
62
4
100
AcDbLine
10
145.080000000000
20
1034.110000000000
30
0.0
11
150.080000000000
21
1034.110000000000
31
0.0
0
LINE
5
830
100
AcDbEntity
8
0-0
6
CONTINUOUS
62
4
100
AcDbLine
10
145.080000000000
20
1025.110000000000
30
0.0
11
150.080000000000
21
1025.110000000000
31
0.0
0
LINE
5
831
100
AcDbEntity
8
0-0
6
CONTINUOUS
62
3
100
AcDbLine
10
121.080000000000
20
1048.110000000000
30
0.0
11
170.080000000000
21
1048.110000000000
31
0.0
0
LINE
5
832
100
AcDbEntity
8
0-0
6
CONTINUOUS
62
3
100
AcDbLine
10
121.080000000000
20
1047.610000000000
30
0.0
11
170.080000000000
21
1047.610000000000
31
0.0
0
LINE
5
833
100
AcDbEntity
8
0-0
6
CONTINUOUS
62
3
100
AcDbLine
10
170.080000000000
20
1048.110000000000
30
0.0
11
170.080000000000
21
1047.610000000000
31
0.0
0
LINE
5
834
100
AcDbEntity
8
0-0
6
CONTINUOUS
62
3
100
AcDbLine
10
132.080000000000
20
1034.110000000000
30
0.0
11
132.080000000000
21
1033.610000000000
31
0.0
0
LINE
5
835
100
AcDbEntity
8
0-0
6
CONTINUOUS
62
3
100
AcDbLine
10
132.080000000000
20
1034.110000000000
30
0.0
11
139.080000000000
21
1034.110000000000
31
0.0
0
LINE
5
836
100
AcDbEntity
8
0-0
6
CONTINUOUS
62
3
100
AcDbLine
10
139.080000000000
20
1033.610000000000
30
0.0
11
132.080000000000
21
1033.610000000000
31
0.0
0
LINE
5
837
100
AcDbEntity
8
0-0
6
CONTINUOUS
62
4
100
AcDbLine
10
120.080000000000
20
1000.110000000000
30
0.0
11
140.080000000000
21
1000.110000000000
31
0.0
0
LINE
5
838
100
AcDbEntity
8
0-0
6
CONTINUOUS
62
4
100
AcDbLine
10
120.080000000000
20
1005.110000000000
30
0.0
11
120.080000000000
21
1000.110000000000
31
0.0
0
LINE
5
839
100
AcDbEntity
8
0-0
6
CONTINUOUS
62
4
100
AcDbLine
10
140.080000000000
20
1005.110000000000
30
0.0
11
140.080000000000
21
1000.110000000000
31
0.0
0
LINE
5
83a
100
AcDbEntity
8
0-0
6
CONTINUOUS
62
4
100
AcDbLine
10
132.080000000000
20
1020.110000000000
30
0.0
11
132.080000000000
21
1015.110000000000
31
0.0
0
LINE
5
83b
100
AcDbEntity
8
0-0
6
CONTINUOUS
62
4
100
AcDbLine
10
132.080000000000
20
1015.110000000000
30
0.0
11
140.080000000000
21
1015.110000000000
31
0.0
0
LINE
5
83c
100
AcDbEntity
8
0-0
6
CONTINUOUS
62
4
100
AcDbLine
10
110.080000000000
20
1048.110000000000
30
0.0
11
110.080000000000
21
1025.110000000000
31
0.0
0
LINE
5
83d
100
AcDbEntity
8
0-0
6
CONTINUOUS
62
4
100
AcDbLine
10
115.080000000000
20
1025.110000000000
30
0.0
11
110.080000000000
21
1025.110000000000
31
0.0
0
LINE
5
83e
100
AcDbEntity
8
0-0
6
CONTINUOUS
62
3
100
AcDbLine
10
120.580000000000
20
1026.110000000000
30
0.0
11
120.580000000000
21
1047.110000000000
31
0.0
0
LINE
5
83f
100
AcDbEntity
8
0-0
6
CONTINUOUS
62
3
100
AcDbLine
10
120.080000000000
20
1026.110000000000
30
0.0
11
120.080000000000
21
1047.110000000000
31
0.0
0
LINE
5
840
100
AcDbEntity
8
0-0
6
CONTINUOUS
62
4
100
AcDbLine
10
671.600000000000
20
1038.110000000000
30
0.0
11
671.600000000000
21
1043.110000000000
31
0.0
0
LINE
5
841
100
AcDbEntity
8
0-0
6
CONTINUOUS
62
4
100
AcDbLine
10
713.600000000000
20
1038.110000000000
30
0.0
11
713.600000000000
21
1043.110000000000
31
0.0
0
LINE
5
842
100
AcDbEntity
8
0-0
6
CONTINUOUS
62
4
100
AcDbLine
10
717.340000000000
20
1030.150000000000
30
0.0
11
722.350000000000
21
1030.150000000000
31
0.0
0
LINE
5
843
100
AcDbEntity
8
0-0
6
CONTINUOUS
62
4
100
AcDbLine
10
674.100000000000
20
1005.110000000000
30
0.0
11
674.100000000000
21
1000.110000000000
31
0.0
0
LINE
5
844
100
AcDbEntity
8
0-0
6
CONTINUOUS
62
4
100
AcDbLine
10
698.100000000000
20
990.110000000000
30
0.0
11
698.100000000000
21
985.110000000000
31
0.0
0
LINE
5
845
100
AcDbEntity
8
0-0
6
CONTINUOUS
62
4
100
AcDbLine
10
674.100000000000
20
990.110000000000
30
0.0
11
674.100000000000
21
985.110000000000
31
0.0
0
LINE
5
846
100
AcDbEntity
8
0-0
6
CONTINUOUS
62
4
100
AcDbLine
10
682.100000000000
20
1005.110000000000
30
0.0
11
682.100000000000
21
1000.110000000000
31
0.0
0
LINE
5
847
100
AcDbEntity
8
0-0
6
CONTINUOUS
62
4
100
AcDbLine
10
686.100000000000
20
1005.110000000000
30
0.0
11
686.100000000000
21
1000.110000000000
31
0.0
0
LINE
5
848
100
AcDbEntity
8
0-0
6
CONTINUOUS
62
4
100
AcDbLine
10
674.100000000000
20
1000.110000000000
30
0.0
11
682.100000000000
21
1000.110000000000
31
0.0
0
LINE
5
849
100
AcDbEntity
8
0-0
6
CONTINUOUS
62
4
100
AcDbLine
10
717.340000000000
20
1013.150000000000
30
0.0
11
722.350000000000
21
1013.150000000000
31
0.0
0
LINE
5
84a
100
AcDbEntity
8
0-0
6
CONTINUOUS
62
3
100
AcDbLine
10
660.330000000000
20
1032.110000000000
30
0.0
11
671.600000000000
21
1032.610000000000
31
0.0
0
LINE
5
84b
100
AcDbEntity
8
0-0
6
CONTINUOUS
62
3
100
AcDbLine
10
660.360000000000
20
1031.610000000000
30
0.0
11
671.620000000000
21
1032.110000000000
31
0.0
0
LINE
5
84c
100
AcDbEntity
8
0-0
6
CONTINUOUS
62
3
100
AcDbLine
10
671.620000000000
20
1032.110000000000
30
0.0
11
671.600000000000
21
1032.610000000000
31
0.0
0
LINE
5
84d
100
AcDbEntity
8
0-0
6
CONTINUOUS
62
4
100
AcDbLine
10
659.600000000000
20
1038.110000000000
30
0.0
11
659.600000000000
21
1043.110000000000
31
0.0
0
LINE
5
84e
100
AcDbEntity
8
0-0
6
CONTINUOUS
62
4
100
AcDbLine
10
722.350000000000
20
1030.150000000000
30
0.0
11
722.350000000000
21
1013.150000000000
31
0.0
0
LINE
5
84f
100
AcDbEntity
8
0-0
6
CONTINUOUS
62
3
100
AcDbLine
10
660.350000000000
20
1033.110000000000
30
0.0
11
712.590000000000
21
1033.110000000000
31
0.0
0
LINE
5
850
100
AcDbEntity
8
0-0
6
CONTINUOUS
62
3
100
AcDbLine
10
660.330000000000
20
1032.610000000000
30
0.0
11
712.590000000000
21
1032.610000000000
31
0.0
0
LINE
5
851
100
AcDbEntity
8
0-0
6
CONTINUOUS
62
3
100
AcDbLine
10
712.600000000000
20
1031.610000000000
30
0.0
11
687.060000000000
21
1030.650000000000
31
0.0
0
LINE
5
852
100
AcDbEntity
8
0-0
6
CONTINUOUS
62
3
100
AcDbLine
10
712.620000000000
20
1031.110000000000
30
0.0
11
687.080000000000
21
1030.150000000000
31
0.0
0
LINE
5
853
100
AcDbEntity
8
0-0
6
CONTINUOUS
62
3
100
AcDbLine
10
687.100000000000
20
1013.150000000000
30
0.0
11
697.350000000000
21
1012.610000000000
31
0.0
0
LINE
5
854
100
AcDbEntity
8
0-0
6
CONTINUOUS
62
3
100
AcDbLine
10
687.070000000000
20
1012.650000000000
30
0.0
11
697.320000000000
21
1012.110000000000
31
0.0
0
LINE
5
855
100
AcDbEntity
8
0-0
6
CONTINUOUS
62
3
100
AcDbLine
10
674.850000000000
20
1012.110000000000
30
0.0
11
682.100000000000
21
1011.610000000000
31
0.0
0
LINE
5
856
100
AcDbEntity
8
0-0
6
CONTINUOUS
62
3
100
AcDbLine
10
674.850000000000
20
1012.610000000000
30
0.0
11
682.130000000000
21
1012.110000000000
31
0.0
0
LINE
5
857
100
AcDbEntity
8
0-0
6
CONTINUOUS
62
3
100
AcDbLine
10
674.850000000000
20
1011.110000000000
30
0.0
11
697.350000000000
21
1011.110000000000
31
0.0
0
LINE
5
858
100
AcDbEntity
8
0-0
6
CONTINUOUS
62
3
100
AcDbLine
10
674.850000000000
20
1011.610000000000
30
0.0
11
697.350000000000
21
1011.610000000000
31
0.0
0
LINE
5
859
100
AcDbEntity
8
0-0
6
CONTINUOUS
62
3
100
AcDbLine
10
682.130000000000
20
1012.110000000000
30
0.0
11
682.100000000000
21
1011.610000000000
31
0.0
0
LINE
5
85a
100
AcDbEntity
8
0-0
6
CONTINUOUS
62
4
100
AcDbLine
10
686.100000000000
20
1000.110000000000
30
0.0
11
698.100000000000
21
1000.110000000000
31
0.0
0
LINE
5
85b
100
AcDbEntity
8
0-0
6
CONTINUOUS
62
4
100
AcDbLine
10
698.100000000000
20
1005.110000000000
30
0.0
11
698.100000000000
21
1000.110000000000
31
0.0
0
LINE
5
85c
100
AcDbEntity
8
0-0
6
CONTINUOUS
62
4
100
AcDbLine
10
674.100000000000
20
985.110000000000
30
0.0
11
698.100000000000
21
985.110000000000
31
0.0
0
LINE
5
85d
100
AcDbEntity
8
0-0
6
CONTINUOUS
62
4
100
AcDbLine
10
686.100000000000
20
1038.110000000000
30
0.0
11
686.100000000000
21
1043.110000000000
31
0.0
0
LINE
5
85e
100
AcDbEntity
8
0-0
6
CONTINUOUS
62
4
100
AcDbLine
10
659.600000000000
20
1058.110000000000
30
0.0
11
713.600000000000
21
1058.110000000000
31
0.0
0
LINE
5
85f
100
AcDbEntity
8
0-0
6
CONTINUOUS
62
4
100
AcDbLine
10
659.600000000000
20
1053.110000000000
30
0.0
11
659.600000000000
21
1058.110000000000
31
0.0
0
LINE
5
860
100
AcDbEntity
8
0-0
6
CONTINUOUS
62
4
100
AcDbLine
10
713.600000000000
20
1053.110000000000
30
0.0
11
713.600000000000
21
1058.110000000000
31
0.0
0
LINE
5
861
100
AcDbEntity
8
0-0
6
CONTINUOUS
62
3
100
AcDbLine
10
686.600000000000
20
1029.650000000000
30
0.0
11
686.600000000000
21
1013.650000000000
31
0.0
0
LINE
5
862
100
AcDbEntity
8
0-0
6
CONTINUOUS
62
3
100
AcDbLine
10
686.100000000000
20
1029.650000000000
30
0.0
11
686.100000000000
21
1013.650000000000
31
0.0
0
LINE
5
863
100
AcDbEntity
8
0-0
6
CONTINUOUS
62
4
100
AcDbLine
10
731.340000000000
20
1033.110000000000
30
0.0
11
736.350000000000
21
1033.110000000000
31
0.0
0
LINE
5
864
100
AcDbEntity
8
0-0
6
CONTINUOUS
62
4
100
AcDbLine
10
736.350000000000
20
1033.110000000000
30
0.0
11
736.350000000000
21
1011.110000000000
31
0.0
0
LINE
5
865
100
AcDbEntity
8
0-0
6
CONTINUOUS
62
4
100
AcDbLine
10
731.340000000000
20
1011.110000000000
30
0.0
11
736.350000000000
21
1011.110000000000
31
0.0
0
LINE
5
866
100
AcDbEntity
8
0-0
6
CONTINUOUS
62
4
100
AcDbLine
10
659.600000000000
20
1043.110000000000
30
0.0
11
671.600000000000
21
1043.110000000000
31
0.0
0
LINE
5
867
100
AcDbEntity
8
0-0
6
CONTINUOUS
62
4
100
AcDbLine
10
686.100000000000
20
1043.110000000000
30
0.0
11
713.600000000000
21
1043.110000000000
31
0.0
0
LINE
5
868
100
AcDbEntity
8
0-0
6
CONTINUOUS
62
4
100
AcDbLine
10
242.980000000000
20
1058.110000000000
30
0.0
11
302.980000000000
21
1058.110000000000
31
0.0
0
LINE
5
869
100
AcDbEntity
8
0-0
6
CONTINUOUS
62
4
100
AcDbLine
10
242.980000000000
20
1053.110000000000
30
0.0
11
242.980000000000
21
1058.110000000000
31
0.0
0
LINE
5
86a
100
AcDbEntity
8
0-0
6
CONTINUOUS
62
4
100
AcDbLine
10
302.980000000000
20
1053.110000000000
30
0.0
11
302.980000000000
21
1058.110000000000
31
0.0
0
LINE
5
86b
100
AcDbEntity
8
0-0
6
CONTINUOUS
62
3
100
AcDbLine
10
242.980000000000
20
1048.110000000000
30
0.0
11
242.980000000000
21
1047.610000000000
31
0.0
0
LINE
5
86c
100
AcDbEntity
8
0-0
6
CONTINUOUS
62
4
100
AcDbLine
10
258.980000000000
20
1026.110000000000
30
0.0
11
258.980000000000
21
1021.110000000000
31
0.0
0
LINE
5
86d
100
AcDbEntity
8
0-0
6
CONTINUOUS
62
4
100
AcDbLine
10
288.980000000000
20
1026.110000000000
30
0.0
11
288.980000000000
21
1021.110000000000
31
0.0
0
LINE
5
86e
100
AcDbEntity
8
0-0
6
CONTINUOUS
62
4
100
AcDbLine
10
288.980000000000
20
1011.110000000000
30
0.0
11
288.980000000000
21
1006.110000000000
31
0.0
0
LINE
5
86f
100
AcDbEntity
8
0-0
6
CONTINUOUS
62
4
100
AcDbLine
10
258.980000000000
20
1011.110000000000
30
0.0
11
258.980000000000
21
1006.110000000000
31
0.0
0
LINE
5
870
100
AcDbEntity
8
0-0
6
CONTINUOUS
62
4
100
AcDbLine
10
258.980000000000
20
1006.110000000000
30
0.0
11
288.980000000000
21
1006.110000000000
31
0.0
0
LINE
5
871
100
AcDbEntity
8
0-0
6
CONTINUOUS
62
4
100
AcDbLine
10
266.980000000000
20
1026.110000000000
30
0.0
11
266.980000000000
21
1021.110000000000
31
0.0
0
LINE
5
872
100
AcDbEntity
8
0-0
6
CONTINUOUS
62
4
100
AcDbLine
10
272.980000000000
20
1026.110000000000
30
0.0
11
272.980000000000
21
1021.110000000000
31
0.0
0
LINE
5
873
100
AcDbEntity
8
0-0
6
CONTINUOUS
62
4
100
AcDbLine
10
258.980000000000
20
1021.110000000000
30
0.0
11
266.980000000000
21
1021.110000000000
31
0.0
0
LINE
5
874
100
AcDbEntity
8
0-0
6
CONTINUOUS
62
4
100
AcDbLine
10
272.980000000000
20
1021.110000000000
30
0.0
11
288.980000000000
21
1021.110000000000
31
0.0
0
LINE
5
875
100
AcDbEntity
8
0-0
6
CONTINUOUS
62
4
100
AcDbLine
10
306.730000000000
20
1046.610000000000
30
0.0
11
311.730000000000
21
1046.610000000000
31
0.0
0
LINE
5
876
100
AcDbEntity
8
0-0
6
CONTINUOUS
62
3
100
AcDbLine
10
242.980000000000
20
1048.110000000000
30
0.0
11
302.230000000000
21
1048.110000000000
31
0.0
0
LINE
5
877
100
AcDbEntity
8
0-0
6
CONTINUOUS
62
3
100
AcDbLine
10
273.980000000000
20
1046.610000000000
30
0.0
11
302.230000000000
21
1046.610000000000
31
0.0
0
LINE
5
878
100
AcDbEntity
8
0-0
6
CONTINUOUS
62
3
100
AcDbLine
10
242.980000000000
20
1047.610000000000
30
0.0
11
302.230000000000
21
1047.610000000000
31
0.0
0
LINE
5
879
100
AcDbEntity
8
0-0
6
CONTINUOUS
62
3
100
AcDbLine
10
273.980000000000
20
1047.110000000000
30
0.0
11
302.230000000000
21
1047.110000000000
31
0.0
0
LINE
5
87a
100
AcDbEntity
8
0-0
6
CONTINUOUS
62
3
100
AcDbLine
10
273.980000000000
20
1032.610000000000
30
0.0
11
288.230000000000
21
1032.610000000000
31
0.0
0
LINE
5
87b
100
AcDbEntity
8
0-0
6
CONTINUOUS
62
3
100
AcDbLine
10
288.230000000000
20
1032.110000000000
30
0.0
11
273.980000000000
21
1032.110000000000
31
0.0
0
LINE
5
87c
100
AcDbEntity
8
0-0
6
CONTINUOUS
62
3
100
AcDbLine
10
259.730000000000
20
1032.110000000000
30
0.0
11
266.980000000000
21
1032.110000000000
31
0.0
0
LINE
5
87d
100
AcDbEntity
8
0-0
6
CONTINUOUS
62
3
100
AcDbLine
10
266.980000000000
20
1032.610000000000
30
0.0
11
259.730000000000
21
1032.610000000000
31
0.0
0
LINE
5
87e
100
AcDbEntity
8
0-0
6
CONTINUOUS
62
3
100
AcDbLine
10
266.980000000000
20
1032.610000000000
30
0.0
11
266.980000000000
21
1032.110000000000
31
0.0
0
LINE
5
87f
100
AcDbEntity
8
0-0
6
CONTINUOUS
62
3
100
AcDbLine
10
259.730000000000
20
1031.610000000000
30
0.0
11
288.230000000000
21
1031.610000000000
31
0.0
0
LINE
5
880
100
AcDbEntity
8
0-0
6
CONTINUOUS
62
3
100
AcDbLine
10
259.730000000000
20
1031.110000000000
30
0.0
11
288.230000000000
21
1031.110000000000
31
0.0
0
LINE
5
881
100
AcDbEntity
8
0-0
6
CONTINUOUS
62
4
100
AcDbLine
10
306.730000000000
20
1032.610000000000
30
0.0
11
311.730000000000
21
1032.610000000000
31
0.0
0
LINE
5
882
100
AcDbEntity
8
0-0
6
CONTINUOUS
62
4
100
AcDbLine
10
311.730000000000
20
1046.610000000000
30
0.0
11
311.730000000000
21
1032.610000000000
31
0.0
0
LINE
5
883
100
AcDbEntity
8
0-0
6
CONTINUOUS
62
3
100
AcDbLine
10
272.980000000000
20
1046.110000000000
30
0.0
11
272.980000000000
21
1033.110000000000
31
0.0
0
LINE
5
884
100
AcDbEntity
8
0-0
6
CONTINUOUS
62
3
100
AcDbLine
10
273.480000000000
20
1046.110000000000
30
0.0
11
273.480000000000
21
1033.110000000000
31
0.0
0
LINE
5
885
100
AcDbEntity
8
0-0
6
CONTINUOUS
62
3
100
AcDbLine
10
395.880000000000
20
1063.110000000000
30
0.0
11
396.380000000000
21
1063.110000000000
31
0.0
0
LINE
5
886
100
AcDbEntity
8
0-0
6
CONTINUOUS
62
3
100
AcDbLine
10
410.380000000000
20
993.610000000000
30
0.0
11
410.880000000000
21
993.610000000000
31
0.0
0
LINE
5
887
100
AcDbEntity
8
0-0
6
CONTINUOUS
62
3
100
AcDbLine
10
396.380000000000
20
1014.110000000000
30
0.0
11
396.380000000000
21
1063.110000000000
31
0.0
0
LINE
5
888
100
AcDbEntity
8
0-0
6
CONTINUOUS
62
3
100
AcDbLine
10
418.380000000000
20
986.110000000000
30
0.0
11
411.380000000000
21
986.110000000000
31
0.0
0
LINE
5
889
100
AcDbEntity
8
0-0
6
CONTINUOUS
62
3
100
AcDbLine
10
418.380000000000
20
985.610000000000
30
0.0
11
411.380000000000
21
985.610000000000
31
0.0
0
LINE
5
88a
100
AcDbEntity
8
0-0
6
CONTINUOUS
62
3
100
AcDbLine
10
395.880000000000
20
1014.110000000000
30
0.0
11
395.880000000000
21
1063.110000000000
31
0.0
0
LINE
5
88b
100
AcDbEntity
8
0-0
6
CONTINUOUS
62
4
100
AcDbLine
10
385.880000000000
20
1013.110000000000
30
0.0
11
385.880000000000
21
1063.110000000000
31
0.0
0
LINE
5
88c
100
AcDbEntity
8
0-0
6
CONTINUOUS
62
4
100
AcDbLine
10
390.880000000000
20
1013.110000000000
30
0.0
11
385.880000000000
21
1013.110000000000
31
0.0
0
LINE
5
88d
100
AcDbEntity
8
0-0
6
CONTINUOUS
62
4
100
AcDbLine
10
390.880000000000
20
1063.110000000000
30
0.0
11
385.880000000000
21
1063.110000000000
31
0.0
0
LINE
5
88e
100
AcDbEntity
8
0-0
6
CONTINUOUS
62
4
100
AcDbLine
10
407.880000000000
20
985.610000000000
30
0.0
11
402.880000000000
21
985.610000000000
31
0.0
0
LINE
5
88f
100
AcDbEntity
8
0-0
6
CONTINUOUS
62
4
100
AcDbLine
10
424.380000000000
20
1010.610000000000
30
0.0
11
429.380000000000
21
1010.610000000000
31
0.0
0
LINE
5
890
100
AcDbEntity
8
0-0
6
CONTINUOUS
62
4
100
AcDbLine
10
410.380000000000
20
975.610000000000
30
0.0
11
419.380000000000
21
975.610000000000
31
0.0
0
LINE
5
891
100
AcDbEntity
8
0-0
6
CONTINUOUS
62
4
100
AcDbLine
10
410.380000000000
20
980.610000000000
30
0.0
11
410.380000000000
21
975.610000000000
31
0.0
0
LINE
5
892
100
AcDbEntity
8
0-0
6
CONTINUOUS
62
4
100
AcDbLine
10
419.380000000000
20
980.610000000000
30
0.0
11
419.380000000000
21
975.610000000000
31
0.0
0
LINE
5
893
100
AcDbEntity
8
0-0
6
CONTINUOUS
62
4
100
AcDbLine
10
424.380000000000
20
985.610000000000
30
0.0
11
429.380000000000
21
985.610000000000
31
0.0
0
LINE
5
894
100
AcDbEntity
8
0-0
6
CONTINUOUS
62
3
100
AcDbLine
10
418.880000000000
20
986.610000000000
30
0.0
11
418.880000000000
21
1009.610000000000
31
0.0
0
LINE
5
895
100
AcDbEntity
8
0-0
6
CONTINUOUS
62
3
100
AcDbLine
10
419.380000000000
20
1009.610000000000
30
0.0
11
419.380000000000
21
986.610000000000
31
0.0
0
LINE
5
896
100
AcDbEntity
8
0-0
6
CONTINUOUS
62
4
100
AcDbLine
10
396.380000000000
20
1023.610000000000
30
0.0
11
419.380000000000
21
1023.610000000000
31
0.0
0
LINE
5
897
100
AcDbEntity
8
0-0
6
CONTINUOUS
62
4
100
AcDbLine
10
419.380000000000
20
1018.610000000000
30
0.0
11
419.380000000000
21
1023.610000000000
31
0.0
0
LINE
5
898
100
AcDbEntity
8
0-0
6
CONTINUOUS
62
3
100
AcDbLine
10
528.780000000000
20
1063.110000000000
30
0.0
11
529.280000000000
21
1063.110000000000
31
0.0
0
LINE
5
899
100
AcDbEntity
8
0-0
6
CONTINUOUS
62
3
100
AcDbLine
10
528.780000000000
20
1014.110000000000
30
0.0
11
528.780000000000
21
1063.110000000000
31
0.0
0
LINE
5
89a
100
AcDbEntity
8
0-0
6
CONTINUOUS
62
4
100
AcDbLine
10
518.780000000000
20
1013.110000000000
30
0.0
11
518.780000000000
21
1063.110000000000
31
0.0
0
LINE
5
89b
100
AcDbEntity
8
0-0
6
CONTINUOUS
62
4
100
AcDbLine
10
523.780000000000
20
1013.110000000000
30
0.0
11
518.780000000000
21
1013.110000000000
31
0.0
0
LINE
5
89c
100
AcDbEntity
8
0-0
6
CONTINUOUS
62
4
100
AcDbLine
10
523.780000000000
20
1063.110000000000
30
0.0
11
518.780000000000
21
1063.110000000000
31
0.0
0
LINE
5
89d
100
AcDbEntity
8
0-0
6
CONTINUOUS
62
4
100
AcDbLine
10
514.780000000000
20
985.610000000000
30
0.0
11
509.780000000000
21
985.610000000000
31
0.0
0
LINE
5
89e
100
AcDbEntity
8
0-0
6
CONTINUOUS
62
4
100
AcDbLine
10
557.280000000000
20
1010.610000000000
30
0.0
11
562.280000000000
21
1010.610000000000
31
0.0
0
LINE
5
89f
100
AcDbEntity
8
0-0
6
CONTINUOUS
62
4
100
AcDbLine
10
517.280000000000
20
980.610000000000
30
0.0
11
517.280000000000
21
975.610000000000
31
0.0
0
LINE
5
8a0
100
AcDbEntity
8
0-0
6
CONTINUOUS
62
4
100
AcDbLine
10
552.280000000000
20
980.610000000000
30
0.0
11
552.280000000000
21
975.610000000000
31
0.0
0
LINE
5
8a1
100
AcDbEntity
8
0-0
6
CONTINUOUS
62
4
100
AcDbLine
10
557.280000000000
20
985.610000000000
30
0.0
11
562.280000000000
21
985.610000000000
31
0.0
0
LINE
5
8a2
100
AcDbEntity
8
0-0
6
CONTINUOUS
62
3
100
AcDbLine
10
552.280000000000
20
1009.610000000000
30
0.0
11
552.280000000000
21
986.610000000000
31
0.0
0
LINE
5
8a3
100
AcDbEntity
8
0-0
6
CONTINUOUS
62
4
100
AcDbLine
10
529.280000000000
20
1023.610000000000
30
0.0
11
552.280000000000
21
1023.610000000000
31
0.0
0
LINE
5
8a4
100
AcDbEntity
8
0-0
6
CONTINUOUS
62
4
100
AcDbLine
10
552.280000000000
20
1018.610000000000
30
0.0
11
552.280000000000
21
1023.610000000000
31
0.0
0
LINE
5
8a5
100
AcDbEntity
8
0-0
6
CONTINUOUS
62
4
100
AcDbLine
10
557.280000000000
20
1013.610000000000
30
0.0
11
562.280000000000
21
1013.610000000000
31
0.0
0
LINE
5
8a6
100
AcDbEntity
8
0-0
6
CONTINUOUS
62
4
100
AcDbLine
10
562.280000000000
20
1013.610000000000
30
0.0
11
562.280000000000
21
985.610000000000
31
0.0
0
LINE
5
8a7
100
AcDbEntity
8
0-0
6
CONTINUOUS
62
3
100
AcDbLine
10
551.280000000000
20
986.110000000000
30
0.0
11
518.280000000000
21
986.110000000000
31
0.0
0
LINE
5
8a8
100
AcDbEntity
8
0-0
6
CONTINUOUS
62
3
100
AcDbLine
10
551.280000000000
20
985.610000000000
30
0.0
11
518.280000000000
21
985.610000000000
31
0.0
0
LINE
5
8a9
100
AcDbEntity
8
0-0
6
CONTINUOUS
62
4
100
AcDbLine
10
517.280000000000
20
975.610000000000
30
0.0
11
552.280000000000
21
975.610000000000
31
0.0
0
LINE
5
8aa
100
AcDbEntity
8
0-0
6
CONTINUOUS
62
3
100
AcDbLine
10
529.280000000000
20
1014.120000000000
30
0.0
11
529.280000000000
21
1063.110000000000
31
0.0
0
LINE
5
8ab
100
AcDbEntity
8
0-0
6
CONTINUOUS
62
3
100
AcDbLine
10
551.350000000000
20
1010.100000000000
30
0.0
11
529.550000000000
21
1013.140000000000
31
0.0
0
LINE
5
8ac
100
AcDbEntity
8
0-0
6
CONTINUOUS
62
3
100
AcDbLine
10
551.780000000000
20
1009.610000000000
30
0.0
11
551.780000000000
21
986.610000000000
31
0.0
0
LINE
5
8ad
100
AcDbEntity
8
0-0
6
CONTINUOUS
62
3
100
AcDbLine
10
529.710000000000
20
1013.620000000000
30
0.0
11
551.420000000000
21
1010.590000000000
31
0.0
0
LINE
5
8ae
100
AcDbEntity
8
0-0
6
CONTINUOUS
62
3
100
AcDbLine
10
418.450000000000
20
1010.100000000000
30
0.0
11
396.650000000000
21
1013.140000000000
31
0.0
0
LINE
5
8af
100
AcDbEntity
8
0-0
6
CONTINUOUS
62
3
100
AcDbLine
10
396.810000000000
20
1013.620000000000
30
0.0
11
418.520000000000
21
1010.590000000000
31
0.0
0
LINE
5
8b0
100
AcDbEntity
8
0-0
6
CONTINUOUS
62
4
100
AcDbLine
10
424.380000000000
20
1013.610000000000
30
0.0
11
429.380000000000
21
1013.610000000000
31
0.0
0
LINE
5
8b1
100
AcDbEntity
8
0-0
6
CONTINUOUS
62
4
100
AcDbLine
10
429.380000000000
20
1013.610000000000
30
0.0
11
429.380000000000
21
985.610000000000
31
0.0
0
LINE
5
8b2
100
AcDbEntity
8
0-0
6
CONTINUOUS
62
4
100
AcDbLine
10
514.780000000000
20
994.610000000000
30
0.0
11
509.780000000000
21
994.610000000000
31
0.0
0
LINE
5
8b3
100
AcDbEntity
8
0-0
6
CONTINUOUS
62
4
100
AcDbLine
10
509.780000000000
20
994.610000000000
30
0.0
11
509.780000000000
21
985.610000000000
31
0.0
0
LINE
5
8b4
100
AcDbEntity
8
0-0
6
CONTINUOUS
62
3
100
AcDbLine
10
525.280000000000
20
994.610000000000
30
0.0
11
525.280000000000
21
994.110000000000
31
0.0
0
LINE
5
8b5
100
AcDbEntity
8
0-0
6
CONTINUOUS
62
3
100
AcDbLine
10
517.780000000000
20
986.610000000000
30
0.0
11
517.780000000000
21
993.610000000000
31
0.0
0
LINE
5
8b6
100
AcDbEntity
8
0-0
6
CONTINUOUS
62
3
100
AcDbLine
10
517.280000000000
20
986.610000000000
30
0.0
11
517.280000000000
21
993.610000000000
31
0.0
0
LINE
5
8b7
100
AcDbEntity
8
0-0
6
CONTINUOUS
62
4
100
AcDbLine
10
525.280000000000
20
997.110000000000
30
0.0
11
525.280000000000
21
1002.110000000000
31
0.0
0
LINE
5
8b8
100
AcDbEntity
8
0-0
6
CONTINUOUS
62
4
100
AcDbLine
10
517.280000000000
20
997.110000000000
30
0.0
11
517.280000000000
21
1002.110000000000
31
0.0
0
LINE
5
8b9
100
AcDbEntity
8
0-0
6
CONTINUOUS
62
4
100
AcDbLine
10
407.880000000000
20
993.610000000000
30
0.0
11
402.880000000000
21
993.610000000000
31
0.0
0
LINE
5
8ba
100
AcDbEntity
8
0-0
6
CONTINUOUS
62
4
100
AcDbLine
10
402.880000000000
20
993.610000000000
30
0.0
11
402.880000000000
21
985.610000000000
31
0.0
0
LINE
5
8bb
100
AcDbEntity
8
0-0
6
CONTINUOUS
62
3
100
AcDbLine
10
410.380000000000
20
993.610000000000
30
0.0
11
410.380000000000
21
986.610000000000
31
0.0
0
LINE
5
8bc
100
AcDbEntity
8
0-0
6
CONTINUOUS
62
3
100
AcDbLine
10
410.880000000000
20
986.610000000000
30
0.0
11
410.880000000000
21
993.610000000000
31
0.0
0
LINE
5
8bd
100
AcDbEntity
8
0-0
6
CONTINUOUS
62
4
100
AcDbLine
10
525.280000000000
20
1002.110000000000
30
0.0
11
517.280000000000
21
1002.110000000000
31
0.0
0
LINE
5
8be
100
AcDbEntity
8
0-0
6
CONTINUOUS
62
3
100
AcDbLine
10
525.280000000000
20
994.610000000000
30
0.0
11
518.280000000000
21
994.610000000000
31
0.0
0
LINE
5
8bf
100
AcDbEntity
8
0-0
6
CONTINUOUS
62
3
100
AcDbLine
10
518.280000000000
20
994.110000000000
30
0.0
11
525.280000000000
21
994.110000000000
31
0.0
0
LINE
5
8c0
100
AcDbEntity
8
0-0
6
CONTINUOUS
62
4
100
AcDbLine
10
150.080000000000
20
1048.110000000000
30
0.0
11
150.080000000000
21
1034.110000000000
31
0.0
0
ARC
5
8c1
100
AcDbEntity
8
0-0
6
CONTINUOUS
62
3
100
AcDbCircle
10
153.080000000000
20
460.780000000000
30
0.0
40
0.999999973880
100
AcDbArc
50
270.000000000000
51
360.000000000000
0
ARC
5
8c2
100
AcDbEntity
8
0-0
6
CONTINUOUS
62
3
100
AcDbCircle
10
153.080000000000
20
460.780000000000
30
0.0
40
1.500000063431
100
AcDbArc
50
270.000000000000
51
360.000000000000
0
ARC
5
8c3
100
AcDbEntity
8
0-0
6
CONTINUOUS
62
3
100
AcDbCircle
10
155.580000000000
20
469.280000000000
30
0.0
40
0.999999973880
100
AcDbArc
50
90.000000000000
51
180.000000000000
0
ARC
5
8c4
100
AcDbEntity
8
0-0
6
CONTINUOUS
62
3
100
AcDbCircle
10
155.580000000000
20
469.280000000000
30
0.0
40
1.500000063431
100
AcDbArc
50
90.000000000000
51
180.000000000000
0
ARC
5
8c5
100
AcDbEntity
8
0-0
6
CONTINUOUS
62
3
100
AcDbCircle
10
352.330000000000
20
469.280000000000
30
0.0
40
0.999999973880
100
AcDbArc
50
360.000000000000
51
450.000000000000
0
ARC
5
8c6
100
AcDbEntity
8
0-0
6
CONTINUOUS
62
3
100
AcDbCircle
10
352.330000000000
20
469.280000000000
30
0.0
40
1.500000063431
100
AcDbArc
50
360.000000000000
51
450.000000000000
0
CIRCLE
5
8c7
100
AcDbEntity
8
0-0
6
CONTINUOUS
62
3
100
AcDbCircle
10
39.860000000000
20
33.550000000000
30
0.0
40
5.656899535249
0
CIRCLE
5
8c8
100
AcDbEntity
8
0-0
6
CONTINUOUS
62
3
100
AcDbCircle
10
39.860000000000
20
33.550000000000
30
0.0
40
6.456900006885
0
CIRCLE
5
8c9
100
AcDbEntity
8
0-0
6
CONTINUOUS
62
4
100
AcDbCircle
10
39.860000000000
20
33.550000000000
30
0.0
40
5.736899910767
0
CIRCLE
5
8ca
100
AcDbEntity
8
0-0
6
CONTINUOUS
62
4
100
AcDbCircle
10
39.860000000000
20
33.550000000000
30
0.0
40
5.896900114546
0
CIRCLE
5
8cb
100
AcDbEntity
8
0-0
6
CONTINUOUS
62
4
100
AcDbCircle
10
39.860000000000
20
33.550000000000
30
0.0
40
6.056900318325
0
CIRCLE
5
8cc
100
AcDbEntity
8
0-0
6
CONTINUOUS
62
4
100
AcDbCircle
10
39.860000000000
20
33.550000000000
30
0.0
40
6.216899974846
0
CIRCLE
5
8cd
100
AcDbEntity
8
0-0
6
CONTINUOUS
62
4
100
AcDbCircle
10
39.860000000000
20
33.550000000000
30
0.0
40
6.376899631366
0
CIRCLE
5
8ce
100
AcDbEntity
8
0-0
6
CONTINUOUS
62
3
100
AcDbCircle
10
39.860000000000
20
623.180000000000
30
0.0
40
5.656899535249
0
CIRCLE
5
8cf
100
AcDbEntity
8
0-0
6
CONTINUOUS
62
3
100
AcDbCircle
10
39.860000000000
20
623.180000000000
30
0.0
40
6.456900006885
0
CIRCLE
5
8d0
100
AcDbEntity
8
0-0
6
CONTINUOUS
62
4
100
AcDbCircle
10
39.860000000000
20
623.180000000000
30
0.0
40
5.736899910767
0
CIRCLE
5
8d1
100
AcDbEntity
8
0-0
6
CONTINUOUS
62
4
100
AcDbCircle
10
39.860000000000
20
623.180000000000
30
0.0
40
5.896900114546
0
CIRCLE
5
8d2
100
AcDbEntity
8
0-0
6
CONTINUOUS
62
4
100
AcDbCircle
10
39.860000000000
20
623.180000000000
30
0.0
40
6.056900318325
0
CIRCLE
5
8d3
100
AcDbEntity
8
0-0
6
CONTINUOUS
62
4
100
AcDbCircle
10
39.860000000000
20
623.180000000000
30
0.0
40
6.216899974846
0
CIRCLE
5
8d4
100
AcDbEntity
8
0-0
6
CONTINUOUS
62
4
100
AcDbCircle
10
39.860000000000
20
623.180000000000
30
0.0
40
6.376899631366
0
ARC
5
8d5
100
AcDbEntity
8
0-0
6
CONTINUOUS
62
3
100
AcDbCircle
10
459.180000000000
20
854.410000000000
30
0.0
40
0.499999986940
100
AcDbArc
50
90.000000000000
51
180.000000000000
0
ARC
5
8d6
100
AcDbEntity
8
0-0
6
CONTINUOUS
62
3
100
AcDbCircle
10
459.180000000000
20
854.410000000000
30
0.0
40
0.999999973880
100
AcDbArc
50
90.000000000000
51
180.000000000000
0
ARC
5
8d7
100
AcDbEntity
8
0-0
6
CONTINUOUS
62
3
100
AcDbCircle
10
664.840000000000
20
736.530000000000
30
0.0
40
0.499999986940
100
AcDbArc
50
180.000000000000
51
270.000000000000
0
ARC
5
8d8
100
AcDbEntity
8
0-0
6
CONTINUOUS
62
3
100
AcDbCircle
10
664.840000000000
20
736.530000000000
30
0.0
40
0.999999973880
100
AcDbArc
50
180.000000000000
51
270.000000000000
0
ARC
5
8d9
100
AcDbEntity
8
0-0
6
CONTINUOUS
62
3
100
AcDbCircle
10
153.080000000000
20
460.780000000000
30
0.0
40
0.999999973880
100
AcDbArc
50
270.000000000000
51
360.000000000000
0
ARC
5
8da
100
AcDbEntity
8
0-0
6
CONTINUOUS
62
3
100
AcDbCircle
10
153.080000000000
20
460.780000000000
30
0.0
40
1.500000063431
100
AcDbArc
50
270.000000000000
51
360.000000000000
0
ARC
5
8db
100
AcDbEntity
8
0-0
6
CONTINUOUS
62
3
100
AcDbCircle
10
468.180000000000
20
754.030000000000
30
0.0
40
0.999999973880
100
AcDbArc
50
360.000000000000
51
450.000000000000
0
ARC
5
8dc
100
AcDbEntity
8
0-0
6
CONTINUOUS
62
3
100
AcDbCircle
10
468.180000000000
20
754.030000000000
30
0.0
40
1.500000063431
100
AcDbArc
50
360.000000000000
51
450.000000000000
0
ARC
5
8dd
100
AcDbEntity
8
0-0
6
CONTINUOUS
62
3
100
AcDbCircle
10
459.680000000000
20
756.530000000000
30
0.0
40
0.999999973880
100
AcDbArc
50
180.000000000000
51
270.000000000000
0
ARC
5
8de
100
AcDbEntity
8
0-0
6
CONTINUOUS
62
3
100
AcDbCircle
10
459.680000000000
20
756.530000000000
30
0.0
40
1.500000063431
100
AcDbArc
50
180.000000000000
51
270.000000000000
0
ARC
5
8df
100
AcDbEntity
8
0-0
6
CONTINUOUS
62
3
100
AcDbCircle
10
468.180000000000
20
754.030000000000
30
0.0
40
0.999999973880
100
AcDbArc
50
360.000000000000
51
450.000000000000
0
ARC
5
8e0
100
AcDbEntity
8
0-0
6
CONTINUOUS
62
3
100
AcDbCircle
10
468.180000000000
20
754.030000000000
30
0.0
40
1.500000063431
100
AcDbArc
50
360.000000000000
51
450.000000000000
0
ARC
5
8e1
100
AcDbEntity
8
0-0
6
CONTINUOUS
62
3
100
AcDbCircle
10
654.340000000000
20
836.910000000000
30
0.0
40
0.999999973880
100
AcDbArc
50
180.000000000000
51
270.000000000000
0
ARC
5
8e2
100
AcDbEntity
8
0-0
6
CONTINUOUS
62
3
100
AcDbCircle
10
654.340000000000
20
836.910000000000
30
0.0
40
1.500000063431
100
AcDbArc
50
180.000000000000
51
270.000000000000
0
ARC
5
8e3
100
AcDbEntity
8
0-0
6
CONTINUOUS
62
3
100
AcDbCircle
10
662.840000000000
20
834.410000000000
30
0.0
40
0.999999973880
100
AcDbArc
50
360.000000000000
51
450.000000000000
0
ARC
5
8e4
100
AcDbEntity
8
0-0
6
CONTINUOUS
62
3
100
AcDbCircle
10
662.840000000000
20
834.410000000000
30
0.0
40
1.500000063431
100
AcDbArc
50
360.000000000000
51
450.000000000000
0
ARC
5
8e5
100
AcDbEntity
8
0-0
6
CONTINUOUS
62
3
100
AcDbCircle
10
654.340000000000
20
836.910000000000
30
0.0
40
0.999999973880
100
AcDbArc
50
180.000000000000
51
270.000000000000
0
ARC
5
8e6
100
AcDbEntity
8
0-0
6
CONTINUOUS
62
3
100
AcDbCircle
10
654.340000000000
20
836.910000000000
30
0.0
40
1.500000063431
100
AcDbArc
50
180.000000000000
51
270.000000000000
0
ARC
5
8e7
100
AcDbEntity
8
0-0
6
CONTINUOUS
62
3
100
AcDbCircle
10
279.450000000000
20
368.250000000000
30
0.0
40
0.999999973880
100
AcDbArc
50
90.000000000000
51
134.998992919922
0
ARC
5
8e8
100
AcDbEntity
8
0-0
6
CONTINUOUS
62
3
100
AcDbCircle
10
277.410000000000
20
369.750000000000
30
0.0
40
0.999999973880
100
AcDbArc
50
270.000000000000
51
314.998992919922
0
ARC
5
8e9
100
AcDbEntity
8
0-0
6
CONTINUOUS
62
3
100
AcDbCircle
10
279.450000000000
20
368.250000000000
30
0.0
40
1.500000063431
100
AcDbArc
50
90.000000000000
51
134.998992919922
0
ARC
5
8ea
100
AcDbEntity
8
0-0
6
CONTINUOUS
62
3
100
AcDbCircle
10
277.410000000000
20
369.750000000000
30
0.0
40
1.500000063431
100
AcDbArc
50
270.000000000000
51
314.998992919922
0
ARC
5
8eb
100
AcDbEntity
8
0-0
6
CONTINUOUS
62
3
100
AcDbCircle
10
228.200000000000
20
368.250000000000
30
0.0
40
0.999999973880
100
AcDbArc
50
45.001007080078
51
90.000000000000
0
ARC
5
8ec
100
AcDbEntity
8
0-0
6
CONTINUOUS
62
3
100
AcDbCircle
10
230.240000000000
20
369.750000000000
30
0.0
40
0.999999973880
100
AcDbArc
50
225.001007080078
51
270.000000000000
0
ARC
5
8ed
100
AcDbEntity
8
0-0
6
CONTINUOUS
62
3
100
AcDbCircle
10
228.200000000000
20
368.250000000000
30
0.0
40
1.500000063431
100
AcDbArc
50
45.001007080078
51
90.000000000000
0
ARC
5
8ee
100
AcDbEntity
8
0-0
6
CONTINUOUS
62
3
100
AcDbCircle
10
230.240000000000
20
369.750000000000
30
0.0
40
1.500000063431
100
AcDbArc
50
225.001007080078
51
270.000000000000
0
ARC
5
8ef
100
AcDbEntity
8
0-0
6
CONTINUOUS
62
3
100
AcDbCircle
10
612.450000000000
20
368.250000000000
30
0.0
40
0.999999973880
100
AcDbArc
50
90.000000000000
51
134.998992919922
0
ARC
5
8f0
100
AcDbEntity
8
0-0
6
CONTINUOUS
62
3
100
AcDbCircle
10
610.410000000000
20
369.750000000000
30
0.0
40
0.999999973880
100
AcDbArc
50
270.000000000000
51
314.998992919922
0
ARC
5
8f1
100
AcDbEntity
8
0-0
6
CONTINUOUS
62
3
100
AcDbCircle
10
612.450000000000
20
368.250000000000
30
0.0
40
1.500000063431
100
AcDbArc
50
90.000000000000
51
134.998992919922
0
ARC
5
8f2
100
AcDbEntity
8
0-0
6
CONTINUOUS
62
3
100
AcDbCircle
10
610.410000000000
20
369.750000000000
30
0.0
40
1.500000063431
100
AcDbArc
50
270.000000000000
51
314.998992919922
0
ARC
5
8f3
100
AcDbEntity
8
0-0
6
CONTINUOUS
62
3
100
AcDbCircle
10
561.200000000000
20
368.250000000000
30
0.0
40
0.999999973880
100
AcDbArc
50
45.001007080078
51
90.000000000000
0
ARC
5
8f4
100
AcDbEntity
8
0-0
6
CONTINUOUS
62
3
100
AcDbCircle
10
563.240000000000
20
369.750000000000
30
0.0
40
0.999999973880
100
AcDbArc
50
225.001007080078
51
270.000000000000
0
ARC
5
8f5
100
AcDbEntity
8
0-0
6
CONTINUOUS
62
3
100
AcDbCircle
10
561.200000000000
20
368.250000000000
30
0.0
40
1.500000063431
100
AcDbArc
50
45.001007080078
51
90.000000000000
0
ARC
5
8f6
100
AcDbEntity
8
0-0
6
CONTINUOUS
62
3
100
AcDbCircle
10
563.240000000000
20
369.750000000000
30
0.0
40
1.500000063431
100
AcDbArc
50
225.001007080078
51
270.000000000000
0
ARC
5
8f7
100
AcDbEntity
8
0-0
6
CONTINUOUS
62
3
100
AcDbCircle
10
488.580000000000
20
204.100000000000
30
0.0
40
0.999999973880
100
AcDbArc
50
90.000000000000
51
180.000000000000
0
ARC
5
8f8
100
AcDbEntity
8
0-0
6
CONTINUOUS
62
3
100
AcDbCircle
10
488.580000000000
20
204.100000000000
30
0.0
40
0.999999973880
100
AcDbArc
50
90.000000000000
51
180.000000000000
0
ARC
5
8f9
100
AcDbEntity
8
0-0
6
CONTINUOUS
62
3
100
AcDbCircle
10
488.580000000000
20
204.100000000000
30
0.0
40
1.500000063431
100
AcDbArc
50
90.000000000000
51
180.000000000000
0
ARC
5
8fa
100
AcDbEntity
8
0-0
6
CONTINUOUS
62
3
100
AcDbCircle
10
153.080000000000
20
195.600000000000
30
0.0
40
0.999999973880
100
AcDbArc
50
270.000000000000
51
360.000000000000
0
ARC
5
8fb
100
AcDbEntity
8
0-0
6
CONTINUOUS
62
3
100
AcDbCircle
10
153.080000000000
20
195.600000000000
30
0.0
40
1.500000063431
100
AcDbArc
50
270.000000000000
51
360.000000000000
0
ARC
5
8fc
100
AcDbEntity
8
0-0
6
CONTINUOUS
62
3
100
AcDbCircle
10
155.580000000000
20
204.100000000000
30
0.0
40
0.999999973880
100
AcDbArc
50
90.000000000000
51
180.000000000000
0
ARC
5
8fd
100
AcDbEntity
8
0-0
6
CONTINUOUS
62
3
100
AcDbCircle
10
155.580000000000
20
204.100000000000
30
0.0
40
1.500000063431
100
AcDbArc
50
90.000000000000
51
180.000000000000
0
ARC
5
8fe
100
AcDbEntity
8
0-0
6
CONTINUOUS
62
3
100
AcDbCircle
10
486.080000000000
20
195.600000000000
30
0.0
40
0.999999973880
100
AcDbArc
50
270.000000000000
51
360.000000000000
0
ARC
5
8ff
100
AcDbEntity
8
0-0
6
CONTINUOUS
62
3
100
AcDbCircle
10
486.080000000000
20
195.600000000000
30
0.0
40
1.500000063431
100
AcDbArc
50
270.000000000000
51
360.000000000000
0
ARC
5
900
100
AcDbEntity
8
0-0
6
CONTINUOUS
62
3
100
AcDbCircle
10
485.330000000000
20
204.100000000000
30
0.0
40
0.999999973880
100
AcDbArc
50
360.000000000000
51
450.000000000000
0
ARC
5
901
100
AcDbEntity
8
0-0
6
CONTINUOUS
62
3
100
AcDbCircle
10
485.330000000000
20
204.100000000000
30
0.0
40
1.500000063431
100
AcDbArc
50
360.000000000000
51
450.000000000000
0
ARC
5
902
100
AcDbEntity
8
0-0
6
CONTINUOUS
62
3
100
AcDbCircle
10
478.450000000000
20
193.600000000000
30
0.0
40
1.500000063431
100
AcDbArc
50
90.000000000000
51
270.000000000000
0
ARC
5
903
100
AcDbEntity
8
0-0
6
CONTINUOUS
62
3
100
AcDbCircle
10
478.450000000000
20
193.600000000000
30
0.0
40
1.999999947760
100
AcDbArc
50
90.000000000000
51
270.000000000000
0
ARC
5
904
100
AcDbEntity
8
0-0
6
CONTINUOUS
62
3
100
AcDbCircle
10
490.830000000000
20
192.020000000000
30
0.0
40
0.499999986940
100
AcDbArc
50
68.194900512695
51
111.805099487305
0
ARC
5
905
100
AcDbEntity
8
0-0
6
CONTINUOUS
62
3
100
AcDbCircle
10
490.830000000000
20
192.020000000000
30
0.0
40
0.999999973880
100
AcDbArc
50
68.194900512695
51
111.805099487305
0
ARC
5
906
100
AcDbEntity
8
0-0
6
CONTINUOUS
62
3
100
AcDbCircle
10
484.260000000000
20
197.470000000000
30
0.0
40
1.500000063431
100
AcDbArc
50
284.482406616211
51
341.618011474609
0
ARC
5
907
100
AcDbEntity
8
0-0
6
CONTINUOUS
62
3
100
AcDbCircle
10
484.260000000000
20
197.470000000000
30
0.0
40
0.999999973880
100
AcDbArc
50
285.828018188477
51
339.546127319336
0
ARC
5
908
100
AcDbEntity
8
0-0
6
CONTINUOUS
62
3
100
AcDbCircle
10
153.080000000000
20
195.600000000000
30
0.0
40
0.999999973880
100
AcDbArc
50
270.000000000000
51
360.000000000000
0
ARC
5
909
100
AcDbEntity
8
0-0
6
CONTINUOUS
62
3
100
AcDbCircle
10
153.080000000000
20
195.600000000000
30
0.0
40
1.500000063431
100
AcDbArc
50
270.000000000000
51
360.000000000000
0
ARC
5
90a
100
AcDbEntity
8
0-0
6
CONTINUOUS
62
3
100
AcDbCircle
10
688.570000000000
20
204.100000000000
30
0.0
40
0.999999973880
100
AcDbArc
50
90.000000000000
51
180.000000000000
0
ARC
5
90b
100
AcDbEntity
8
0-0
6
CONTINUOUS
62
3
100
AcDbCircle
10
688.570000000000
20
204.100000000000
30
0.0
40
0.999999973880
100
AcDbArc
50
90.000000000000
51
180.000000000000
0
ARC
5
90c
100
AcDbEntity
8
0-0
6
CONTINUOUS
62
3
100
AcDbCircle
10
688.570000000000
20
204.100000000000
30
0.0
40
1.500000063431
100
AcDbArc
50
90.000000000000
51
180.000000000000
0
ARC
5
90d
100
AcDbEntity
8
0-0
6
CONTINUOUS
62
3
100
AcDbCircle
10
686.070000000000
20
195.600000000000
30
0.0
40
0.999999973880
100
AcDbArc
50
270.000000000000
51
360.000000000000
0
ARC
5
90e
100
AcDbEntity
8
0-0
6
CONTINUOUS
62
3
100
AcDbCircle
10
686.070000000000
20
195.600000000000
30
0.0
40
1.500000063431
100
AcDbArc
50
270.000000000000
51
360.000000000000
0
ARC
5
90f
100
AcDbEntity
8
0-0
6
CONTINUOUS
62
3
100
AcDbCircle
10
685.320000000000
20
204.100000000000
30
0.0
40
0.999999973880
100
AcDbArc
50
360.000000000000
51
450.000000000000
0
ARC
5
910
100
AcDbEntity
8
0-0
6
CONTINUOUS
62
3
100
AcDbCircle
10
685.320000000000
20
204.100000000000
30
0.0
40
1.500000063431
100
AcDbArc
50
360.000000000000
51
450.000000000000
0
ARC
5
911
100
AcDbEntity
8
0-0
6
CONTINUOUS
62
3
100
AcDbCircle
10
678.450000000000
20
193.600000000000
30
0.0
40
1.500000063431
100
AcDbArc
50
90.000000000000
51
270.000000000000
0
ARC
5
912
100
AcDbEntity
8
0-0
6
CONTINUOUS
62
3
100
AcDbCircle
10
678.450000000000
20
193.600000000000
30
0.0
40
1.999999947760
100
AcDbArc
50
90.000000000000
51
270.000000000000
0
ARC
5
913
100
AcDbEntity
8
0-0
6
CONTINUOUS
62
3
100
AcDbCircle
10
690.830000000000
20
192.020000000000
30
0.0
40
0.499999986940
100
AcDbArc
50
68.194900512695
51
111.805099487305
0
ARC
5
914
100
AcDbEntity
8
0-0
6
CONTINUOUS
62
3
100
AcDbCircle
10
690.830000000000
20
192.020000000000
30
0.0
40
0.999999973880
100
AcDbArc
50
68.194900512695
51
111.805099487305
0
ARC
5
915
100
AcDbEntity
8
0-0
6
CONTINUOUS
62
3
100
AcDbCircle
10
684.260000000000
20
197.470000000000
30
0.0
40
1.500000063431
100
AcDbArc
50
284.482406616211
51
341.618011474609
0
ARC
5
916
100
AcDbEntity
8
0-0
6
CONTINUOUS
62
3
100
AcDbCircle
10
684.260000000000
20
197.470000000000
30
0.0
40
0.999999973880
100
AcDbArc
50
285.828018188477
51
339.546127319336
0
ARC
5
917
100
AcDbEntity
8
0-0
6
CONTINUOUS
62
3
100
AcDbCircle
10
488.580000000000
20
103.060000000000
30
0.0
40
0.999999973880
100
AcDbArc
50
90.000000000000
51
180.000000000000
0
ARC
5
918
100
AcDbEntity
8
0-0
6
CONTINUOUS
62
3
100
AcDbCircle
10
488.580000000000
20
103.060000000000
30
0.0
40
0.999999973880
100
AcDbArc
50
90.000000000000
51
180.000000000000
0
ARC
5
919
100
AcDbEntity
8
0-0
6
CONTINUOUS
62
3
100
AcDbCircle
10
488.580000000000
20
103.060000000000
30
0.0
40
1.500000063431
100
AcDbArc
50
90.000000000000
51
180.000000000000
0
ARC
5
91a
100
AcDbEntity
8
0-0
6
CONTINUOUS
62
3
100
AcDbCircle
10
153.080000000000
20
94.560000000000
30
0.0
40
0.999999973880
100
AcDbArc
50
270.000000000000
51
360.000000000000
0
ARC
5
91b
100
AcDbEntity
8
0-0
6
CONTINUOUS
62
3
100
AcDbCircle
10
153.080000000000
20
94.560000000000
30
0.0
40
1.500000063431
100
AcDbArc
50
270.000000000000
51
360.000000000000
0
ARC
5
91c
100
AcDbEntity
8
0-0
6
CONTINUOUS
62
3
100
AcDbCircle
10
155.580000000000
20
103.060000000000
30
0.0
40
0.999999973880
100
AcDbArc
50
90.000000000000
51
180.000000000000
0
ARC
5
91d
100
AcDbEntity
8
0-0
6
CONTINUOUS
62
3
100
AcDbCircle
10
155.580000000000
20
103.060000000000
30
0.0
40
1.500000063431
100
AcDbArc
50
90.000000000000
51
180.000000000000
0
ARC
5
91e
100
AcDbEntity
8
0-0
6
CONTINUOUS
62
3
100
AcDbCircle
10
486.080000000000
20
94.560000000000
30
0.0
40
0.999999973880
100
AcDbArc
50
270.000000000000
51
360.000000000000
0
ARC
5
91f
100
AcDbEntity
8
0-0
6
CONTINUOUS
62
3
100
AcDbCircle
10
486.080000000000
20
94.560000000000
30
0.0
40
1.500000063431
100
AcDbArc
50
270.000000000000
51
360.000000000000
0
ARC
5
920
100
AcDbEntity
8
0-0
6
CONTINUOUS
62
3
100
AcDbCircle
10
485.330000000000
20
103.060000000000
30
0.0
40
0.999999973880
100
AcDbArc
50
360.000000000000
51
450.000000000000
0
ARC
5
921
100
AcDbEntity
8
0-0
6
CONTINUOUS
62
3
100
AcDbCircle
10
485.330000000000
20
103.060000000000
30
0.0
40
1.500000063431
100
AcDbArc
50
360.000000000000
51
450.000000000000
0
ARC
5
922
100
AcDbEntity
8
0-0
6
CONTINUOUS
62
3
100
AcDbCircle
10
478.450000000000
20
92.560000000000
30
0.0
40
1.500000063431
100
AcDbArc
50
90.000000000000
51
270.000000000000
0
ARC
5
923
100
AcDbEntity
8
0-0
6
CONTINUOUS
62
3
100
AcDbCircle
10
478.450000000000
20
92.560000000000
30
0.0
40
1.999999947760
100
AcDbArc
50
90.000000000000
51
270.000000000000
0
ARC
5
924
100
AcDbEntity
8
0-0
6
CONTINUOUS
62
3
100
AcDbCircle
10
490.830000000000
20
90.980000000000
30
0.0
40
0.499999986940
100
AcDbArc
50
68.194900512695
51
111.805099487305
0
ARC
5
925
100
AcDbEntity
8
0-0
6
CONTINUOUS
62
3
100
AcDbCircle
10
490.830000000000
20
90.980000000000
30
0.0
40
0.999999973880
100
AcDbArc
50
68.194900512695
51
111.805099487305
0
ARC
5
926
100
AcDbEntity
8
0-0
6
CONTINUOUS
62
3
100
AcDbCircle
10
484.260000000000
20
96.430000000000
30
0.0
40
1.500000063431
100
AcDbArc
50
284.482406616211
51
341.618011474609
0
ARC
5
927
100
AcDbEntity
8
0-0
6
CONTINUOUS
62
3
100
AcDbCircle
10
484.260000000000
20
96.430000000000
30
0.0
40
0.999999973880
100
AcDbArc
50
285.828018188477
51
339.546127319336
0
ARC
5
928
100
AcDbEntity
8
0-0
6
CONTINUOUS
62
3
100
AcDbCircle
10
153.080000000000
20
94.560000000000
30
0.0
40
0.999999973880
100
AcDbArc
50
270.000000000000
51
360.000000000000
0
ARC
5
929
100
AcDbEntity
8
0-0
6
CONTINUOUS
62
3
100
AcDbCircle
10
153.080000000000
20
94.560000000000
30
0.0
40
1.500000063431
100
AcDbArc
50
270.000000000000
51
360.000000000000
0
ARC
5
92a
100
AcDbEntity
8
0-0
6
CONTINUOUS
62
3
100
AcDbCircle
10
688.570000000000
20
103.060000000000
30
0.0
40
0.999999973880
100
AcDbArc
50
90.000000000000
51
180.000000000000
0
ARC
5
92b
100
AcDbEntity
8
0-0
6
CONTINUOUS
62
3
100
AcDbCircle
10
688.570000000000
20
103.060000000000
30
0.0
40
0.999999973880
100
AcDbArc
50
90.000000000000
51
180.000000000000
0
ARC
5
92c
100
AcDbEntity
8
0-0
6
CONTINUOUS
62
3
100
AcDbCircle
10
688.570000000000
20
103.060000000000
30
0.0
40
1.500000063431
100
AcDbArc
50
90.000000000000
51
180.000000000000
0
ARC
5
92d
100
AcDbEntity
8
0-0
6
CONTINUOUS
62
3
100
AcDbCircle
10
686.070000000000
20
94.560000000000
30
0.0
40
0.999999973880
100
AcDbArc
50
270.000000000000
51
360.000000000000
0
ARC
5
92e
100
AcDbEntity
8
0-0
6
CONTINUOUS
62
3
100
AcDbCircle
10
686.070000000000
20
94.560000000000
30
0.0
40
1.500000063431
100
AcDbArc
50
270.000000000000
51
360.000000000000
0
ARC
5
92f
100
AcDbEntity
8
0-0
6
CONTINUOUS
62
3
100
AcDbCircle
10
685.320000000000
20
103.060000000000
30
0.0
40
0.999999973880
100
AcDbArc
50
360.000000000000
51
450.000000000000
0
ARC
5
930
100
AcDbEntity
8
0-0
6
CONTINUOUS
62
3
100
AcDbCircle
10
685.320000000000
20
103.060000000000
30
0.0
40
1.500000063431
100
AcDbArc
50
360.000000000000
51
450.000000000000
0
ARC
5
931
100
AcDbEntity
8
0-0
6
CONTINUOUS
62
3
100
AcDbCircle
10
678.450000000000
20
92.560000000000
30
0.0
40
1.500000063431
100
AcDbArc
50
90.000000000000
51
270.000000000000
0
ARC
5
932
100
AcDbEntity
8
0-0
6
CONTINUOUS
62
3
100
AcDbCircle
10
678.450000000000
20
92.560000000000
30
0.0
40
1.999999947760
100
AcDbArc
50
90.000000000000
51
270.000000000000
0
ARC
5
933
100
AcDbEntity
8
0-0
6
CONTINUOUS
62
3
100
AcDbCircle
10
690.830000000000
20
90.980000000000
30
0.0
40
0.499999986940
100
AcDbArc
50
68.194900512695
51
111.805099487305
0
ARC
5
934
100
AcDbEntity
8
0-0
6
CONTINUOUS
62
3
100
AcDbCircle
10
690.830000000000
20
90.980000000000
30
0.0
40
0.999999973880
100
AcDbArc
50
68.194900512695
51
111.805099487305
0
ARC
5
935
100
AcDbEntity
8
0-0
6
CONTINUOUS
62
3
100
AcDbCircle
10
684.260000000000
20
96.430000000000
30
0.0
40
1.500000063431
100
AcDbArc
50
284.482406616211
51
341.618011474609
0
ARC
5
936
100
AcDbEntity
8
0-0
6
CONTINUOUS
62
3
100
AcDbCircle
10
684.260000000000
20
96.430000000000
30
0.0
40
0.999999973880
100
AcDbArc
50
285.828018188477
51
339.546127319336
0
ARC
5
937
100
AcDbEntity
8
0-0
6
CONTINUOUS
62
3
100
AcDbCircle
10
279.450000000000
20
103.060000000000
30
0.0
40
0.999999973880
100
AcDbArc
50
90.000000000000
51
134.998992919922
0
ARC
5
938
100
AcDbEntity
8
0-0
6
CONTINUOUS
62
3
100
AcDbCircle
10
277.410000000000
20
104.560000000000
30
0.0
40
0.999999973880
100
AcDbArc
50
270.000000000000
51
314.998992919922
0
ARC
5
939
100
AcDbEntity
8
0-0
6
CONTINUOUS
62
3
100
AcDbCircle
10
279.450000000000
20
103.060000000000
30
0.0
40
1.500000063431
100
AcDbArc
50
90.000000000000
51
134.998992919922
0
ARC
5
93a
100
AcDbEntity
8
0-0
6
CONTINUOUS
62
3
100
AcDbCircle
10
277.410000000000
20
104.560000000000
30
0.0
40
1.500000063431
100
AcDbArc
50
270.000000000000
51
314.998992919922
0
ARC
5
93b
100
AcDbEntity
8
0-0
6
CONTINUOUS
62
3
100
AcDbCircle
10
228.200000000000
20
103.060000000000
30
0.0
40
0.999999973880
100
AcDbArc
50
45.001007080078
51
90.000000000000
0
ARC
5
93c
100
AcDbEntity
8
0-0
6
CONTINUOUS
62
3
100
AcDbCircle
10
230.240000000000
20
104.560000000000
30
0.0
40
0.999999973880
100
AcDbArc
50
225.001007080078
51
270.000000000000
0
ARC
5
93d
100
AcDbEntity
8
0-0
6
CONTINUOUS
62
3
100
AcDbCircle
10
228.200000000000
20
103.060000000000
30
0.0
40
1.500000063431
100
AcDbArc
50
45.001007080078
51
90.000000000000
0
ARC
5
93e
100
AcDbEntity
8
0-0
6
CONTINUOUS
62
3
100
AcDbCircle
10
230.240000000000
20
104.560000000000
30
0.0
40
1.500000063431
100
AcDbArc
50
225.001007080078
51
270.000000000000
0
ARC
5
93f
100
AcDbEntity
8
0-0
6
CONTINUOUS
62
3
100
AcDbCircle
10
612.450000000000
20
103.060000000000
30
0.0
40
0.999999973880
100
AcDbArc
50
90.000000000000
51
134.998992919922
0
ARC
5
940
100
AcDbEntity
8
0-0
6
CONTINUOUS
62
3
100
AcDbCircle
10
610.410000000000
20
104.560000000000
30
0.0
40
0.999999973880
100
AcDbArc
50
270.000000000000
51
314.998992919922
0
ARC
5
941
100
AcDbEntity
8
0-0
6
CONTINUOUS
62
3
100
AcDbCircle
10
612.450000000000
20
103.060000000000
30
0.0
40
1.500000063431
100
AcDbArc
50
90.000000000000
51
134.998992919922
0
ARC
5
942
100
AcDbEntity
8
0-0
6
CONTINUOUS
62
3
100
AcDbCircle
10
610.410000000000
20
104.560000000000
30
0.0
40
1.500000063431
100
AcDbArc
50
270.000000000000
51
314.998992919922
0
ARC
5
943
100
AcDbEntity
8
0-0
6
CONTINUOUS
62
3
100
AcDbCircle
10
561.200000000000
20
103.060000000000
30
0.0
40
0.999999973880
100
AcDbArc
50
45.001007080078
51
90.000000000000
0
ARC
5
944
100
AcDbEntity
8
0-0
6
CONTINUOUS
62
3
100
AcDbCircle
10
563.240000000000
20
104.560000000000
30
0.0
40
0.999999973880
100
AcDbArc
50
225.001007080078
51
270.000000000000
0
ARC
5
945
100
AcDbEntity
8
0-0
6
CONTINUOUS
62
3
100
AcDbCircle
10
561.200000000000
20
103.060000000000
30
0.0
40
1.500000063431
100
AcDbArc
50
45.001007080078
51
90.000000000000
0
ARC
5
946
100
AcDbEntity
8
0-0
6
CONTINUOUS
62
3
100
AcDbCircle
10
563.240000000000
20
104.560000000000
30
0.0
40
1.500000063431
100
AcDbArc
50
225.001007080078
51
270.000000000000
0
ARC
5
947
100
AcDbEntity
8
0-0
6
CONTINUOUS
62
3
100
AcDbCircle
10
153.080000000000
20
359.750000000000
30
0.0
40
0.999999973880
100
AcDbArc
50
270.000000000000
51
360.000000000000
0
ARC
5
948
100
AcDbEntity
8
0-0
6
CONTINUOUS
62
3
100
AcDbCircle
10
153.080000000000
20
359.750000000000
30
0.0
40
1.500000063431
100
AcDbArc
50
270.000000000000
51
360.000000000000
0
ARC
5
949
100
AcDbEntity
8
0-0
6
CONTINUOUS
62
3
100
AcDbCircle
10
155.580000000000
20
368.250000000000
30
0.0
40
0.999999973880
100
AcDbArc
50
90.000000000000
51
180.000000000000
0
ARC
5
94a
100
AcDbEntity
8
0-0
6
CONTINUOUS
62
3
100
AcDbCircle
10
155.580000000000
20
368.250000000000
30
0.0
40
1.500000063431
100
AcDbArc
50
90.000000000000
51
180.000000000000
0
ARC
5
94b
100
AcDbEntity
8
0-0
6
CONTINUOUS
62
3
100
AcDbCircle
10
153.080000000000
20
359.750000000000
30
0.0
40
0.999999973880
100
AcDbArc
50
270.000000000000
51
360.000000000000
0
ARC
5
94c
100
AcDbEntity
8
0-0
6
CONTINUOUS
62
3
100
AcDbCircle
10
153.080000000000
20
359.750000000000
30
0.0
40
1.500000063431
100
AcDbArc
50
270.000000000000
51
360.000000000000
0
ARC
5
94d
100
AcDbEntity
8
0-0
6
CONTINUOUS
62
3
100
AcDbCircle
10
64.960000000000
20
854.410000000000
30
0.0
40
0.499999986940
100
AcDbArc
50
90.000000000000
51
180.000000000000
0
ARC
5
94e
100
AcDbEntity
8
0-0
6
CONTINUOUS
62
3
100
AcDbCircle
10
64.960000000000
20
854.410000000000
30
0.0
40
0.999999973880
100
AcDbArc
50
90.000000000000
51
180.000000000000
0
ARC
5
94f
100
AcDbEntity
8
0-0
6
CONTINUOUS
62
3
100
AcDbCircle
10
270.620000000000
20
736.530000000000
30
0.0
40
0.499999986940
100
AcDbArc
50
180.000000000000
51
270.000000000000
0
ARC
5
950
100
AcDbEntity
8
0-0
6
CONTINUOUS
62
3
100
AcDbCircle
10
270.620000000000
20
736.530000000000
30
0.0
40
0.999999973880
100
AcDbArc
50
180.000000000000
51
270.000000000000
0
ARC
5
951
100
AcDbEntity
8
0-0
6
CONTINUOUS
62
3
100
AcDbCircle
10
73.960000000000
20
754.030000000000
30
0.0
40
0.999999973880
100
AcDbArc
50
360.000000000000
51
450.000000000000
0
ARC
5
952
100
AcDbEntity
8
0-0
6
CONTINUOUS
62
3
100
AcDbCircle
10
73.960000000000
20
754.030000000000
30
0.0
40
1.500000063431
100
AcDbArc
50
360.000000000000
51
450.000000000000
0
ARC
5
953
100
AcDbEntity
8
0-0
6
CONTINUOUS
62
3
100
AcDbCircle
10
65.460000000000
20
756.530000000000
30
0.0
40
0.999999973880
100
AcDbArc
50
180.000000000000
51
270.000000000000
0
ARC
5
954
100
AcDbEntity
8
0-0
6
CONTINUOUS
62
3
100
AcDbCircle
10
65.460000000000
20
756.530000000000
30
0.0
40
1.500000063431
100
AcDbArc
50
180.000000000000
51
270.000000000000
0
ARC
5
955
100
AcDbEntity
8
0-0
6
CONTINUOUS
62
3
100
AcDbCircle
10
73.960000000000
20
754.030000000000
30
0.0
40
0.999999973880
100
AcDbArc
50
360.000000000000
51
450.000000000000
0
ARC
5
956
100
AcDbEntity
8
0-0
6
CONTINUOUS
62
3
100
AcDbCircle
10
73.960000000000
20
754.030000000000
30
0.0
40
1.500000063431
100
AcDbArc
50
360.000000000000
51
450.000000000000
0
ARC
5
957
100
AcDbEntity
8
0-0
6
CONTINUOUS
62
3
100
AcDbCircle
10
260.120000000000
20
836.910000000000
30
0.0
40
0.999999973880
100
AcDbArc
50
180.000000000000
51
270.000000000000
0
ARC
5
958
100
AcDbEntity
8
0-0
6
CONTINUOUS
62
3
100
AcDbCircle
10
260.120000000000
20
836.910000000000
30
0.0
40
1.500000063431
100
AcDbArc
50
180.000000000000
51
270.000000000000
0
ARC
5
959
100
AcDbEntity
8
0-0
6
CONTINUOUS
62
3
100
AcDbCircle
10
268.620000000000
20
834.410000000000
30
0.0
40
0.999999973880
100
AcDbArc
50
360.000000000000
51
450.000000000000
0
ARC
5
95a
100
AcDbEntity
8
0-0
6
CONTINUOUS
62
3
100
AcDbCircle
10
268.620000000000
20
834.410000000000
30
0.0
40
1.500000063431
100
AcDbArc
50
360.000000000000
51
450.000000000000
0
ARC
5
95b
100
AcDbEntity
8
0-0
6
CONTINUOUS
62
3
100
AcDbCircle
10
260.120000000000
20
836.910000000000
30
0.0
40
0.999999973880
100
AcDbArc
50
180.000000000000
51
270.000000000000
0
ARC
5
95c
100
AcDbEntity
8
0-0
6
CONTINUOUS
62
3
100
AcDbCircle
10
260.120000000000
20
836.910000000000
30
0.0
40
1.500000063431
100
AcDbArc
50
180.000000000000
51
270.000000000000
0
ARC
5
95d
100
AcDbEntity
8
0-0
6
CONTINUOUS
62
3
100
AcDbCircle
10
352.330000000000
20
469.280000000000
30
0.0
40
0.999999973880
100
AcDbArc
50
360.000000000000
51
450.000000000000
0
ARC
5
95e
100
AcDbEntity
8
0-0
6
CONTINUOUS
62
3
100
AcDbCircle
10
352.330000000000
20
469.280000000000
30
0.0
40
1.500000063431
100
AcDbArc
50
360.000000000000
51
450.000000000000
0
ARC
5
95f
100
AcDbEntity
8
0-0
6
CONTINUOUS
62
3
100
AcDbCircle
10
345.450000000000
20
458.780000000000
30
0.0
40
1.500000063431
100
AcDbArc
50
90.000000000000
51
270.000000000000
0
ARC
5
960
100
AcDbEntity
8
0-0
6
CONTINUOUS
62
3
100
AcDbCircle
10
345.450000000000
20
458.780000000000
30
0.0
40
1.999999947760
100
AcDbArc
50
90.000000000000
51
270.000000000000
0
ARC
5
961
100
AcDbEntity
8
0-0
6
CONTINUOUS
62
3
100
AcDbCircle
10
358.830000000000
20
457.210000000000
30
0.0
40
0.499999986940
100
AcDbArc
50
68.194900512695
51
111.805099487305
0
ARC
5
962
100
AcDbEntity
8
0-0
6
CONTINUOUS
62
3
100
AcDbCircle
10
358.830000000000
20
457.210000000000
30
0.0
40
0.999999973880
100
AcDbArc
50
68.194900512695
51
111.805099487305
0
ARC
5
963
100
AcDbEntity
8
0-0
6
CONTINUOUS
62
3
100
AcDbCircle
10
351.260000000000
20
462.660000000000
30
0.0
40
1.500000063431
100
AcDbArc
50
284.482406616211
51
341.618011474609
0
ARC
5
964
100
AcDbEntity
8
0-0
6
CONTINUOUS
62
3
100
AcDbCircle
10
351.260000000000
20
462.660000000000
30
0.0
40
0.999999973880
100
AcDbArc
50
285.828018188477
51
339.546127319336
0
ARC
5
965
100
AcDbEntity
8
0-0
6
CONTINUOUS
62
3
100
AcDbCircle
10
352.330000000000
20
368.250000000000
30
0.0
40
0.999999973880
100
AcDbArc
50
360.000000000000
51
450.000000000000
0
ARC
5
966
100
AcDbEntity
8
0-0
6
CONTINUOUS
62
3
100
AcDbCircle
10
352.330000000000
20
368.250000000000
30
0.0
40
1.500000063431
100
AcDbArc
50
360.000000000000
51
450.000000000000
0
ARC
5
967
100
AcDbEntity
8
0-0
6
CONTINUOUS
62
3
100
AcDbCircle
10
352.330000000000
20
368.250000000000
30
0.0
40
0.999999973880
100
AcDbArc
50
360.000000000000
51
450.000000000000
0
ARC
5
968
100
AcDbEntity
8
0-0
6
CONTINUOUS
62
3
100
AcDbCircle
10
352.330000000000
20
368.250000000000
30
0.0
40
1.500000063431
100
AcDbArc
50
360.000000000000
51
450.000000000000
0
ARC
5
969
100
AcDbEntity
8
0-0
6
CONTINUOUS
62
3
100
AcDbCircle
10
345.450000000000
20
357.750000000000
30
0.0
40
1.500000063431
100
AcDbArc
50
90.000000000000
51
270.000000000000
0
ARC
5
96a
100
AcDbEntity
8
0-0
6
CONTINUOUS
62
3
100
AcDbCircle
10
345.450000000000
20
357.750000000000
30
0.0
40
1.999999947760
100
AcDbArc
50
90.000000000000
51
270.000000000000
0
ARC
5
96b
100
AcDbEntity
8
0-0
6
CONTINUOUS
62
3
100
AcDbCircle
10
358.830000000000
20
356.170000000000
30
0.0
40
0.499999986940
100
AcDbArc
50
68.194900512695
51
111.805099487305
0
ARC
5
96c
100
AcDbEntity
8
0-0
6
CONTINUOUS
62
3
100
AcDbCircle
10
358.830000000000
20
356.170000000000
30
0.0
40
0.999999973880
100
AcDbArc
50
68.194900512695
51
111.805099487305
0
ARC
5
96d
100
AcDbEntity
8
0-0
6
CONTINUOUS
62
3
100
AcDbCircle
10
351.260000000000
20
361.620000000000
30
0.0
40
1.500000063431
100
AcDbArc
50
284.482406616211
51
341.618011474609
0
ARC
5
96e
100
AcDbEntity
8
0-0
6
CONTINUOUS
62
3
100
AcDbCircle
10
351.260000000000
20
361.620000000000
30
0.0
40
0.999999973880
100
AcDbArc
50
285.828018188477
51
339.546127319336
0
ARC
5
96f
100
AcDbEntity
8
0-0
6
CONTINUOUS
62
3
100
AcDbCircle
10
352.330000000000
20
204.100000000000
30
0.0
40
0.999999973880
100
AcDbArc
50
360.000000000000
51
450.000000000000
0
ARC
5
970
100
AcDbEntity
8
0-0
6
CONTINUOUS
62
3
100
AcDbCircle
10
352.330000000000
20
204.100000000000
30
0.0
40
1.500000063431
100
AcDbArc
50
360.000000000000
51
450.000000000000
0
ARC
5
971
100
AcDbEntity
8
0-0
6
CONTINUOUS
62
3
100
AcDbCircle
10
352.330000000000
20
204.100000000000
30
0.0
40
0.999999973880
100
AcDbArc
50
360.000000000000
51
450.000000000000
0
ARC
5
972
100
AcDbEntity
8
0-0
6
CONTINUOUS
62
3
100
AcDbCircle
10
352.330000000000
20
204.100000000000
30
0.0
40
1.500000063431
100
AcDbArc
50
360.000000000000
51
450.000000000000
0
ARC
5
973
100
AcDbEntity
8
0-0
6
CONTINUOUS
62
3
100
AcDbCircle
10
345.450000000000
20
193.600000000000
30
0.0
40
1.500000063431
100
AcDbArc
50
90.000000000000
51
270.000000000000
0
ARC
5
974
100
AcDbEntity
8
0-0
6
CONTINUOUS
62
3
100
AcDbCircle
10
345.450000000000
20
193.600000000000
30
0.0
40
1.999999947760
100
AcDbArc
50
90.000000000000
51
270.000000000000
0
ARC
5
975
100
AcDbEntity
8
0-0
6
CONTINUOUS
62
3
100
AcDbCircle
10
358.830000000000
20
192.020000000000
30
0.0
40
0.499999986940
100
AcDbArc
50
68.194900512695
51
111.805099487305
0
ARC
5
976
100
AcDbEntity
8
0-0
6
CONTINUOUS
62
3
100
AcDbCircle
10
358.830000000000
20
192.020000000000
30
0.0
40
0.999999973880
100
AcDbArc
50
68.194900512695
51
111.805099487305
0
ARC
5
977
100
AcDbEntity
8
0-0
6
CONTINUOUS
62
3
100
AcDbCircle
10
351.260000000000
20
197.470000000000
30
0.0
40
1.500000063431
100
AcDbArc
50
284.482406616211
51
341.618011474609
0
ARC
5
978
100
AcDbEntity
8
0-0
6
CONTINUOUS
62
3
100
AcDbCircle
10
351.260000000000
20
197.470000000000
30
0.0
40
0.999999973880
100
AcDbArc
50
285.828018188477
51
339.546127319336
0
ARC
5
979
100
AcDbEntity
8
0-0
6
CONTINUOUS
62
3
100
AcDbCircle
10
352.330000000000
20
103.060000000000
30
0.0
40
0.999999973880
100
AcDbArc
50
360.000000000000
51
450.000000000000
0
ARC
5
97a
100
AcDbEntity
8
0-0
6
CONTINUOUS
62
3
100
AcDbCircle
10
352.330000000000
20
103.060000000000
30
0.0
40
1.500000063431
100
AcDbArc
50
360.000000000000
51
450.000000000000
0
ARC
5
97b
100
AcDbEntity
8
0-0
6
CONTINUOUS
62
3
100
AcDbCircle
10
352.330000000000
20
103.060000000000
30
0.0
40
0.999999973880
100
AcDbArc
50
360.000000000000
51
450.000000000000
0
ARC
5
97c
100
AcDbEntity
8
0-0
6
CONTINUOUS
62
3
100
AcDbCircle
10
352.330000000000
20
103.060000000000
30
0.0
40
1.500000063431
100
AcDbArc
50
360.000000000000
51
450.000000000000
0
ARC
5
97d
100
AcDbEntity
8
0-0
6
CONTINUOUS
62
3
100
AcDbCircle
10
345.450000000000
20
92.560000000000
30
0.0
40
1.500000063431
100
AcDbArc
50
90.000000000000
51
270.000000000000
0
ARC
5
97e
100
AcDbEntity
8
0-0
6
CONTINUOUS
62
3
100
AcDbCircle
10
345.450000000000
20
92.560000000000
30
0.0
40
1.999999947760
100
AcDbArc
50
90.000000000000
51
270.000000000000
0
ARC
5
97f
100
AcDbEntity
8
0-0
6
CONTINUOUS
62
3
100
AcDbCircle
10
358.830000000000
20
90.980000000000
30
0.0
40
0.499999986940
100
AcDbArc
50
68.194900512695
51
111.805099487305
0
ARC
5
980
100
AcDbEntity
8
0-0
6
CONTINUOUS
62
3
100
AcDbCircle
10
358.830000000000
20
90.980000000000
30
0.0
40
0.999999973880
100
AcDbArc
50
68.194900512695
51
111.805099487305
0
ARC
5
981
100
AcDbEntity
8
0-0
6
CONTINUOUS
62
3
100
AcDbCircle
10
351.260000000000
20
96.430000000000
30
0.0
40
1.500000063431
100
AcDbArc
50
284.482406616211
51
341.618011474609
0
ARC
5
982
100
AcDbEntity
8
0-0
6
CONTINUOUS
62
3
100
AcDbCircle
10
351.260000000000
20
96.430000000000
30
0.0
40
0.999999973880
100
AcDbArc
50
285.828018188477
51
339.546127319336
0
ARC
5
983
100
AcDbEntity
8
0-0
6
CONTINUOUS
62
3
100
AcDbCircle
10
488.580000000000
20
469.280000000000
30
0.0
40
0.999999973880
100
AcDbArc
50
90.000000000000
51
180.000000000000
0
ARC
5
984
100
AcDbEntity
8
0-0
6
CONTINUOUS
62
3
100
AcDbCircle
10
488.580000000000
20
469.280000000000
30
0.0
40
0.999999973880
100
AcDbArc
50
90.000000000000
51
180.000000000000
0
ARC
5
985
100
AcDbEntity
8
0-0
6
CONTINUOUS
62
3
100
AcDbCircle
10
488.580000000000
20
469.280000000000
30
0.0
40
1.500000063431
100
AcDbArc
50
90.000000000000
51
180.000000000000
0
ARC
5
986
100
AcDbEntity
8
0-0
6
CONTINUOUS
62
3
100
AcDbCircle
10
486.080000000000
20
460.780000000000
30
0.0
40
0.999999973880
100
AcDbArc
50
270.000000000000
51
360.000000000000
0
ARC
5
987
100
AcDbEntity
8
0-0
6
CONTINUOUS
62
3
100
AcDbCircle
10
486.080000000000
20
460.780000000000
30
0.0
40
1.500000063431
100
AcDbArc
50
270.000000000000
51
360.000000000000
0
ARC
5
988
100
AcDbEntity
8
0-0
6
CONTINUOUS
62
3
100
AcDbCircle
10
474.830000000000
20
469.280000000000
30
0.0
40
0.999999973880
100
AcDbArc
50
360.000000000000
51
450.000000000000
0
ARC
5
989
100
AcDbEntity
8
0-0
6
CONTINUOUS
62
3
100
AcDbCircle
10
474.830000000000
20
469.280000000000
30
0.0
40
1.500000063431
100
AcDbArc
50
360.000000000000
51
450.000000000000
0
ARC
5
98a
100
AcDbEntity
8
0-0
6
CONTINUOUS
62
3
100
AcDbCircle
10
467.950000000000
20
458.780000000000
30
0.0
40
1.500000063431
100
AcDbArc
50
90.000000000000
51
270.000000000000
0
ARC
5
98b
100
AcDbEntity
8
0-0
6
CONTINUOUS
62
3
100
AcDbCircle
10
467.950000000000
20
458.780000000000
30
0.0
40
1.999999947760
100
AcDbArc
50
90.000000000000
51
270.000000000000
0
ARC
5
98c
100
AcDbEntity
8
0-0
6
CONTINUOUS
62
3
100
AcDbCircle
10
480.330000000000
20
457.210000000000
30
0.0
40
0.499999986940
100
AcDbArc
50
68.194900512695
51
111.805099487305
0
ARC
5
98d
100
AcDbEntity
8
0-0
6
CONTINUOUS
62
3
100
AcDbCircle
10
480.330000000000
20
457.210000000000
30
0.0
40
0.999999973880
100
AcDbArc
50
68.194900512695
51
111.805099487305
0
ARC
5
98e
100
AcDbEntity
8
0-0
6
CONTINUOUS
62
3
100
AcDbCircle
10
473.760000000000
20
462.660000000000
30
0.0
40
1.500000063431
100
AcDbArc
50
284.482406616211
51
341.618011474609
0
ARC
5
98f
100
AcDbEntity
8
0-0
6
CONTINUOUS
62
3
100
AcDbCircle
10
473.760000000000
20
462.660000000000
30
0.0
40
0.999999973880
100
AcDbArc
50
285.828018188477
51
339.546127319336
0
ARC
5
990
100
AcDbEntity
8
0-0
6
CONTINUOUS
62
3
100
AcDbCircle
10
488.580000000000
20
368.250000000000
30
0.0
40
0.999999973880
100
AcDbArc
50
90.000000000000
51
180.000000000000
0
ARC
5
991
100
AcDbEntity
8
0-0
6
CONTINUOUS
62
3
100
AcDbCircle
10
488.580000000000
20
368.250000000000
30
0.0
40
0.999999973880
100
AcDbArc
50
90.000000000000
51
180.000000000000
0
ARC
5
992
100
AcDbEntity
8
0-0
6
CONTINUOUS
62
3
100
AcDbCircle
10
488.580000000000
20
368.250000000000
30
0.0
40
1.500000063431
100
AcDbArc
50
90.000000000000
51
180.000000000000
0
ARC
5
993
100
AcDbEntity
8
0-0
6
CONTINUOUS
62
3
100
AcDbCircle
10
486.080000000000
20
359.750000000000
30
0.0
40
0.999999973880
100
AcDbArc
50
270.000000000000
51
360.000000000000
0
ARC
5
994
100
AcDbEntity
8
0-0
6
CONTINUOUS
62
3
100
AcDbCircle
10
486.080000000000
20
359.750000000000
30
0.0
40
1.500000063431
100
AcDbArc
50
270.000000000000
51
360.000000000000
0
ARC
5
995
100
AcDbEntity
8
0-0
6
CONTINUOUS
62
3
100
AcDbCircle
10
474.830000000000
20
368.250000000000
30
0.0
40
0.999999973880
100
AcDbArc
50
360.000000000000
51
450.000000000000
0
ARC
5
996
100
AcDbEntity
8
0-0
6
CONTINUOUS
62
3
100
AcDbCircle
10
474.830000000000
20
368.250000000000
30
0.0
40
1.500000063431
100
AcDbArc
50
360.000000000000
51
450.000000000000
0
ARC
5
997
100
AcDbEntity
8
0-0
6
CONTINUOUS
62
3
100
AcDbCircle
10
467.950000000000
20
357.750000000000
30
0.0
40
1.500000063431
100
AcDbArc
50
90.000000000000
51
270.000000000000
0
ARC
5
998
100
AcDbEntity
8
0-0
6
CONTINUOUS
62
3
100
AcDbCircle
10
467.950000000000
20
357.750000000000
30
0.0
40
1.999999947760
100
AcDbArc
50
90.000000000000
51
270.000000000000
0
ARC
5
999
100
AcDbEntity
8
0-0
6
CONTINUOUS
62
3
100
AcDbCircle
10
480.330000000000
20
356.170000000000
30
0.0
40
0.499999986940
100
AcDbArc
50
68.194900512695
51
111.805099487305
0
ARC
5
99a
100
AcDbEntity
8
0-0
6
CONTINUOUS
62
3
100
AcDbCircle
10
480.330000000000
20
356.170000000000
30
0.0
40
0.999999973880
100
AcDbArc
50
68.194900512695
51
111.805099487305
0
ARC
5
99b
100
AcDbEntity
8
0-0
6
CONTINUOUS
62
3
100
AcDbCircle
10
473.760000000000
20
361.620000000000
30
0.0
40
1.500000063431
100
AcDbArc
50
284.482406616211
51
341.618011474609
0
ARC
5
99c
100
AcDbEntity
8
0-0
6
CONTINUOUS
62
3
100
AcDbCircle
10
473.760000000000
20
361.620000000000
30
0.0
40
0.999999973880
100
AcDbArc
50
285.828018188477
51
339.546127319336
0
ARC
5
99d
100
AcDbEntity
8
0-0
6
CONTINUOUS
62
3
100
AcDbCircle
10
699.070000000000
20
469.280000000000
30
0.0
40
0.999999973880
100
AcDbArc
50
90.000000000000
51
180.000000000000
0
ARC
5
99e
100
AcDbEntity
8
0-0
6
CONTINUOUS
62
3
100
AcDbCircle
10
699.070000000000
20
469.280000000000
30
0.0
40
0.999999973880
100
AcDbArc
50
90.000000000000
51
180.000000000000
0
ARC
5
99f
100
AcDbEntity
8
0-0
6
CONTINUOUS
62
3
100
AcDbCircle
10
699.070000000000
20
469.280000000000
30
0.0
40
1.500000063431
100
AcDbArc
50
90.000000000000
51
180.000000000000
0
ARC
5
9a0
100
AcDbEntity
8
0-0
6
CONTINUOUS
62
3
100
AcDbCircle
10
696.570000000000
20
460.780000000000
30
0.0
40
0.999999973880
100
AcDbArc
50
270.000000000000
51
360.000000000000
0
ARC
5
9a1
100
AcDbEntity
8
0-0
6
CONTINUOUS
62
3
100
AcDbCircle
10
696.570000000000
20
460.780000000000
30
0.0
40
1.500000063431
100
AcDbArc
50
270.000000000000
51
360.000000000000
0
ARC
5
9a2
100
AcDbEntity
8
0-0
6
CONTINUOUS
62
3
100
AcDbCircle
10
685.330000000000
20
469.280000000000
30
0.0
40
0.999999973880
100
AcDbArc
50
360.000000000000
51
450.000000000000
0
ARC
5
9a3
100
AcDbEntity
8
0-0
6
CONTINUOUS
62
3
100
AcDbCircle
10
685.330000000000
20
469.280000000000
30
0.0
40
1.500000063431
100
AcDbArc
50
360.000000000000
51
450.000000000000
0
ARC
5
9a4
100
AcDbEntity
8
0-0
6
CONTINUOUS
62
3
100
AcDbCircle
10
678.450000000000
20
458.780000000000
30
0.0
40
1.500000063431
100
AcDbArc
50
90.000000000000
51
270.000000000000
0
ARC
5
9a5
100
AcDbEntity
8
0-0
6
CONTINUOUS
62
3
100
AcDbCircle
10
678.450000000000
20
458.780000000000
30
0.0
40
1.999999947760
100
AcDbArc
50
90.000000000000
51
270.000000000000
0
ARC
5
9a6
100
AcDbEntity
8
0-0
6
CONTINUOUS
62
3
100
AcDbCircle
10
690.830000000000
20
457.210000000000
30
0.0
40
0.499999986940
100
AcDbArc
50
68.194900512695
51
111.805099487305
0
ARC
5
9a7
100
AcDbEntity
8
0-0
6
CONTINUOUS
62
3
100
AcDbCircle
10
690.830000000000
20
457.210000000000
30
0.0
40
0.999999973880
100
AcDbArc
50
68.194900512695
51
111.805099487305
0
ARC
5
9a8
100
AcDbEntity
8
0-0
6
CONTINUOUS
62
3
100
AcDbCircle
10
684.260000000000
20
462.660000000000
30
0.0
40
1.500000063431
100
AcDbArc
50
284.482406616211
51
341.618011474609
0
ARC
5
9a9
100
AcDbEntity
8
0-0
6
CONTINUOUS
62
3
100
AcDbCircle
10
684.260000000000
20
462.660000000000
30
0.0
40
0.999999973880
100
AcDbArc
50
285.828018188477
51
339.546127319336
0
ARC
5
9aa
100
AcDbEntity
8
0-0
6
CONTINUOUS
62
3
100
AcDbCircle
10
699.070000000000
20
368.250000000000
30
0.0
40
0.999999973880
100
AcDbArc
50
90.000000000000
51
180.000000000000
0
ARC
5
9ab
100
AcDbEntity
8
0-0
6
CONTINUOUS
62
3
100
AcDbCircle
10
699.070000000000
20
368.250000000000
30
0.0
40
0.999999973880
100
AcDbArc
50
90.000000000000
51
180.000000000000
0
ARC
5
9ac
100
AcDbEntity
8
0-0
6
CONTINUOUS
62
3
100
AcDbCircle
10
699.070000000000
20
368.250000000000
30
0.0
40
1.500000063431
100
AcDbArc
50
90.000000000000
51
180.000000000000
0
ARC
5
9ad
100
AcDbEntity
8
0-0
6
CONTINUOUS
62
3
100
AcDbCircle
10
696.570000000000
20
359.750000000000
30
0.0
40
0.999999973880
100
AcDbArc
50
270.000000000000
51
360.000000000000
0
ARC
5
9ae
100
AcDbEntity
8
0-0
6
CONTINUOUS
62
3
100
AcDbCircle
10
696.570000000000
20
359.750000000000
30
0.0
40
1.500000063431
100
AcDbArc
50
270.000000000000
51
360.000000000000
0
ARC
5
9af
100
AcDbEntity
8
0-0
6
CONTINUOUS
62
3
100
AcDbCircle
10
685.330000000000
20
368.250000000000
30
0.0
40
0.999999973880
100
AcDbArc
50
360.000000000000
51
450.000000000000
0
ARC
5
9b0
100
AcDbEntity
8
0-0
6
CONTINUOUS
62
3
100
AcDbCircle
10
685.330000000000
20
368.250000000000
30
0.0
40
1.500000063431
100
AcDbArc
50
360.000000000000
51
450.000000000000
0
ARC
5
9b1
100
AcDbEntity
8
0-0
6
CONTINUOUS
62
3
100
AcDbCircle
10
678.450000000000
20
357.750000000000
30
0.0
40
1.500000063431
100
AcDbArc
50
90.000000000000
51
270.000000000000
0
ARC
5
9b2
100
AcDbEntity
8
0-0
6
CONTINUOUS
62
3
100
AcDbCircle
10
678.450000000000
20
357.750000000000
30
0.0
40
1.999999947760
100
AcDbArc
50
90.000000000000
51
270.000000000000
0
ARC
5
9b3
100
AcDbEntity
8
0-0
6
CONTINUOUS
62
3
100
AcDbCircle
10
690.830000000000
20
356.170000000000
30
0.0
40
0.499999986940
100
AcDbArc
50
68.194900512695
51
111.805099487305
0
ARC
5
9b4
100
AcDbEntity
8
0-0
6
CONTINUOUS
62
3
100
AcDbCircle
10
690.830000000000
20
356.170000000000
30
0.0
40
0.999999973880
100
AcDbArc
50
68.194900512695
51
111.805099487305
0
ARC
5
9b5
100
AcDbEntity
8
0-0
6
CONTINUOUS
62
3
100
AcDbCircle
10
684.260000000000
20
361.620000000000
30
0.0
40
1.500000063431
100
AcDbArc
50
284.482406616211
51
341.618011474609
0
ARC
5
9b6
100
AcDbEntity
8
0-0
6
CONTINUOUS
62
3
100
AcDbCircle
10
684.260000000000
20
361.620000000000
30
0.0
40
0.999999973880
100
AcDbArc
50
285.828018188477
51
339.546127319336
0
ARC
5
9b7
100
AcDbEntity
8
0-0
6
CONTINUOUS
62
3
100
AcDbCircle
10
162.830000000000
20
853.910000000000
30
0.0
40
0.999999973880
100
AcDbArc
50
360.000000000000
51
450.000000000000
0
ARC
5
9b8
100
AcDbEntity
8
0-0
6
CONTINUOUS
62
3
100
AcDbCircle
10
162.830000000000
20
853.910000000000
30
0.0
40
1.500000063431
100
AcDbArc
50
360.000000000000
51
450.000000000000
0
ARC
5
9b9
100
AcDbEntity
8
0-0
6
CONTINUOUS
62
3
100
AcDbCircle
10
155.960000000000
20
843.410000000000
30
0.0
40
1.500000063431
100
AcDbArc
50
90.000000000000
51
270.000000000000
0
ARC
5
9ba
100
AcDbEntity
8
0-0
6
CONTINUOUS
62
3
100
AcDbCircle
10
155.960000000000
20
843.410000000000
30
0.0
40
1.999999947760
100
AcDbArc
50
90.000000000000
51
270.000000000000
0
ARC
5
9bb
100
AcDbEntity
8
0-0
6
CONTINUOUS
62
3
100
AcDbCircle
10
169.330000000000
20
841.830000000000
30
0.0
40
0.499999986940
100
AcDbArc
50
68.194900512695
51
111.805099487305
0
ARC
5
9bc
100
AcDbEntity
8
0-0
6
CONTINUOUS
62
3
100
AcDbCircle
10
169.330000000000
20
841.830000000000
30
0.0
40
0.999999973880
100
AcDbArc
50
68.194900512695
51
111.805099487305
0
ARC
5
9bd
100
AcDbEntity
8
0-0
6
CONTINUOUS
62
3
100
AcDbCircle
10
161.770000000000
20
847.280000000000
30
0.0
40
1.500000063431
100
AcDbArc
50
284.482406616211
51
341.618011474609
0
ARC
5
9be
100
AcDbEntity
8
0-0
6
CONTINUOUS
62
3
100
AcDbCircle
10
161.770000000000
20
847.280000000000
30
0.0
40
0.999999973880
100
AcDbArc
50
285.828018188477
51
339.546127319336
0
ARC
5
9bf
100
AcDbEntity
8
0-0
6
CONTINUOUS
62
3
100
AcDbCircle
10
368.500000000000
20
734.530000000000
30
0.0
40
0.999999973880
100
AcDbArc
50
360.000000000000
51
450.000000000000
0
ARC
5
9c0
100
AcDbEntity
8
0-0
6
CONTINUOUS
62
3
100
AcDbCircle
10
368.500000000000
20
734.530000000000
30
0.0
40
1.500000063431
100
AcDbArc
50
360.000000000000
51
450.000000000000
0
ARC
5
9c1
100
AcDbEntity
8
0-0
6
CONTINUOUS
62
3
100
AcDbCircle
10
361.620000000000
20
724.030000000000
30
0.0
40
1.500000063431
100
AcDbArc
50
90.000000000000
51
270.000000000000
0
ARC
5
9c2
100
AcDbEntity
8
0-0
6
CONTINUOUS
62
3
100
AcDbCircle
10
361.620000000000
20
724.030000000000
30
0.0
40
1.999999947760
100
AcDbArc
50
90.000000000000
51
270.000000000000
0
ARC
5
9c3
100
AcDbEntity
8
0-0
6
CONTINUOUS
62
3
100
AcDbCircle
10
375.000000000000
20
722.450000000000
30
0.0
40
0.499999986940
100
AcDbArc
50
68.194900512695
51
111.805099487305
0
ARC
5
9c4
100
AcDbEntity
8
0-0
6
CONTINUOUS
62
3
100
AcDbCircle
10
375.000000000000
20
722.450000000000
30
0.0
40
0.999999973880
100
AcDbArc
50
68.194900512695
51
111.805099487305
0
ARC
5
9c5
100
AcDbEntity
8
0-0
6
CONTINUOUS
62
3
100
AcDbCircle
10
367.430000000000
20
727.910000000000
30
0.0
40
1.500000063431
100
AcDbArc
50
284.482406616211
51
341.618011474609
0
ARC
5
9c6
100
AcDbEntity
8
0-0
6
CONTINUOUS
62
3
100
AcDbCircle
10
367.430000000000
20
727.910000000000
30
0.0
40
0.999999973880
100
AcDbArc
50
285.828018188477
51
339.546127319336
0
ARC
5
9c7
100
AcDbEntity
8
0-0
6
CONTINUOUS
62
3
100
AcDbCircle
10
557.050000000000
20
853.910000000000
30
0.0
40
0.999999973880
100
AcDbArc
50
360.000000000000
51
450.000000000000
0
ARC
5
9c8
100
AcDbEntity
8
0-0
6
CONTINUOUS
62
3
100
AcDbCircle
10
557.050000000000
20
853.910000000000
30
0.0
40
1.500000063431
100
AcDbArc
50
360.000000000000
51
450.000000000000
0
ARC
5
9c9
100
AcDbEntity
8
0-0
6
CONTINUOUS
62
3
100
AcDbCircle
10
550.180000000000
20
843.410000000000
30
0.0
40
1.500000063431
100
AcDbArc
50
90.000000000000
51
270.000000000000
0
ARC
5
9ca
100
AcDbEntity
8
0-0
6
CONTINUOUS
62
3
100
AcDbCircle
10
550.180000000000
20
843.410000000000
30
0.0
40
1.999999947760
100
AcDbArc
50
90.000000000000
51
270.000000000000
0
ARC
5
9cb
100
AcDbEntity
8
0-0
6
CONTINUOUS
62
3
100
AcDbCircle
10
563.550000000000
20
841.830000000000
30
0.0
40
0.499999986940
100
AcDbArc
50
68.194900512695
51
111.805099487305
0
ARC
5
9cc
100
AcDbEntity
8
0-0
6
CONTINUOUS
62
3
100
AcDbCircle
10
563.550000000000
20
841.830000000000
30
0.0
40
0.999999973880
100
AcDbArc
50
68.194900512695
51
111.805099487305
0
ARC
5
9cd
100
AcDbEntity
8
0-0
6
CONTINUOUS
62
3
100
AcDbCircle
10
555.990000000000
20
847.280000000000
30
0.0
40
1.500000063431
100
AcDbArc
50
284.482406616211
51
341.618011474609
0
ARC
5
9ce
100
AcDbEntity
8
0-0
6
CONTINUOUS
62
3
100
AcDbCircle
10
555.990000000000
20
847.280000000000
30
0.0
40
0.999999973880
100
AcDbArc
50
285.828018188477
51
339.546127319336
0
ARC
5
9cf
100
AcDbEntity
8
0-0
6
CONTINUOUS
62
3
100
AcDbCircle
10
762.720000000000
20
734.530000000000
30
0.0
40
0.999999973880
100
AcDbArc
50
360.000000000000
51
450.000000000000
0
ARC
5
9d0
100
AcDbEntity
8
0-0
6
CONTINUOUS
62
3
100
AcDbCircle
10
762.720000000000
20
734.530000000000
30
0.0
40
1.500000063431
100
AcDbArc
50
360.000000000000
51
450.000000000000
0
ARC
5
9d1
100
AcDbEntity
8
0-0
6
CONTINUOUS
62
3
100
AcDbCircle
10
755.840000000000
20
724.030000000000
30
0.0
40
1.500000063431
100
AcDbArc
50
90.000000000000
51
270.000000000000
0
ARC
5
9d2
100
AcDbEntity
8
0-0
6
CONTINUOUS
62
3
100
AcDbCircle
10
755.840000000000
20
724.030000000000
30
0.0
40
1.999999947760
100
AcDbArc
50
90.000000000000
51
270.000000000000
0
ARC
5
9d3
100
AcDbEntity
8
0-0
6
CONTINUOUS
62
3
100
AcDbCircle
10
769.220000000000
20
722.450000000000
30
0.0
40
0.499999986940
100
AcDbArc
50
68.194900512695
51
111.805099487305
0
ARC
5
9d4
100
AcDbEntity
8
0-0
6
CONTINUOUS
62
3
100
AcDbCircle
10
769.220000000000
20
722.450000000000
30
0.0
40
0.999999973880
100
AcDbArc
50
68.194900512695
51
111.805099487305
0
ARC
5
9d5
100
AcDbEntity
8
0-0
6
CONTINUOUS
62
3
100
AcDbCircle
10
761.650000000000
20
727.910000000000
30
0.0
40
1.500000063431
100
AcDbArc
50
284.482406616211
51
341.618011474609
0
ARC
5
9d6
100
AcDbEntity
8
0-0
6
CONTINUOUS
62
3
100
AcDbCircle
10
761.650000000000
20
727.910000000000
30
0.0
40
0.999999973880
100
AcDbArc
50
285.828018188477
51
339.546127319336
0
ARC
5
9d7
100
AcDbEntity
8
0-0
6
CONTINUOUS
62
3
100
AcDbCircle
10
121.080000000000
20
1047.110000000000
30
0.0
40
0.499999986940
100
AcDbArc
50
90.000000000000
51
180.000000000000
0
ARC
5
9d8
100
AcDbEntity
8
0-0
6
CONTINUOUS
62
3
100
AcDbCircle
10
121.080000000000
20
1047.110000000000
30
0.0
40
0.499999986940
100
AcDbArc
50
90.000000000000
51
180.000000000000
0
ARC
5
9d9
100
AcDbEntity
8
0-0
6
CONTINUOUS
62
3
100
AcDbCircle
10
139.080000000000
20
1026.110000000000
30
0.0
40
0.499999986940
100
AcDbArc
50
270.000000000000
51
360.000000000000
0
ARC
5
9da
100
AcDbEntity
8
0-0
6
CONTINUOUS
62
3
100
AcDbCircle
10
121.080000000000
20
1026.110000000000
30
0.0
40
0.499999986940
100
AcDbArc
50
180.000000000000
51
270.000000000000
0
ARC
5
9db
100
AcDbEntity
8
0-0
6
CONTINUOUS
62
3
100
AcDbCircle
10
139.080000000000
20
1026.110000000000
30
0.0
40
0.999999973880
100
AcDbArc
50
270.000000000000
51
360.000000000000
0
ARC
5
9dc
100
AcDbEntity
8
0-0
6
CONTINUOUS
62
3
100
AcDbCircle
10
121.080000000000
20
1047.110000000000
30
0.0
40
0.999999973880
100
AcDbArc
50
90.000000000000
51
180.000000000000
0
ARC
5
9dd
100
AcDbEntity
8
0-0
6
CONTINUOUS
62
3
100
AcDbCircle
10
139.080000000000
20
1033.110000000000
30
0.0
40
0.499999986940
100
AcDbArc
50
360.000000000000
51
450.000000000000
0
ARC
5
9de
100
AcDbEntity
8
0-0
6
CONTINUOUS
62
3
100
AcDbCircle
10
139.080000000000
20
1033.110000000000
30
0.0
40
0.999999973880
100
AcDbArc
50
360.000000000000
51
450.000000000000
0
ARC
5
9df
100
AcDbEntity
8
0-0
6
CONTINUOUS
62
3
100
AcDbCircle
10
139.080000000000
20
1026.110000000000
30
0.0
40
0.499999986940
100
AcDbArc
50
270.000000000000
51
360.000000000000
0
ARC
5
9e0
100
AcDbEntity
8
0-0
6
CONTINUOUS
62
3
100
AcDbCircle
10
121.080000000000
20
1026.110000000000
30
0.0
40
0.999999973880
100
AcDbArc
50
180.000000000000
51
270.000000000000
0
ARC
5
9e1
100
AcDbEntity
8
0-0
6
CONTINUOUS
62
3
100
AcDbCircle
10
687.100000000000
20
1013.650000000000
30
0.0
40
0.499999986940
100
AcDbArc
50
180.000000000000
51
270.000000000000
0
ARC
5
9e2
100
AcDbEntity
8
0-0
6
CONTINUOUS
62
3
100
AcDbCircle
10
687.100000000000
20
1013.650000000000
30
0.0
40
0.999999973880
100
AcDbArc
50
180.000000000000
51
270.000000000000
0
ARC
5
9e3
100
AcDbEntity
8
0-0
6
CONTINUOUS
62
3
100
AcDbCircle
10
660.350000000000
20
1032.360000000000
30
0.0
40
0.749799803664
100
AcDbArc
50
90.795059204102
51
270.795059204102
0
ARC
5
9e4
100
AcDbEntity
8
0-0
6
CONTINUOUS
62
3
100
AcDbCircle
10
660.330000000000
20
1032.360000000000
30
0.0
40
0.249999993470
100
AcDbArc
50
90.000000000000
51
270.000000000000
0
ARC
5
9e5
100
AcDbEntity
8
0-0
6
CONTINUOUS
62
3
100
AcDbCircle
10
687.100000000000
20
1029.650000000000
30
0.0
40
0.499999986940
100
AcDbArc
50
92.141006469727
51
180.000000000000
0
ARC
5
9e6
100
AcDbEntity
8
0-0
6
CONTINUOUS
62
3
100
AcDbCircle
10
687.100000000000
20
1029.650000000000
30
0.0
40
0.999999973880
100
AcDbArc
50
92.141006469727
51
180.000000000000
0
ARC
5
9e7
100
AcDbEntity
8
0-0
6
CONTINUOUS
62
3
100
AcDbCircle
10
712.600000000000
20
1032.110000000000
30
0.0
40
0.999900030873
100
AcDbArc
50
270.535202026367
51
450.266891479492
0
ARC
5
9e8
100
AcDbEntity
8
0-0
6
CONTINUOUS
62
3
100
AcDbCircle
10
712.600000000000
20
1032.110000000000
30
0.0
40
0.499899975525
100
AcDbArc
50
270.535202026367
51
450.533859252930
0
ARC
5
9e9
100
AcDbEntity
8
0-0
6
CONTINUOUS
62
3
100
AcDbCircle
10
697.350000000000
20
1011.860000000000
30
0.0
40
0.249999993470
100
AcDbArc
50
270.000000000000
51
450.000000000000
0
ARC
5
9ea
100
AcDbEntity
8
0-0
6
CONTINUOUS
62
3
100
AcDbCircle
10
697.350000000000
20
1011.860000000000
30
0.0
40
0.750299997552
100
AcDbArc
50
270.000000000000
51
450.000000000000
0
ARC
5
9eb
100
AcDbEntity
8
0-0
6
CONTINUOUS
62
3
100
AcDbCircle
10
674.850000000000
20
1011.860000000000
30
0.0
40
0.249999993470
100
AcDbArc
50
90.000000000000
51
270.000000000000
0
ARC
5
9ec
100
AcDbEntity
8
0-0
6
CONTINUOUS
62
3
100
AcDbCircle
10
674.850000000000
20
1011.860000000000
30
0.0
40
0.750500020381
100
AcDbArc
50
89.754119873047
51
270.000000000000
0
ARC
5
9ed
100
AcDbEntity
8
0-0
6
CONTINUOUS
62
3
100
AcDbCircle
10
273.980000000000
20
1033.110000000000
30
0.0
40
0.499999986940
100
AcDbArc
50
180.000000000000
51
270.000000000000
0
ARC
5
9ee
100
AcDbEntity
8
0-0
6
CONTINUOUS
62
3
100
AcDbCircle
10
273.980000000000
20
1033.110000000000
30
0.0
40
0.999999973880
100
AcDbArc
50
180.000000000000
51
270.000000000000
0
ARC
5
9ef
100
AcDbEntity
8
0-0
6
CONTINUOUS
62
3
100
AcDbCircle
10
273.980000000000
20
1046.110000000000
30
0.0
40
0.499999986940
100
AcDbArc
50
90.000000000000
51
180.000000000000
0
ARC
5
9f0
100
AcDbEntity
8
0-0
6
CONTINUOUS
62
3
100
AcDbCircle
10
273.980000000000
20
1046.110000000000
30
0.0
40
0.999999973880
100
AcDbArc
50
90.000000000000
51
180.000000000000
0
ARC
5
9f1
100
AcDbEntity
8
0-0
6
CONTINUOUS
62
3
100
AcDbCircle
10
302.230000000000
20
1047.360000000000
30
0.0
40
0.750000031715
100
AcDbArc
50
270.000000000000
51
450.000000000000
0
ARC
5
9f2
100
AcDbEntity
8
0-0
6
CONTINUOUS
62
3
100
AcDbCircle
10
302.230000000000
20
1047.360000000000
30
0.0
40
0.249999993470
100
AcDbArc
50
270.000000000000
51
450.000000000000
0
ARC
5
9f3
100
AcDbEntity
8
0-0
6
CONTINUOUS
62
3
100
AcDbCircle
10
288.230000000000
20
1031.860000000000
30
0.0
40
0.750000031715
100
AcDbArc
50
270.000000000000
51
450.000000000000
0
ARC
5
9f4
100
AcDbEntity
8
0-0
6
CONTINUOUS
62
3
100
AcDbCircle
10
288.230000000000
20
1031.860000000000
30
0.0
40
0.249999993470
100
AcDbArc
50
270.000000000000
51
450.000000000000
0
ARC
5
9f5
100
AcDbEntity
8
0-0
6
CONTINUOUS
62
3
100
AcDbCircle
10
259.730000000000
20
1031.860000000000
30
0.0
40
0.750000031715
100
AcDbArc
50
90.000000000000
51
270.000000000000
0
ARC
5
9f6
100
AcDbEntity
8
0-0
6
CONTINUOUS
62
3
100
AcDbCircle
10
259.730000000000
20
1031.860000000000
30
0.0
40
0.249999993470
100
AcDbArc
50
90.000000000000
51
270.000000000000
0
ARC
5
9f7
100
AcDbEntity
8
0-0
6
CONTINUOUS
62
3
100
AcDbCircle
10
418.380000000000
20
986.610000000000
30
0.0
40
0.499999986940
100
AcDbArc
50
270.000000000000
51
360.000000000000
0
ARC
5
9f8
100
AcDbEntity
8
0-0
6
CONTINUOUS
62
3
100
AcDbCircle
10
418.380000000000
20
986.610000000000
30
0.0
40
0.999999973880
100
AcDbArc
50
270.000000000000
51
360.000000000000
0
ARC
5
9f9
100
AcDbEntity
8
0-0
6
CONTINUOUS
62
3
100
AcDbCircle
10
411.380000000000
20
986.610000000000
30
0.0
40
0.499999986940
100
AcDbArc
50
180.000000000000
51
270.000000000000
0
ARC
5
9fa
100
AcDbEntity
8
0-0
6
CONTINUOUS
62
3
100
AcDbCircle
10
411.380000000000
20
986.610000000000
30
0.0
40
0.999999973880
100
AcDbArc
50
180.000000000000
51
270.000000000000
0
ARC
5
9fb
100
AcDbEntity
8
0-0
6
CONTINUOUS
62
3
100
AcDbCircle
10
418.380000000000
20
986.610000000000
30
0.0
40
0.499999986940
100
AcDbArc
50
270.000000000000
51
360.000000000000
0
ARC
5
9fc
100
AcDbEntity
8
0-0
6
CONTINUOUS
62
3
100
AcDbCircle
10
551.280000000000
20
986.610000000000
30
0.0
40
0.499999986940
100
AcDbArc
50
270.000000000000
51
360.000000000000
0
ARC
5
9fd
100
AcDbEntity
8
0-0
6
CONTINUOUS
62
3
100
AcDbCircle
10
551.280000000000
20
986.610000000000
30
0.0
40
0.999999973880
100
AcDbArc
50
270.000000000000
51
360.000000000000
0
ARC
5
9fe
100
AcDbEntity
8
0-0
6
CONTINUOUS
62
3
100
AcDbCircle
10
551.280000000000
20
986.610000000000
30
0.0
40
0.499999986940
100
AcDbArc
50
270.000000000000
51
360.000000000000
0
ARC
5
9ff
100
AcDbEntity
8
0-0
6
CONTINUOUS
62
3
100
AcDbCircle
10
529.780000000000
20
1014.120000000000
30
0.0
40
0.499999986940
100
AcDbArc
50
180.000000000000
51
262.060195922852
0
ARC
5
a00
100
AcDbEntity
8
0-0
6
CONTINUOUS
62
3
100
AcDbCircle
10
529.780000000000
20
1014.120000000000
30
0.0
40
0.999999973880
100
AcDbArc
50
180.000000000000
51
256.431945800781
0
ARC
5
a01
100
AcDbEntity
8
0-0
6
CONTINUOUS
62
3
100
AcDbCircle
10
551.280000000000
20
1009.610000000000
30
0.0
40
0.499999986940
100
AcDbArc
50
360.000000000000
51
442.059402465820
0
ARC
5
a02
100
AcDbEntity
8
0-0
6
CONTINUOUS
62
3
100
AcDbCircle
10
551.280000000000
20
1009.610000000000
30
0.0
40
0.999999973880
100
AcDbArc
50
360.000000000000
51
442.059402465820
0
ARC
5
a03
100
AcDbEntity
8
0-0
6
CONTINUOUS
62
3
100
AcDbCircle
10
396.880000000000
20
1014.120000000000
30
0.0
40
0.499999986940
100
AcDbArc
50
180.000000000000
51
262.060195922852
0
ARC
5
a04
100
AcDbEntity
8
0-0
6
CONTINUOUS
62
3
100
AcDbCircle
10
396.880000000000
20
1014.120000000000
30
0.0
40
0.999999973880
100
AcDbArc
50
180.000000000000
51
256.431945800781
0
ARC
5
a05
100
AcDbEntity
8
0-0
6
CONTINUOUS
62
3
100
AcDbCircle
10
418.380000000000
20
1009.610000000000
30
0.0
40
0.499999986940
100
AcDbArc
50
360.000000000000
51
442.059402465820
0
ARC
5
a06
100
AcDbEntity
8
0-0
6
CONTINUOUS
62
3
100
AcDbCircle
10
418.380000000000
20
1009.610000000000
30
0.0
40
0.999999973880
100
AcDbArc
50
360.000000000000
51
442.059402465820
0
ARC
5
a07
100
AcDbEntity
8
0-0
6
CONTINUOUS
62
3
100
AcDbCircle
10
518.280000000000
20
986.610000000000
30
0.0
40
0.499999986940
100
AcDbArc
50
180.000000000000
51
270.000000000000
0
ARC
5
a08
100
AcDbEntity
8
0-0
6
CONTINUOUS
62
3
100
AcDbCircle
10
518.280000000000
20
986.610000000000
30
0.0
40
0.999999973880
100
AcDbArc
50
180.000000000000
51
270.000000000000
0
ARC
5
a09
100
AcDbEntity
8
0-0
6
CONTINUOUS
62
3
100
AcDbCircle
10
518.280000000000
20
993.610000000000
30
0.0
40
0.499999986940
100
AcDbArc
50
90.000000000000
51
180.000000000000
0
ARC
5
a0a
100
AcDbEntity
8
0-0
6
CONTINUOUS
62
3
100
AcDbCircle
10
518.280000000000
20
993.610000000000
30
0.0
40
0.999999973880
100
AcDbArc
50
90.000000000000
51
180.000000000000
0
TEXT
5
a0b
100
AcDbEntity
8
0-0
62
7
100
AcDbText
10
265.928
20
37.427
30
0.0
40
2.925
1
変　　　　　　更　　　　　　記　　　　　　事
41
1.167
50
0.000
100
AcDbText
0
TEXT
5
a0c
100
AcDbEntity
8
0-0
62
7
100
AcDbText
10
407.795
20
37.027
30
0.0
40
2.925
1
受領　　日附
41
1.167
50
0.000
100
AcDbText
0
TEXT
5
a0d
100
AcDbEntity
8
0-0
62
7
100
AcDbText
10
506.904
20
22.311
30
0.0
40
2.925
1
施工者
41
1.167
50
0.000
100
AcDbText
0
TEXT
5
a0e
100
AcDbEntity
8
0-0
62
7
100
AcDbText
10
506.904
20
37.126
30
0.0
40
2.925
1
設計者
41
1.167
50
0.000
100
AcDbText
0
TEXT
5
a0f
100
AcDbEntity
8
0-0
62
7
100
AcDbText
10
609.646
20
22.040
30
0.0
40
2.925
1
作図
41
1.167
50
0.000
100
AcDbText
0
TEXT
5
a10
100
AcDbEntity
8
0-0
62
7
100
AcDbText
10
645.559
20
22.305
30
0.0
40
2.925
1
図面名
41
1.167
50
0.000
100
AcDbText
0
TEXT
5
a11
100
AcDbEntity
8
0-0
62
7
100
AcDbText
10
609.646
20
36.854
30
0.0
40
2.925
1
日附
41
1.167
50
0.000
100
AcDbText
0
TEXT
5
a12
100
AcDbEntity
8
0-0
62
7
100
AcDbText
10
645.559
20
37.120
30
0.0
40
2.925
1
工事件名
41
1.167
50
0.000
100
AcDbText
0
TEXT
5
a13
100
AcDbEntity
8
0-0
62
7
100
AcDbText
10
620.714
20
36.729
30
0.0
40
2.925
1
年　月　日
41
1.167
50
0.000
100
AcDbText
0
TEXT
5
a14
100
AcDbEntity
8
0-0
62
7
100
AcDbText
10
620.714
20
21.914
30
0.0
40
2.925
1
年　月　日
41
1.167
50
0.000
100
AcDbText
0
TEXT
5
a15
100
AcDbEntity
8
0-0
62
7
100
AcDbText
10
771.731
20
37.120
30
0.0
40
2.925
1
設計番号
41
1.167
50
0.000
100
AcDbText
0
TEXT
5
a16
100
AcDbEntity
8
0-0
62
7
100
AcDbText
10
193.389
20
33.735
30
0.0
40
2.925
1
. 　.　 
41
1.167
50
0.000
100
AcDbText
0
TEXT
5
a17
100
AcDbEntity
8
0-0
62
7
100
AcDbText
10
193.389
20
28.797
30
0.0
40
2.925
1
. 　.　 
41
1.167
50
0.000
100
AcDbText
0
TEXT
5
a18
100
AcDbEntity
8
0-0
62
7
100
AcDbText
10
193.389
20
23.859
30
0.0
40
2.925
1
. 　.　 
41
1.167
50
0.000
100
AcDbText
0
TEXT
5
a19
100
AcDbEntity
8
0-0
62
7
100
AcDbText
10
193.389
20
18.920
30
0.0
40
2.925
1
. 　.　 
41
1.167
50
0.000
100
AcDbText
0
TEXT
5
a1a
100
AcDbEntity
8
0-0
62
7
100
AcDbText
10
193.389
20
13.982
30
0.0
40
2.925
1
. 　.　 
41
1.167
50
0.000
100
AcDbText
0
TEXT
5
a1b
100
AcDbEntity
8
0-0
62
3
100
AcDbText
10
517.035
20
30.588
30
0.0
40
3.900
1
　　　　　　　　　　
41
1.125
50
0.000
100
AcDbText
0
TEXT
5
a1c
100
AcDbEntity
8
0-0
62
3
100
AcDbText
10
517.035
20
15.773
30
0.0
40
3.900
1
　　　　　　　　　　
41
1.125
50
0.000
100
AcDbText
0
TEXT
5
a1d
100
AcDbEntity
8
0-0
62
3
100
AcDbText
10
658.767
20
31.362
30
0.0
40
3.900
1
　　　　　　　　　　　　　
41
1.125
50
0.000
100
AcDbText
0
TEXT
5
a1e
100
AcDbEntity
8
0-0
62
7
100
AcDbText
10
188.903
20
37.395
30
0.0
40
2.925
1
年　月　日
41
1.167
50
0.000
100
AcDbText
0
TEXT
5
a1f
100
AcDbEntity
8
0-0
62
7
100
AcDbText
10
436.381
20
36.735
30
0.0
40
2.925
1
年　　月　　日
41
1.167
50
0.000
100
AcDbText
0
TEXT
5
a20
100
AcDbEntity
8
0-0
62
7
100
AcDbText
10
442.657
20
31.524
30
0.0
40
2.925
1
.　 　.
41
1.167
50
0.000
100
AcDbText
0
TEXT
5
a21
100
AcDbEntity
8
0-0
62
7
100
AcDbText
10
407.795
20
22.212
30
0.0
40
2.925
1
受領　　日附
41
1.167
50
0.000
100
AcDbText
0
TEXT
5
a22
100
AcDbEntity
8
0-0
62
7
100
AcDbText
10
436.381
20
21.920
30
0.0
40
2.925
1
年　　月　　日
41
1.167
50
0.000
100
AcDbText
0
TEXT
5
a23
100
AcDbEntity
8
0-0
62
7
100
AcDbText
10
442.657
20
16.709
30
0.0
40
2.925
1
.　 　.
41
1.167
50
0.000
100
AcDbText
0
TEXT
5
a24
100
AcDbEntity
8
0-0
62
7
100
AcDbText
10
624.100
20
30.667
30
0.0
40
2.925
1
.　　.　
41
1.167
50
0.000
100
AcDbText
0
TEXT
5
a25
100
AcDbEntity
8
0-0
62
7
100
AcDbText
10
771.731
20
22.305
30
0.0
40
2.925
1
縮　尺
41
1.167
50
0.000
100
AcDbText
0
TEXT
5
a26
100
AcDbEntity
8
0-0
62
3
100
AcDbText
10
783.350
20
20.225
30
0.0
40
3.900
1
Ａ１－１／１　
41
1.125
50
0.000
100
AcDbText
0
TEXT
5
a27
100
AcDbEntity
8
0-0
62
3
100
AcDbText
10
783.350
20
12.817
30
0.0
40
3.900
1
Ａ３－１／２　
41
1.125
50
0.000
100
AcDbText
0
TEXT
5
a28
100
AcDbEntity
8
0-0
62
6
100
AcDbText
10
113.575
20
461.533
30
0.0
40
6.825
1
12
41
1.143
50
90.000
100
AcDbText
0
TEXT
5
a29
100
AcDbEntity
8
0-0
62
6
100
AcDbText
10
396.825
20
460.033
30
0.0
40
6.825
1
14
41
1.143
50
90.000
100
AcDbText
0
TEXT
5
a2a
100
AcDbEntity
8
0-0
62
6
100
AcDbText
10
248.200
20
491.783
30
0.0
40
6.825
1
200
41
1.143
50
0.000
100
AcDbText
0
TEXT
5
a2b
100
AcDbEntity
8
0-0
62
6
100
AcDbText
10
581.200
20
491.783
30
0.0
40
6.825
1
200
41
1.143
50
0.000
100
AcDbText
0
TEXT
5
a2c
100
AcDbEntity
8
0-0
62
3
100
AcDbText
10
83.178
20
13.785
30
0.0
40
3.900
1
電話（０５４）２６３－２２８０（代表）
41
1.125
50
0.000
100
AcDbText
0
TEXT
5
a2d
100
AcDbEntity
8
0-0
62
6
100
AcDbText
10
61.073
20
29.382
30
0.0
40
7.800
1
小　池　弥　太　郎　商　店
41
1.125
50
0.000
100
AcDbText
0
TEXT
5
a2e
100
AcDbEntity
8
0-0
62
3
100
AcDbText
10
83.176
20
21.201
30
0.0
40
3.900
1
静岡県静岡市葵区流通センター１６番
41
1.125
50
0.000
100
AcDbText
0
TEXT
5
a2f
100
AcDbEntity
8
0-0
62
7
100
AcDbText
10
49.950
20
33.676
30
0.0
40
2.925
1
株
41
1.167
50
360.000
100
AcDbText
0
TEXT
5
a30
100
AcDbEntity
8
0-0
62
7
100
AcDbText
10
53.525
20
30.051
30
0.0
40
2.925
1
社
41
1.167
50
0.000
100
AcDbText
0
TEXT
5
a31
100
AcDbEntity
8
0-0
62
7
100
AcDbText
10
49.925
20
30.051
30
0.0
40
2.925
1
会
41
1.167
50
360.000
100
AcDbText
0
TEXT
5
a32
100
AcDbEntity
8
0-0
62
7
100
AcDbText
10
53.325
20
33.576
30
0.0
40
2.925
1
式
41
1.167
50
0.000
100
AcDbText
0
TEXT
5
a33
100
AcDbEntity
8
0-0
62
7
100
AcDbText
10
265.928
20
627.060
30
0.0
40
2.925
1
変　　　　　　更　　　　　　記　　　　　　事
41
1.167
50
0.000
100
AcDbText
0
TEXT
5
a34
100
AcDbEntity
8
0-0
62
7
100
AcDbText
10
407.795
20
626.660
30
0.0
40
2.925
1
受領　　日附
41
1.167
50
0.000
100
AcDbText
0
TEXT
5
a35
100
AcDbEntity
8
0-0
62
7
100
AcDbText
10
506.904
20
611.944
30
0.0
40
2.925
1
施工者
41
1.167
50
0.000
100
AcDbText
0
TEXT
5
a36
100
AcDbEntity
8
0-0
62
7
100
AcDbText
10
506.904
20
626.759
30
0.0
40
2.925
1
設計者
41
1.167
50
0.000
100
AcDbText
0
TEXT
5
a37
100
AcDbEntity
8
0-0
62
7
100
AcDbText
10
609.646
20
611.673
30
0.0
40
2.925
1
作図
41
1.167
50
0.000
100
AcDbText
0
TEXT
5
a38
100
AcDbEntity
8
0-0
62
7
100
AcDbText
10
645.559
20
611.938
30
0.0
40
2.925
1
図面名
41
1.167
50
0.000
100
AcDbText
0
TEXT
5
a39
100
AcDbEntity
8
0-0
62
7
100
AcDbText
10
609.646
20
626.488
30
0.0
40
2.925
1
日附
41
1.167
50
0.000
100
AcDbText
0
TEXT
5
a3a
100
AcDbEntity
8
0-0
62
7
100
AcDbText
10
645.559
20
626.753
30
0.0
40
2.925
1
工事件名
41
1.167
50
0.000
100
AcDbText
0
TEXT
5
a3b
100
AcDbEntity
8
0-0
62
7
100
AcDbText
10
620.714
20
626.362
30
0.0
40
2.925
1
年　月　日
41
1.167
50
0.000
100
AcDbText
0
TEXT
5
a3c
100
AcDbEntity
8
0-0
62
7
100
AcDbText
10
620.714
20
611.547
30
0.0
40
2.925
1
年　月　日
41
1.167
50
0.000
100
AcDbText
0
TEXT
5
a3d
100
AcDbEntity
8
0-0
62
7
100
AcDbText
10
771.731
20
626.753
30
0.0
40
2.925
1
設計番号
41
1.167
50
0.000
100
AcDbText
0
TEXT
5
a3e
100
AcDbEntity
8
0-0
62
7
100
AcDbText
10
193.389
20
623.368
30
0.0
40
2.925
1
. 　.　 
41
1.167
50
0.000
100
AcDbText
0
TEXT
5
a3f
100
AcDbEntity
8
0-0
62
7
100
AcDbText
10
193.389
20
618.430
30
0.0
40
2.925
1
. 　.　 
41
1.167
50
0.000
100
AcDbText
0
TEXT
5
a40
100
AcDbEntity
8
0-0
62
7
100
AcDbText
10
193.389
20
613.492
30
0.0
40
2.925
1
. 　.　 
41
1.167
50
0.000
100
AcDbText
0
TEXT
5
a41
100
AcDbEntity
8
0-0
62
7
100
AcDbText
10
193.389
20
608.553
30
0.0
40
2.925
1
. 　.　 
41
1.167
50
0.000
100
AcDbText
0
TEXT
5
a42
100
AcDbEntity
8
0-0
62
7
100
AcDbText
10
193.389
20
603.615
30
0.0
40
2.925
1
. 　.　 
41
1.167
50
0.000
100
AcDbText
0
TEXT
5
a43
100
AcDbEntity
8
0-0
62
3
100
AcDbText
10
517.035
20
620.221
30
0.0
40
3.900
1
　　　　　　　　　　
41
1.125
50
0.000
100
AcDbText
0
TEXT
5
a44
100
AcDbEntity
8
0-0
62
3
100
AcDbText
10
517.035
20
605.406
30
0.0
40
3.900
1
　　　　　　　　　　
41
1.125
50
0.000
100
AcDbText
0
TEXT
5
a45
100
AcDbEntity
8
0-0
62
3
100
AcDbText
10
658.767
20
620.995
30
0.0
40
3.900
1
　　　　　　　　　　　　　
41
1.125
50
0.000
100
AcDbText
0
TEXT
5
a46
100
AcDbEntity
8
0-0
62
7
100
AcDbText
10
188.903
20
627.028
30
0.0
40
2.925
1
年　月　日
41
1.167
50
0.000
100
AcDbText
0
TEXT
5
a47
100
AcDbEntity
8
0-0
62
7
100
AcDbText
10
436.381
20
626.368
30
0.0
40
2.925
1
年　　月　　日
41
1.167
50
0.000
100
AcDbText
0
TEXT
5
a48
100
AcDbEntity
8
0-0
62
7
100
AcDbText
10
442.657
20
621.157
30
0.0
40
2.925
1
.　 　.
41
1.167
50
0.000
100
AcDbText
0
TEXT
5
a49
100
AcDbEntity
8
0-0
62
7
100
AcDbText
10
407.795
20
611.845
30
0.0
40
2.925
1
受領　　日附
41
1.167
50
0.000
100
AcDbText
0
TEXT
5
a4a
100
AcDbEntity
8
0-0
62
7
100
AcDbText
10
436.381
20
611.553
30
0.0
40
2.925
1
年　　月　　日
41
1.167
50
0.000
100
AcDbText
0
TEXT
5
a4b
100
AcDbEntity
8
0-0
62
7
100
AcDbText
10
442.657
20
606.342
30
0.0
40
2.925
1
.　 　.
41
1.167
50
0.000
100
AcDbText
0
TEXT
5
a4c
100
AcDbEntity
8
0-0
62
7
100
AcDbText
10
624.100
20
620.300
30
0.0
40
2.925
1
.　　.　
41
1.167
50
0.000
100
AcDbText
0
TEXT
5
a4d
100
AcDbEntity
8
0-0
62
7
100
AcDbText
10
771.731
20
611.938
30
0.0
40
2.925
1
縮　尺
41
1.167
50
0.000
100
AcDbText
0
TEXT
5
a4e
100
AcDbEntity
8
0-0
62
3
100
AcDbText
10
783.350
20
609.858
30
0.0
40
3.900
1
Ａ１－１／１　
41
1.125
50
0.000
100
AcDbText
0
TEXT
5
a4f
100
AcDbEntity
8
0-0
62
3
100
AcDbText
10
783.350
20
602.450
30
0.0
40
3.900
1
Ａ３－１／２　
41
1.125
50
0.000
100
AcDbText
0
TEXT
5
a50
100
AcDbEntity
8
0-0
62
3
100
AcDbText
10
83.178
20
603.418
30
0.0
40
3.900
1
電話（０５４）２６３－２２８０（代表）
41
1.125
50
0.000
100
AcDbText
0
TEXT
5
a51
100
AcDbEntity
8
0-0
62
6
100
AcDbText
10
61.073
20
619.015
30
0.0
40
7.800
1
小　池　弥　太　郎　商　店
41
1.125
50
0.000
100
AcDbText
0
TEXT
5
a52
100
AcDbEntity
8
0-0
62
3
100
AcDbText
10
83.176
20
610.834
30
0.0
40
3.900
1
静岡県静岡市葵区流通センター１６番
41
1.125
50
0.000
100
AcDbText
0
TEXT
5
a53
100
AcDbEntity
8
0-0
62
7
100
AcDbText
10
49.950
20
623.309
30
0.0
40
2.925
1
株
41
1.167
50
0.000
100
AcDbText
0
TEXT
5
a54
100
AcDbEntity
8
0-0
62
7
100
AcDbText
10
53.525
20
619.684
30
0.0
40
2.925
1
社
41
1.167
50
0.000
100
AcDbText
0
TEXT
5
a55
100
AcDbEntity
8
0-0
62
7
100
AcDbText
10
49.925
20
619.684
30
0.0
40
2.925
1
会
41
1.167
50
0.000
100
AcDbText
0
TEXT
5
a56
100
AcDbEntity
8
0-0
62
7
100
AcDbText
10
53.325
20
623.209
30
0.0
40
2.925
1
式
41
1.167
50
0.000
100
AcDbText
0
TEXT
5
a57
100
AcDbEntity
8
0-0
62
6
100
AcDbText
10
655.093
20
876.405
30
0.0
40
6.825
1
12
41
1.143
50
359.999
100
AcDbText
0
TEXT
5
a58
100
AcDbEntity
8
0-0
62
6
100
AcDbText
10
502.930
20
876.405
30
0.0
40
6.825
1
100
41
1.143
50
0.000
100
AcDbText
0
TEXT
5
a59
100
AcDbEntity
8
0-0
62
6
100
AcDbText
10
433.680
20
799.218
30
0.0
40
6.825
1
100
41
1.143
50
90.000
100
AcDbText
0
TEXT
5
a5a
100
AcDbEntity
8
0-0
62
6
100
AcDbText
10
459.930
20
716.530
30
0.0
40
6.825
1
12
41
1.143
50
0.000
100
AcDbText
0
TEXT
5
a5b
100
AcDbEntity
8
0-0
62
6
100
AcDbText
10
629.343
20
779.655
30
0.0
40
6.825
1
100
41
1.143
50
90.000
100
AcDbText
0
TEXT
5
a5c
100
AcDbEntity
8
0-0
62
6
100
AcDbText
10
708.593
20
757.030
30
0.0
40
6.825
1
100
41
1.143
50
0.000
100
AcDbText
0
TEXT
5
a5d
100
AcDbEntity
8
0-0
62
6
100
AcDbText
10
452.491
20
897.980
30
0.0
40
6.825
1
Ｌ＝２０００～３０００
41
1.143
50
0.000
100
AcDbText
0
TEXT
5
a5e
100
AcDbEntity
8
0-0
62
6
100
AcDbText
10
647.154
20
897.980
30
0.0
40
6.825
1
Ｌ＝２０００～３０００
41
1.143
50
0.000
100
AcDbText
0
TEXT
5
a5f
100
AcDbEntity
8
0-0
62
3
100
AcDbText
10
658.767
20
606.180
30
0.0
40
3.900
1
スパンドレル用　役物部材図
41
1.125
50
0.000
100
AcDbText
0
TEXT
5
a60
100
AcDbEntity
8
0-0
62
6
100
AcDbText
10
133.950
20
437.283
30
0.0
40
6.825
1
3
41
1.143
50
0.000
100
AcDbText
0
TEXT
5
a61
100
AcDbEntity
8
0-0
62
6
100
AcDbText
10
501.680
20
746.530
30
0.0
40
6.825
1
10
41
1.143
50
90.000
100
AcDbText
0
TEXT
5
a62
100
AcDbEntity
8
0-0
62
6
100
AcDbText
10
491.680
20
750.280
30
0.0
40
6.825
1
7
41
1.143
50
90.000
100
AcDbText
0
TEXT
5
a63
100
AcDbEntity
8
0-0
62
6
100
AcDbText
10
491.680
20
745.030
30
0.0
40
6.825
1
3
41
1.143
50
90.000
100
AcDbText
0
TEXT
5
a64
100
AcDbEntity
8
0-0
62
6
100
AcDbText
10
619.843
20
837.155
30
0.0
40
6.825
1
10
41
1.143
50
90.000
100
AcDbText
0
TEXT
5
a65
100
AcDbEntity
8
0-0
62
6
100
AcDbText
10
629.843
20
837.388
30
0.0
40
6.825
1
7
41
1.143
50
90.000
100
AcDbText
0
TEXT
5
a66
100
AcDbEntity
8
0-0
62
6
100
AcDbText
10
629.843
20
842.388
30
0.0
40
6.825
1
3
41
1.143
50
90.000
100
AcDbText
0
TEXT
5
a67
100
AcDbEntity
8
0-0
62
6
100
AcDbText
10
113.575
20
360.496
30
0.0
40
6.825
1
12
41
1.143
50
90.000
100
AcDbText
0
TEXT
5
a68
100
AcDbEntity
8
0-0
62
6
100
AcDbText
10
396.825
20
358.996
30
0.0
40
6.825
1
14
41
1.143
50
90.000
100
AcDbText
0
TEXT
5
a69
100
AcDbEntity
8
0-0
62
6
100
AcDbText
10
248.200
20
390.746
30
0.0
40
6.825
1
200
41
1.143
50
0.000
100
AcDbText
0
TEXT
5
a6a
100
AcDbEntity
8
0-0
62
6
100
AcDbText
10
581.200
20
390.746
30
0.0
40
6.825
1
200
41
1.143
50
0.000
100
AcDbText
0
TEXT
5
a6b
100
AcDbEntity
8
0-0
62
6
100
AcDbText
10
250.075
20
346.746
30
0.0
40
6.825
1
50
41
1.143
50
0.000
100
AcDbText
0
TEXT
5
a6c
100
AcDbEntity
8
0-0
62
2
100
AcDbText
10
237.875
20
336.446
30
0.0
40
5.850
1
（リブ付）
41
1.167
50
0.000
100
AcDbText
0
TEXT
5
a6d
100
AcDbEntity
8
0-0
62
6
100
AcDbText
10
583.075
20
346.746
30
0.0
40
6.825
1
50
41
1.143
50
0.000
100
AcDbText
0
TEXT
5
a6e
100
AcDbEntity
8
0-0
62
2
100
AcDbText
10
570.875
20
336.446
30
0.0
40
5.850
1
（リブ付）
41
1.167
50
0.000
100
AcDbText
0
TEXT
5
a6f
100
AcDbEntity
8
0-0
62
6
100
AcDbText
10
113.575
20
196.346
30
0.0
40
6.825
1
12
41
1.143
50
90.000
100
AcDbText
0
TEXT
5
a70
100
AcDbEntity
8
0-0
62
6
100
AcDbText
10
396.825
20
194.846
30
0.0
40
6.825
1
14
41
1.143
50
90.000
100
AcDbText
0
TEXT
5
a71
100
AcDbEntity
8
0-0
62
6
100
AcDbText
10
248.200
20
226.596
30
0.0
40
6.825
1
200
41
1.143
50
0.000
100
AcDbText
0
TEXT
5
a72
100
AcDbEntity
8
0-0
62
6
100
AcDbText
10
581.200
20
226.596
30
0.0
40
6.825
1
200
41
1.143
50
0.000
100
AcDbText
0
TEXT
5
a73
100
AcDbEntity
8
0-0
62
6
100
AcDbText
10
462.700
20
226.596
30
0.0
40
6.825
1
@200
41
1.143
50
0.000
100
AcDbText
0
TEXT
5
a74
100
AcDbEntity
8
0-0
62
6
100
AcDbText
10
695.700
20
226.596
30
0.0
40
6.825
1
@200
41
1.143
50
0.000
100
AcDbText
0
TEXT
5
a75
100
AcDbEntity
8
0-0
62
6
100
AcDbText
10
145.575
20
162.096
30
0.0
40
6.825
1
10
41
1.143
50
0.000
100
AcDbText
0
TEXT
5
a76
100
AcDbEntity
8
0-0
62
6
100
AcDbText
10
149.325
20
172.096
30
0.0
40
6.825
1
7
41
1.143
50
0.000
100
AcDbText
0
TEXT
5
a77
100
AcDbEntity
8
0-0
62
6
100
AcDbText
10
144.075
20
172.096
30
0.0
40
6.825
1
3
41
1.143
50
0.000
100
AcDbText
0
TEXT
5
a78
100
AcDbEntity
8
0-0
62
6
100
AcDbText
10
113.575
20
95.309
30
0.0
40
6.825
1
12
41
1.143
50
90.000
100
AcDbText
0
TEXT
5
a79
100
AcDbEntity
8
0-0
62
6
100
AcDbText
10
396.825
20
93.809
30
0.0
40
6.825
1
14
41
1.143
50
90.000
100
AcDbText
0
TEXT
5
a7a
100
AcDbEntity
8
0-0
62
6
100
AcDbText
10
248.200
20
125.559
30
0.0
40
6.825
1
200
41
1.143
50
0.000
100
AcDbText
0
TEXT
5
a7b
100
AcDbEntity
8
0-0
62
6
100
AcDbText
10
581.200
20
125.559
30
0.0
40
6.825
1
200
41
1.143
50
0.000
100
AcDbText
0
TEXT
5
a7c
100
AcDbEntity
8
0-0
62
6
100
AcDbText
10
462.700
20
125.559
30
0.0
40
6.825
1
@200
41
1.143
50
0.000
100
AcDbText
0
TEXT
5
a7d
100
AcDbEntity
8
0-0
62
6
100
AcDbText
10
695.700
20
125.559
30
0.0
40
6.825
1
@200
41
1.143
50
0.000
100
AcDbText
0
TEXT
5
a7e
100
AcDbEntity
8
0-0
62
6
100
AcDbText
10
145.575
20
61.059
30
0.0
40
6.825
1
10
41
1.143
50
0.000
100
AcDbText
0
TEXT
5
a7f
100
AcDbEntity
8
0-0
62
6
100
AcDbText
10
149.325
20
71.059
30
0.0
40
6.825
1
7
41
1.143
50
0.000
100
AcDbText
0
TEXT
5
a80
100
AcDbEntity
8
0-0
62
6
100
AcDbText
10
144.075
20
71.059
30
0.0
40
6.825
1
3
41
1.143
50
0.000
100
AcDbText
0
TEXT
5
a81
100
AcDbEntity
8
0-0
62
6
100
AcDbText
10
250.075
20
81.559
30
0.0
40
6.825
1
50
41
1.143
50
0.000
100
AcDbText
0
TEXT
5
a82
100
AcDbEntity
8
0-0
62
2
100
AcDbText
10
237.875
20
71.260
30
0.0
40
5.850
1
（リブ付）
41
1.167
50
0.000
100
AcDbText
0
TEXT
5
a83
100
AcDbEntity
8
0-0
62
6
100
AcDbText
10
33.829
20
284.195
30
0.0
40
7.800
1
スパンドレル２００
41
1.125
50
0.000
100
AcDbText
0
TEXT
5
a84
100
AcDbEntity
8
0-0
62
6
100
AcDbText
10
583.075
20
81.559
30
0.0
40
6.825
1
50
41
1.143
50
0.000
100
AcDbText
0
TEXT
5
a85
100
AcDbEntity
8
0-0
62
2
100
AcDbText
10
570.875
20
71.260
30
0.0
40
5.850
1
（リブ付）
41
1.167
50
0.000
100
AcDbText
0
TEXT
5
a86
100
AcDbEntity
8
0-0
62
6
100
AcDbText
10
33.829
20
274.195
30
0.0
40
7.800
1
（目地なしタイプ）
41
1.125
50
0.000
100
AcDbText
0
TEXT
5
a87
100
AcDbEntity
8
0-0
62
6
100
AcDbText
10
33.829
20
539.382
30
0.0
40
7.800
1
（目地ありタイプ）
41
1.125
50
0.000
100
AcDbText
0
TEXT
5
a88
100
AcDbEntity
8
0-0
62
6
100
AcDbText
10
142.263
20
437.283
30
0.0
40
6.825
1
17
41
1.143
50
0.000
100
AcDbText
0
TEXT
5
a89
100
AcDbEntity
8
0-0
62
6
100
AcDbText
10
140.513
20
427.283
30
0.0
40
6.825
1
20
41
1.143
50
0.000
100
AcDbText
0
TEXT
5
a8a
100
AcDbEntity
8
0-0
62
6
100
AcDbText
10
133.950
20
336.246
30
0.0
40
6.825
1
3
41
1.143
50
0.000
100
AcDbText
0
TEXT
5
a8b
100
AcDbEntity
8
0-0
62
6
100
AcDbText
10
142.263
20
336.246
30
0.0
40
6.825
1
17
41
1.143
50
0.000
100
AcDbText
0
TEXT
5
a8c
100
AcDbEntity
8
0-0
62
6
100
AcDbText
10
140.513
20
326.246
30
0.0
40
6.825
1
20
41
1.143
50
0.000
100
AcDbText
0
TEXT
5
a8d
100
AcDbEntity
8
0-0
62
6
100
AcDbText
10
456.700
20
491.783
30
0.0
40
6.825
1
@200
41
1.143
50
0.000
100
AcDbText
0
TEXT
5
a8e
100
AcDbEntity
8
0-0
62
6
100
AcDbText
10
701.700
20
491.783
30
0.0
40
6.825
1
@200
41
1.143
50
0.000
100
AcDbText
0
TEXT
5
a8f
100
AcDbEntity
8
0-0
62
6
100
AcDbText
10
456.700
20
390.746
30
0.0
40
6.825
1
@200
41
1.143
50
0.000
100
AcDbText
0
TEXT
5
a90
100
AcDbEntity
8
0-0
62
6
100
AcDbText
10
701.700
20
390.746
30
0.0
40
6.825
1
@200
41
1.143
50
0.000
100
AcDbText
0
TEXT
5
a91
100
AcDbEntity
8
0-0
62
6
100
AcDbText
10
260.871
20
876.405
30
0.0
40
6.825
1
12
41
1.143
50
359.999
100
AcDbText
0
TEXT
5
a92
100
AcDbEntity
8
0-0
62
6
100
AcDbText
10
108.708
20
876.405
30
0.0
40
6.825
1
100
41
1.143
50
0.000
100
AcDbText
0
TEXT
5
a93
100
AcDbEntity
8
0-0
62
6
100
AcDbText
10
39.458
20
799.218
30
0.0
40
6.825
1
100
41
1.143
50
90.000
100
AcDbText
0
TEXT
5
a94
100
AcDbEntity
8
0-0
62
6
100
AcDbText
10
65.708
20
716.530
30
0.0
40
6.825
1
12
41
1.143
50
0.000
100
AcDbText
0
TEXT
5
a95
100
AcDbEntity
8
0-0
62
6
100
AcDbText
10
235.121
20
779.655
30
0.0
40
6.825
1
100
41
1.143
50
90.000
100
AcDbText
0
TEXT
5
a96
100
AcDbEntity
8
0-0
62
6
100
AcDbText
10
314.371
20
757.030
30
0.0
40
6.825
1
100
41
1.143
50
0.000
100
AcDbText
0
TEXT
5
a97
100
AcDbEntity
8
0-0
62
6
100
AcDbText
10
58.269
20
897.980
30
0.0
40
6.825
1
Ｌ＝２０００～３０００
41
1.143
50
0.000
100
AcDbText
0
TEXT
5
a98
100
AcDbEntity
8
0-0
62
6
100
AcDbText
10
252.932
20
897.980
30
0.0
40
6.825
1
Ｌ＝２０００～３０００
41
1.143
50
0.000
100
AcDbText
0
TEXT
5
a99
100
AcDbEntity
8
0-0
62
6
100
AcDbText
10
97.458
20
735.030
30
0.0
40
6.825
1
3
41
1.143
50
90.000
100
AcDbText
0
TEXT
5
a9a
100
AcDbEntity
8
0-0
62
6
100
AcDbText
10
235.621
20
852.388
30
0.0
40
6.825
1
3
41
1.143
50
90.000
100
AcDbText
0
TEXT
5
a9b
100
AcDbEntity
8
0-0
62
6
100
AcDbText
10
225.621
20
842.155
30
0.0
40
6.825
1
20
41
1.143
50
90.000
100
AcDbText
0
TEXT
5
a9c
100
AcDbEntity
8
0-0
62
6
100
AcDbText
10
235.621
20
840.388
30
0.0
40
6.825
1
17
41
1.143
50
90.000
100
AcDbText
0
TEXT
5
a9d
100
AcDbEntity
8
0-0
62
6
100
AcDbText
10
97.458
20
743.280
30
0.0
40
6.825
1
17
41
1.143
50
90.000
100
AcDbText
0
TEXT
5
a9e
100
AcDbEntity
8
0-0
62
6
100
AcDbText
10
107.458
20
741.530
30
0.0
40
6.825
1
20
41
1.143
50
90.000
100
AcDbText
0
TEXT
5
a9f
100
AcDbEntity
8
0-0
62
6
100
AcDbText
10
396.825
20
460.033
30
0.0
40
6.825
1
14
41
1.143
50
90.000
100
AcDbText
0
TEXT
5
aa0
100
AcDbEntity
8
0-0
62
6
100
AcDbText
10
332.825
20
457.033
30
0.0
40
6.825
1
4
41
1.143
50
90.000
100
AcDbText
0
TEXT
5
aa1
100
AcDbEntity
8
0-0
62
6
100
AcDbText
10
345.075
20
437.283
30
0.0
40
6.825
1
10
41
1.143
50
0.000
100
AcDbText
0
TEXT
5
aa2
100
AcDbEntity
8
0-0
62
6
100
AcDbText
10
354.575
20
437.283
30
0.0
40
6.825
1
5
41
1.143
50
0.000
100
AcDbText
0
TEXT
5
aa3
100
AcDbEntity
8
0-0
62
6
100
AcDbText
10
361.575
20
437.283
30
0.0
40
6.825
1
13
41
1.143
50
0.000
100
AcDbText
0
TEXT
5
aa4
100
AcDbEntity
8
0-0
62
6
100
AcDbText
10
354.075
20
427.283
30
0.0
40
6.825
1
28
41
1.143
50
0.000
100
AcDbText
0
TEXT
5
aa5
100
AcDbEntity
8
0-0
62
6
100
AcDbText
10
332.825
20
355.996
30
0.0
40
6.825
1
4
41
1.143
50
90.000
100
AcDbText
0
TEXT
5
aa6
100
AcDbEntity
8
0-0
62
6
100
AcDbText
10
345.075
20
336.246
30
0.0
40
6.825
1
10
41
1.143
50
0.000
100
AcDbText
0
TEXT
5
aa7
100
AcDbEntity
8
0-0
62
6
100
AcDbText
10
354.575
20
336.246
30
0.0
40
6.825
1
5
41
1.143
50
0.000
100
AcDbText
0
TEXT
5
aa8
100
AcDbEntity
8
0-0
62
6
100
AcDbText
10
361.575
20
336.246
30
0.0
40
6.825
1
13
41
1.143
50
0.000
100
AcDbText
0
TEXT
5
aa9
100
AcDbEntity
8
0-0
62
6
100
AcDbText
10
354.075
20
326.246
30
0.0
40
6.825
1
28
41
1.143
50
0.000
100
AcDbText
0
TEXT
5
aaa
100
AcDbEntity
8
0-0
62
6
100
AcDbText
10
332.825
20
191.846
30
0.0
40
6.825
1
4
41
1.143
50
90.000
100
AcDbText
0
TEXT
5
aab
100
AcDbEntity
8
0-0
62
6
100
AcDbText
10
345.075
20
172.096
30
0.0
40
6.825
1
10
41
1.143
50
0.000
100
AcDbText
0
TEXT
5
aac
100
AcDbEntity
8
0-0
62
6
100
AcDbText
10
354.575
20
172.096
30
0.0
40
6.825
1
5
41
1.143
50
0.000
100
AcDbText
0
TEXT
5
aad
100
AcDbEntity
8
0-0
62
6
100
AcDbText
10
361.575
20
172.096
30
0.0
40
6.825
1
13
41
1.143
50
0.000
100
AcDbText
0
TEXT
5
aae
100
AcDbEntity
8
0-0
62
6
100
AcDbText
10
354.075
20
162.096
30
0.0
40
6.825
1
28
41
1.143
50
0.000
100
AcDbText
0
TEXT
5
aaf
100
AcDbEntity
8
0-0
62
6
100
AcDbText
10
332.825
20
90.809
30
0.0
40
6.825
1
4
41
1.143
50
90.000
100
AcDbText
0
TEXT
5
ab0
100
AcDbEntity
8
0-0
62
6
100
AcDbText
10
345.075
20
71.059
30
0.0
40
6.825
1
10
41
1.143
50
0.000
100
AcDbText
0
TEXT
5
ab1
100
AcDbEntity
8
0-0
62
6
100
AcDbText
10
354.575
20
71.059
30
0.0
40
6.825
1
5
41
1.143
50
0.000
100
AcDbText
0
TEXT
5
ab2
100
AcDbEntity
8
0-0
62
6
100
AcDbText
10
361.575
20
71.059
30
0.0
40
6.825
1
13
41
1.143
50
0.000
100
AcDbText
0
TEXT
5
ab3
100
AcDbEntity
8
0-0
62
6
100
AcDbText
10
354.075
20
61.059
30
0.0
40
6.825
1
28
41
1.143
50
0.000
100
AcDbText
0
TEXT
5
ab4
100
AcDbEntity
8
0-0
62
6
100
AcDbText
10
477.700
20
491.783
30
0.0
40
6.825
1
11
41
1.143
50
0.000
100
AcDbText
0
TEXT
5
ab5
100
AcDbEntity
8
0-0
62
6
100
AcDbText
10
477.700
20
390.746
30
0.0
40
6.825
1
11
41
1.143
50
0.000
100
AcDbText
0
TEXT
5
ab6
100
AcDbEntity
8
0-0
62
6
100
AcDbText
10
462.700
20
501.783
30
0.0
40
6.825
1
@211
41
1.143
50
0.000
100
AcDbText
0
TEXT
5
ab7
100
AcDbEntity
8
0-0
62
6
100
AcDbText
10
586.200
20
501.283
30
0.0
40
6.825
1
211
41
1.143
50
0.000
100
AcDbText
0
TEXT
5
ab8
100
AcDbEntity
8
0-0
62
6
100
AcDbText
10
702.700
20
501.783
30
0.0
40
6.825
1
@211
41
1.143
50
0.000
100
AcDbText
0
TEXT
5
ab9
100
AcDbEntity
8
0-0
62
6
100
AcDbText
10
688.700
20
491.783
30
0.0
40
6.825
1
11
41
1.143
50
0.000
100
AcDbText
0
TEXT
5
aba
100
AcDbEntity
8
0-0
62
6
100
AcDbText
10
702.700
20
400.746
30
0.0
40
6.825
1
@211
41
1.143
50
0.000
100
AcDbText
0
TEXT
5
abb
100
AcDbEntity
8
0-0
62
6
100
AcDbText
10
687.700
20
390.746
30
0.0
40
6.825
1
11
41
1.143
50
0.000
100
AcDbText
0
TEXT
5
abc
100
AcDbEntity
8
0-0
62
6
100
AcDbText
10
462.700
20
400.746
30
0.0
40
6.825
1
@211
41
1.143
50
0.000
100
AcDbText
0
TEXT
5
abd
100
AcDbEntity
8
0-0
62
6
100
AcDbText
10
586.200
20
400.246
30
0.0
40
6.825
1
211
41
1.143
50
0.000
100
AcDbText
0
TEXT
5
abe
100
AcDbEntity
8
0-0
62
6
100
AcDbText
10
143.333
20
841.655
30
0.0
40
6.825
1
4
41
1.143
50
90.000
100
AcDbText
0
TEXT
5
abf
100
AcDbEntity
8
0-0
62
6
100
AcDbText
10
155.583
20
821.905
30
0.0
40
6.825
1
10
41
1.143
50
0.000
100
AcDbText
0
TEXT
5
ac0
100
AcDbEntity
8
0-0
62
6
100
AcDbText
10
165.083
20
821.905
30
0.0
40
6.825
1
5
41
1.143
50
0.000
100
AcDbText
0
TEXT
5
ac1
100
AcDbEntity
8
0-0
62
6
100
AcDbText
10
172.083
20
821.905
30
0.0
40
6.825
1
13
41
1.143
50
0.000
100
AcDbText
0
TEXT
5
ac2
100
AcDbEntity
8
0-0
62
6
100
AcDbText
10
164.583
20
811.905
30
0.0
40
6.825
1
28
41
1.143
50
0.000
100
AcDbText
0
TEXT
5
ac3
100
AcDbEntity
8
0-0
62
6
100
AcDbText
10
205.333
20
844.655
30
0.0
40
6.825
1
14
41
1.143
50
90.000
100
AcDbText
0
TEXT
5
ac4
100
AcDbEntity
8
0-0
62
6
100
AcDbText
10
348.996
20
722.280
30
0.0
40
6.825
1
4
41
1.143
50
90.000
100
AcDbText
0
TEXT
5
ac5
100
AcDbEntity
8
0-0
62
6
100
AcDbText
10
361.246
20
702.530
30
0.0
40
6.825
1
10
41
1.143
50
0.000
100
AcDbText
0
TEXT
5
ac6
100
AcDbEntity
8
0-0
62
6
100
AcDbText
10
370.746
20
702.530
30
0.0
40
6.825
1
5
41
1.143
50
0.000
100
AcDbText
0
TEXT
5
ac7
100
AcDbEntity
8
0-0
62
6
100
AcDbText
10
377.746
20
702.530
30
0.0
40
6.825
1
13
41
1.143
50
0.000
100
AcDbText
0
TEXT
5
ac8
100
AcDbEntity
8
0-0
62
6
100
AcDbText
10
370.246
20
692.530
30
0.0
40
6.825
1
28
41
1.143
50
0.000
100
AcDbText
0
TEXT
5
ac9
100
AcDbEntity
8
0-0
62
6
100
AcDbText
10
410.996
20
725.280
30
0.0
40
6.825
1
14
41
1.143
50
90.000
100
AcDbText
0
TEXT
5
aca
100
AcDbEntity
8
0-0
62
6
100
AcDbText
10
537.555
20
841.655
30
0.0
40
6.825
1
4
41
1.143
50
90.000
100
AcDbText
0
TEXT
5
acb
100
AcDbEntity
8
0-0
62
6
100
AcDbText
10
549.805
20
821.905
30
0.0
40
6.825
1
10
41
1.143
50
0.000
100
AcDbText
0
TEXT
5
acc
100
AcDbEntity
8
0-0
62
6
100
AcDbText
10
559.305
20
821.905
30
0.0
40
6.825
1
5
41
1.143
50
0.000
100
AcDbText
0
TEXT
5
acd
100
AcDbEntity
8
0-0
62
6
100
AcDbText
10
566.305
20
821.905
30
0.0
40
6.825
1
13
41
1.143
50
0.000
100
AcDbText
0
TEXT
5
ace
100
AcDbEntity
8
0-0
62
6
100
AcDbText
10
558.805
20
811.906
30
0.0
40
6.825
1
28
41
1.143
50
0.000
100
AcDbText
0
TEXT
5
acf
100
AcDbEntity
8
0-0
62
6
100
AcDbText
10
599.555
20
844.655
30
0.0
40
6.825
1
14
41
1.143
50
90.000
100
AcDbText
0
TEXT
5
ad0
100
AcDbEntity
8
0-0
62
6
100
AcDbText
10
743.218
20
722.280
30
0.0
40
6.825
1
4
41
1.143
50
90.000
100
AcDbText
0
TEXT
5
ad1
100
AcDbEntity
8
0-0
62
6
100
AcDbText
10
755.468
20
702.530
30
0.0
40
6.825
1
10
41
1.143
50
0.000
100
AcDbText
0
TEXT
5
ad2
100
AcDbEntity
8
0-0
62
6
100
AcDbText
10
764.968
20
702.530
30
0.0
40
6.825
1
5
41
1.143
50
0.000
100
AcDbText
0
TEXT
5
ad3
100
AcDbEntity
8
0-0
62
6
100
AcDbText
10
771.968
20
702.530
30
0.0
40
6.825
1
13
41
1.143
50
0.000
100
AcDbText
0
TEXT
5
ad4
100
AcDbEntity
8
0-0
62
6
100
AcDbText
10
764.468
20
692.530
30
0.0
40
6.825
1
28
41
1.143
50
0.000
100
AcDbText
0
TEXT
5
ad5
100
AcDbEntity
8
0-0
62
6
100
AcDbText
10
805.218
20
725.280
30
0.0
40
6.825
1
14
41
1.143
50
90.000
100
AcDbText
0
TEXT
5
ad6
100
AcDbEntity
8
0-0
62
6
100
AcDbText
10
33.829
20
549.382
30
0.0
40
7.800
1
スパンドレル２１１
41
1.125
50
0.000
100
AcDbText
0
TEXT
5
ad7
100
AcDbEntity
8
0-0
62
6
100
AcDbText
10
58.269
20
907.980
30
0.0
40
6.825
1
ＳＰＲ211（出隅）
41
1.143
50
360.000
100
AcDbText
0
TEXT
5
ad8
100
AcDbEntity
8
0-0
62
6
100
AcDbText
10
252.932
20
907.980
30
0.0
40
6.825
1
ＳＰＲ211（入隅）
41
1.143
50
360.000
100
AcDbText
0
TEXT
5
ad9
100
AcDbEntity
8
0-0
62
6
100
AcDbText
10
452.491
20
907.980
30
0.0
40
6.825
1
ＳＰＲ200（出隅）
41
1.143
50
360.000
100
AcDbText
0
TEXT
5
ada
100
AcDbEntity
8
0-0
62
6
100
AcDbText
10
647.154
20
907.980
30
0.0
40
6.825
1
ＳＰＲ200（入隅）
41
1.143
50
360.000
100
AcDbText
0
TEXT
5
adb
100
AcDbEntity
8
0-0
62
2
100
AcDbText
10
237.625
20
443.789
30
0.0
40
5.850
1
（フラット）
41
1.167
50
0.000
100
AcDbText
0
TEXT
5
adc
100
AcDbEntity
8
0-0
62
2
100
AcDbText
10
570.625
20
443.789
30
0.0
40
5.850
1
（フラット）
41
1.167
50
0.000
100
AcDbText
0
TEXT
5
add
100
AcDbEntity
8
0-0
62
2
100
AcDbText
10
570.625
20
178.602
30
0.0
40
5.850
1
（フラット）
41
1.167
50
0.000
100
AcDbText
0
TEXT
5
ade
100
AcDbEntity
8
0-0
62
2
100
AcDbText
10
237.625
20
178.602
30
0.0
40
5.850
1
（フラット）
41
1.167
50
0.000
100
AcDbText
0
TEXT
5
adf
100
AcDbEntity
8
0-0
62
7
100
AcDbText
10
611.241
20
604.967
30
0.0
40
2.925
1
   2021-02-26
41
1.167
50
0.000
100
AcDbText
0
TEXT
5
ae0
100
AcDbEntity
8
0-0
62
7
100
AcDbText
10
611.241
20
15.334
30
0.0
40
2.925
1
   2021-02-26
41
1.167
50
0.000
100
AcDbText
0
TEXT
5
ae1
100
AcDbEntity
8
0-0
62
3
100
AcDbText
10
658.767
20
16.546
30
0.0
40
3.900
1
スパンドレル( 211 / 200 )　断面図
41
1.125
50
0.000
100
AcDbText
0
TEXT
5
ae2
100
AcDbEntity
8
0-0
62
2
100
AcDbText
10
774.222
20
29.844
30
0.0
40
4.875
1
KS-211 / 200
41
1.100
50
0.000
100
AcDbText
0
TEXT
5
ae3
100
AcDbEntity
8
0-0
62
2
100
AcDbText
10
774.222
20
619.478
30
0.0
40
4.875
1
KS-211 / 200
41
1.100
50
0.000
100
AcDbText
0
TEXT
5
ae4
100
AcDbEntity
8
0-0
62
6
100
AcDbText
10
140.830
20
1059.111
30
0.0
40
6.825
1
50
41
1.143
50
359.999
100
AcDbText
0
TEXT
5
ae5
100
AcDbEntity
8
0-0
62
6
100
AcDbText
10
152.579
20
1026.111
30
0.0
40
6.825
1
9
41
1.143
50
0.000
100
AcDbText
0
TEXT
5
ae6
100
AcDbEntity
8
0-0
62
6
100
AcDbText
10
126.330
20
992.111
30
0.0
40
6.825
1
20
41
1.143
50
0.000
100
AcDbText
0
TEXT
5
ae7
100
AcDbEntity
8
0-0
62
6
100
AcDbText
10
134.330
20
1007.111
30
0.0
40
6.825
1
8
41
1.143
50
0.000
100
AcDbText
0
TEXT
5
ae8
100
AcDbEntity
8
0-0
62
6
100
AcDbText
10
226.792
20
1087.686
30
0.0
40
6.825
1
ＳＰ－４００（Ｈ型接続）
41
1.143
50
360.000
100
AcDbText
0
TEXT
5
ae9
100
AcDbEntity
8
0-0
62
6
100
AcDbText
10
93.891
20
1087.686
30
0.0
40
6.825
1
ＳＰ－１０１（廻り縁）
41
1.143
50
0.000
100
AcDbText
0
TEXT
5
aea
100
AcDbEntity
8
0-0
62
6
100
AcDbText
10
100.584
20
1034.122
30
0.0
40
6.825
1
23
41
1.143
50
0.000
100
AcDbText
0
TEXT
5
aeb
100
AcDbEntity
8
0-0
62
6
100
AcDbText
10
676.345
20
992.111
30
0.0
40
6.825
1
8
41
1.143
50
359.999
100
AcDbText
0
TEXT
5
aec
100
AcDbEntity
8
0-0
62
6
100
AcDbText
10
637.406
20
1087.686
30
0.0
40
6.825
1
ＳＰＲ－４００（Ｈ型接続ロール成形品）
41
1.143
50
0.000
100
AcDbText
0
TEXT
5
aed
100
AcDbEntity
8
0-0
62
6
100
AcDbText
10
688.345
20
992.111
30
0.0
40
6.825
1
12
41
1.143
50
0.000
100
AcDbText
0
TEXT
5
aee
100
AcDbEntity
8
0-0
62
6
100
AcDbText
10
723.324
20
1018.757
30
0.0
40
6.825
1
17
41
1.143
50
0.000
100
AcDbText
0
TEXT
5
aef
100
AcDbEntity
8
0-0
62
6
100
AcDbText
10
661.845
20
1044.111
30
0.0
40
6.825
1
12
41
1.143
50
0.000
100
AcDbText
0
TEXT
5
af0
100
AcDbEntity
8
0-0
62
6
100
AcDbText
10
696.095
20
1044.111
30
0.0
40
6.825
1
27
41
1.143
50
0.000
100
AcDbText
0
TEXT
5
af1
100
AcDbEntity
8
0-0
62
6
100
AcDbText
10
737.324
20
1018.757
30
0.0
40
6.825
1
22
41
1.143
50
0.000
100
AcDbText
0
TEXT
5
af2
100
AcDbEntity
8
0-0
62
6
100
AcDbText
10
682.845
20
1059.111
30
0.0
40
6.825
1
54
41
1.143
50
0.000
100
AcDbText
0
TEXT
5
af3
100
AcDbEntity
8
0-0
62
6
100
AcDbText
10
682.345
20
977.111
30
0.0
40
6.825
1
24
41
1.143
50
0.000
100
AcDbText
0
TEXT
5
af4
100
AcDbEntity
8
0-0
62
6
100
AcDbText
10
269.231
20
1059.111
30
0.0
40
6.825
1
60
41
1.143
50
0.000
100
AcDbText
0
TEXT
5
af5
100
AcDbEntity
8
0-0
62
6
100
AcDbText
10
270.231
20
998.111
30
0.0
40
6.825
1
30
41
1.143
50
0.000
100
AcDbText
0
TEXT
5
af6
100
AcDbEntity
8
0-0
62
6
100
AcDbText
10
261.231
20
1013.111
30
0.0
40
6.825
1
8
41
1.143
50
0.000
100
AcDbText
0
TEXT
5
af7
100
AcDbEntity
8
0-0
62
6
100
AcDbText
10
277.231
20
1013.111
30
0.0
40
6.825
1
16
41
1.143
50
0.000
100
AcDbText
0
TEXT
5
af8
100
AcDbEntity
8
0-0
62
6
100
AcDbText
10
313.542
20
1036.945
30
0.0
40
6.825
1
14
41
1.143
50
359.999
100
AcDbText
0
TEXT
5
af9
100
AcDbEntity
8
0-0
62
6
100
AcDbText
10
226.792
20
1077.686
30
0.0
40
6.825
1
Ｌ＝２０００～３０００
41
1.143
50
0.000
100
AcDbText
0
TEXT
5
afa
100
AcDbEntity
8
0-0
62
6
100
AcDbText
10
93.891
20
1077.686
30
0.0
40
6.825
1
Ｌ＝２０００～３０００
41
1.143
50
0.000
100
AcDbText
0
TEXT
5
afb
100
AcDbEntity
8
0-0
62
6
100
AcDbText
10
637.406
20
1077.686
30
0.0
40
6.825
1
Ｌ＝２０００～３０００
41
1.143
50
0.000
100
AcDbText
0
TEXT
5
afc
100
AcDbEntity
8
0-0
62
6
100
AcDbText
10
374.267
20
1034.090
30
0.0
40
6.825
1
50
41
1.143
50
0.000
100
AcDbText
0
TEXT
5
afd
100
AcDbEntity
8
0-0
62
6
100
AcDbText
10
431.964
20
993.611
30
0.0
40
6.825
1
25
41
1.143
50
0.000
100
AcDbText
0
TEXT
5
afe
100
AcDbEntity
8
0-0
62
6
100
AcDbText
10
412.882
20
966.611
30
0.0
40
6.825
1
9
41
1.143
50
0.000
100
AcDbText
0
TEXT
5
aff
100
AcDbEntity
8
0-0
62
6
100
AcDbText
10
404.132
20
1024.611
30
0.0
40
6.825
1
23
41
1.143
50
0.000
100
AcDbText
0
TEXT
5
b00
100
AcDbEntity
8
0-0
62
6
100
AcDbText
10
507.168
20
1034.090
30
0.0
40
6.825
1
50
41
1.143
50
0.000
100
AcDbText
0
TEXT
5
b01
100
AcDbEntity
8
0-0
62
6
100
AcDbText
10
564.865
20
993.611
30
0.0
40
6.825
1
25
41
1.143
50
0.000
100
AcDbText
0
TEXT
5
b02
100
AcDbEntity
8
0-0
62
6
100
AcDbText
10
537.033
20
1024.611
30
0.0
40
6.825
1
23
41
1.143
50
0.000
100
AcDbText
0
TEXT
5
b03
100
AcDbEntity
8
0-0
62
6
100
AcDbText
10
566.843
20
1009.269
30
0.0
40
6.825
1
3
41
1.143
50
0.000
100
AcDbText
0
TEXT
5
b04
100
AcDbEntity
8
0-0
62
6
100
AcDbText
10
531.033
20
967.611
30
0.0
40
6.825
1
35
41
1.143
50
0.000
100
AcDbText
0
TEXT
5
b05
100
AcDbEntity
8
0-0
62
6
100
AcDbText
10
433.942
20
1009.269
30
0.0
40
6.825
1
3
41
1.143
50
0.000
100
AcDbText
0
TEXT
5
b06
100
AcDbEntity
8
0-0
62
6
100
AcDbText
10
503.783
20
986.611
30
0.0
40
6.825
1
9
41
1.143
50
359.999
100
AcDbText
0
TEXT
5
b07
100
AcDbEntity
8
0-0
62
6
100
AcDbText
10
359.693
20
1077.686
30
0.0
40
6.825
1
Ｌ＝２０００～３０００
41
1.143
50
0.000
100
AcDbText
0
TEXT
5
b08
100
AcDbEntity
8
0-0
62
6
100
AcDbText
10
359.693
20
1087.686
30
0.0
40
6.825
1
ＳＰー２０２（中間水切接続）
41
1.143
50
360.000
100
AcDbText
0
TEXT
5
b09
100
AcDbEntity
8
0-0
62
6
100
AcDbText
10
396.707
20
986.151
30
0.0
40
6.825
1
8
41
1.143
50
359.999
100
AcDbText
0
TEXT
5
b0a
100
AcDbEntity
8
0-0
62
6
100
AcDbText
10
492.595
20
1077.686
30
0.0
40
6.825
1
Ｌ＝２０００～３０００
41
1.143
50
0.000
100
AcDbText
0
TEXT
5
b0b
100
AcDbEntity
8
0-0
62
6
100
AcDbText
10
492.595
20
1087.686
30
0.0
40
6.825
1
ＳＰー２０１（水切）
41
1.143
50
0.000
100
AcDbText
0
TEXT
5
b0c
100
AcDbEntity
8
0-0
62
6
100
AcDbText
10
519.533
20
1002.611
30
0.0
40
6.825
1
8
41
1.143
50
0.000
100
AcDbText
0
TEXT
5
b0d
100
AcDbEntity
8
0-0
62
6
100
AcDbText
10
151.891
20
1038.445
30
0.0
40
6.825
1
14
41
1.143
50
359.999
100
AcDbText
0
TEXT
5
b0e
100
AcDbEntity
8
0-0
62
5
100
AcDbText
10
93.266
20
1114.412
30
0.0
40
9.750
1
スパンドレル役物部材
41
1.100
50
0.000
100
AcDbText
0
TEXT
5
b0f
100
AcDbEntity
8
0-0
62
6
100
AcDbText
10
33.829
20
529.382
30
0.0
40
7.800
1
（鋼板材種、薄板厚により凸凹現象発生の懸念があります）
41
1.125
50
0.000
100
AcDbText
0
TEXT
5
b10
100
AcDbEntity
8
0-0
62
6
100
AcDbText
10
33.829
20
264.195
30
0.0
40
7.800
1
（鋼板材種、薄板厚により凸凹現象発生の懸念があります）
41
1.125
50
0.000
100
AcDbText
0
TEXT
5
b11
100
AcDbEntity
8
0-0
62
6
100
AcDbText
10
60.269
20
693.337
30
0.0
40
7.800
1
（目地ありフラットタイプ）
41
1.125
50
0.000
100
AcDbText
0
TEXT
5
b12
100
AcDbEntity
8
0-0
62
6
100
AcDbText
10
60.269
20
683.337
30
0.0
40
7.800
1
（鋼板材種、薄板厚により凸凹現象発生の懸念があります）
41
1.125
50
0.000
100
AcDbText
0
TEXT
5
b13
100
AcDbEntity
8
0-0
62
6
100
AcDbText
10
60.269
20
673.337
30
0.0
40
7.800
1
（面幅１００以上要確認）
41
1.125
50
0.000
100
AcDbText
0
TEXT
5
b14
100
AcDbEntity
8
0-0
62
6
100
AcDbText
10
465.491
20
690.407
30
0.0
40
7.800
1
（目地なしフラットタイプ）
41
1.125
50
0.000
100
AcDbText
0
TEXT
5
b15
100
AcDbEntity
8
0-0
62
6
100
AcDbText
10
465.491
20
680.407
30
0.0
40
7.800
1
（鋼板材種、薄板厚により凸凹現象発生の懸念があります）
41
1.125
50
0.000
100
AcDbText
0
TEXT
5
b16
100
AcDbEntity
8
0-0
62
6
100
AcDbText
10
465.491
20
670.407
30
0.0
40
7.800
1
（面幅１００以上要確認）
41
1.125
50
0.000
100
AcDbText
0
POINT
5
b17
100
AcDbEntity
8
0-0
62
3
100
AcDbPoint
10
114.580000000000
20
459.780000000000
30
0.0
0
POINT
5
b18
100
AcDbEntity
8
0-0
62
3
100
AcDbPoint
10
114.580000000000
20
459.780000000000
30
0.0
0
POINT
5
b19
100
AcDbEntity
8
0-0
62
3
100
AcDbPoint
10
114.580000000000
20
470.780000000000
30
0.0
0
POINT
5
b1a
100
AcDbEntity
8
0-0
62
3
100
AcDbPoint
10
133.950000000000
20
436.780000000000
30
0.0
0
POINT
5
b1b
100
AcDbEntity
8
0-0
62
3
100
AcDbPoint
10
154.580000000000
20
436.780000000000
30
0.0
0
POINT
5
b1c
100
AcDbEntity
8
0-0
62
3
100
AcDbPoint
10
133.950000000000
20
426.780000000000
30
0.0
0
POINT
5
b1d
100
AcDbEntity
8
0-0
62
3
100
AcDbPoint
10
154.580000000000
20
426.780000000000
30
0.0
0
POINT
5
b1e
100
AcDbEntity
8
0-0
62
3
100
AcDbPoint
10
388.830000000000
20
456.780000000000
30
0.0
0
POINT
5
b1f
100
AcDbEntity
8
0-0
62
3
100
AcDbPoint
10
388.830000000000
20
470.780000000000
30
0.0
0
POINT
5
b20
100
AcDbEntity
8
0-0
62
3
100
AcDbPoint
10
153.950000000000
20
490.780000000000
30
0.0
0
POINT
5
b21
100
AcDbEntity
8
0-0
62
3
100
AcDbPoint
10
353.950000000000
20
490.780000000000
30
0.0
0
POINT
5
b22
100
AcDbEntity
8
0-0
62
3
100
AcDbPoint
10
486.950000000000
20
490.780000000000
30
0.0
0
POINT
5
b23
100
AcDbEntity
8
0-0
62
3
100
AcDbPoint
10
27.380000000000
20
571.820000000000
30
0.0
0
POINT
5
b24
100
AcDbEntity
8
0-0
62
3
100
AcDbPoint
10
27.380000000000
20
1161.450000000000
30
0.0
0
POINT
5
b25
100
AcDbEntity
8
0-0
62
3
100
AcDbPoint
10
653.340000000000
20
875.410000000000
30
0.0
0
POINT
5
b26
100
AcDbEntity
8
0-0
62
3
100
AcDbPoint
10
664.340000000000
20
875.410000000000
30
0.0
0
POINT
5
b27
100
AcDbEntity
8
0-0
62
3
100
AcDbPoint
10
630.340000000000
20
835.910000000000
30
0.0
0
POINT
5
b28
100
AcDbEntity
8
0-0
62
3
100
AcDbPoint
10
630.340000000000
20
842.370000000000
30
0.0
0
POINT
5
b29
100
AcDbEntity
8
0-0
62
3
100
AcDbPoint
10
620.340000000000
20
835.910000000000
30
0.0
0
POINT
5
b2a
100
AcDbEntity
8
0-0
62
3
100
AcDbPoint
10
764.340000000000
20
756.030000000000
30
0.0
0
POINT
5
b2b
100
AcDbEntity
8
0-0
62
3
100
AcDbPoint
10
434.680000000000
20
854.910000000000
30
0.0
0
POINT
5
b2c
100
AcDbEntity
8
0-0
62
3
100
AcDbPoint
10
458.680000000000
20
875.410000000000
30
0.0
0
POINT
5
b2d
100
AcDbEntity
8
0-0
62
3
100
AcDbPoint
10
558.680000000000
20
875.410000000000
30
0.0
0
POINT
5
b2e
100
AcDbEntity
8
0-0
62
3
100
AcDbPoint
10
469.180000000000
20
715.530000000000
30
0.0
0
POINT
5
b2f
100
AcDbEntity
8
0-0
62
3
100
AcDbPoint
10
458.180000000000
20
715.530000000000
30
0.0
0
POINT
5
b30
100
AcDbEntity
8
0-0
62
3
100
AcDbPoint
10
630.340000000000
20
736.030000000000
30
0.0
0
POINT
5
b31
100
AcDbEntity
8
0-0
62
3
100
AcDbPoint
10
664.340000000000
20
756.030000000000
30
0.0
0
POINT
5
b32
100
AcDbEntity
8
0-0
62
3
100
AcDbPoint
10
137.450000000000
20
436.780000000000
30
0.0
0
POINT
5
b33
100
AcDbEntity
8
0-0
62
3
100
AcDbPoint
10
492.180000000000
20
745.030000000000
30
0.0
0
POINT
5
b34
100
AcDbEntity
8
0-0
62
3
100
AcDbPoint
10
492.180000000000
20
755.530000000000
30
0.0
0
POINT
5
b35
100
AcDbEntity
8
0-0
62
3
100
AcDbPoint
10
502.180000000000
20
745.030000000000
30
0.0
0
POINT
5
b36
100
AcDbEntity
8
0-0
62
3
100
AcDbPoint
10
502.180000000000
20
755.530000000000
30
0.0
0
POINT
5
b37
100
AcDbEntity
8
0-0
62
3
100
AcDbPoint
10
492.180000000000
20
748.530000000000
30
0.0
0
POINT
5
b38
100
AcDbEntity
8
0-0
62
3
100
AcDbPoint
10
434.680000000000
20
755.030000000000
30
0.0
0
POINT
5
b39
100
AcDbEntity
8
0-0
62
3
100
AcDbPoint
10
630.340000000000
20
845.910000000000
30
0.0
0
POINT
5
b3a
100
AcDbEntity
8
0-0
62
3
100
AcDbPoint
10
620.340000000000
20
845.910000000000
30
0.0
0
POINT
5
b3b
100
AcDbEntity
8
0-0
62
3
100
AcDbPoint
10
114.580000000000
20
358.750000000000
30
0.0
0
POINT
5
b3c
100
AcDbEntity
8
0-0
62
3
100
AcDbPoint
10
114.580000000000
20
358.750000000000
30
0.0
0
POINT
5
b3d
100
AcDbEntity
8
0-0
62
3
100
AcDbPoint
10
114.580000000000
20
369.750000000000
30
0.0
0
POINT
5
b3e
100
AcDbEntity
8
0-0
62
3
100
AcDbPoint
10
388.830000000000
20
355.750000000000
30
0.0
0
POINT
5
b3f
100
AcDbEntity
8
0-0
62
3
100
AcDbPoint
10
388.830000000000
20
369.750000000000
30
0.0
0
POINT
5
b40
100
AcDbEntity
8
0-0
62
3
100
AcDbPoint
10
153.950000000000
20
389.750000000000
30
0.0
0
POINT
5
b41
100
AcDbEntity
8
0-0
62
3
100
AcDbPoint
10
353.950000000000
20
389.750000000000
30
0.0
0
POINT
5
b42
100
AcDbEntity
8
0-0
62
3
100
AcDbPoint
10
228.830000000000
20
345.750000000000
30
0.0
0
POINT
5
b43
100
AcDbEntity
8
0-0
62
3
100
AcDbPoint
10
278.830000000000
20
345.750000000000
30
0.0
0
POINT
5
b44
100
AcDbEntity
8
0-0
62
3
100
AcDbPoint
10
561.820000000000
20
345.750000000000
30
0.0
0
POINT
5
b45
100
AcDbEntity
8
0-0
62
3
100
AcDbPoint
10
611.820000000000
20
345.750000000000
30
0.0
0
POINT
5
b46
100
AcDbEntity
8
0-0
62
3
100
AcDbPoint
10
114.580000000000
20
194.600000000000
30
0.0
0
POINT
5
b47
100
AcDbEntity
8
0-0
62
3
100
AcDbPoint
10
114.580000000000
20
194.600000000000
30
0.0
0
POINT
5
b48
100
AcDbEntity
8
0-0
62
3
100
AcDbPoint
10
114.580000000000
20
205.600000000000
30
0.0
0
POINT
5
b49
100
AcDbEntity
8
0-0
62
3
100
AcDbPoint
10
144.080000000000
20
171.600000000000
30
0.0
0
POINT
5
b4a
100
AcDbEntity
8
0-0
62
3
100
AcDbPoint
10
154.580000000000
20
171.600000000000
30
0.0
0
POINT
5
b4b
100
AcDbEntity
8
0-0
62
3
100
AcDbPoint
10
144.080000000000
20
161.600000000000
30
0.0
0
POINT
5
b4c
100
AcDbEntity
8
0-0
62
3
100
AcDbPoint
10
154.580000000000
20
161.600000000000
30
0.0
0
POINT
5
b4d
100
AcDbEntity
8
0-0
62
3
100
AcDbPoint
10
388.830000000000
20
191.600000000000
30
0.0
0
POINT
5
b4e
100
AcDbEntity
8
0-0
62
3
100
AcDbPoint
10
388.830000000000
20
205.600000000000
30
0.0
0
POINT
5
b4f
100
AcDbEntity
8
0-0
62
3
100
AcDbPoint
10
153.950000000000
20
225.600000000000
30
0.0
0
POINT
5
b50
100
AcDbEntity
8
0-0
62
3
100
AcDbPoint
10
353.950000000000
20
225.600000000000
30
0.0
0
POINT
5
b51
100
AcDbEntity
8
0-0
62
3
100
AcDbPoint
10
486.950000000000
20
225.600000000000
30
0.0
0
POINT
5
b52
100
AcDbEntity
8
0-0
62
3
100
AcDbPoint
10
686.950000000000
20
225.600000000000
30
0.0
0
POINT
5
b53
100
AcDbEntity
8
0-0
62
3
100
AcDbPoint
10
147.580000000000
20
171.600000000000
30
0.0
0
POINT
5
b54
100
AcDbEntity
8
0-0
62
3
100
AcDbPoint
10
114.580000000000
20
93.560000000000
30
0.0
0
POINT
5
b55
100
AcDbEntity
8
0-0
62
3
100
AcDbPoint
10
114.580000000000
20
93.560000000000
30
0.0
0
POINT
5
b56
100
AcDbEntity
8
0-0
62
3
100
AcDbPoint
10
114.580000000000
20
104.560000000000
30
0.0
0
POINT
5
b57
100
AcDbEntity
8
0-0
62
3
100
AcDbPoint
10
144.080000000000
20
70.560000000000
30
0.0
0
POINT
5
b58
100
AcDbEntity
8
0-0
62
3
100
AcDbPoint
10
154.580000000000
20
70.560000000000
30
0.0
0
POINT
5
b59
100
AcDbEntity
8
0-0
62
3
100
AcDbPoint
10
144.080000000000
20
60.560000000000
30
0.0
0
POINT
5
b5a
100
AcDbEntity
8
0-0
62
3
100
AcDbPoint
10
154.580000000000
20
60.560000000000
30
0.0
0
POINT
5
b5b
100
AcDbEntity
8
0-0
62
3
100
AcDbPoint
10
388.830000000000
20
90.560000000000
30
0.0
0
POINT
5
b5c
100
AcDbEntity
8
0-0
62
3
100
AcDbPoint
10
388.830000000000
20
104.560000000000
30
0.0
0
POINT
5
b5d
100
AcDbEntity
8
0-0
62
3
100
AcDbPoint
10
153.950000000000
20
124.560000000000
30
0.0
0
POINT
5
b5e
100
AcDbEntity
8
0-0
62
3
100
AcDbPoint
10
353.950000000000
20
124.560000000000
30
0.0
0
POINT
5
b5f
100
AcDbEntity
8
0-0
62
3
100
AcDbPoint
10
486.950000000000
20
124.560000000000
30
0.0
0
POINT
5
b60
100
AcDbEntity
8
0-0
62
3
100
AcDbPoint
10
686.950000000000
20
124.560000000000
30
0.0
0
POINT
5
b61
100
AcDbEntity
8
0-0
62
3
100
AcDbPoint
10
147.580000000000
20
70.560000000000
30
0.0
0
POINT
5
b62
100
AcDbEntity
8
0-0
62
3
100
AcDbPoint
10
228.830000000000
20
80.560000000000
30
0.0
0
POINT
5
b63
100
AcDbEntity
8
0-0
62
3
100
AcDbPoint
10
278.830000000000
20
80.560000000000
30
0.0
0
POINT
5
b64
100
AcDbEntity
8
0-0
62
3
100
AcDbPoint
10
561.820000000000
20
80.560000000000
30
0.0
0
POINT
5
b65
100
AcDbEntity
8
0-0
62
3
100
AcDbPoint
10
611.820000000000
20
80.560000000000
30
0.0
0
POINT
5
b66
100
AcDbEntity
8
0-0
62
3
100
AcDbPoint
10
133.950000000000
20
335.750000000000
30
0.0
0
POINT
5
b67
100
AcDbEntity
8
0-0
62
3
100
AcDbPoint
10
154.580000000000
20
335.750000000000
30
0.0
0
POINT
5
b68
100
AcDbEntity
8
0-0
62
3
100
AcDbPoint
10
133.950000000000
20
325.750000000000
30
0.0
0
POINT
5
b69
100
AcDbEntity
8
0-0
62
3
100
AcDbPoint
10
154.580000000000
20
325.750000000000
30
0.0
0
POINT
5
b6a
100
AcDbEntity
8
0-0
62
3
100
AcDbPoint
10
137.450000000000
20
335.750000000000
30
0.0
0
POINT
5
b6b
100
AcDbEntity
8
0-0
62
3
100
AcDbPoint
10
486.950000000000
20
500.780000000000
30
0.0
0
POINT
5
b6c
100
AcDbEntity
8
0-0
62
3
100
AcDbPoint
10
486.950000000000
20
389.750000000000
30
0.0
0
POINT
5
b6d
100
AcDbEntity
8
0-0
62
3
100
AcDbPoint
10
486.950000000000
20
399.750000000000
30
0.0
0
POINT
5
b6e
100
AcDbEntity
8
0-0
62
3
100
AcDbPoint
10
686.950000000000
20
389.750000000000
30
0.0
0
POINT
5
b6f
100
AcDbEntity
8
0-0
62
3
100
AcDbPoint
10
259.120000000000
20
875.410000000000
30
0.0
0
POINT
5
b70
100
AcDbEntity
8
0-0
62
3
100
AcDbPoint
10
270.120000000000
20
875.410000000000
30
0.0
0
POINT
5
b71
100
AcDbEntity
8
0-0
62
3
100
AcDbPoint
10
236.120000000000
20
835.910000000000
30
0.0
0
POINT
5
b72
100
AcDbEntity
8
0-0
62
3
100
AcDbPoint
10
236.120000000000
20
852.370000000000
30
0.0
0
POINT
5
b73
100
AcDbEntity
8
0-0
62
3
100
AcDbPoint
10
226.120000000000
20
835.910000000000
30
0.0
0
POINT
5
b74
100
AcDbEntity
8
0-0
62
3
100
AcDbPoint
10
370.120000000000
20
756.030000000000
30
0.0
0
POINT
5
b75
100
AcDbEntity
8
0-0
62
3
100
AcDbPoint
10
40.460000000000
20
854.910000000000
30
0.0
0
POINT
5
b76
100
AcDbEntity
8
0-0
62
3
100
AcDbPoint
10
64.460000000000
20
875.410000000000
30
0.0
0
POINT
5
b77
100
AcDbEntity
8
0-0
62
3
100
AcDbPoint
10
164.460000000000
20
875.410000000000
30
0.0
0
POINT
5
b78
100
AcDbEntity
8
0-0
62
3
100
AcDbPoint
10
74.960000000000
20
715.530000000000
30
0.0
0
POINT
5
b79
100
AcDbEntity
8
0-0
62
3
100
AcDbPoint
10
63.960000000000
20
715.530000000000
30
0.0
0
POINT
5
b7a
100
AcDbEntity
8
0-0
62
3
100
AcDbPoint
10
236.120000000000
20
736.030000000000
30
0.0
0
POINT
5
b7b
100
AcDbEntity
8
0-0
62
3
100
AcDbPoint
10
270.120000000000
20
756.030000000000
30
0.0
0
POINT
5
b7c
100
AcDbEntity
8
0-0
62
3
100
AcDbPoint
10
97.960000000000
20
735.030000000000
30
0.0
0
POINT
5
b7d
100
AcDbEntity
8
0-0
62
3
100
AcDbPoint
10
97.960000000000
20
755.530000000000
30
0.0
0
POINT
5
b7e
100
AcDbEntity
8
0-0
62
3
100
AcDbPoint
10
107.960000000000
20
735.030000000000
30
0.0
0
POINT
5
b7f
100
AcDbEntity
8
0-0
62
3
100
AcDbPoint
10
107.960000000000
20
755.530000000000
30
0.0
0
POINT
5
b80
100
AcDbEntity
8
0-0
62
3
100
AcDbPoint
10
97.960000000000
20
738.530000000000
30
0.0
0
POINT
5
b81
100
AcDbEntity
8
0-0
62
3
100
AcDbPoint
10
40.460000000000
20
755.030000000000
30
0.0
0
POINT
5
b82
100
AcDbEntity
8
0-0
62
3
100
AcDbPoint
10
236.120000000000
20
855.910000000000
30
0.0
0
POINT
5
b83
100
AcDbEntity
8
0-0
62
3
100
AcDbPoint
10
226.120000000000
20
855.910000000000
30
0.0
0
POINT
5
b84
100
AcDbEntity
8
0-0
62
3
100
AcDbPoint
10
388.830000000000
20
456.780000000000
30
0.0
0
POINT
5
b85
100
AcDbEntity
8
0-0
62
3
100
AcDbPoint
10
388.830000000000
20
470.780000000000
30
0.0
0
POINT
5
b86
100
AcDbEntity
8
0-0
62
3
100
AcDbPoint
10
343.830000000000
20
436.780000000000
30
0.0
0
POINT
5
b87
100
AcDbEntity
8
0-0
62
3
100
AcDbPoint
10
353.830000000000
20
436.780000000000
30
0.0
0
POINT
5
b88
100
AcDbEntity
8
0-0
62
3
100
AcDbPoint
10
358.830000000000
20
436.780000000000
30
0.0
0
POINT
5
b89
100
AcDbEntity
8
0-0
62
3
100
AcDbPoint
10
343.830000000000
20
426.780000000000
30
0.0
0
POINT
5
b8a
100
AcDbEntity
8
0-0
62
3
100
AcDbPoint
10
333.830000000000
20
456.780000000000
30
0.0
0
POINT
5
b8b
100
AcDbEntity
8
0-0
62
3
100
AcDbPoint
10
333.830000000000
20
460.780000000000
30
0.0
0
POINT
5
b8c
100
AcDbEntity
8
0-0
62
3
100
AcDbPoint
10
371.830000000000
20
436.780000000000
30
0.0
0
POINT
5
b8d
100
AcDbEntity
8
0-0
62
3
100
AcDbPoint
10
371.830000000000
20
426.780000000000
30
0.0
0
POINT
5
b8e
100
AcDbEntity
8
0-0
62
3
100
AcDbPoint
10
343.830000000000
20
335.750000000000
30
0.0
0
POINT
5
b8f
100
AcDbEntity
8
0-0
62
3
100
AcDbPoint
10
353.830000000000
20
335.750000000000
30
0.0
0
POINT
5
b90
100
AcDbEntity
8
0-0
62
3
100
AcDbPoint
10
358.830000000000
20
335.750000000000
30
0.0
0
POINT
5
b91
100
AcDbEntity
8
0-0
62
3
100
AcDbPoint
10
343.830000000000
20
325.750000000000
30
0.0
0
POINT
5
b92
100
AcDbEntity
8
0-0
62
3
100
AcDbPoint
10
333.830000000000
20
355.750000000000
30
0.0
0
POINT
5
b93
100
AcDbEntity
8
0-0
62
3
100
AcDbPoint
10
333.830000000000
20
359.750000000000
30
0.0
0
POINT
5
b94
100
AcDbEntity
8
0-0
62
3
100
AcDbPoint
10
371.830000000000
20
335.750000000000
30
0.0
0
POINT
5
b95
100
AcDbEntity
8
0-0
62
3
100
AcDbPoint
10
371.830000000000
20
325.750000000000
30
0.0
0
POINT
5
b96
100
AcDbEntity
8
0-0
62
3
100
AcDbPoint
10
343.830000000000
20
171.600000000000
30
0.0
0
POINT
5
b97
100
AcDbEntity
8
0-0
62
3
100
AcDbPoint
10
353.830000000000
20
171.600000000000
30
0.0
0
POINT
5
b98
100
AcDbEntity
8
0-0
62
3
100
AcDbPoint
10
358.830000000000
20
171.600000000000
30
0.0
0
POINT
5
b99
100
AcDbEntity
8
0-0
62
3
100
AcDbPoint
10
343.830000000000
20
161.600000000000
30
0.0
0
POINT
5
b9a
100
AcDbEntity
8
0-0
62
3
100
AcDbPoint
10
333.830000000000
20
191.600000000000
30
0.0
0
POINT
5
b9b
100
AcDbEntity
8
0-0
62
3
100
AcDbPoint
10
333.830000000000
20
195.600000000000
30
0.0
0
POINT
5
b9c
100
AcDbEntity
8
0-0
62
3
100
AcDbPoint
10
371.830000000000
20
171.600000000000
30
0.0
0
POINT
5
b9d
100
AcDbEntity
8
0-0
62
3
100
AcDbPoint
10
371.830000000000
20
161.600000000000
30
0.0
0
POINT
5
b9e
100
AcDbEntity
8
0-0
62
3
100
AcDbPoint
10
343.830000000000
20
70.560000000000
30
0.0
0
POINT
5
b9f
100
AcDbEntity
8
0-0
62
3
100
AcDbPoint
10
353.830000000000
20
70.560000000000
30
0.0
0
POINT
5
ba0
100
AcDbEntity
8
0-0
62
3
100
AcDbPoint
10
358.830000000000
20
70.560000000000
30
0.0
0
POINT
5
ba1
100
AcDbEntity
8
0-0
62
3
100
AcDbPoint
10
343.830000000000
20
60.560000000000
30
0.0
0
POINT
5
ba2
100
AcDbEntity
8
0-0
62
3
100
AcDbPoint
10
333.830000000000
20
90.560000000000
30
0.0
0
POINT
5
ba3
100
AcDbEntity
8
0-0
62
3
100
AcDbPoint
10
333.830000000000
20
94.560000000000
30
0.0
0
POINT
5
ba4
100
AcDbEntity
8
0-0
62
3
100
AcDbPoint
10
371.830000000000
20
70.560000000000
30
0.0
0
POINT
5
ba5
100
AcDbEntity
8
0-0
62
3
100
AcDbPoint
10
371.830000000000
20
60.560000000000
30
0.0
0
POINT
5
ba6
100
AcDbEntity
8
0-0
62
3
100
AcDbPoint
10
475.950000000000
20
490.780000000000
30
0.0
0
POINT
5
ba7
100
AcDbEntity
8
0-0
62
3
100
AcDbPoint
10
475.950000000000
20
389.750000000000
30
0.0
0
POINT
5
ba8
100
AcDbEntity
8
0-0
62
3
100
AcDbPoint
10
686.950000000000
20
490.780000000000
30
0.0
0
POINT
5
ba9
100
AcDbEntity
8
0-0
62
3
100
AcDbPoint
10
697.950000000000
20
490.780000000000
30
0.0
0
POINT
5
baa
100
AcDbEntity
8
0-0
62
3
100
AcDbPoint
10
697.950000000000
20
500.780000000000
30
0.0
0
POINT
5
bab
100
AcDbEntity
8
0-0
62
3
100
AcDbPoint
10
697.950000000000
20
389.750000000000
30
0.0
0
POINT
5
bac
100
AcDbEntity
8
0-0
62
3
100
AcDbPoint
10
697.950000000000
20
399.750000000000
30
0.0
0
POINT
5
bad
100
AcDbEntity
8
0-0
62
3
100
AcDbPoint
10
154.330000000000
20
821.410000000000
30
0.0
0
POINT
5
bae
100
AcDbEntity
8
0-0
62
3
100
AcDbPoint
10
164.330000000000
20
821.410000000000
30
0.0
0
POINT
5
baf
100
AcDbEntity
8
0-0
62
3
100
AcDbPoint
10
169.330000000000
20
821.410000000000
30
0.0
0
POINT
5
bb0
100
AcDbEntity
8
0-0
62
3
100
AcDbPoint
10
154.330000000000
20
811.410000000000
30
0.0
0
POINT
5
bb1
100
AcDbEntity
8
0-0
62
3
100
AcDbPoint
10
144.330000000000
20
841.410000000000
30
0.0
0
POINT
5
bb2
100
AcDbEntity
8
0-0
62
3
100
AcDbPoint
10
144.330000000000
20
845.410000000000
30
0.0
0
POINT
5
bb3
100
AcDbEntity
8
0-0
62
3
100
AcDbPoint
10
182.330000000000
20
821.410000000000
30
0.0
0
POINT
5
bb4
100
AcDbEntity
8
0-0
62
3
100
AcDbPoint
10
182.330000000000
20
811.410000000000
30
0.0
0
POINT
5
bb5
100
AcDbEntity
8
0-0
62
3
100
AcDbPoint
10
197.330000000000
20
841.410000000000
30
0.0
0
POINT
5
bb6
100
AcDbEntity
8
0-0
62
3
100
AcDbPoint
10
197.330000000000
20
855.410000000000
30
0.0
0
POINT
5
bb7
100
AcDbEntity
8
0-0
62
3
100
AcDbPoint
10
360.000000000000
20
702.030000000000
30
0.0
0
POINT
5
bb8
100
AcDbEntity
8
0-0
62
3
100
AcDbPoint
10
370.000000000000
20
702.030000000000
30
0.0
0
POINT
5
bb9
100
AcDbEntity
8
0-0
62
3
100
AcDbPoint
10
375.000000000000
20
702.030000000000
30
0.0
0
POINT
5
bba
100
AcDbEntity
8
0-0
62
3
100
AcDbPoint
10
360.000000000000
20
692.030000000000
30
0.0
0
POINT
5
bbb
100
AcDbEntity
8
0-0
62
3
100
AcDbPoint
10
350.000000000000
20
722.030000000000
30
0.0
0
POINT
5
bbc
100
AcDbEntity
8
0-0
62
3
100
AcDbPoint
10
350.000000000000
20
726.030000000000
30
0.0
0
POINT
5
bbd
100
AcDbEntity
8
0-0
62
3
100
AcDbPoint
10
388.000000000000
20
702.030000000000
30
0.0
0
POINT
5
bbe
100
AcDbEntity
8
0-0
62
3
100
AcDbPoint
10
388.000000000000
20
692.030000000000
30
0.0
0
POINT
5
bbf
100
AcDbEntity
8
0-0
62
3
100
AcDbPoint
10
403.000000000000
20
722.030000000000
30
0.0
0
POINT
5
bc0
100
AcDbEntity
8
0-0
62
3
100
AcDbPoint
10
403.000000000000
20
736.030000000000
30
0.0
0
POINT
5
bc1
100
AcDbEntity
8
0-0
62
3
100
AcDbPoint
10
548.550000000000
20
821.410000000000
30
0.0
0
POINT
5
bc2
100
AcDbEntity
8
0-0
62
3
100
AcDbPoint
10
558.560000000000
20
821.410000000000
30
0.0
0
POINT
5
bc3
100
AcDbEntity
8
0-0
62
3
100
AcDbPoint
10
563.550000000000
20
821.410000000000
30
0.0
0
POINT
5
bc4
100
AcDbEntity
8
0-0
62
3
100
AcDbPoint
10
548.550000000000
20
811.410000000000
30
0.0
0
POINT
5
bc5
100
AcDbEntity
8
0-0
62
3
100
AcDbPoint
10
538.550000000000
20
841.410000000000
30
0.0
0
POINT
5
bc6
100
AcDbEntity
8
0-0
62
3
100
AcDbPoint
10
538.550000000000
20
845.410000000000
30
0.0
0
POINT
5
bc7
100
AcDbEntity
8
0-0
62
3
100
AcDbPoint
10
576.560000000000
20
821.410000000000
30
0.0
0
POINT
5
bc8
100
AcDbEntity
8
0-0
62
3
100
AcDbPoint
10
576.560000000000
20
811.410000000000
30
0.0
0
POINT
5
bc9
100
AcDbEntity
8
0-0
62
3
100
AcDbPoint
10
591.560000000000
20
841.410000000000
30
0.0
0
POINT
5
bca
100
AcDbEntity
8
0-0
62
3
100
AcDbPoint
10
591.560000000000
20
855.410000000000
30
0.0
0
POINT
5
bcb
100
AcDbEntity
8
0-0
62
3
100
AcDbPoint
10
754.220000000000
20
702.030000000000
30
0.0
0
POINT
5
bcc
100
AcDbEntity
8
0-0
62
3
100
AcDbPoint
10
764.220000000000
20
702.030000000000
30
0.0
0
POINT
5
bcd
100
AcDbEntity
8
0-0
62
3
100
AcDbPoint
10
769.220000000000
20
702.030000000000
30
0.0
0
POINT
5
bce
100
AcDbEntity
8
0-0
62
3
100
AcDbPoint
10
754.220000000000
20
692.030000000000
30
0.0
0
POINT
5
bcf
100
AcDbEntity
8
0-0
62
3
100
AcDbPoint
10
744.220000000000
20
722.030000000000
30
0.0
0
POINT
5
bd0
100
AcDbEntity
8
0-0
62
3
100
AcDbPoint
10
744.220000000000
20
726.030000000000
30
0.0
0
POINT
5
bd1
100
AcDbEntity
8
0-0
62
3
100
AcDbPoint
10
782.220000000000
20
702.030000000000
30
0.0
0
POINT
5
bd2
100
AcDbEntity
8
0-0
62
3
100
AcDbPoint
10
782.220000000000
20
692.030000000000
30
0.0
0
POINT
5
bd3
100
AcDbEntity
8
0-0
62
3
100
AcDbPoint
10
797.220000000000
20
722.030000000000
30
0.0
0
POINT
5
bd4
100
AcDbEntity
8
0-0
62
3
100
AcDbPoint
10
797.220000000000
20
736.030000000000
30
0.0
0
POINT
5
bd5
100
AcDbEntity
8
0-0
62
3
100
AcDbPoint
10
120.080000000000
20
1058.110000000000
30
0.0
0
POINT
5
bd6
100
AcDbEntity
8
0-0
62
3
100
AcDbPoint
10
120.080000000000
20
1058.110000000000
30
0.0
0
POINT
5
bd7
100
AcDbEntity
8
0-0
62
3
100
AcDbPoint
10
170.080000000000
20
1058.110000000000
30
0.0
0
POINT
5
bd8
100
AcDbEntity
8
0-0
62
3
100
AcDbPoint
10
132.080000000000
20
1015.110000000000
30
0.0
0
POINT
5
bd9
100
AcDbEntity
8
0-0
62
3
100
AcDbPoint
10
140.080000000000
20
1015.110000000000
30
0.0
0
POINT
5
bda
100
AcDbEntity
8
0-0
62
3
100
AcDbPoint
10
110.080000000000
20
1048.110000000000
30
0.0
0
POINT
5
bdb
100
AcDbEntity
8
0-0
62
3
100
AcDbPoint
10
110.080000000000
20
1025.110000000000
30
0.0
0
POINT
5
bdc
100
AcDbEntity
8
0-0
62
3
100
AcDbPoint
10
150.080000000000
20
1034.110000000000
30
0.0
0
POINT
5
bdd
100
AcDbEntity
8
0-0
62
3
100
AcDbPoint
10
150.080000000000
20
1025.110000000000
30
0.0
0
POINT
5
bde
100
AcDbEntity
8
0-0
62
3
100
AcDbPoint
10
120.080000000000
20
1000.110000000000
30
0.0
0
POINT
5
bdf
100
AcDbEntity
8
0-0
62
3
100
AcDbPoint
10
140.080000000000
20
1000.110000000000
30
0.0
0
POINT
5
be0
100
AcDbEntity
8
0-0
62
3
100
AcDbPoint
10
671.600000000000
20
1043.110000000000
30
0.0
0
POINT
5
be1
100
AcDbEntity
8
0-0
62
3
100
AcDbPoint
10
713.600000000000
20
1043.110000000000
30
0.0
0
POINT
5
be2
100
AcDbEntity
8
0-0
62
3
100
AcDbPoint
10
722.350000000000
20
1030.150000000000
30
0.0
0
POINT
5
be3
100
AcDbEntity
8
0-0
62
3
100
AcDbPoint
10
722.350000000000
20
1013.150000000000
30
0.0
0
POINT
5
be4
100
AcDbEntity
8
0-0
62
3
100
AcDbPoint
10
674.100000000000
20
1000.110000000000
30
0.0
0
POINT
5
be5
100
AcDbEntity
8
0-0
62
3
100
AcDbPoint
10
698.100000000000
20
1000.110000000000
30
0.0
0
POINT
5
be6
100
AcDbEntity
8
0-0
62
3
100
AcDbPoint
10
698.100000000000
20
985.110000000000
30
0.0
0
POINT
5
be7
100
AcDbEntity
8
0-0
62
3
100
AcDbPoint
10
674.100000000000
20
985.110000000000
30
0.0
0
POINT
5
be8
100
AcDbEntity
8
0-0
62
3
100
AcDbPoint
10
682.100000000000
20
1000.110000000000
30
0.0
0
POINT
5
be9
100
AcDbEntity
8
0-0
62
3
100
AcDbPoint
10
686.100000000000
20
1000.110000000000
30
0.0
0
POINT
5
bea
100
AcDbEntity
8
0-0
62
3
100
AcDbPoint
10
659.600000000000
20
1043.110000000000
30
0.0
0
POINT
5
beb
100
AcDbEntity
8
0-0
62
3
100
AcDbPoint
10
686.100000000000
20
1043.110000000000
30
0.0
0
POINT
5
bec
100
AcDbEntity
8
0-0
62
3
100
AcDbPoint
10
659.600000000000
20
1058.110000000000
30
0.0
0
POINT
5
bed
100
AcDbEntity
8
0-0
62
3
100
AcDbPoint
10
713.600000000000
20
1058.110000000000
30
0.0
0
POINT
5
bee
100
AcDbEntity
8
0-0
62
3
100
AcDbPoint
10
736.350000000000
20
1033.110000000000
30
0.0
0
POINT
5
bef
100
AcDbEntity
8
0-0
62
3
100
AcDbPoint
10
736.350000000000
20
1011.110000000000
30
0.0
0
POINT
5
bf0
100
AcDbEntity
8
0-0
62
3
100
AcDbPoint
10
242.980000000000
20
1058.110000000000
30
0.0
0
POINT
5
bf1
100
AcDbEntity
8
0-0
62
3
100
AcDbPoint
10
302.980000000000
20
1058.110000000000
30
0.0
0
POINT
5
bf2
100
AcDbEntity
8
0-0
62
3
100
AcDbPoint
10
311.730000000000
20
1046.610000000000
30
0.0
0
POINT
5
bf3
100
AcDbEntity
8
0-0
62
3
100
AcDbPoint
10
311.730000000000
20
1032.610000000000
30
0.0
0
POINT
5
bf4
100
AcDbEntity
8
0-0
62
3
100
AcDbPoint
10
258.980000000000
20
1021.110000000000
30
0.0
0
POINT
5
bf5
100
AcDbEntity
8
0-0
62
3
100
AcDbPoint
10
288.980000000000
20
1021.110000000000
30
0.0
0
POINT
5
bf6
100
AcDbEntity
8
0-0
62
3
100
AcDbPoint
10
288.980000000000
20
1006.110000000000
30
0.0
0
POINT
5
bf7
100
AcDbEntity
8
0-0
62
3
100
AcDbPoint
10
258.980000000000
20
1006.110000000000
30
0.0
0
POINT
5
bf8
100
AcDbEntity
8
0-0
62
3
100
AcDbPoint
10
266.980000000000
20
1021.110000000000
30
0.0
0
POINT
5
bf9
100
AcDbEntity
8
0-0
62
3
100
AcDbPoint
10
272.980000000000
20
1021.110000000000
30
0.0
0
POINT
5
bfa
100
AcDbEntity
8
0-0
62
3
100
AcDbPoint
10
385.880000000000
20
1013.110000000000
30
0.0
0
POINT
5
bfb
100
AcDbEntity
8
0-0
62
3
100
AcDbPoint
10
385.880000000000
20
1063.110000000000
30
0.0
0
POINT
5
bfc
100
AcDbEntity
8
0-0
62
3
100
AcDbPoint
10
402.880000000000
20
993.610000000000
30
0.0
0
POINT
5
bfd
100
AcDbEntity
8
0-0
62
3
100
AcDbPoint
10
402.880000000000
20
985.610000000000
30
0.0
0
POINT
5
bfe
100
AcDbEntity
8
0-0
62
3
100
AcDbPoint
10
429.380000000000
20
1010.610000000000
30
0.0
0
POINT
5
bff
100
AcDbEntity
8
0-0
62
3
100
AcDbPoint
10
429.380000000000
20
985.610000000000
30
0.0
0
POINT
5
c00
100
AcDbEntity
8
0-0
62
3
100
AcDbPoint
10
396.380000000000
20
1023.610000000000
30
0.0
0
POINT
5
c01
100
AcDbEntity
8
0-0
62
3
100
AcDbPoint
10
419.380000000000
20
1023.610000000000
30
0.0
0
POINT
5
c02
100
AcDbEntity
8
0-0
62
3
100
AcDbPoint
10
410.380000000000
20
975.610000000000
30
0.0
0
POINT
5
c03
100
AcDbEntity
8
0-0
62
3
100
AcDbPoint
10
419.380000000000
20
975.610000000000
30
0.0
0
POINT
5
c04
100
AcDbEntity
8
0-0
62
3
100
AcDbPoint
10
518.780000000000
20
1013.110000000000
30
0.0
0
POINT
5
c05
100
AcDbEntity
8
0-0
62
3
100
AcDbPoint
10
518.780000000000
20
1063.110000000000
30
0.0
0
POINT
5
c06
100
AcDbEntity
8
0-0
62
3
100
AcDbPoint
10
509.780000000000
20
994.610000000000
30
0.0
0
POINT
5
c07
100
AcDbEntity
8
0-0
62
3
100
AcDbPoint
10
509.780000000000
20
985.610000000000
30
0.0
0
POINT
5
c08
100
AcDbEntity
8
0-0
62
3
100
AcDbPoint
10
562.280000000000
20
1010.610000000000
30
0.0
0
POINT
5
c09
100
AcDbEntity
8
0-0
62
3
100
AcDbPoint
10
562.280000000000
20
985.610000000000
30
0.0
0
POINT
5
c0a
100
AcDbEntity
8
0-0
62
3
100
AcDbPoint
10
529.280000000000
20
1023.610000000000
30
0.0
0
POINT
5
c0b
100
AcDbEntity
8
0-0
62
3
100
AcDbPoint
10
552.280000000000
20
1023.610000000000
30
0.0
0
POINT
5
c0c
100
AcDbEntity
8
0-0
62
3
100
AcDbPoint
10
517.280000000000
20
975.610000000000
30
0.0
0
POINT
5
c0d
100
AcDbEntity
8
0-0
62
3
100
AcDbPoint
10
552.280000000000
20
975.610000000000
30
0.0
0
POINT
5
c0e
100
AcDbEntity
8
0-0
62
3
100
AcDbPoint
10
562.280000000000
20
1013.610000000000
30
0.0
0
POINT
5
c0f
100
AcDbEntity
8
0-0
62
3
100
AcDbPoint
10
429.380000000000
20
1013.610000000000
30
0.0
0
POINT
5
c10
100
AcDbEntity
8
0-0
62
3
100
AcDbPoint
10
525.280000000000
20
1002.110000000000
30
0.0
0
POINT
5
c11
100
AcDbEntity
8
0-0
62
3
100
AcDbPoint
10
517.280000000000
20
1002.110000000000
30
0.0
0
POINT
5
c12
100
AcDbEntity
8
0-0
62
3
100
AcDbPoint
10
150.080000000000
20
1048.110000000000
30
0.0
0
POINT
5
c13
100
AcDbEntity
8
0-0
62
3
100
AcDbPoint
10
150.080000000000
20
1034.110000000000
30
0.0
0
ENDSEC
0
EOF
