0
SECTION
2
HEADER
9
$ACADVER
1
AC1015
9
$ACADMAINTVER
 70
6
9
$DWGCODEPAGE
3
ANSI_932
9
$EXTMIN
10
0.000
20
0.000
30
0.0
9
$EXTMAX
10
1682.000
20
1188.000
30
0.0
9
$LIMMIN
10
0.000
20
0.000
9
$LIMMAX
10
1682.000
20
1188.000
9
$DIMSCALE
40
2.000000
9
$LTSCALE
40
2.000
9
$PDMODE
70
0
9
$PDSIZE
40
40.0
9
$HANDSEED
5
61f4a
9
$UNITMODE
70
0
9
$VISRETAIN
70
0
9
$PLINEGEN
70
0
9
$PSLTSCALE
70
1
9
$TREEDEPTH
70
3020
9
$CMLSTYLE
2
STANDARD
9
$CMLJUST
70
0
9
$CMLSCALE
40
1.0
9
$PROXYGRAPHICS
70
1
9
$MEASUREMENT
70
0
9
$CELWEIGHT
370
-1
9
$ENDCAPS
280
0
9
$JOINSTYLE
280
0
9
$LWDISPLAY
290
0
9
$INSUNITS
70
0
9
$HYPERLINKBASE
1

9
$STYLESHEET
1

9
$XEDIT
290
1
9
$CEPSNTYPE
380
0
9
$PSTYLEMODE
290
1
9
$FINGERPRINTGUID
2
{5F082321-0195-11D3-BDFB-0060B0CD5109}
9
$VERSIONGUID
2
{12943756-294D-11D3-98C2-0060B087942D}
9
$EXTNAMES
290
1
9
$PSVPSCALE
40
0.0
9
$OLESTARTUP
290
0
0
ENDSEC
0
SECTION
  2
CLASSES
0
ENDSEC
0
SECTION
2
TABLES
0
TABLE
2
VPORT
5
190
100
AcDbSymbolTable
70
2
0
VPORT
5
191
100
AcDbSymbolTableRecord
100
AcDbViewportTableRecord
2
*ACTIVE
70
0
10
0.0
20
0.0
11
1.0
21
1.0
12
841.000
22
594.000
13
0.0
23
0.0
14
1.0
24
1.0
15
0.0
25
0.0
16
0.0
26
0.0
36
1.0
17
0.0
27
0.0
37
0.0
40
1218.841
41
2.0
42
50.0
43
0.0
44
0.0
50
0.0
51
0.0
71
0
72
1000
73
1
74
1
75
0
76
0
77
0
78
0
0
ENDTAB
0
TABLE
2
LTYPE
5
1f4
100
AcDbSymbolTable
70
9
0
LTYPE
5
1f5
100
AcDbSymbolTableRecord
100
AcDbLinetypeTableRecord
2
BYBLOCK
70
 64
3

72
 65
73
  0
40
0.0
0
LTYPE
5
1f6
100
AcDbSymbolTableRecord
100
AcDbLinetypeTableRecord
2
BYLAYER
70
 64
3

72
 65
73
  0
40
0.0
0
LTYPE
5
1f7
100
AcDbSymbolTableRecord
100
AcDbLinetypeTableRecord
2
CONTINUOUS
70
64
3
SolidLine
72
65
73
0
40
0.0
0
LTYPE
5
1f8
100
AcDbSymbolTableRecord
100
AcDbLinetypeTableRecord
2
DOT
70
64
3
--  --  --  --  --  --  --  --     
72
65
73
2
40
3.000
49
1.000
74
0
49
-2.000
74
0
0
LTYPE
5
1f9
100
AcDbSymbolTableRecord
100
AcDbLinetypeTableRecord
2
DASHED
70
64
3
----    ----    ----    ----    
72
65
73
2
40
5.000
49
2.000
74
0
49
-3.000
74
0
0
LTYPE
5
1fa
100
AcDbSymbolTableRecord
100
AcDbLinetypeTableRecord
2
DASHED2
70
64
3
------  ------  ------  ------ 
72
65
73
2
40
10.000
49
4.000
74
0
49
-6.000
74
0
0
LTYPE
5
1fb
100
AcDbSymbolTableRecord
100
AcDbLinetypeTableRecord
2
CENTER
70
64
3
----- - ----- - ----- - ----- - 
72
65
73
4
40
10.000
49
6.000
74
0
49
-3.000
74
0
49
1.000
74
0
49
-3.000
74
0
0
LTYPE
5
1fc
100
AcDbSymbolTableRecord
100
AcDbLinetypeTableRecord
2
CENTER2
70
64
3
----------  --  ----------  -- 
72
65
73
4
40
17.000
49
12.000
74
0
49
-5.000
74
0
49
2.000
74
0
49
-5.000
74
0
0
LTYPE
5
1fd
100
AcDbSymbolTableRecord
100
AcDbLinetypeTableRecord
2
PHANTOM
70
64
3
--- - - --- - - --- - - --- - -
72
65
73
6
40
13.000
49
5.000
74
0
49
-3.000
74
0
49
1.000
74
0
49
-3.000
74
0
49
1.000
74
0
49
-3.000
74
0
0
LTYPE
5
1fe
100
AcDbSymbolTableRecord
100
AcDbLinetypeTableRecord
2
PHANTOM2
70
64
3
--------  -  -  --------  -  -
72
65
73
6
40
20.000
49
6.000
74
0
49
-5.000
74
0
49
2.000
74
0
49
-5.000
74
0
49
2.000
74
0
49
-5.000
74
0
0
LTYPE
5
1ff
100
AcDbSymbolTableRecord
100
AcDbLinetypeTableRecord
2
HIDDEN
70
64
3
-   -   -   -   -   -   -   -   
72
65
73
2
40
3.000
49
0.500
74
0
49
-2.500
74
0
0
ENDTAB
0
TABLE
2
STYLE
5
200
100
AcDbSymbolTable
70
1
0
STYLE
5
201
100
AcDbSymbolTableRecord
100
AcDbTextStyleTableRecord
2
STANDARD
70
0
40
0.0
41
1.0
50
0.0
71
0
42
0.0
3
txt.shx
4
extfont.shx
0
STYLE
5
202
100
AcDbSymbolTableRecord
100
AcDbTextStyleTableRecord
2
TATEGAKI
70
4
40
0.0
41
1.0
50
0.0
71
0
42
0.0
3
txt.shx
4
extfont.shx
0
STYLE
5
203
100
AcDbSymbolTableRecord
100
AcDbTextStyleTableRecord
2
DIM
70
0
40
0.0
41
0.75
50
0.0
71
0
42
0.0
3
txt.shx
4
extfont.shx
0
STYLE
5
204
100
AcDbSymbolTableRecord
100
AcDbTextStyleTableRecord
2
_Gothic_
70
0
40
1.0
41
1.0
50
0.0
71
0
42
10.0
3

4

1001
ACAD
1000
MS Gothic
1071
32817
0
STYLE
5
205
100
AcDbSymbolTableRecord
100
AcDbTextStyleTableRecord
2
_TateGothic_
70
4
40
0.0
41
1.0
50
0.0
71
0
42
0.0
3
@MS Gothic
4

0
ENDTAB
0
TABLE
2
VIEW
5
206
100
AcDbSymbolTable
70
0
0
ENDTAB
0
TABLE
2
UCS
5
207
100
AcDbSymbolTable
70
0
0
ENDTAB
0
TABLE
2
APPID
5
208
100
AcDbSymbolTable
70
1
0
APPID
5
209
100
AcDbSymbolTableRecord
100
AcDbRegAppTableRecord
2
ACAD
70
0
0
ENDTAB
0
TABLE
2
DIMSTYLE
5
403
330
0
100
AcDbSymbolTable
70
1
100
AcDbDimStyleTable
71
0
0
DIMSTYLE
105
404
330
402
100
AcDbSymbolTableRecord
100
AcDbDimStyleTableRecord
2
JAC_DIM
70
0
41
4.000
42
0.000
44
0.0
73
0
74
0
77
1
78
8
79
2
140
0.000
170
0
171
2
172
0
173
0
174
0
175
0
176
0
177
0
178
0
270
2
271
0
272
0
273
2
274
2
340
201
275
0
280
0
281
0
282
0
283
0
284
0
285
0
286
0
287
3
288
0
0
ENDTAB
0
TABLE
2
BLOCK_RECORD
5
405
100
AcDbSymbolTable
70
0
0
BLOCK_RECORD
5
406
100
AcDbSymbolTableRecord
100
AcDbBlockTableRecord
2
*MODEL_SPACE
0
BLOCK_RECORD
5
407
100
AcDbSymbolTableRecord
100
AcDbBlockTableRecord
2
*PAPER_SPACE
0
BLOCK_RECORD
5
408
100
AcDbSymbolTableRecord
100
AcDbBlockTableRecord
2
_JACCONVERT_
0
ENDTAB
0
TABLE
2
LAYER
5
409
100
AcDbSymbolTable
70
10
0
LAYER
5
40a
100
AcDbSymbolTableRecord
100
AcDbLayerTableRecord
2
0
70
0
62
7
6
CONTINUOUS
370
-3
390
14
0
LAYER
5
40b
100
AcDbSymbolTableRecord
100
AcDbLayerTableRecord
2
0-00
70
0
62
7
6
CONTINUOUS
370
-3
390
14
0
LAYER
5
40c
100
AcDbSymbolTableRecord
100
AcDbLayerTableRecord
2
0-1_2_0
70
0
62
7
6
CONTINUOUS
370
-3
390
14
0
LAYER
5
40d
100
AcDbSymbolTableRecord
100
AcDbLayerTableRecord
2
0-5_2_4
70
0
62
7
6
CONTINUOUS
370
-3
390
14
0
LAYER
5
40e
100
AcDbSymbolTableRecord
100
AcDbLayerTableRecord
2
0-6_2_5
70
0
62
7
6
CONTINUOUS
370
-3
390
14
0
LAYER
5
40f
100
AcDbSymbolTableRecord
100
AcDbLayerTableRecord
2
1-4_2_19
70
0
62
7
6
CONTINUOUS
370
-3
390
14
0
LAYER
5
410
100
AcDbSymbolTableRecord
100
AcDbLayerTableRecord
2
F-E_J_ADD
70
0
62
-7
6
CONTINUOUS
290
0
370
-3
390
14
0
LAYER
5
411
100
AcDbSymbolTableRecord
100
AcDbLayerTableRecord
2
F-F
70
0
62
7
6
CONTINUOUS
370
-3
390
14
0
ENDTAB
0
ENDSEC
0
SECTION
2
BLOCKS
0
BLOCK
5
412
100
AcDbEntity
67
1
8
0
100
AcDbBlockBegin
2
*MODEL_SPACE
70
0
10
0.0
20
0.0
30
0.0
3
*MODEL_SPACE
1

0
ENDBLK
5
413
100
AcDbEntity
8
0
100
AcDbBlockEnd
0
BLOCK
5
414
100
AcDbEntity
67
1
8
0
100
AcDbBlockBegin
2
*PAPER_SPACE
70
0
10
0.0
20
0.0
30
0.0
3
*PAPER_SPACE
1

0
ENDBLK
5
415
100
AcDbEntity
67
1
8
0
100
AcDbBlockEnd
0
BLOCK
5
416
100
AcDbEntity
8
0
100
AcDbBlockBegin
2
_JACCONVERT_
70
2
10
0.0
20
0.0
30
0.0
3
_JACCONVERT_
1
_JACCONVERT_
0
ATTDEF
5
417
100
AcDbEntity
8
0
62
0
100
AcDbText
10
0.0
20
0.0
30
0.0
40
1.0
1
User:460950EB0890EC0964308A
100
AcDbAttributeDefinition
3

2
USER
70
8
0
ATTDEF
5
418
100
AcDbEntity
8
0
62
0
100
AcDbText
10
0.0
20
2.0
30
0.0
40
1.0
1
Date:15/06/12 13:45
100
AcDbAttributeDefinition
3

2
REVDATE
70
8
0
ATTDEF
5
419
100
AcDbEntity
8
0
62
0
100
AcDbText
10
0.0
20
4.0
30
0.0
40
1.0
1
File:ｅルーフ横葺Ⅰ型　断面・納め図１.dxf
100
AcDbAttributeDefinition
3

2
FNAME
70
8
0
ATTDEF
5
41a
100
AcDbEntity
8
0
62
0
100
AcDbText
10
0.0
20
6.0
30
0.0
40
1.0
1
JacConvert Version3.09 copyright (c) 2001-2013 K.Nakahara
100
AcDbAttributeDefinition
3

2
VER
70
8
0
ENDBLK
5
41b
100
AcDbEntity
67
1
8
0
100
AcDbBlockEnd
0
ENDSEC
0
SECTION
2
ENTITIES
0
LINE
5
41c
100
AcDbEntity
8
F-F
6
CONTINUOUS
62
3
100
AcDbLine
10
1106.020000000000
20
82.890000000000
30
0.0
11
1106.020000000000
21
1143.640000000000
31
0.0
0
LINE
5
41d
100
AcDbEntity
8
F-F
6
CONTINUOUS
62
3
100
AcDbLine
10
54.760000000000
20
613.270000000000
30
0.0
11
1631.650000000000
21
613.270000000000
31
0.0
0
LINE
5
41e
100
AcDbEntity
8
0-00
6
CONTINUOUS
62
4
100
AcDbLine
10
310.590000000000
20
858.780000000000
30
0.0
11
316.590000000000
21
858.680000000000
31
0.0
0
LINE
5
41f
100
AcDbEntity
8
0-00
6
CONTINUOUS
62
4
100
AcDbLine
10
310.590000000000
20
858.780000000000
30
0.0
11
315.830000000000
21
861.690000000000
31
0.0
0
LINE
5
420
100
AcDbEntity
8
F-F
6
CONTINUOUS
62
3
100
AcDbLine
10
54.760000000000
20
1103.640000000000
30
0.0
11
1631.650000000000
21
1103.640000000000
31
0.0
0
LINE
5
421
100
AcDbEntity
8
F-F
6
CONTINUOUS
62
3
100
AcDbLine
10
54.760000000000
20
573.270000000000
30
0.0
11
1631.650000000000
21
573.270000000000
31
0.0
0
LINE
5
422
100
AcDbEntity
8
F-F
6
CONTINUOUS
62
2
100
AcDbLine
10
54.760000000000
20
23.630000000000
30
0.0
11
54.760000000000
21
1143.640000000000
31
0.0
0
LINE
5
423
100
AcDbEntity
8
F-F
6
CONTINUOUS
62
2
100
AcDbLine
10
1284.760000000000
20
82.890000000000
30
0.0
11
1284.760000000000
21
23.630000000000
31
0.0
0
LINE
5
424
100
AcDbEntity
8
F-F
6
CONTINUOUS
62
2
100
AcDbLine
10
1214.540000000000
20
82.890000000000
30
0.0
11
1214.540000000000
21
23.630000000000
31
0.0
0
LINE
5
425
100
AcDbEntity
8
F-F
6
CONTINUOUS
62
2
100
AcDbLine
10
1537.120000000000
20
23.630000000000
30
0.0
11
1537.120000000000
21
82.890000000000
31
0.0
0
LINE
5
426
100
AcDbEntity
8
F-F
6
CONTINUOUS
62
2
100
AcDbLine
10
806.890000000000
20
82.890000000000
30
0.0
11
806.890000000000
21
23.630000000000
31
0.0
0
LINE
5
427
100
AcDbEntity
8
F-F
6
CONTINUOUS
62
2
100
AcDbLine
10
1009.740000000000
20
82.890000000000
30
0.0
11
1009.740000000000
21
23.630000000000
31
0.0
0
LINE
5
428
100
AcDbEntity
8
F-F
6
CONTINUOUS
62
2
100
AcDbLine
10
806.890000000000
20
63.140000000000
30
0.0
11
369.760000000000
21
63.140000000000
31
0.0
0
LINE
5
429
100
AcDbEntity
8
F-F
6
CONTINUOUS
62
2
100
AcDbLine
10
806.890000000000
20
43.390000000000
30
0.0
11
369.760000000000
21
43.390000000000
31
0.0
0
LINE
5
42a
100
AcDbEntity
8
F-F
6
CONTINUOUS
62
2
100
AcDbLine
10
806.890000000000
20
33.510000000000
30
0.0
11
369.760000000000
21
33.510000000000
31
0.0
0
LINE
5
42b
100
AcDbEntity
8
F-F
6
CONTINUOUS
62
2
100
AcDbLine
10
806.890000000000
20
73.020000000000
30
0.0
11
369.760000000000
21
73.020000000000
31
0.0
0
LINE
5
42c
100
AcDbEntity
8
F-F
6
CONTINUOUS
62
2
100
AcDbLine
10
422.420000000000
20
82.890000000000
30
0.0
11
422.420000000000
21
23.630000000000
31
0.0
0
LINE
5
42d
100
AcDbEntity
8
F-F
6
CONTINUOUS
62
2
100
AcDbLine
10
369.760000000000
20
82.890000000000
30
0.0
11
369.760000000000
21
23.630000000000
31
0.0
0
LINE
5
42e
100
AcDbEntity
8
F-F
6
CONTINUOUS
62
2
100
AcDbLine
10
1631.650000000000
20
23.630000000000
30
0.0
11
1631.650000000000
21
1143.640000000000
31
0.0
0
LINE
5
42f
100
AcDbEntity
8
F-F
6
CONTINUOUS
62
2
100
AcDbLine
10
54.760000000000
20
1143.640000000000
30
0.0
11
1631.650000000000
21
1143.640000000000
31
0.0
0
LINE
5
430
100
AcDbEntity
8
F-F
6
CONTINUOUS
62
2
100
AcDbLine
10
54.760000000000
20
23.630000000000
30
0.0
11
1631.650000000000
21
23.630000000000
31
0.0
0
LINE
5
431
100
AcDbEntity
8
F-F
6
CONTINUOUS
62
2
100
AcDbLine
10
1631.650000000000
20
82.890000000000
30
0.0
11
54.760000000000
21
82.890000000000
31
0.0
0
LINE
5
432
100
AcDbEntity
8
F-F
6
CONTINUOUS
62
2
100
AcDbLine
10
369.760000000000
20
53.260000000000
30
0.0
11
1631.650000000000
21
53.260000000000
31
0.0
0
POLYLINE
5
433
100
AcDbEntity
8
0-00
6
CONTINUOUS
62
  3
100
AcDb2dPolyline
66
1
10
0.0
20
0.0
30
0.0
70
0
0
VERTEX
5
434
100
AcDbEntity
8
0-00
6
CONTINUOUS
62
  3
100
AcDbVertex
100
AcDb2dVertex
10
451.510000000000
20
1010.370000000000
30
0.0
0
VERTEX
5
435
100
AcDbEntity
8
0-00
6
CONTINUOUS
62
  3
100
AcDbVertex
100
AcDb2dVertex
10
551.510000000000
20
1035.370000000000
30
0.0
0
VERTEX
5
436
100
AcDbEntity
8
0-00
6
CONTINUOUS
62
  3
100
AcDbVertex
100
AcDb2dVertex
10
551.510000000000
20
1010.370000000000
30
0.0
0
VERTEX
5
437
100
AcDbEntity
8
0-00
6
CONTINUOUS
62
  3
100
AcDbVertex
100
AcDb2dVertex
10
451.510000000000
20
1010.370000000000
30
0.0
0
SEQEND
5
438
100
AcDbEntity
8
0-00
0
LINE
5
439
100
AcDbEntity
8
0-00
6
CONTINUOUS
62
4
100
AcDbLine
10
785.960000000000
20
977.620000000000
30
0.0
11
780.710000000000
21
974.710000000000
31
0.0
0
LINE
5
43a
100
AcDbEntity
8
0-00
6
CONTINUOUS
62
4
100
AcDbLine
10
785.960000000000
20
977.620000000000
30
0.0
11
779.960000000000
21
977.720000000000
31
0.0
0
LINE
5
43b
100
AcDbEntity
8
0-00
6
CONTINUOUS
62
7
100
AcDbLine
10
513.410000000000
20
829.410000000000
30
0.0
11
513.680000000000
21
833.540000000000
31
0.0
0
LINE
5
43c
100
AcDbEntity
8
0-00
6
CONTINUOUS
62
7
100
AcDbLine
10
513.410000000000
20
829.410000000000
30
0.0
11
515.710000000000
21
832.850000000000
31
0.0
0
LINE
5
43d
100
AcDbEntity
8
0-00
6
CONTINUOUS
62
7
100
AcDbLine
10
699.940000000000
20
852.500000000000
30
0.0
11
701.010000000000
21
848.500000000000
31
0.0
0
LINE
5
43e
100
AcDbEntity
8
0-00
6
CONTINUOUS
62
7
100
AcDbLine
10
699.940000000000
20
852.500000000000
30
0.0
11
711.490000000000
21
832.500000000000
31
0.0
0
LINE
5
43f
100
AcDbEntity
8
0-00
6
CONTINUOUS
62
7
100
AcDbLine
10
617.640000000000
20
846.460000000000
30
0.0
11
618.720000000000
21
842.460000000000
31
0.0
0
LINE
5
440
100
AcDbEntity
8
0-00
6
CONTINUOUS
62
7
100
AcDbLine
10
617.640000000000
20
846.460000000000
30
0.0
11
620.570000000000
21
843.530000000000
31
0.0
0
LINE
5
441
100
AcDbEntity
8
0-00
6
CONTINUOUS
62
7
100
AcDbLine
10
617.640000000000
20
846.460000000000
30
0.0
11
634.340000000000
21
817.550000000000
31
0.0
0
LINE
5
442
100
AcDbEntity
8
0-00
6
CENTER2
62
4
100
AcDbLine
10
456.110000000000
20
895.160000000000
30
0.0
11
470.340000000000
21
838.240000000000
31
0.0
0
LINE
5
443
100
AcDbEntity
8
0-00
6
CENTER2
62
4
100
AcDbLine
10
640.440000000000
20
941.240000000000
30
0.0
11
654.670000000000
21
884.320000000000
31
0.0
0
LINE
5
444
100
AcDbEntity
8
0-6_2_5
6
CONTINUOUS
62
3
100
AcDbLine
10
1381.490000000000
20
241.220000000000
30
0.0
11
1336.090000000000
21
241.220000000000
31
0.0
0
LINE
5
445
100
AcDbEntity
8
0-6_2_5
6
CONTINUOUS
62
3
100
AcDbLine
10
1333.790000000000
20
336.620000000000
30
0.0
11
1333.790000000000
21
241.220000000000
31
0.0
0
LINE
5
446
100
AcDbEntity
8
0-6_2_5
6
CONTINUOUS
62
3
100
AcDbLine
10
1336.090000000000
20
241.220000000000
30
0.0
11
1336.090000000000
21
336.620000000000
31
0.0
0
LINE
5
447
100
AcDbEntity
8
0-6_2_5
6
CONTINUOUS
62
3
100
AcDbLine
10
1381.490000000000
20
338.920000000000
30
0.0
11
1336.090000000000
21
338.920000000000
31
0.0
0
LINE
5
448
100
AcDbEntity
8
0-6_2_5
6
CONTINUOUS
62
3
100
AcDbLine
10
1336.090000000000
20
336.620000000000
30
0.0
11
1381.490000000000
21
336.620000000000
31
0.0
0
LINE
5
449
100
AcDbEntity
8
0-6_2_5
6
CONTINUOUS
62
3
100
AcDbLine
10
1383.790000000000
20
318.920000000000
30
0.0
11
1383.790000000000
21
336.620000000000
31
0.0
0
POLYLINE
5
44a
100
AcDbEntity
8
0-6_2_5
6
CONTINUOUS
62
  3
100
AcDb2dPolyline
66
1
10
0.0
20
0.0
30
0.0
70
0
0
VERTEX
5
44b
100
AcDbEntity
8
0-6_2_5
6
CONTINUOUS
62
  3
100
AcDbVertex
100
AcDb2dVertex
10
1381.490000000000
20
336.620000000000
30
0.0
0
VERTEX
5
44c
100
AcDbEntity
8
0-6_2_5
6
CONTINUOUS
62
  3
100
AcDbVertex
100
AcDb2dVertex
10
1381.490000000000
20
318.920000000000
30
0.0
0
VERTEX
5
44d
100
AcDbEntity
8
0-6_2_5
6
CONTINUOUS
62
  3
100
AcDbVertex
100
AcDb2dVertex
10
1383.790000000000
20
318.920000000000
30
0.0
0
SEQEND
5
44e
100
AcDbEntity
8
0-6_2_5
0
LINE
5
44f
100
AcDbEntity
8
0-6_2_5
6
CONTINUOUS
62
3
100
AcDbLine
10
1381.490000000000
20
258.920000000000
30
0.0
11
1381.490000000000
21
241.220000000000
31
0.0
0
POLYLINE
5
450
100
AcDbEntity
8
0-6_2_5
6
CONTINUOUS
62
  3
100
AcDb2dPolyline
66
1
10
0.0
20
0.0
30
0.0
70
0
0
VERTEX
5
451
100
AcDbEntity
8
0-6_2_5
6
CONTINUOUS
62
  3
100
AcDbVertex
100
AcDb2dVertex
10
1383.790000000000
20
241.220000000000
30
0.0
0
VERTEX
5
452
100
AcDbEntity
8
0-6_2_5
6
CONTINUOUS
62
  3
100
AcDbVertex
100
AcDb2dVertex
10
1383.790000000000
20
258.920000000000
30
0.0
0
VERTEX
5
453
100
AcDbEntity
8
0-6_2_5
6
CONTINUOUS
62
  3
100
AcDbVertex
100
AcDb2dVertex
10
1381.490000000000
20
258.920000000000
30
0.0
0
SEQEND
5
454
100
AcDbEntity
8
0-6_2_5
0
LINE
5
455
100
AcDbEntity
8
0-6_2_5
6
CONTINUOUS
62
3
100
AcDbLine
10
1336.090000000000
20
238.920000000000
30
0.0
11
1381.490000000000
21
238.920000000000
31
0.0
0
LINE
5
456
100
AcDbEntity
8
0-6_2_5
6
CONTINUOUS
62
3
100
AcDbLine
10
1281.590000000000
20
363.920000000000
30
0.0
11
1281.590000000000
21
338.920000000000
31
0.0
0
LINE
5
457
100
AcDbEntity
8
0-6_2_5
6
CONTINUOUS
62
7
100
AcDbLine
10
1311.590000000000
20
288.920000000000
30
0.0
11
1311.590000000000
21
337.920000000000
31
0.0
0
LINE
5
458
100
AcDbEntity
8
0-6_2_5
6
CONTINUOUS
62
7
100
AcDbLine
10
1312.190000000000
20
337.920000000000
30
0.0
11
1312.190000000000
21
288.920000000000
31
0.0
0
POLYLINE
5
459
100
AcDbEntity
8
0-6_2_5
6
CONTINUOUS
62
  7
100
AcDb2dPolyline
66
1
10
0.0
20
0.0
30
0.0
70
0
0
VERTEX
5
45a
100
AcDbEntity
8
0-6_2_5
6
CONTINUOUS
62
  7
100
AcDbVertex
100
AcDb2dVertex
10
1312.790000000000
20
288.920000000000
30
0.0
0
VERTEX
5
45b
100
AcDbEntity
8
0-6_2_5
6
CONTINUOUS
62
  7
100
AcDbVertex
100
AcDb2dVertex
10
1312.790000000000
20
298.920000000000
30
0.0
0
VERTEX
5
45c
100
AcDbEntity
8
0-6_2_5
6
CONTINUOUS
62
  7
100
AcDbVertex
100
AcDb2dVertex
10
1313.390000000000
20
298.920000000000
30
0.0
0
VERTEX
5
45d
100
AcDbEntity
8
0-6_2_5
6
CONTINUOUS
62
  7
100
AcDbVertex
100
AcDb2dVertex
10
1313.390000000000
20
288.920000000000
30
0.0
0
SEQEND
5
45e
100
AcDbEntity
8
0-6_2_5
0
LINE
5
45f
100
AcDbEntity
8
0-6_2_5
6
CONTINUOUS
62
4
100
AcDbLine
10
1442.120000000000
20
338.920000000000
30
0.0
11
1467.120000000000
21
363.920000000000
31
0.0
0
LINE
5
460
100
AcDbEntity
8
0-6_2_5
6
CONTINUOUS
62
4
100
AcDbLine
10
1413.840000000000
20
338.920000000000
30
0.0
11
1438.840000000000
21
363.920000000000
31
0.0
0
LINE
5
461
100
AcDbEntity
8
0-6_2_5
6
CONTINUOUS
62
4
100
AcDbLine
10
1385.550000000000
20
338.920000000000
30
0.0
11
1410.550000000000
21
363.920000000000
31
0.0
0
LINE
5
462
100
AcDbEntity
8
0-6_2_5
6
CONTINUOUS
62
4
100
AcDbLine
10
1357.270000000000
20
338.920000000000
30
0.0
11
1382.270000000000
21
363.920000000000
31
0.0
0
LINE
5
463
100
AcDbEntity
8
0-6_2_5
6
CONTINUOUS
62
4
100
AcDbLine
10
1328.980000000000
20
338.920000000000
30
0.0
11
1353.980000000000
21
363.920000000000
31
0.0
0
LINE
5
464
100
AcDbEntity
8
0-6_2_5
6
CONTINUOUS
62
4
100
AcDbLine
10
1300.700000000000
20
338.920000000000
30
0.0
11
1325.700000000000
21
363.920000000000
31
0.0
0
LINE
5
465
100
AcDbEntity
8
0-6_2_5
6
CONTINUOUS
62
4
100
AcDbLine
10
1281.590000000000
20
348.100000000000
30
0.0
11
1297.410000000000
21
363.920000000000
31
0.0
0
LINE
5
466
100
AcDbEntity
8
0-6_2_5
6
CONTINUOUS
62
4
100
AcDbLine
10
1284.680000000000
20
363.920000000000
30
0.0
11
1309.680000000000
21
338.920000000000
31
0.0
0
LINE
5
467
100
AcDbEntity
8
0-6_2_5
6
CONTINUOUS
62
4
100
AcDbLine
10
1312.970000000000
20
363.920000000000
30
0.0
11
1337.970000000000
21
338.920000000000
31
0.0
0
LINE
5
468
100
AcDbEntity
8
0-6_2_5
6
CONTINUOUS
62
4
100
AcDbLine
10
1341.250000000000
20
363.920000000000
30
0.0
11
1366.250000000000
21
338.920000000000
31
0.0
0
LINE
5
469
100
AcDbEntity
8
0-6_2_5
6
CONTINUOUS
62
4
100
AcDbLine
10
1369.540000000000
20
363.920000000000
30
0.0
11
1394.540000000000
21
338.920000000000
31
0.0
0
LINE
5
46a
100
AcDbEntity
8
0-6_2_5
6
CONTINUOUS
62
4
100
AcDbLine
10
1397.820000000000
20
363.920000000000
30
0.0
11
1422.820000000000
21
338.920000000000
31
0.0
0
LINE
5
46b
100
AcDbEntity
8
0-6_2_5
6
CONTINUOUS
62
4
100
AcDbLine
10
1426.110000000000
20
363.920000000000
30
0.0
11
1451.110000000000
21
338.920000000000
31
0.0
0
LINE
5
46c
100
AcDbEntity
8
0-6_2_5
6
CONTINUOUS
62
3
100
AcDbLine
10
1388.790000000000
20
338.920000000000
30
0.0
11
1388.790000000000
21
238.920000000000
31
0.0
0
LINE
5
46d
100
AcDbEntity
8
0-6_2_5
6
CONTINUOUS
62
7
100
AcDbLine
10
1459.260000000000
20
348.720000000000
30
0.0
11
1460.330000000000
21
344.720000000000
31
0.0
0
LINE
5
46e
100
AcDbEntity
8
0-6_2_5
6
CONTINUOUS
62
7
100
AcDbLine
10
1459.260000000000
20
348.720000000000
30
0.0
11
1462.180000000000
21
345.790000000000
31
0.0
0
LINE
5
46f
100
AcDbEntity
8
0-6_2_5
6
CONTINUOUS
62
7
100
AcDbLine
10
1279.470000000000
20
338.480000000000
30
0.0
11
1278.400000000000
21
334.480000000000
31
0.0
0
LINE
5
470
100
AcDbEntity
8
0-6_2_5
6
CONTINUOUS
62
7
100
AcDbLine
10
1279.470000000000
20
338.480000000000
30
0.0
11
1276.540000000000
21
335.550000000000
31
0.0
0
LINE
5
471
100
AcDbEntity
8
0-6_2_5
6
CONTINUOUS
62
7
100
AcDbLine
10
1313.790000000000
20
258.090000000000
30
0.0
11
1312.720000000000
21
254.090000000000
31
0.0
0
LINE
5
472
100
AcDbEntity
8
0-6_2_5
6
CONTINUOUS
62
7
100
AcDbLine
10
1313.790000000000
20
258.090000000000
30
0.0
11
1310.860000000000
21
255.160000000000
31
0.0
0
LINE
5
473
100
AcDbEntity
8
0-6_2_5
6
CONTINUOUS
62
7
100
AcDbLine
10
1376.960000000000
20
364.950000000000
30
0.0
11
1378.030000000000
21
360.950000000000
31
0.0
0
LINE
5
474
100
AcDbEntity
8
0-6_2_5
6
CONTINUOUS
62
7
100
AcDbLine
10
1376.960000000000
20
364.950000000000
30
0.0
11
1379.890000000000
21
362.030000000000
31
0.0
0
LINE
5
475
100
AcDbEntity
8
0-6_2_5
6
CONTINUOUS
62
7
100
AcDbLine
10
1262.510000000000
20
363.120000000000
30
0.0
11
1261.910000000000
21
363.120000000000
31
0.0
0
LINE
5
476
100
AcDbEntity
8
0-6_2_5
6
CONTINUOUS
62
4
100
AcDbLine
10
1352.080000000000
20
364.600000000000
30
0.0
11
1362.080000000000
21
364.600000000000
31
0.0
0
LINE
5
477
100
AcDbEntity
8
0-6_2_5
6
CONTINUOUS
62
4
100
AcDbLine
10
1354.080000000000
20
365.100000000000
30
0.0
11
1360.080000000000
21
365.100000000000
31
0.0
0
LINE
5
478
100
AcDbEntity
8
0-6_2_5
6
CONTINUOUS
62
4
100
AcDbLine
10
1362.080000000000
20
364.600000000000
30
0.0
11
1362.080000000000
21
364.200000000000
31
0.0
0
LINE
5
479
100
AcDbEntity
8
0-6_2_5
6
CONTINUOUS
62
4
100
AcDbLine
10
1360.080000000000
20
365.100000000000
30
0.0
11
1361.580000000000
21
364.600000000000
31
0.0
0
LINE
5
47a
100
AcDbEntity
8
0-6_2_5
6
CONTINUOUS
62
4
100
AcDbLine
10
1359.480000000000
20
354.000000000000
30
0.0
11
1354.680000000000
21
354.800000000000
31
0.0
0
LINE
5
47b
100
AcDbEntity
8
0-6_2_5
6
CONTINUOUS
62
4
100
AcDbLine
10
1359.480000000000
20
352.400000000000
30
0.0
11
1354.680000000000
21
353.200000000000
31
0.0
0
LINE
5
47c
100
AcDbEntity
8
0-6_2_5
6
CONTINUOUS
62
4
100
AcDbLine
10
1359.480000000000
20
350.800000000000
30
0.0
11
1354.680000000000
21
351.600000000000
31
0.0
0
LINE
5
47d
100
AcDbEntity
8
0-6_2_5
6
CONTINUOUS
62
4
100
AcDbLine
10
1359.480000000000
20
355.600000000000
30
0.0
11
1354.680000000000
21
356.400000000000
31
0.0
0
LINE
5
47e
100
AcDbEntity
8
0-6_2_5
6
CONTINUOUS
62
4
100
AcDbLine
10
1352.080000000000
20
364.600000000000
30
0.0
11
1352.080000000000
21
364.200000000000
31
0.0
0
LINE
5
47f
100
AcDbEntity
8
0-6_2_5
6
CONTINUOUS
62
4
100
AcDbLine
10
1354.080000000000
20
365.100000000000
30
0.0
11
1352.580000000000
21
364.600000000000
31
0.0
0
LINE
5
480
100
AcDbEntity
8
0-6_2_5
6
CONTINUOUS
62
4
100
AcDbLine
10
1359.480000000000
20
347.600000000000
30
0.0
11
1354.680000000000
21
348.400000000000
31
0.0
0
LINE
5
481
100
AcDbEntity
8
0-6_2_5
6
CONTINUOUS
62
4
100
AcDbLine
10
1359.480000000000
20
349.200000000000
30
0.0
11
1354.680000000000
21
350.000000000000
31
0.0
0
LINE
5
482
100
AcDbEntity
8
0-6_2_5
6
CONTINUOUS
62
4
100
AcDbLine
10
1359.480000000000
20
346.000000000000
30
0.0
11
1354.680000000000
21
346.800000000000
31
0.0
0
LINE
5
483
100
AcDbEntity
8
0-6_2_5
6
CONTINUOUS
62
4
100
AcDbLine
10
1359.480000000000
20
344.400000000000
30
0.0
11
1354.680000000000
21
345.200000000000
31
0.0
0
LINE
5
484
100
AcDbEntity
8
0-6_2_5
6
CONTINUOUS
62
4
100
AcDbLine
10
1357.080000000000
20
324.200000000000
30
0.0
11
1355.080000000000
21
325.800000000000
31
0.0
0
LINE
5
485
100
AcDbEntity
8
0-6_2_5
6
CONTINUOUS
62
4
100
AcDbLine
10
1359.080000000000
20
325.800000000000
30
0.0
11
1357.080000000000
21
324.200000000000
31
0.0
0
LINE
5
486
100
AcDbEntity
8
0-6_2_5
6
CONTINUOUS
62
4
100
AcDbLine
10
1352.080000000000
20
364.200000000000
30
0.0
11
1362.080000000000
21
364.200000000000
31
0.0
0
LINE
5
487
100
AcDbEntity
8
0-6_2_5
6
CONTINUOUS
62
4
100
AcDbLine
10
1359.480000000000
20
358.800000000000
30
0.0
11
1354.680000000000
21
359.600000000000
31
0.0
0
LINE
5
488
100
AcDbEntity
8
0-6_2_5
6
CONTINUOUS
62
4
100
AcDbLine
10
1359.480000000000
20
357.200000000000
30
0.0
11
1354.680000000000
21
358.000000000000
31
0.0
0
LINE
5
489
100
AcDbEntity
8
0-6_2_5
6
CONTINUOUS
62
4
100
AcDbLine
10
1359.480000000000
20
360.400000000000
30
0.0
11
1354.680000000000
21
361.200000000000
31
0.0
0
LINE
5
48a
100
AcDbEntity
8
0-6_2_5
6
CONTINUOUS
62
4
100
AcDbLine
10
1359.480000000000
20
342.800000000000
30
0.0
11
1354.680000000000
21
343.600000000000
31
0.0
0
LINE
5
48b
100
AcDbEntity
8
0-6_2_5
6
CONTINUOUS
62
4
100
AcDbLine
10
1359.480000000000
20
341.200000000000
30
0.0
11
1354.680000000000
21
342.000000000000
31
0.0
0
LINE
5
48c
100
AcDbEntity
8
0-6_2_5
6
CONTINUOUS
62
4
100
AcDbLine
10
1359.480000000000
20
339.600000000000
30
0.0
11
1354.680000000000
21
340.400000000000
31
0.0
0
LINE
5
48d
100
AcDbEntity
8
0-6_2_5
6
CONTINUOUS
62
4
100
AcDbLine
10
1359.480000000000
20
338.000000000000
30
0.0
11
1354.680000000000
21
338.800000000000
31
0.0
0
LINE
5
48e
100
AcDbEntity
8
0-6_2_5
6
CONTINUOUS
62
4
100
AcDbLine
10
1359.480000000000
20
336.400000000000
30
0.0
11
1354.680000000000
21
337.200000000000
31
0.0
0
LINE
5
48f
100
AcDbEntity
8
0-6_2_5
6
CONTINUOUS
62
4
100
AcDbLine
10
1359.480000000000
20
334.800000000000
30
0.0
11
1354.680000000000
21
335.600000000000
31
0.0
0
LINE
5
490
100
AcDbEntity
8
0-6_2_5
6
CONTINUOUS
62
4
100
AcDbLine
10
1359.480000000000
20
333.200000000000
30
0.0
11
1354.680000000000
21
334.000000000000
31
0.0
0
LINE
5
491
100
AcDbEntity
8
0-6_2_5
6
CONTINUOUS
62
4
100
AcDbLine
10
1359.480000000000
20
331.600000000000
30
0.0
11
1354.680000000000
21
332.400000000000
31
0.0
0
LINE
5
492
100
AcDbEntity
8
0-6_2_5
6
CONTINUOUS
62
4
100
AcDbLine
10
1359.480000000000
20
330.010000000000
30
0.0
11
1354.680000000000
21
330.810000000000
31
0.0
0
LINE
5
493
100
AcDbEntity
8
0-6_2_5
6
CENTER2
62
4
100
AcDbLine
10
1357.080000000000
20
365.480000000000
30
0.0
11
1357.080000000000
21
317.810000000000
31
0.0
0
LINE
5
494
100
AcDbEntity
8
0-6_2_5
6
CONTINUOUS
62
4
100
AcDbLine
10
1359.080000000000
20
325.800000000000
30
0.0
11
1359.080000000000
21
364.200000000000
31
0.0
0
LINE
5
495
100
AcDbEntity
8
0-6_2_5
6
CONTINUOUS
62
4
100
AcDbLine
10
1355.080000000000
20
325.800000000000
30
0.0
11
1355.080000000000
21
364.200000000000
31
0.0
0
LINE
5
496
100
AcDbEntity
8
0-6_2_5
6
DASHED
62
7
100
AcDbLine
10
1335.810000000000
20
365.720000000000
30
0.0
11
1307.370000000000
21
365.720000000000
31
0.0
0
LINE
5
497
100
AcDbEntity
8
0-6_2_5
6
DASHED
62
7
100
AcDbLine
10
1295.810000000000
20
365.720000000000
30
0.0
11
1260.990000000000
21
365.720000000000
31
0.0
0
LINE
5
498
100
AcDbEntity
8
0-6_2_5
6
CONTINUOUS
62
4
100
AcDbLine
10
1470.400000000000
20
338.920000000000
30
0.0
11
1495.400000000000
21
363.920000000000
31
0.0
0
LINE
5
499
100
AcDbEntity
8
0-6_2_5
6
CONTINUOUS
62
4
100
AcDbLine
10
1454.390000000000
20
363.920000000000
30
0.0
11
1479.390000000000
21
338.920000000000
31
0.0
0
LINE
5
49a
100
AcDbEntity
8
0-6_2_5
6
CONTINUOUS
62
4
100
AcDbLine
10
1498.690000000000
20
338.920000000000
30
0.0
11
1523.690000000000
21
363.920000000000
31
0.0
0
LINE
5
49b
100
AcDbEntity
8
0-6_2_5
6
CONTINUOUS
62
4
100
AcDbLine
10
1482.670000000000
20
363.920000000000
30
0.0
11
1507.670000000000
21
338.920000000000
31
0.0
0
LINE
5
49c
100
AcDbEntity
8
0-6_2_5
6
CONTINUOUS
62
7
100
AcDbLine
10
1376.960000000000
20
364.950000000000
30
0.0
11
1418.440000000000
21
293.120000000000
31
0.0
0
LINE
5
49d
100
AcDbEntity
8
0-6_2_5
6
CONTINUOUS
62
7
100
AcDbLine
10
1459.260000000000
20
348.720000000000
30
0.0
11
1466.820000000000
21
335.620000000000
31
0.0
0
LINE
5
49e
100
AcDbEntity
8
0-6_2_5
6
CONTINUOUS
62
7
100
AcDbLine
10
1313.790000000000
20
258.090000000000
30
0.0
11
1296.910000000000
21
228.850000000000
31
0.0
0
LINE
5
49f
100
AcDbEntity
8
0-6_2_5
6
DASHED
62
7
100
AcDbLine
10
1526.660000000000
20
364.920000000000
30
0.0
11
1368.820000000000
21
364.920000000000
31
0.0
0
LINE
5
4a0
100
AcDbEntity
8
0-6_2_5
6
CONTINUOUS
62
3
100
AcDbLine
10
1526.660000000000
20
363.920000000000
30
0.0
11
1281.590000000000
21
363.920000000000
31
0.0
0
LINE
5
4a1
100
AcDbEntity
8
0-6_2_5
6
CONTINUOUS
62
4
100
AcDbLine
10
1510.960000000000
20
363.920000000000
30
0.0
11
1526.660000000000
21
348.220000000000
31
0.0
0
LINE
5
4a2
100
AcDbEntity
8
0-6_2_5
6
CONTINUOUS
62
3
100
AcDbLine
10
1526.660000000000
20
338.920000000000
30
0.0
11
1281.590000000000
21
338.920000000000
31
0.0
0
LINE
5
4a3
100
AcDbEntity
8
0-6_2_5
6
CONTINUOUS
62
3
100
AcDbLine
10
1388.790000000000
20
318.920000000000
30
0.0
11
1526.660000000000
21
318.920000000000
31
0.0
0
LINE
5
4a4
100
AcDbEntity
8
0-6_2_5
6
CONTINUOUS
62
3
100
AcDbLine
10
1388.790000000000
20
258.920000000000
30
0.0
11
1526.660000000000
21
258.920000000000
31
0.0
0
LINE
5
4a5
100
AcDbEntity
8
0-6_2_5
6
CONTINUOUS
62
3
100
AcDbLine
10
1388.790000000000
20
238.920000000000
30
0.0
11
1526.660000000000
21
238.920000000000
31
0.0
0
LINE
5
4a6
100
AcDbEntity
8
0-6_2_5
6
CONTINUOUS
62
7
100
AcDbLine
10
1408.360000000000
20
377.920000000000
30
0.0
11
1408.100000000000
21
382.050000000000
31
0.0
0
LINE
5
4a7
100
AcDbEntity
8
0-6_2_5
6
CONTINUOUS
62
7
100
AcDbLine
10
1408.360000000000
20
377.920000000000
30
0.0
11
1406.070000000000
21
381.370000000000
31
0.0
0
POLYLINE
5
4a8
100
AcDbEntity
8
0-6_2_5
6
CONTINUOUS
62
  7
100
AcDb2dPolyline
66
1
10
0.0
20
0.0
30
0.0
70
0
0
VERTEX
5
4a9
100
AcDbEntity
8
0-6_2_5
6
CONTINUOUS
62
  7
100
AcDbVertex
100
AcDb2dVertex
10
1526.660000000000
20
209.920000000000
30
0.0
0
VERTEX
5
4aa
100
AcDbEntity
8
0-6_2_5
6
CONTINUOUS
62
  7
100
AcDbVertex
100
AcDb2dVertex
10
1335.790000000000
20
209.920000000000
30
0.0
0
VERTEX
5
4ab
100
AcDbEntity
8
0-6_2_5
6
CONTINUOUS
62
  7
100
AcDbVertex
100
AcDb2dVertex
10
1335.790000000000
20
203.920000000000
30
0.0
0
SEQEND
5
4ac
100
AcDbEntity
8
0-6_2_5
0
LINE
5
4ad
100
AcDbEntity
8
0-6_2_5
6
CONTINUOUS
62
7
100
AcDbLine
10
1526.660000000000
20
203.920000000000
30
0.0
11
1335.790000000000
21
203.920000000000
31
0.0
0
POLYLINE
5
4ae
100
AcDbEntity
8
0-6_2_5
6
CONTINUOUS
62
  7
100
AcDb2dPolyline
66
1
10
0.0
20
0.0
30
0.0
70
0
0
VERTEX
5
4af
100
AcDbEntity
8
0-6_2_5
6
CONTINUOUS
62
  7
100
AcDbVertex
100
AcDb2dVertex
10
1333.790000000000
20
336.620000000000
30
0.0
0
VERTEX
5
4b0
100
AcDbEntity
8
0-6_2_5
6
CONTINUOUS
62
  7
100
AcDbVertex
100
AcDb2dVertex
10
1333.790000000000
20
188.920000000000
30
0.0
0
VERTEX
5
4b1
100
AcDbEntity
8
0-6_2_5
6
CONTINUOUS
62
  7
100
AcDbVertex
100
AcDb2dVertex
10
1313.790000000000
20
188.920000000000
30
0.0
0
SEQEND
5
4b2
100
AcDbEntity
8
0-6_2_5
0
LINE
5
4b3
100
AcDbEntity
8
0-6_2_5
6
CONTINUOUS
62
7
100
AcDbLine
10
1313.790000000000
20
336.620000000000
30
0.0
11
1313.790000000000
21
188.920000000000
31
0.0
0
LINE
5
4b4
100
AcDbEntity
8
0-6_2_5
6
CONTINUOUS
62
7
100
AcDbLine
10
1416.580000000000
20
204.440000000000
30
0.0
11
1415.510000000000
21
200.440000000000
31
0.0
0
LINE
5
4b5
100
AcDbEntity
8
0-6_2_5
6
CONTINUOUS
62
7
100
AcDbLine
10
1416.580000000000
20
204.440000000000
30
0.0
11
1413.650000000000
21
201.510000000000
31
0.0
0
LINE
5
4b6
100
AcDbEntity
8
0-6_2_5
6
CONTINUOUS
62
7
100
AcDbLine
10
1416.580000000000
20
204.440000000000
30
0.0
11
1405.030000000000
21
184.440000000000
31
0.0
0
LINE
5
4b7
100
AcDbEntity
8
0-6_2_5
6
CONTINUOUS
62
7
100
AcDbLine
10
1333.790000000000
20
336.620000000000
30
0.0
11
1313.790000000000
21
336.620000000000
31
0.0
0
LINE
5
4b8
100
AcDbEntity
8
0-6_2_5
6
CONTINUOUS
62
4
100
AcDbLine
10
1313.790000000000
20
274.790000000000
30
0.0
11
1333.790000000000
21
296.790000000000
31
0.0
0
LINE
5
4b9
100
AcDbEntity
8
0-6_2_5
6
CONTINUOUS
62
4
100
AcDbLine
10
1313.790000000000
20
259.930000000000
30
0.0
11
1333.790000000000
21
281.930000000000
31
0.0
0
LINE
5
4ba
100
AcDbEntity
8
0-6_2_5
6
CONTINUOUS
62
4
100
AcDbLine
10
1313.790000000000
20
245.060000000000
30
0.0
11
1333.790000000000
21
267.060000000000
31
0.0
0
LINE
5
4bb
100
AcDbEntity
8
0-6_2_5
6
CONTINUOUS
62
4
100
AcDbLine
10
1313.790000000000
20
230.190000000000
30
0.0
11
1333.790000000000
21
252.190000000000
31
0.0
0
LINE
5
4bc
100
AcDbEntity
8
0-6_2_5
6
CONTINUOUS
62
4
100
AcDbLine
10
1313.790000000000
20
215.330000000000
30
0.0
11
1333.790000000000
21
237.330000000000
31
0.0
0
LINE
5
4bd
100
AcDbEntity
8
0-6_2_5
6
CONTINUOUS
62
4
100
AcDbLine
10
1313.790000000000
20
200.460000000000
30
0.0
11
1333.790000000000
21
222.460000000000
31
0.0
0
LINE
5
4be
100
AcDbEntity
8
0-6_2_5
6
CONTINUOUS
62
4
100
AcDbLine
10
1316.810000000000
20
188.920000000000
30
0.0
11
1333.790000000000
21
207.600000000000
31
0.0
0
LINE
5
4bf
100
AcDbEntity
8
0-6_2_5
6
CONTINUOUS
62
4
100
AcDbLine
10
1330.330000000000
20
188.920000000000
30
0.0
11
1333.790000000000
21
192.730000000000
31
0.0
0
LINE
5
4c0
100
AcDbEntity
8
0-6_2_5
6
CONTINUOUS
62
4
100
AcDbLine
10
1313.790000000000
20
304.530000000000
30
0.0
11
1333.790000000000
21
326.530000000000
31
0.0
0
LINE
5
4c1
100
AcDbEntity
8
0-6_2_5
6
CONTINUOUS
62
4
100
AcDbLine
10
1313.790000000000
20
289.660000000000
30
0.0
11
1333.790000000000
21
311.660000000000
31
0.0
0
LINE
5
4c2
100
AcDbEntity
8
0-6_2_5
6
CONTINUOUS
62
4
100
AcDbLine
10
1313.790000000000
20
334.260000000000
30
0.0
11
1315.940000000000
21
336.620000000000
31
0.0
0
LINE
5
4c3
100
AcDbEntity
8
0-6_2_5
6
CONTINUOUS
62
4
100
AcDbLine
10
1313.790000000000
20
319.390000000000
30
0.0
11
1329.450000000000
21
336.620000000000
31
0.0
0
POLYLINE
5
4c4
100
AcDbEntity
8
0-6_2_5
6
CONTINUOUS
62
  4
100
AcDb2dPolyline
66
1
10
0.0
20
0.0
30
0.0
70
0
0
VERTEX
5
4c5
100
AcDbEntity
8
0-6_2_5
6
CONTINUOUS
62
  4
100
AcDbVertex
100
AcDb2dVertex
10
1356.280000000000
20
325.000000000000
30
0.0
0
VERTEX
5
4c6
100
AcDbEntity
8
0-6_2_5
6
CONTINUOUS
62
  4
100
AcDbVertex
100
AcDb2dVertex
10
1357.080000000000
20
325.800000000000
30
0.0
0
VERTEX
5
4c7
100
AcDbEntity
8
0-6_2_5
6
CONTINUOUS
62
  4
100
AcDbVertex
100
AcDb2dVertex
10
1356.540000000000
20
326.890000000000
30
0.0
0
VERTEX
5
4c8
100
AcDbEntity
8
0-6_2_5
6
CONTINUOUS
62
  4
100
AcDbVertex
100
AcDb2dVertex
10
1357.760000000000
20
327.590000000000
30
0.0
0
VERTEX
5
4c9
100
AcDbEntity
8
0-6_2_5
6
CONTINUOUS
62
  4
100
AcDbVertex
100
AcDb2dVertex
10
1359.080000000000
20
325.800000000000
30
0.0
0
SEQEND
5
4ca
100
AcDbEntity
8
0-6_2_5
0
POLYLINE
5
4cb
100
AcDbEntity
8
F-F
6
CONTINUOUS
62
  3
100
AcDb2dPolyline
66
1
10
0.0
20
0.0
30
0.0
70
0
0
VERTEX
5
4cc
100
AcDbEntity
8
F-F
6
CONTINUOUS
62
  3
100
AcDbVertex
100
AcDb2dVertex
10
71.720000000000
20
59.100000000000
30
0.0
0
VERTEX
5
4cd
100
AcDbEntity
8
F-F
6
CONTINUOUS
62
  3
100
AcDbVertex
100
AcDb2dVertex
10
71.720000000000
20
75.100000000000
30
0.0
0
VERTEX
5
4ce
100
AcDbEntity
8
F-F
6
CONTINUOUS
62
  3
100
AcDbVertex
100
AcDb2dVertex
10
87.720000000000
20
75.100000000000
30
0.0
0
VERTEX
5
4cf
100
AcDbEntity
8
F-F
6
CONTINUOUS
62
  3
100
AcDbVertex
100
AcDb2dVertex
10
87.720000000000
20
59.100000000000
30
0.0
0
VERTEX
5
4d0
100
AcDbEntity
8
F-F
6
CONTINUOUS
62
  3
100
AcDbVertex
100
AcDb2dVertex
10
71.720000000000
20
59.100000000000
30
0.0
0
SEQEND
5
4d1
100
AcDbEntity
8
F-F
0
LINE
5
4d2
100
AcDbEntity
8
F-F
6
CONTINUOUS
62
3
100
AcDbLine
10
73.320000000000
20
61.260000000000
30
0.0
11
73.320000000000
21
73.500000000000
31
0.0
0
LINE
5
4d3
100
AcDbEntity
8
F-F
6
CONTINUOUS
62
3
100
AcDbLine
10
86.120000000000
20
60.700000000000
30
0.0
11
73.880000000000
21
60.700000000000
31
0.0
0
POLYLINE
5
4d4
100
AcDbEntity
8
F-F
6
CONTINUOUS
62
  3
100
AcDb2dPolyline
66
1
10
0.0
20
0.0
30
0.0
70
0
0
VERTEX
5
4d5
100
AcDbEntity
8
F-F
6
CONTINUOUS
62
  3
100
AcDbVertex
100
AcDb2dVertex
10
73.320000000000
20
73.500000000000
30
0.0
0
VERTEX
5
4d6
100
AcDbEntity
8
F-F
6
CONTINUOUS
62
  3
100
AcDbVertex
100
AcDb2dVertex
10
85.550000000000
20
73.500000000000
30
0.0
0
VERTEX
5
4d7
100
AcDbEntity
8
F-F
6
CONTINUOUS
62
  3
100
AcDbVertex
100
AcDb2dVertex
10
73.320000000000
20
61.260000000000
30
0.0
0
SEQEND
5
4d8
100
AcDbEntity
8
F-F
0
LINE
5
4d9
100
AcDbEntity
8
F-F
6
CONTINUOUS
62
3
100
AcDbLine
10
86.120000000000
20
72.930000000000
30
0.0
11
73.880000000000
21
60.700000000000
31
0.0
0
LINE
5
4da
100
AcDbEntity
8
F-F
6
CONTINUOUS
62
3
100
AcDbLine
10
86.120000000000
20
72.930000000000
30
0.0
11
86.120000000000
21
60.700000000000
31
0.0
0
LINE
5
4db
100
AcDbEntity
8
F-F
6
CONTINUOUS
62
4
100
AcDbLine
10
71.720000000000
20
74.940000000000
30
0.0
11
87.720000000000
21
74.940000000000
31
0.0
0
LINE
5
4dc
100
AcDbEntity
8
F-F
6
CONTINUOUS
62
4
100
AcDbLine
10
71.720000000000
20
74.620000000000
30
0.0
11
87.720000000000
21
74.620000000000
31
0.0
0
LINE
5
4dd
100
AcDbEntity
8
F-F
6
CONTINUOUS
62
4
100
AcDbLine
10
71.720000000000
20
74.300000000000
30
0.0
11
87.720000000000
21
74.300000000000
31
0.0
0
LINE
5
4de
100
AcDbEntity
8
F-F
6
CONTINUOUS
62
4
100
AcDbLine
10
71.720000000000
20
73.980000000000
30
0.0
11
87.720000000000
21
73.980000000000
31
0.0
0
LINE
5
4df
100
AcDbEntity
8
F-F
6
CONTINUOUS
62
4
100
AcDbLine
10
71.720000000000
20
73.660000000000
30
0.0
11
87.720000000000
21
73.660000000000
31
0.0
0
LINE
5
4e0
100
AcDbEntity
8
F-F
6
CONTINUOUS
62
4
100
AcDbLine
10
71.720000000000
20
60.540000000000
30
0.0
11
87.720000000000
21
60.540000000000
31
0.0
0
LINE
5
4e1
100
AcDbEntity
8
F-F
6
CONTINUOUS
62
4
100
AcDbLine
10
71.720000000000
20
60.220000000000
30
0.0
11
87.720000000000
21
60.220000000000
31
0.0
0
LINE
5
4e2
100
AcDbEntity
8
F-F
6
CONTINUOUS
62
4
100
AcDbLine
10
71.720000000000
20
59.900000000000
30
0.0
11
87.720000000000
21
59.900000000000
31
0.0
0
LINE
5
4e3
100
AcDbEntity
8
F-F
6
CONTINUOUS
62
4
100
AcDbLine
10
71.720000000000
20
59.580000000000
30
0.0
11
87.720000000000
21
59.580000000000
31
0.0
0
LINE
5
4e4
100
AcDbEntity
8
F-F
6
CONTINUOUS
62
4
100
AcDbLine
10
71.720000000000
20
59.260000000000
30
0.0
11
87.720000000000
21
59.260000000000
31
0.0
0
LINE
5
4e5
100
AcDbEntity
8
F-F
6
CONTINUOUS
62
4
100
AcDbLine
10
71.720000000000
20
61.500000000000
30
0.0
11
73.320000000000
21
61.500000000000
31
0.0
0
LINE
5
4e6
100
AcDbEntity
8
F-F
6
CONTINUOUS
62
4
100
AcDbLine
10
71.720000000000
20
61.820000000000
30
0.0
11
73.320000000000
21
61.820000000000
31
0.0
0
LINE
5
4e7
100
AcDbEntity
8
F-F
6
CONTINUOUS
62
4
100
AcDbLine
10
71.720000000000
20
62.140000000000
30
0.0
11
73.320000000000
21
62.140000000000
31
0.0
0
LINE
5
4e8
100
AcDbEntity
8
F-F
6
CONTINUOUS
62
4
100
AcDbLine
10
71.720000000000
20
62.460000000000
30
0.0
11
73.320000000000
21
62.460000000000
31
0.0
0
LINE
5
4e9
100
AcDbEntity
8
F-F
6
CONTINUOUS
62
4
100
AcDbLine
10
71.720000000000
20
62.780000000000
30
0.0
11
73.320000000000
21
62.780000000000
31
0.0
0
LINE
5
4ea
100
AcDbEntity
8
F-F
6
CONTINUOUS
62
4
100
AcDbLine
10
71.720000000000
20
63.100000000000
30
0.0
11
73.320000000000
21
63.100000000000
31
0.0
0
LINE
5
4eb
100
AcDbEntity
8
F-F
6
CONTINUOUS
62
4
100
AcDbLine
10
71.720000000000
20
63.420000000000
30
0.0
11
73.320000000000
21
63.420000000000
31
0.0
0
LINE
5
4ec
100
AcDbEntity
8
F-F
6
CONTINUOUS
62
4
100
AcDbLine
10
71.720000000000
20
63.740000000000
30
0.0
11
73.320000000000
21
63.740000000000
31
0.0
0
LINE
5
4ed
100
AcDbEntity
8
F-F
6
CONTINUOUS
62
4
100
AcDbLine
10
71.720000000000
20
64.060000000000
30
0.0
11
73.320000000000
21
64.060000000000
31
0.0
0
LINE
5
4ee
100
AcDbEntity
8
F-F
6
CONTINUOUS
62
4
100
AcDbLine
10
71.720000000000
20
64.380000000000
30
0.0
11
73.320000000000
21
64.380000000000
31
0.0
0
LINE
5
4ef
100
AcDbEntity
8
F-F
6
CONTINUOUS
62
4
100
AcDbLine
10
71.720000000000
20
64.700000000000
30
0.0
11
73.320000000000
21
64.700000000000
31
0.0
0
LINE
5
4f0
100
AcDbEntity
8
F-F
6
CONTINUOUS
62
4
100
AcDbLine
10
71.720000000000
20
65.020000000000
30
0.0
11
73.320000000000
21
65.020000000000
31
0.0
0
LINE
5
4f1
100
AcDbEntity
8
F-F
6
CONTINUOUS
62
4
100
AcDbLine
10
71.720000000000
20
65.340000000000
30
0.0
11
73.320000000000
21
65.340000000000
31
0.0
0
LINE
5
4f2
100
AcDbEntity
8
F-F
6
CONTINUOUS
62
4
100
AcDbLine
10
71.720000000000
20
65.660000000000
30
0.0
11
73.320000000000
21
65.660000000000
31
0.0
0
LINE
5
4f3
100
AcDbEntity
8
F-F
6
CONTINUOUS
62
4
100
AcDbLine
10
71.720000000000
20
65.980000000000
30
0.0
11
73.320000000000
21
65.980000000000
31
0.0
0
LINE
5
4f4
100
AcDbEntity
8
F-F
6
CONTINUOUS
62
4
100
AcDbLine
10
71.720000000000
20
66.300000000000
30
0.0
11
73.320000000000
21
66.300000000000
31
0.0
0
LINE
5
4f5
100
AcDbEntity
8
F-F
6
CONTINUOUS
62
4
100
AcDbLine
10
71.720000000000
20
66.620000000000
30
0.0
11
73.320000000000
21
66.620000000000
31
0.0
0
LINE
5
4f6
100
AcDbEntity
8
F-F
6
CONTINUOUS
62
4
100
AcDbLine
10
71.720000000000
20
66.940000000000
30
0.0
11
73.320000000000
21
66.940000000000
31
0.0
0
LINE
5
4f7
100
AcDbEntity
8
F-F
6
CONTINUOUS
62
4
100
AcDbLine
10
71.720000000000
20
67.260000000000
30
0.0
11
73.320000000000
21
67.260000000000
31
0.0
0
LINE
5
4f8
100
AcDbEntity
8
F-F
6
CONTINUOUS
62
4
100
AcDbLine
10
71.720000000000
20
67.580000000000
30
0.0
11
73.320000000000
21
67.580000000000
31
0.0
0
LINE
5
4f9
100
AcDbEntity
8
F-F
6
CONTINUOUS
62
4
100
AcDbLine
10
71.720000000000
20
67.900000000000
30
0.0
11
73.320000000000
21
67.900000000000
31
0.0
0
LINE
5
4fa
100
AcDbEntity
8
F-F
6
CONTINUOUS
62
4
100
AcDbLine
10
71.720000000000
20
68.220000000000
30
0.0
11
73.320000000000
21
68.220000000000
31
0.0
0
LINE
5
4fb
100
AcDbEntity
8
F-F
6
CONTINUOUS
62
4
100
AcDbLine
10
71.720000000000
20
68.540000000000
30
0.0
11
73.320000000000
21
68.540000000000
31
0.0
0
LINE
5
4fc
100
AcDbEntity
8
F-F
6
CONTINUOUS
62
4
100
AcDbLine
10
71.720000000000
20
68.860000000000
30
0.0
11
73.320000000000
21
68.860000000000
31
0.0
0
LINE
5
4fd
100
AcDbEntity
8
F-F
6
CONTINUOUS
62
4
100
AcDbLine
10
71.720000000000
20
69.820000000000
30
0.0
11
73.320000000000
21
69.820000000000
31
0.0
0
LINE
5
4fe
100
AcDbEntity
8
F-F
6
CONTINUOUS
62
4
100
AcDbLine
10
71.720000000000
20
70.780000000000
30
0.0
11
73.320000000000
21
70.780000000000
31
0.0
0
LINE
5
4ff
100
AcDbEntity
8
F-F
6
CONTINUOUS
62
4
100
AcDbLine
10
71.720000000000
20
71.100000000000
30
0.0
11
73.320000000000
21
71.100000000000
31
0.0
0
LINE
5
500
100
AcDbEntity
8
F-F
6
CONTINUOUS
62
4
100
AcDbLine
10
71.720000000000
20
71.420000000000
30
0.0
11
73.320000000000
21
71.420000000000
31
0.0
0
LINE
5
501
100
AcDbEntity
8
F-F
6
CONTINUOUS
62
4
100
AcDbLine
10
71.720000000000
20
71.740000000000
30
0.0
11
73.320000000000
21
71.740000000000
31
0.0
0
LINE
5
502
100
AcDbEntity
8
F-F
6
CONTINUOUS
62
4
100
AcDbLine
10
71.720000000000
20
73.340000000000
30
0.0
11
73.320000000000
21
73.340000000000
31
0.0
0
LINE
5
503
100
AcDbEntity
8
F-F
6
CONTINUOUS
62
4
100
AcDbLine
10
71.720000000000
20
73.020000000000
30
0.0
11
73.320000000000
21
73.020000000000
31
0.0
0
LINE
5
504
100
AcDbEntity
8
F-F
6
CONTINUOUS
62
4
100
AcDbLine
10
71.720000000000
20
72.700000000000
30
0.0
11
73.320000000000
21
72.700000000000
31
0.0
0
LINE
5
505
100
AcDbEntity
8
F-F
6
CONTINUOUS
62
4
100
AcDbLine
10
71.720000000000
20
72.380000000000
30
0.0
11
73.320000000000
21
72.380000000000
31
0.0
0
LINE
5
506
100
AcDbEntity
8
F-F
6
CONTINUOUS
62
4
100
AcDbLine
10
71.720000000000
20
72.060000000000
30
0.0
11
73.320000000000
21
72.060000000000
31
0.0
0
LINE
5
507
100
AcDbEntity
8
F-F
6
CONTINUOUS
62
4
100
AcDbLine
10
71.720000000000
20
70.140000000000
30
0.0
11
73.320000000000
21
70.140000000000
31
0.0
0
LINE
5
508
100
AcDbEntity
8
F-F
6
CONTINUOUS
62
4
100
AcDbLine
10
71.720000000000
20
70.460000000000
30
0.0
11
73.320000000000
21
70.460000000000
31
0.0
0
LINE
5
509
100
AcDbEntity
8
F-F
6
CONTINUOUS
62
4
100
AcDbLine
10
71.720000000000
20
69.500000000000
30
0.0
11
73.320000000000
21
69.500000000000
31
0.0
0
LINE
5
50a
100
AcDbEntity
8
F-F
6
CONTINUOUS
62
4
100
AcDbLine
10
71.720000000000
20
69.180000000000
30
0.0
11
73.320000000000
21
69.180000000000
31
0.0
0
LINE
5
50b
100
AcDbEntity
8
F-F
6
CONTINUOUS
62
4
100
AcDbLine
10
73.870000000000
20
61.820000000000
30
0.0
11
75.000000000000
21
61.820000000000
31
0.0
0
LINE
5
50c
100
AcDbEntity
8
F-F
6
CONTINUOUS
62
4
100
AcDbLine
10
73.550000000000
20
61.500000000000
30
0.0
11
74.680000000000
21
61.500000000000
31
0.0
0
LINE
5
50d
100
AcDbEntity
8
F-F
6
CONTINUOUS
62
4
100
AcDbLine
10
71.720000000000
20
61.180000000000
30
0.0
11
74.360000000000
21
61.180000000000
31
0.0
0
LINE
5
50e
100
AcDbEntity
8
F-F
6
CONTINUOUS
62
4
100
AcDbLine
10
71.720000000000
20
60.860000000000
30
0.0
11
74.040000000000
21
60.860000000000
31
0.0
0
LINE
5
50f
100
AcDbEntity
8
F-F
6
CONTINUOUS
62
4
100
AcDbLine
10
75.790000000000
20
63.740000000000
30
0.0
11
76.920000000000
21
63.740000000000
31
0.0
0
LINE
5
510
100
AcDbEntity
8
F-F
6
CONTINUOUS
62
4
100
AcDbLine
10
75.470000000000
20
63.420000000000
30
0.0
11
76.600000000000
21
63.420000000000
31
0.0
0
LINE
5
511
100
AcDbEntity
8
F-F
6
CONTINUOUS
62
4
100
AcDbLine
10
75.150000000000
20
63.100000000000
30
0.0
11
76.280000000000
21
63.100000000000
31
0.0
0
LINE
5
512
100
AcDbEntity
8
F-F
6
CONTINUOUS
62
4
100
AcDbLine
10
74.830000000000
20
62.780000000000
30
0.0
11
75.960000000000
21
62.780000000000
31
0.0
0
LINE
5
513
100
AcDbEntity
8
F-F
6
CONTINUOUS
62
4
100
AcDbLine
10
74.510000000000
20
62.460000000000
30
0.0
11
75.640000000000
21
62.460000000000
31
0.0
0
LINE
5
514
100
AcDbEntity
8
F-F
6
CONTINUOUS
62
4
100
AcDbLine
10
74.190000000000
20
62.140000000000
30
0.0
11
75.320000000000
21
62.140000000000
31
0.0
0
LINE
5
515
100
AcDbEntity
8
F-F
6
CONTINUOUS
62
4
100
AcDbLine
10
73.320000000000
20
73.500000000000
30
0.0
11
73.320000000000
21
73.820000000000
31
0.0
0
LINE
5
516
100
AcDbEntity
8
F-F
6
CONTINUOUS
62
4
100
AcDbLine
10
86.120000000000
20
61.500000000000
30
0.0
11
87.720000000000
21
61.500000000000
31
0.0
0
LINE
5
517
100
AcDbEntity
8
F-F
6
CONTINUOUS
62
4
100
AcDbLine
10
86.120000000000
20
61.820000000000
30
0.0
11
87.720000000000
21
61.820000000000
31
0.0
0
LINE
5
518
100
AcDbEntity
8
F-F
6
CONTINUOUS
62
4
100
AcDbLine
10
86.120000000000
20
62.140000000000
30
0.0
11
87.720000000000
21
62.140000000000
31
0.0
0
LINE
5
519
100
AcDbEntity
8
F-F
6
CONTINUOUS
62
4
100
AcDbLine
10
86.120000000000
20
62.460000000000
30
0.0
11
87.720000000000
21
62.460000000000
31
0.0
0
LINE
5
51a
100
AcDbEntity
8
F-F
6
CONTINUOUS
62
4
100
AcDbLine
10
86.120000000000
20
62.780000000000
30
0.0
11
87.720000000000
21
62.780000000000
31
0.0
0
LINE
5
51b
100
AcDbEntity
8
F-F
6
CONTINUOUS
62
4
100
AcDbLine
10
86.120000000000
20
63.100000000000
30
0.0
11
87.720000000000
21
63.100000000000
31
0.0
0
LINE
5
51c
100
AcDbEntity
8
F-F
6
CONTINUOUS
62
4
100
AcDbLine
10
86.120000000000
20
63.420000000000
30
0.0
11
87.720000000000
21
63.420000000000
31
0.0
0
LINE
5
51d
100
AcDbEntity
8
F-F
6
CONTINUOUS
62
4
100
AcDbLine
10
86.120000000000
20
63.740000000000
30
0.0
11
87.720000000000
21
63.740000000000
31
0.0
0
LINE
5
51e
100
AcDbEntity
8
F-F
6
CONTINUOUS
62
4
100
AcDbLine
10
86.120000000000
20
64.060000000000
30
0.0
11
87.720000000000
21
64.060000000000
31
0.0
0
LINE
5
51f
100
AcDbEntity
8
F-F
6
CONTINUOUS
62
4
100
AcDbLine
10
86.120000000000
20
64.380000000000
30
0.0
11
87.720000000000
21
64.380000000000
31
0.0
0
LINE
5
520
100
AcDbEntity
8
F-F
6
CONTINUOUS
62
4
100
AcDbLine
10
86.120000000000
20
64.700000000000
30
0.0
11
87.720000000000
21
64.700000000000
31
0.0
0
LINE
5
521
100
AcDbEntity
8
F-F
6
CONTINUOUS
62
4
100
AcDbLine
10
86.120000000000
20
65.020000000000
30
0.0
11
87.720000000000
21
65.020000000000
31
0.0
0
LINE
5
522
100
AcDbEntity
8
F-F
6
CONTINUOUS
62
4
100
AcDbLine
10
86.120000000000
20
65.340000000000
30
0.0
11
87.720000000000
21
65.340000000000
31
0.0
0
LINE
5
523
100
AcDbEntity
8
F-F
6
CONTINUOUS
62
4
100
AcDbLine
10
86.120000000000
20
65.980000000000
30
0.0
11
87.720000000000
21
65.980000000000
31
0.0
0
LINE
5
524
100
AcDbEntity
8
F-F
6
CONTINUOUS
62
4
100
AcDbLine
10
86.120000000000
20
66.300000000000
30
0.0
11
87.720000000000
21
66.300000000000
31
0.0
0
LINE
5
525
100
AcDbEntity
8
F-F
6
CONTINUOUS
62
4
100
AcDbLine
10
86.120000000000
20
66.620000000000
30
0.0
11
87.720000000000
21
66.620000000000
31
0.0
0
LINE
5
526
100
AcDbEntity
8
F-F
6
CONTINUOUS
62
4
100
AcDbLine
10
86.120000000000
20
66.940000000000
30
0.0
11
87.720000000000
21
66.940000000000
31
0.0
0
LINE
5
527
100
AcDbEntity
8
F-F
6
CONTINUOUS
62
4
100
AcDbLine
10
86.120000000000
20
67.260000000000
30
0.0
11
87.720000000000
21
67.260000000000
31
0.0
0
LINE
5
528
100
AcDbEntity
8
F-F
6
CONTINUOUS
62
4
100
AcDbLine
10
86.120000000000
20
67.580000000000
30
0.0
11
87.720000000000
21
67.580000000000
31
0.0
0
LINE
5
529
100
AcDbEntity
8
F-F
6
CONTINUOUS
62
4
100
AcDbLine
10
86.120000000000
20
67.900000000000
30
0.0
11
87.720000000000
21
67.900000000000
31
0.0
0
LINE
5
52a
100
AcDbEntity
8
F-F
6
CONTINUOUS
62
4
100
AcDbLine
10
86.120000000000
20
68.220000000000
30
0.0
11
87.720000000000
21
68.220000000000
31
0.0
0
LINE
5
52b
100
AcDbEntity
8
F-F
6
CONTINUOUS
62
4
100
AcDbLine
10
86.120000000000
20
68.540000000000
30
0.0
11
87.720000000000
21
68.540000000000
31
0.0
0
LINE
5
52c
100
AcDbEntity
8
F-F
6
CONTINUOUS
62
4
100
AcDbLine
10
86.120000000000
20
68.860000000000
30
0.0
11
87.720000000000
21
68.860000000000
31
0.0
0
LINE
5
52d
100
AcDbEntity
8
F-F
6
CONTINUOUS
62
4
100
AcDbLine
10
86.120000000000
20
69.820000000000
30
0.0
11
87.720000000000
21
69.820000000000
31
0.0
0
LINE
5
52e
100
AcDbEntity
8
F-F
6
CONTINUOUS
62
4
100
AcDbLine
10
86.120000000000
20
70.780000000000
30
0.0
11
87.720000000000
21
70.780000000000
31
0.0
0
LINE
5
52f
100
AcDbEntity
8
F-F
6
CONTINUOUS
62
4
100
AcDbLine
10
86.120000000000
20
71.100000000000
30
0.0
11
87.720000000000
21
71.100000000000
31
0.0
0
LINE
5
530
100
AcDbEntity
8
F-F
6
CONTINUOUS
62
4
100
AcDbLine
10
86.120000000000
20
71.420000000000
30
0.0
11
87.720000000000
21
71.420000000000
31
0.0
0
LINE
5
531
100
AcDbEntity
8
F-F
6
CONTINUOUS
62
4
100
AcDbLine
10
86.120000000000
20
71.740000000000
30
0.0
11
87.720000000000
21
71.740000000000
31
0.0
0
LINE
5
532
100
AcDbEntity
8
F-F
6
CONTINUOUS
62
4
100
AcDbLine
10
86.120000000000
20
72.700000000000
30
0.0
11
87.720000000000
21
72.700000000000
31
0.0
0
LINE
5
533
100
AcDbEntity
8
F-F
6
CONTINUOUS
62
4
100
AcDbLine
10
86.120000000000
20
72.380000000000
30
0.0
11
87.720000000000
21
72.380000000000
31
0.0
0
LINE
5
534
100
AcDbEntity
8
F-F
6
CONTINUOUS
62
4
100
AcDbLine
10
86.120000000000
20
72.060000000000
30
0.0
11
87.720000000000
21
72.060000000000
31
0.0
0
LINE
5
535
100
AcDbEntity
8
F-F
6
CONTINUOUS
62
4
100
AcDbLine
10
86.120000000000
20
70.140000000000
30
0.0
11
87.720000000000
21
70.140000000000
31
0.0
0
LINE
5
536
100
AcDbEntity
8
F-F
6
CONTINUOUS
62
4
100
AcDbLine
10
86.120000000000
20
70.460000000000
30
0.0
11
87.720000000000
21
70.460000000000
31
0.0
0
LINE
5
537
100
AcDbEntity
8
F-F
6
CONTINUOUS
62
4
100
AcDbLine
10
86.120000000000
20
69.500000000000
30
0.0
11
87.720000000000
21
69.500000000000
31
0.0
0
LINE
5
538
100
AcDbEntity
8
F-F
6
CONTINUOUS
62
4
100
AcDbLine
10
86.120000000000
20
69.180000000000
30
0.0
11
87.720000000000
21
69.180000000000
31
0.0
0
LINE
5
539
100
AcDbEntity
8
F-F
6
CONTINUOUS
62
4
100
AcDbLine
10
86.120000000000
20
60.860000000000
30
0.0
11
87.720000000000
21
60.860000000000
31
0.0
0
LINE
5
53a
100
AcDbEntity
8
F-F
6
CONTINUOUS
62
4
100
AcDbLine
10
86.120000000000
20
61.180000000000
30
0.0
11
87.720000000000
21
61.180000000000
31
0.0
0
LINE
5
53b
100
AcDbEntity
8
F-F
6
CONTINUOUS
62
4
100
AcDbLine
10
85.390000000000
20
73.340000000000
30
0.0
11
87.720000000000
21
73.340000000000
31
0.0
0
LINE
5
53c
100
AcDbEntity
8
F-F
6
CONTINUOUS
62
4
100
AcDbLine
10
85.070000000000
20
73.020000000000
30
0.0
11
87.720000000000
21
73.020000000000
31
0.0
0
LINE
5
53d
100
AcDbEntity
8
F-F
6
CONTINUOUS
62
4
100
AcDbLine
10
77.070000000000
20
65.020000000000
30
0.0
11
78.200000000000
21
65.020000000000
31
0.0
0
LINE
5
53e
100
AcDbEntity
8
F-F
6
CONTINUOUS
62
4
100
AcDbLine
10
76.750000000000
20
64.700000000000
30
0.0
11
77.880000000000
21
64.700000000000
31
0.0
0
LINE
5
53f
100
AcDbEntity
8
F-F
6
CONTINUOUS
62
4
100
AcDbLine
10
76.430000000000
20
64.380000000000
30
0.0
11
77.560000000000
21
64.380000000000
31
0.0
0
LINE
5
540
100
AcDbEntity
8
F-F
6
CONTINUOUS
62
4
100
AcDbLine
10
76.110000000000
20
64.060000000000
30
0.0
11
77.240000000000
21
64.060000000000
31
0.0
0
LINE
5
541
100
AcDbEntity
8
F-F
6
CONTINUOUS
62
4
100
AcDbLine
10
78.350000000000
20
66.300000000000
30
0.0
11
79.480000000000
21
66.300000000000
31
0.0
0
LINE
5
542
100
AcDbEntity
8
F-F
6
CONTINUOUS
62
4
100
AcDbLine
10
78.030000000000
20
65.980000000000
30
0.0
11
79.160000000000
21
65.980000000000
31
0.0
0
LINE
5
543
100
AcDbEntity
8
F-F
6
CONTINUOUS
62
4
100
AcDbLine
10
77.710000000000
20
65.660000000000
30
0.0
11
78.840000000000
21
65.660000000000
31
0.0
0
LINE
5
544
100
AcDbEntity
8
F-F
6
CONTINUOUS
62
4
100
AcDbLine
10
77.390000000000
20
65.340000000000
30
0.0
11
78.520000000000
21
65.340000000000
31
0.0
0
LINE
5
545
100
AcDbEntity
8
F-F
6
CONTINUOUS
62
4
100
AcDbLine
10
79.630000000000
20
67.580000000000
30
0.0
11
80.760000000000
21
67.580000000000
31
0.0
0
LINE
5
546
100
AcDbEntity
8
F-F
6
CONTINUOUS
62
4
100
AcDbLine
10
79.310000000000
20
67.260000000000
30
0.0
11
80.440000000000
21
67.260000000000
31
0.0
0
LINE
5
547
100
AcDbEntity
8
F-F
6
CONTINUOUS
62
4
100
AcDbLine
10
78.990000000000
20
66.940000000000
30
0.0
11
80.120000000000
21
66.940000000000
31
0.0
0
LINE
5
548
100
AcDbEntity
8
F-F
6
CONTINUOUS
62
4
100
AcDbLine
10
78.670000000000
20
66.620000000000
30
0.0
11
79.800000000000
21
66.620000000000
31
0.0
0
LINE
5
549
100
AcDbEntity
8
F-F
6
CONTINUOUS
62
4
100
AcDbLine
10
80.910000000000
20
68.860000000000
30
0.0
11
82.040000000000
21
68.860000000000
31
0.0
0
LINE
5
54a
100
AcDbEntity
8
F-F
6
CONTINUOUS
62
4
100
AcDbLine
10
80.590000000000
20
68.540000000000
30
0.0
11
81.720000000000
21
68.540000000000
31
0.0
0
LINE
5
54b
100
AcDbEntity
8
F-F
6
CONTINUOUS
62
4
100
AcDbLine
10
80.270000000000
20
68.220000000000
30
0.0
11
81.400000000000
21
68.220000000000
31
0.0
0
LINE
5
54c
100
AcDbEntity
8
F-F
6
CONTINUOUS
62
4
100
AcDbLine
10
79.950000000000
20
67.900000000000
30
0.0
11
81.080000000000
21
67.900000000000
31
0.0
0
LINE
5
54d
100
AcDbEntity
8
F-F
6
CONTINUOUS
62
4
100
AcDbLine
10
82.190000000000
20
70.140000000000
30
0.0
11
83.320000000000
21
70.140000000000
31
0.0
0
LINE
5
54e
100
AcDbEntity
8
F-F
6
CONTINUOUS
62
4
100
AcDbLine
10
81.870000000000
20
69.820000000000
30
0.0
11
83.000000000000
21
69.820000000000
31
0.0
0
LINE
5
54f
100
AcDbEntity
8
F-F
6
CONTINUOUS
62
4
100
AcDbLine
10
81.550000000000
20
69.500000000000
30
0.0
11
82.680000000000
21
69.500000000000
31
0.0
0
LINE
5
550
100
AcDbEntity
8
F-F
6
CONTINUOUS
62
4
100
AcDbLine
10
81.230000000000
20
69.180000000000
30
0.0
11
82.360000000000
21
69.180000000000
31
0.0
0
LINE
5
551
100
AcDbEntity
8
F-F
6
CONTINUOUS
62
4
100
AcDbLine
10
83.470000000000
20
71.420000000000
30
0.0
11
84.600000000000
21
71.420000000000
31
0.0
0
LINE
5
552
100
AcDbEntity
8
F-F
6
CONTINUOUS
62
4
100
AcDbLine
10
83.150000000000
20
71.100000000000
30
0.0
11
84.280000000000
21
71.100000000000
31
0.0
0
LINE
5
553
100
AcDbEntity
8
F-F
6
CONTINUOUS
62
4
100
AcDbLine
10
82.830000000000
20
70.780000000000
30
0.0
11
83.960000000000
21
70.780000000000
31
0.0
0
LINE
5
554
100
AcDbEntity
8
F-F
6
CONTINUOUS
62
4
100
AcDbLine
10
82.510000000000
20
70.460000000000
30
0.0
11
83.640000000000
21
70.460000000000
31
0.0
0
LINE
5
555
100
AcDbEntity
8
F-F
6
CONTINUOUS
62
4
100
AcDbLine
10
84.750000000000
20
72.700000000000
30
0.0
11
85.880000000000
21
72.700000000000
31
0.0
0
LINE
5
556
100
AcDbEntity
8
F-F
6
CONTINUOUS
62
4
100
AcDbLine
10
84.430000000000
20
72.380000000000
30
0.0
11
85.560000000000
21
72.380000000000
31
0.0
0
LINE
5
557
100
AcDbEntity
8
F-F
6
CONTINUOUS
62
4
100
AcDbLine
10
84.110000000000
20
72.060000000000
30
0.0
11
85.240000000000
21
72.060000000000
31
0.0
0
LINE
5
558
100
AcDbEntity
8
F-F
6
CONTINUOUS
62
4
100
AcDbLine
10
83.790000000000
20
71.740000000000
30
0.0
11
84.920000000000
21
71.740000000000
31
0.0
0
LINE
5
559
100
AcDbEntity
8
F-F
6
CONTINUOUS
62
4
100
AcDbLine
10
86.120000000000
20
65.660000000000
30
0.0
11
87.720000000000
21
65.660000000000
31
0.0
0
LINE
5
55a
100
AcDbEntity
8
F-F
6
CONTINUOUS
62
3
100
AcDbLine
10
580.390000000000
20
82.890000000000
30
0.0
11
580.390000000000
21
613.270000000000
31
0.0
0
LINE
5
55b
100
AcDbEntity
8
0-00
6
CONTINUOUS
62
4
100
AcDbLine
10
504.620000000000
20
907.290000000000
30
0.0
11
310.590000000000
21
858.780000000000
31
0.0
0
LINE
5
55c
100
AcDbEntity
8
0-00
6
CONTINUOUS
62
4
100
AcDbLine
10
335.760000000000
20
758.100000000000
30
0.0
11
348.020000000000
21
778.540000000000
31
0.0
0
LINE
5
55d
100
AcDbEntity
8
0-00
6
CONTINUOUS
62
4
100
AcDbLine
10
513.410000000000
20
822.360000000000
30
0.0
11
503.700000000000
21
819.930000000000
31
0.0
0
LINE
5
55e
100
AcDbEntity
8
0-00
6
CONTINUOUS
62
4
100
AcDbLine
10
511.340000000000
20
822.360000000000
30
0.0
11
505.520000000000
21
820.900000000000
31
0.0
0
LINE
5
55f
100
AcDbEntity
8
0-00
6
CONTINUOUS
62
4
100
AcDbLine
10
503.700000000000
20
819.930000000000
30
0.0
11
503.800000000000
21
819.550000000000
31
0.0
0
LINE
5
560
100
AcDbEntity
8
0-00
6
CONTINUOUS
62
4
100
AcDbLine
10
505.520000000000
20
820.900000000000
30
0.0
11
504.190000000000
21
820.050000000000
31
0.0
0
LINE
5
561
100
AcDbEntity
8
0-00
6
CONTINUOUS
62
4
100
AcDbLine
10
513.410000000000
20
822.360000000000
30
0.0
11
513.500000000000
21
821.970000000000
31
0.0
0
LINE
5
562
100
AcDbEntity
8
0-00
6
CONTINUOUS
62
4
100
AcDbLine
10
511.340000000000
20
822.360000000000
30
0.0
11
512.920000000000
21
822.240000000000
31
0.0
0
LINE
5
563
100
AcDbEntity
8
0-00
6
CONTINUOUS
62
4
100
AcDbLine
10
513.500000000000
20
821.970000000000
30
0.0
11
503.800000000000
21
819.540000000000
31
0.0
0
LINE
5
564
100
AcDbEntity
8
0-00
6
CONTINUOUS
62
4
100
AcDbLine
10
512.200000000000
20
800.610000000000
30
0.0
11
515.010000000000
21
801.830000000000
31
0.0
0
LINE
5
565
100
AcDbEntity
8
0-00
6
CONTINUOUS
62
4
100
AcDbLine
10
513.150000000000
20
798.870000000000
30
0.0
11
514.990000000000
21
799.670000000000
31
0.0
0
LINE
5
566
100
AcDbEntity
8
0-00
6
CONTINUOUS
62
4
100
AcDbLine
10
514.090000000000
20
797.130000000000
30
0.0
11
514.970000000000
21
797.510000000000
31
0.0
0
LINE
5
567
100
AcDbEntity
8
0-00
6
CONTINUOUS
62
4
100
AcDbLine
10
514.720000000000
20
796.500000000000
30
0.0
11
511.360000000000
21
802.680000000000
31
0.0
0
LINE
5
568
100
AcDbEntity
8
0-00
6
CONTINUOUS
62
4
100
AcDbLine
10
514.720000000000
20
796.500000000000
30
0.0
11
514.770000000000
21
803.530000000000
31
0.0
0
LINE
5
569
100
AcDbEntity
8
0-00
6
CONTINUOUS
62
4
100
AcDbLine
10
510.970000000000
20
802.220000000000
30
0.0
11
515.150000000000
21
804.040000000000
31
0.0
0
LINE
5
56a
100
AcDbEntity
8
0-00
6
CONTINUOUS
62
4
100
AcDbLine
10
510.480000000000
20
804.160000000000
30
0.0
11
514.670000000000
21
805.980000000000
31
0.0
0
LINE
5
56b
100
AcDbEntity
8
0-00
6
CONTINUOUS
62
4
100
AcDbLine
10
510.000000000000
20
806.100000000000
30
0.0
11
514.180000000000
21
807.920000000000
31
0.0
0
LINE
5
56c
100
AcDbEntity
8
0-00
6
CONTINUOUS
62
4
100
AcDbLine
10
509.510000000000
20
808.040000000000
30
0.0
11
513.700000000000
21
809.860000000000
31
0.0
0
LINE
5
56d
100
AcDbEntity
8
0-00
6
CONTINUOUS
62
4
100
AcDbLine
10
509.030000000000
20
809.980000000000
30
0.0
11
513.210000000000
21
811.800000000000
31
0.0
0
LINE
5
56e
100
AcDbEntity
8
0-00
6
CONTINUOUS
62
4
100
AcDbLine
10
508.540000000000
20
811.920000000000
30
0.0
11
512.720000000000
21
813.740000000000
31
0.0
0
LINE
5
56f
100
AcDbEntity
8
0-00
6
CONTINUOUS
62
4
100
AcDbLine
10
511.380000000000
20
802.620000000000
30
0.0
11
506.950000000000
21
820.330000000000
31
0.0
0
LINE
5
570
100
AcDbEntity
8
0-00
6
CONTINUOUS
62
4
100
AcDbLine
10
514.780000000000
20
803.470000000000
30
0.0
11
510.350000000000
21
821.180000000000
31
0.0
0
LINE
5
571
100
AcDbEntity
8
0-00
6
CONTINUOUS
62
4
100
AcDbLine
10
508.060000000000
20
813.860000000000
30
0.0
11
512.240000000000
21
815.680000000000
31
0.0
0
LINE
5
572
100
AcDbEntity
8
0-00
6
CONTINUOUS
62
4
100
AcDbLine
10
507.570000000000
20
815.800000000000
30
0.0
11
511.750000000000
21
817.620000000000
31
0.0
0
LINE
5
573
100
AcDbEntity
8
0-00
6
CONTINUOUS
62
4
100
AcDbLine
10
507.090000000000
20
817.740000000000
30
0.0
11
511.270000000000
21
819.560000000000
31
0.0
0
POLYLINE
5
574
100
AcDbEntity
8
0-5_2_4
6
CONTINUOUS
62
  3
100
AcDb2dPolyline
66
1
10
0.0
20
0.0
30
0.0
70
0
0
VERTEX
5
575
100
AcDbEntity
8
0-5_2_4
6
CONTINUOUS
62
  3
100
AcDbVertex
100
AcDb2dVertex
10
842.370000000000
20
273.070000000000
30
0.0
0
VERTEX
5
576
100
AcDbEntity
8
0-5_2_4
6
CONTINUOUS
62
  3
100
AcDbVertex
100
AcDb2dVertex
10
798.330000000000
20
262.050000000000
30
0.0
0
VERTEX
5
577
100
AcDbEntity
8
0-5_2_4
6
CONTINUOUS
62
  3
100
AcDbVertex
100
AcDb2dVertex
10
775.190000000000
20
354.610000000000
30
0.0
0
SEQEND
5
578
100
AcDbEntity
8
0-5_2_4
0
LINE
5
579
100
AcDbEntity
8
0-5_2_4
6
CONTINUOUS
62
3
100
AcDbLine
10
818.680000000000
20
367.850000000000
30
0.0
11
774.630000000000
21
356.840000000000
31
0.0
0
LINE
5
57a
100
AcDbEntity
8
0-5_2_4
6
CONTINUOUS
62
3
100
AcDbLine
10
775.190000000000
20
354.610000000000
30
0.0
11
819.240000000000
21
365.620000000000
31
0.0
0
LINE
5
57b
100
AcDbEntity
8
0-5_2_4
6
CONTINUOUS
62
3
100
AcDbLine
10
825.760000000000
20
349.000000000000
30
0.0
11
821.470000000000
21
366.170000000000
31
0.0
0
POLYLINE
5
57c
100
AcDbEntity
8
0-5_2_4
6
CONTINUOUS
62
  3
100
AcDb2dPolyline
66
1
10
0.0
20
0.0
30
0.0
70
0
0
VERTEX
5
57d
100
AcDbEntity
8
0-5_2_4
6
CONTINUOUS
62
  3
100
AcDbVertex
100
AcDb2dVertex
10
819.240000000000
20
365.620000000000
30
0.0
0
VERTEX
5
57e
100
AcDbEntity
8
0-5_2_4
6
CONTINUOUS
62
  3
100
AcDbVertex
100
AcDb2dVertex
10
823.530000000000
20
348.450000000000
30
0.0
0
VERTEX
5
57f
100
AcDbEntity
8
0-5_2_4
6
CONTINUOUS
62
  3
100
AcDbVertex
100
AcDb2dVertex
10
825.760000000000
20
349.000000000000
30
0.0
0
SEQEND
5
580
100
AcDbEntity
8
0-5_2_4
0
LINE
5
581
100
AcDbEntity
8
0-5_2_4
6
CONTINUOUS
62
3
100
AcDbLine
10
838.080000000000
20
290.240000000000
30
0.0
11
842.370000000000
21
273.070000000000
31
0.0
0
POLYLINE
5
582
100
AcDbEntity
8
0-5_2_4
6
CONTINUOUS
62
  3
100
AcDb2dPolyline
66
1
10
0.0
20
0.0
30
0.0
70
0
0
VERTEX
5
583
100
AcDbEntity
8
0-5_2_4
6
CONTINUOUS
62
  3
100
AcDbVertex
100
AcDb2dVertex
10
844.600000000000
20
273.620000000000
30
0.0
0
VERTEX
5
584
100
AcDbEntity
8
0-5_2_4
6
CONTINUOUS
62
  3
100
AcDbVertex
100
AcDb2dVertex
10
840.310000000000
20
290.790000000000
30
0.0
0
VERTEX
5
585
100
AcDbEntity
8
0-5_2_4
6
CONTINUOUS
62
  3
100
AcDbVertex
100
AcDb2dVertex
10
838.080000000000
20
290.240000000000
30
0.0
0
SEQEND
5
586
100
AcDbEntity
8
0-5_2_4
0
LINE
5
587
100
AcDbEntity
8
0-5_2_4
6
CONTINUOUS
62
3
100
AcDbLine
10
798.890000000000
20
259.820000000000
30
0.0
11
842.930000000000
21
270.830000000000
31
0.0
0
LINE
5
588
100
AcDbEntity
8
0-5_2_4
6
CONTINUOUS
62
7
100
AcDbLine
10
715.800000000000
20
367.900000000000
30
0.0
11
716.380000000000
21
368.040000000000
31
0.0
0
LINE
5
589
100
AcDbEntity
8
0-5_2_4
6
CONTINUOUS
62
4
100
AcDbLine
10
772.450000000000
20
382.620000000000
30
0.0
11
782.150000000000
21
385.050000000000
31
0.0
0
LINE
5
58a
100
AcDbEntity
8
0-5_2_4
6
CONTINUOUS
62
4
100
AcDbLine
10
774.270000000000
20
383.590000000000
30
0.0
11
780.090000000000
21
385.050000000000
31
0.0
0
LINE
5
58b
100
AcDbEntity
8
0-5_2_4
6
CONTINUOUS
62
4
100
AcDbLine
10
782.150000000000
20
385.050000000000
30
0.0
11
782.250000000000
21
384.660000000000
31
0.0
0
LINE
5
58c
100
AcDbEntity
8
0-5_2_4
6
CONTINUOUS
62
4
100
AcDbLine
10
780.090000000000
20
385.050000000000
30
0.0
11
781.660000000000
21
384.920000000000
31
0.0
0
LINE
5
58d
100
AcDbEntity
8
0-5_2_4
6
CONTINUOUS
62
4
100
AcDbLine
10
782.260000000000
20
373.870000000000
30
0.0
11
777.410000000000
21
373.480000000000
31
0.0
0
LINE
5
58e
100
AcDbEntity
8
0-5_2_4
6
CONTINUOUS
62
4
100
AcDbLine
10
782.650000000000
20
372.320000000000
30
0.0
11
777.800000000000
21
371.930000000000
31
0.0
0
LINE
5
58f
100
AcDbEntity
8
0-5_2_4
6
CONTINUOUS
62
4
100
AcDbLine
10
783.040000000000
20
370.760000000000
30
0.0
11
778.190000000000
21
370.380000000000
31
0.0
0
LINE
5
590
100
AcDbEntity
8
0-5_2_4
6
CONTINUOUS
62
4
100
AcDbLine
10
781.870000000000
20
375.420000000000
30
0.0
11
777.020000000000
21
375.030000000000
31
0.0
0
LINE
5
591
100
AcDbEntity
8
0-5_2_4
6
CONTINUOUS
62
4
100
AcDbLine
10
772.450000000000
20
382.620000000000
30
0.0
11
772.540000000000
21
382.230000000000
31
0.0
0
LINE
5
592
100
AcDbEntity
8
0-5_2_4
6
CONTINUOUS
62
4
100
AcDbLine
10
774.270000000000
20
383.590000000000
30
0.0
11
772.930000000000
21
382.740000000000
31
0.0
0
LINE
5
593
100
AcDbEntity
8
0-5_2_4
6
CONTINUOUS
62
4
100
AcDbLine
10
783.820000000000
20
367.660000000000
30
0.0
11
778.960000000000
21
367.270000000000
31
0.0
0
LINE
5
594
100
AcDbEntity
8
0-5_2_4
6
CONTINUOUS
62
4
100
AcDbLine
10
783.430000000000
20
369.210000000000
30
0.0
11
778.580000000000
21
368.820000000000
31
0.0
0
LINE
5
595
100
AcDbEntity
8
0-5_2_4
6
CONTINUOUS
62
4
100
AcDbLine
10
784.200000000000
20
366.110000000000
30
0.0
11
779.350000000000
21
365.720000000000
31
0.0
0
LINE
5
596
100
AcDbEntity
8
0-5_2_4
6
CONTINUOUS
62
4
100
AcDbLine
10
784.590000000000
20
364.550000000000
30
0.0
11
779.740000000000
21
364.170000000000
31
0.0
0
LINE
5
597
100
AcDbEntity
8
0-5_2_4
6
CONTINUOUS
62
4
100
AcDbLine
10
787.100000000000
20
344.640000000000
30
0.0
11
784.770000000000
21
345.710000000000
31
0.0
0
LINE
5
598
100
AcDbEntity
8
0-5_2_4
6
CONTINUOUS
62
4
100
AcDbLine
10
788.650000000000
20
346.680000000000
30
0.0
11
787.100000000000
21
344.640000000000
31
0.0
0
LINE
5
599
100
AcDbEntity
8
0-5_2_4
6
CONTINUOUS
62
4
100
AcDbLine
10
772.540000000000
20
382.230000000000
30
0.0
11
782.250000000000
21
384.660000000000
31
0.0
0
LINE
5
59a
100
AcDbEntity
8
0-5_2_4
6
CONTINUOUS
62
4
100
AcDbLine
10
781.100000000000
20
378.520000000000
30
0.0
11
776.250000000000
21
378.140000000000
31
0.0
0
LINE
5
59b
100
AcDbEntity
8
0-5_2_4
6
CONTINUOUS
62
4
100
AcDbLine
10
781.490000000000
20
376.970000000000
30
0.0
11
776.640000000000
21
376.590000000000
31
0.0
0
LINE
5
59c
100
AcDbEntity
8
0-5_2_4
6
CONTINUOUS
62
4
100
AcDbLine
10
780.710000000000
20
380.080000000000
30
0.0
11
775.860000000000
21
379.690000000000
31
0.0
0
LINE
5
59d
100
AcDbEntity
8
0-5_2_4
6
CONTINUOUS
62
4
100
AcDbLine
10
784.980000000000
20
363.000000000000
30
0.0
11
780.130000000000
21
362.610000000000
31
0.0
0
LINE
5
59e
100
AcDbEntity
8
0-5_2_4
6
CONTINUOUS
62
4
100
AcDbLine
10
785.370000000000
20
361.450000000000
30
0.0
11
780.520000000000
21
361.060000000000
31
0.0
0
LINE
5
59f
100
AcDbEntity
8
0-5_2_4
6
CONTINUOUS
62
4
100
AcDbLine
10
785.760000000000
20
359.900000000000
30
0.0
11
780.900000000000
21
359.510000000000
31
0.0
0
LINE
5
5a0
100
AcDbEntity
8
0-5_2_4
6
CONTINUOUS
62
4
100
AcDbLine
10
786.140000000000
20
358.350000000000
30
0.0
11
781.290000000000
21
357.960000000000
31
0.0
0
LINE
5
5a1
100
AcDbEntity
8
0-5_2_4
6
CONTINUOUS
62
4
100
AcDbLine
10
786.530000000000
20
356.790000000000
30
0.0
11
781.680000000000
21
356.410000000000
31
0.0
0
LINE
5
5a2
100
AcDbEntity
8
0-5_2_4
6
CONTINUOUS
62
4
100
AcDbLine
10
786.920000000000
20
355.240000000000
30
0.0
11
782.070000000000
21
354.850000000000
31
0.0
0
LINE
5
5a3
100
AcDbEntity
8
0-5_2_4
6
CONTINUOUS
62
4
100
AcDbLine
10
787.310000000000
20
353.690000000000
30
0.0
11
782.460000000000
21
353.300000000000
31
0.0
0
LINE
5
5a4
100
AcDbEntity
8
0-5_2_4
6
CONTINUOUS
62
4
100
AcDbLine
10
787.700000000000
20
352.140000000000
30
0.0
11
782.840000000000
21
351.750000000000
31
0.0
0
LINE
5
5a5
100
AcDbEntity
8
0-5_2_4
6
CONTINUOUS
62
4
100
AcDbLine
10
788.080000000000
20
350.590000000000
30
0.0
11
783.230000000000
21
350.200000000000
31
0.0
0
LINE
5
5a6
100
AcDbEntity
8
0-5_2_4
6
CONTINUOUS
62
4
100
AcDbLine
10
788.650000000000
20
346.680000000000
30
0.0
11
779.340000000000
21
383.930000000000
31
0.0
0
LINE
5
5a7
100
AcDbEntity
8
0-5_2_4
6
CONTINUOUS
62
4
100
AcDbLine
10
784.770000000000
20
345.710000000000
30
0.0
11
775.450000000000
21
382.960000000000
31
0.0
0
LINE
5
5a8
100
AcDbEntity
8
0-5_2_4
6
CONTINUOUS
62
7
100
AcDbLine
10
762.990000000000
20
302.390000000000
30
0.0
11
751.110000000000
21
349.920000000000
31
0.0
0
LINE
5
5a9
100
AcDbEntity
8
0-5_2_4
6
CONTINUOUS
62
7
100
AcDbLine
10
751.690000000000
20
350.070000000000
30
0.0
11
763.570000000000
21
302.530000000000
31
0.0
0
POLYLINE
5
5aa
100
AcDbEntity
8
0-5_2_4
6
CONTINUOUS
62
  7
100
AcDb2dPolyline
66
1
10
0.0
20
0.0
30
0.0
70
0
0
VERTEX
5
5ab
100
AcDbEntity
8
0-5_2_4
6
CONTINUOUS
62
  7
100
AcDbVertex
100
AcDb2dVertex
10
764.160000000000
20
302.680000000000
30
0.0
0
VERTEX
5
5ac
100
AcDbEntity
8
0-5_2_4
6
CONTINUOUS
62
  7
100
AcDbVertex
100
AcDb2dVertex
10
761.730000000000
20
312.380000000000
30
0.0
0
VERTEX
5
5ad
100
AcDbEntity
8
0-5_2_4
6
CONTINUOUS
62
  7
100
AcDbVertex
100
AcDb2dVertex
10
762.310000000000
20
312.530000000000
30
0.0
0
VERTEX
5
5ae
100
AcDbEntity
8
0-5_2_4
6
CONTINUOUS
62
  7
100
AcDbVertex
100
AcDb2dVertex
10
764.740000000000
20
302.820000000000
30
0.0
0
SEQEND
5
5af
100
AcDbEntity
8
0-5_2_4
0
LINE
5
5b0
100
AcDbEntity
8
0-5_2_4
6
CONTINUOUS
62
4
100
AcDbLine
10
878.470000000000
20
382.800000000000
30
0.0
11
896.660000000000
21
413.110000000000
31
0.0
0
LINE
5
5b1
100
AcDbEntity
8
0-5_2_4
6
CONTINUOUS
62
4
100
AcDbLine
10
851.030000000000
20
375.940000000000
30
0.0
11
869.220000000000
21
406.250000000000
31
0.0
0
LINE
5
5b2
100
AcDbEntity
8
0-5_2_4
6
CONTINUOUS
62
4
100
AcDbLine
10
823.590000000000
20
369.080000000000
30
0.0
11
841.780000000000
21
399.390000000000
31
0.0
0
LINE
5
5b3
100
AcDbEntity
8
0-5_2_4
6
CONTINUOUS
62
4
100
AcDbLine
10
796.150000000000
20
362.220000000000
30
0.0
11
814.340000000000
21
392.530000000000
31
0.0
0
LINE
5
5b4
100
AcDbEntity
8
0-5_2_4
6
CONTINUOUS
62
4
100
AcDbLine
10
768.710000000000
20
355.360000000000
30
0.0
11
786.900000000000
21
385.670000000000
31
0.0
0
LINE
5
5b5
100
AcDbEntity
8
0-5_2_4
6
CONTINUOUS
62
4
100
AcDbLine
10
741.270000000000
20
348.500000000000
30
0.0
11
759.460000000000
21
378.810000000000
31
0.0
0
LINE
5
5b6
100
AcDbEntity
8
0-5_2_4
6
CONTINUOUS
62
4
100
AcDbLine
10
720.510000000000
20
352.760000000000
30
0.0
11
732.020000000000
21
371.950000000000
31
0.0
0
LINE
5
5b7
100
AcDbEntity
8
0-5_2_4
6
CONTINUOUS
62
4
100
AcDbLine
10
719.670000000000
20
368.870000000000
30
0.0
11
749.990000000000
21
350.680000000000
31
0.0
0
LINE
5
5b8
100
AcDbEntity
8
0-5_2_4
6
CONTINUOUS
62
4
100
AcDbLine
10
747.110000000000
20
375.730000000000
30
0.0
11
777.430000000000
21
357.540000000000
31
0.0
0
LINE
5
5b9
100
AcDbEntity
8
0-5_2_4
6
CONTINUOUS
62
4
100
AcDbLine
10
774.550000000000
20
382.590000000000
30
0.0
11
804.870000000000
21
364.400000000000
31
0.0
0
LINE
5
5ba
100
AcDbEntity
8
0-5_2_4
6
CONTINUOUS
62
4
100
AcDbLine
10
801.990000000000
20
389.450000000000
30
0.0
11
832.310000000000
21
371.260000000000
31
0.0
0
LINE
5
5bb
100
AcDbEntity
8
0-5_2_4
6
CONTINUOUS
62
4
100
AcDbLine
10
829.430000000000
20
396.310000000000
30
0.0
11
859.740000000000
21
378.120000000000
31
0.0
0
LINE
5
5bc
100
AcDbEntity
8
0-5_2_4
6
CONTINUOUS
62
4
100
AcDbLine
10
856.870000000000
20
403.170000000000
30
0.0
11
887.180000000000
21
384.980000000000
31
0.0
0
LINE
5
5bd
100
AcDbEntity
8
0-5_2_4
6
CONTINUOUS
62
3
100
AcDbLine
10
808.780000000000
20
210.760000000000
30
0.0
11
789.380000000000
21
205.910000000000
31
0.0
0
LINE
5
5be
100
AcDbEntity
8
0-5_2_4
6
CONTINUOUS
62
7
100
AcDbLine
10
804.540000000000
20
231.860000000000
30
0.0
11
806.110000000000
21
225.550000000000
31
0.0
0
LINE
5
5bf
100
AcDbEntity
8
0-5_2_4
6
CONTINUOUS
62
3
100
AcDbLine
10
772.960000000000
20
354.050000000000
30
0.0
11
796.100000000000
21
261.500000000000
31
0.0
0
LINE
5
5c0
100
AcDbEntity
8
0-5_2_4
6
CONTINUOUS
62
3
100
AcDbLine
10
772.960000000000
20
354.050000000000
30
0.0
11
753.560000000000
21
349.200000000000
31
0.0
0
LINE
5
5c1
100
AcDbEntity
8
0-5_2_4
6
CONTINUOUS
62
4
100
AcDbLine
10
788.950000000000
20
207.620000000000
30
0.0
11
805.120000000000
21
225.400000000000
31
0.0
0
LINE
5
5c2
100
AcDbEntity
8
0-5_2_4
6
CONTINUOUS
62
4
100
AcDbLine
10
786.040000000000
20
219.280000000000
30
0.0
11
802.210000000000
21
237.060000000000
31
0.0
0
LINE
5
5c3
100
AcDbEntity
8
0-5_2_4
6
CONTINUOUS
62
4
100
AcDbLine
10
783.120000000000
20
230.940000000000
30
0.0
11
799.290000000000
21
248.720000000000
31
0.0
0
LINE
5
5c4
100
AcDbEntity
8
0-5_2_4
6
CONTINUOUS
62
4
100
AcDbLine
10
780.210000000000
20
242.600000000000
30
0.0
11
796.380000000000
21
260.380000000000
31
0.0
0
LINE
5
5c5
100
AcDbEntity
8
0-5_2_4
6
CONTINUOUS
62
4
100
AcDbLine
10
777.290000000000
20
254.260000000000
30
0.0
11
793.460000000000
21
272.040000000000
31
0.0
0
LINE
5
5c6
100
AcDbEntity
8
0-5_2_4
6
CONTINUOUS
62
4
100
AcDbLine
10
774.380000000000
20
265.920000000000
30
0.0
11
790.550000000000
21
283.700000000000
31
0.0
0
LINE
5
5c7
100
AcDbEntity
8
0-5_2_4
6
CONTINUOUS
62
4
100
AcDbLine
10
771.460000000000
20
277.580000000000
30
0.0
11
787.630000000000
21
295.360000000000
31
0.0
0
LINE
5
5c8
100
AcDbEntity
8
0-5_2_4
6
CONTINUOUS
62
4
100
AcDbLine
10
768.550000000000
20
289.240000000000
30
0.0
11
784.720000000000
21
307.020000000000
31
0.0
0
LINE
5
5c9
100
AcDbEntity
8
0-5_2_4
6
CONTINUOUS
62
4
100
AcDbLine
10
765.630000000000
20
300.900000000000
30
0.0
11
781.800000000000
21
318.680000000000
31
0.0
0
LINE
5
5ca
100
AcDbEntity
8
0-5_2_4
6
CONTINUOUS
62
4
100
AcDbLine
10
762.720000000000
20
312.560000000000
30
0.0
11
778.890000000000
21
330.340000000000
31
0.0
0
LINE
5
5cb
100
AcDbEntity
8
0-5_2_4
6
CONTINUOUS
62
4
100
AcDbLine
10
759.800000000000
20
324.220000000000
30
0.0
11
775.970000000000
21
342.000000000000
31
0.0
0
LINE
5
5cc
100
AcDbEntity
8
0-5_2_4
6
CONTINUOUS
62
4
100
AcDbLine
10
756.890000000000
20
335.880000000000
30
0.0
11
773.060000000000
21
353.660000000000
31
0.0
0
LINE
5
5cd
100
AcDbEntity
8
0-5_2_4
6
CONTINUOUS
62
4
100
AcDbLine
10
753.970000000000
20
347.530000000000
30
0.0
11
756.050000000000
21
349.820000000000
31
0.0
0
LINE
5
5ce
100
AcDbEntity
8
0-5_2_4
6
CONTINUOUS
62
3
100
AcDbLine
10
753.560000000000
20
349.200000000000
30
0.0
11
789.380000000000
21
205.910000000000
31
0.0
0
LINE
5
5cf
100
AcDbEntity
8
0-5_2_4
6
CONTINUOUS
62
3
100
AcDbLine
10
796.100000000000
20
261.500000000000
30
0.0
11
808.780000000000
21
210.760000000000
31
0.0
0
LINE
5
5d0
100
AcDbEntity
8
0-5_2_4
6
CONTINUOUS
62
4
100
AcDbLine
10
804.300000000000
20
209.640000000000
30
0.0
11
808.040000000000
21
213.740000000000
31
0.0
0
LINE
5
5d1
100
AcDbEntity
8
0-5_2_4
6
CONTINUOUS
62
7
100
AcDbLine
10
864.230000000000
20
386.250000000000
30
0.0
11
865.300000000000
21
382.250000000000
31
0.0
0
LINE
5
5d2
100
AcDbEntity
8
0-5_2_4
6
CONTINUOUS
62
7
100
AcDbLine
10
864.230000000000
20
386.250000000000
30
0.0
11
867.160000000000
21
383.320000000000
31
0.0
0
LINE
5
5d3
100
AcDbEntity
8
0-5_2_4
6
CONTINUOUS
62
7
100
AcDbLine
10
864.230000000000
20
386.250000000000
30
0.0
11
875.780000000000
21
366.250000000000
31
0.0
0
LINE
5
5d4
100
AcDbEntity
8
0-5_2_4
6
CONTINUOUS
62
7
100
AcDbLine
10
720.860000000000
20
344.330000000000
30
0.0
11
719.790000000000
21
340.330000000000
31
0.0
0
LINE
5
5d5
100
AcDbEntity
8
0-5_2_4
6
CONTINUOUS
62
7
100
AcDbLine
10
720.860000000000
20
344.330000000000
30
0.0
11
717.930000000000
21
341.410000000000
31
0.0
0
LINE
5
5d6
100
AcDbEntity
8
0-5_2_4
6
CONTINUOUS
62
7
100
AcDbLine
10
776.100000000000
20
259.020000000000
30
0.0
11
775.030000000000
21
255.020000000000
31
0.0
0
LINE
5
5d7
100
AcDbEntity
8
0-5_2_4
6
CONTINUOUS
62
7
100
AcDbLine
10
776.100000000000
20
259.020000000000
30
0.0
11
773.170000000000
21
256.090000000000
31
0.0
0
LINE
5
5d8
100
AcDbEntity
8
0-5_2_4
6
CONTINUOUS
62
7
100
AcDbLine
10
878.100000000000
20
243.550000000000
30
0.0
11
877.030000000000
21
239.550000000000
31
0.0
0
LINE
5
5d9
100
AcDbEntity
8
0-5_2_4
6
CONTINUOUS
62
7
100
AcDbLine
10
878.100000000000
20
243.550000000000
30
0.0
11
875.170000000000
21
240.620000000000
31
0.0
0
LINE
5
5da
100
AcDbEntity
8
0-5_2_4
6
CONTINUOUS
62
7
100
AcDbLine
10
878.100000000000
20
243.550000000000
30
0.0
11
866.550000000000
21
223.550000000000
31
0.0
0
LINE
5
5db
100
AcDbEntity
8
0-5_2_4
6
CONTINUOUS
62
7
100
AcDbLine
10
757.090000000000
20
384.560000000000
30
0.0
11
757.360000000000
21
388.700000000000
31
0.0
0
LINE
5
5dc
100
AcDbEntity
8
0-5_2_4
6
CONTINUOUS
62
7
100
AcDbLine
10
757.090000000000
20
384.560000000000
30
0.0
11
759.390000000000
21
388.010000000000
31
0.0
0
LINE
5
5dd
100
AcDbEntity
8
0-5_2_4
6
CONTINUOUS
62
3
100
AcDbLine
10
716.670000000000
20
368.120000000000
30
0.0
11
722.730000000000
21
343.860000000000
31
0.0
0
LINE
5
5de
100
AcDbEntity
8
0-5_2_4
6
CONTINUOUS
62
7
100
AcDbLine
10
822.950000000000
20
395.740000000000
30
0.0
11
824.020000000000
21
391.740000000000
31
0.0
0
LINE
5
5df
100
AcDbEntity
8
0-5_2_4
6
CONTINUOUS
62
7
100
AcDbLine
10
822.950000000000
20
395.740000000000
30
0.0
11
825.880000000000
21
392.820000000000
31
0.0
0
LINE
5
5e0
100
AcDbEntity
8
0-5_2_4
6
CONTINUOUS
62
7
100
AcDbLine
10
822.950000000000
20
395.740000000000
30
0.0
11
856.150000000000
21
338.240000000000
31
0.0
0
LINE
5
5e1
100
AcDbEntity
8
0-5_2_4
6
CONTINUOUS
62
4
100
AcDbLine
10
750.210000000000
20
378.250000000000
30
0.0
11
740.510000000000
21
375.830000000000
31
0.0
0
LINE
5
5e2
100
AcDbEntity
8
0-5_2_4
6
CONTINUOUS
62
4
100
AcDbLine
10
748.150000000000
20
378.250000000000
30
0.0
11
742.330000000000
21
376.800000000000
31
0.0
0
LINE
5
5e3
100
AcDbEntity
8
0-5_2_4
6
CONTINUOUS
62
4
100
AcDbLine
10
740.510000000000
20
375.830000000000
30
0.0
11
740.610000000000
21
375.440000000000
31
0.0
0
LINE
5
5e4
100
AcDbEntity
8
0-5_2_4
6
CONTINUOUS
62
4
100
AcDbLine
10
742.330000000000
20
376.800000000000
30
0.0
11
740.990000000000
21
375.950000000000
31
0.0
0
LINE
5
5e5
100
AcDbEntity
8
0-5_2_4
6
CONTINUOUS
62
4
100
AcDbLine
10
750.210000000000
20
378.250000000000
30
0.0
11
750.310000000000
21
377.870000000000
31
0.0
0
LINE
5
5e6
100
AcDbEntity
8
0-5_2_4
6
CONTINUOUS
62
4
100
AcDbLine
10
748.150000000000
20
378.250000000000
30
0.0
11
749.720000000000
21
378.130000000000
31
0.0
0
LINE
5
5e7
100
AcDbEntity
8
0-5_2_4
6
CONTINUOUS
62
4
100
AcDbLine
10
750.310000000000
20
377.870000000000
30
0.0
11
740.610000000000
21
375.440000000000
31
0.0
0
LINE
5
5e8
100
AcDbEntity
8
0-5_2_4
6
CONTINUOUS
62
7
100
AcDbLine
10
776.100000000000
20
259.020000000000
30
0.0
11
757.650000000000
21
227.070000000000
31
0.0
0
POLYLINE
5
5e9
100
AcDbEntity
8
0-5_2_4
6
CONTINUOUS
62
  4
100
AcDb2dPolyline
66
1
10
0.0
20
0.0
30
0.0
70
0
0
VERTEX
5
5ea
100
AcDbEntity
8
0-5_2_4
6
CONTINUOUS
62
  4
100
AcDbVertex
100
AcDb2dVertex
10
786.130000000000
20
345.220000000000
30
0.0
0
VERTEX
5
5eb
100
AcDbEntity
8
0-5_2_4
6
CONTINUOUS
62
  4
100
AcDbVertex
100
AcDb2dVertex
10
786.710000000000
20
346.190000000000
30
0.0
0
VERTEX
5
5ec
100
AcDbEntity
8
0-5_2_4
6
CONTINUOUS
62
  4
100
AcDbVertex
100
AcDb2dVertex
10
785.920000000000
20
347.120000000000
30
0.0
0
VERTEX
5
5ed
100
AcDbEntity
8
0-5_2_4
6
CONTINUOUS
62
  4
100
AcDbVertex
100
AcDb2dVertex
10
786.930000000000
20
348.090000000000
30
0.0
0
VERTEX
5
5ee
100
AcDbEntity
8
0-5_2_4
6
CONTINUOUS
62
  4
100
AcDbVertex
100
AcDb2dVertex
10
788.650000000000
20
346.680000000000
30
0.0
0
SEQEND
5
5ef
100
AcDbEntity
8
0-5_2_4
0
LINE
5
5f0
100
AcDbEntity
8
0-5_2_4
6
CONTINUOUS
62
4
100
AcDbLine
10
750.130000000000
20
365.190000000000
30
0.0
11
747.150000000000
21
377.080000000000
31
0.0
0
LINE
5
5f1
100
AcDbEntity
8
0-5_2_4
6
CONTINUOUS
62
4
100
AcDbLine
10
746.730000000000
20
364.340000000000
30
0.0
11
743.760000000000
21
376.230000000000
31
0.0
0
LINE
5
5f2
100
AcDbEntity
8
0-5_2_4
6
CONTINUOUS
62
4
100
AcDbLine
10
747.550000000000
20
362.320000000000
30
0.0
11
750.360000000000
21
363.540000000000
31
0.0
0
LINE
5
5f3
100
AcDbEntity
8
0-5_2_4
6
CONTINUOUS
62
4
100
AcDbLine
10
748.500000000000
20
360.580000000000
30
0.0
11
750.340000000000
21
361.380000000000
31
0.0
0
LINE
5
5f4
100
AcDbEntity
8
0-5_2_4
6
CONTINUOUS
62
4
100
AcDbLine
10
749.440000000000
20
358.840000000000
30
0.0
11
750.320000000000
21
359.230000000000
31
0.0
0
LINE
5
5f5
100
AcDbEntity
8
0-5_2_4
6
CONTINUOUS
62
4
100
AcDbLine
10
750.060000000000
20
358.220000000000
30
0.0
11
746.710000000000
21
364.400000000000
31
0.0
0
LINE
5
5f6
100
AcDbEntity
8
0-5_2_4
6
CONTINUOUS
62
4
100
AcDbLine
10
750.060000000000
20
358.220000000000
30
0.0
11
750.120000000000
21
365.250000000000
31
0.0
0
LINE
5
5f7
100
AcDbEntity
8
0-5_2_4
6
CONTINUOUS
62
4
100
AcDbLine
10
746.320000000000
20
363.940000000000
30
0.0
11
750.500000000000
21
365.760000000000
31
0.0
0
LINE
5
5f8
100
AcDbEntity
8
0-5_2_4
6
CONTINUOUS
62
4
100
AcDbLine
10
745.830000000000
20
365.880000000000
30
0.0
11
750.010000000000
21
367.700000000000
31
0.0
0
LINE
5
5f9
100
AcDbEntity
8
0-5_2_4
6
CONTINUOUS
62
4
100
AcDbLine
10
745.350000000000
20
367.820000000000
30
0.0
11
749.530000000000
21
369.640000000000
31
0.0
0
LINE
5
5fa
100
AcDbEntity
8
0-5_2_4
6
CONTINUOUS
62
4
100
AcDbLine
10
744.860000000000
20
369.760000000000
30
0.0
11
749.040000000000
21
371.580000000000
31
0.0
0
LINE
5
5fb
100
AcDbEntity
8
0-5_2_4
6
CONTINUOUS
62
4
100
AcDbLine
10
744.380000000000
20
371.700000000000
30
0.0
11
748.560000000000
21
373.520000000000
31
0.0
0
LINE
5
5fc
100
AcDbEntity
8
0-5_2_4
6
CONTINUOUS
62
4
100
AcDbLine
10
743.890000000000
20
373.640000000000
30
0.0
11
748.070000000000
21
375.460000000000
31
0.0
0
LINE
5
5fd
100
AcDbEntity
8
0-5_2_4
6
CONTINUOUS
62
7
100
AcDbLine
10
722.390000000000
20
343.980000000000
30
0.0
11
716.380000000000
21
368.040000000000
31
0.0
0
LINE
5
5fe
100
AcDbEntity
8
0-5_2_4
6
CONTINUOUS
62
7
100
AcDbLine
10
723.120000000000
20
343.550000000000
30
0.0
11
750.960000000000
21
350.510000000000
31
0.0
0
LINE
5
5ff
100
AcDbEntity
8
0-5_2_4
6
CONTINUOUS
62
7
100
AcDbLine
10
723.270000000000
20
342.960000000000
30
0.0
11
751.110000000000
21
349.920000000000
31
0.0
0
LINE
5
600
100
AcDbEntity
8
0-5_2_4
6
CONTINUOUS
62
7
100
AcDbLine
10
721.810000000000
20
343.840000000000
30
0.0
11
715.800000000000
21
367.900000000000
31
0.0
0
LINE
5
601
100
AcDbEntity
8
0-5_2_4
6
DASHED
62
7
100
AcDbLine
10
741.800000000000
20
377.080000000000
30
0.0
11
737.190000000000
21
374.770000000000
31
0.0
0
LINE
5
602
100
AcDbEntity
8
0-5_2_4
6
DASHED
62
7
100
AcDbLine
10
716.590000000000
20
369.640000000000
30
0.0
11
737.280000000000
21
374.820000000000
31
0.0
0
LINE
5
603
100
AcDbEntity
8
0-5_2_4
6
DASHED
62
7
100
AcDbLine
10
748.490000000000
20
378.750000000000
30
0.0
11
752.860000000000
21
378.790000000000
31
0.0
0
LINE
5
604
100
AcDbEntity
8
0-5_2_4
6
CONTINUOUS
62
7
100
AcDbLine
10
758.090000000000
20
321.980000000000
30
0.0
11
757.020000000000
21
317.980000000000
31
0.0
0
LINE
5
605
100
AcDbEntity
8
0-5_2_4
6
CONTINUOUS
62
7
100
AcDbLine
10
758.090000000000
20
321.980000000000
30
0.0
11
755.160000000000
21
319.050000000000
31
0.0
0
LINE
5
606
100
AcDbEntity
8
0-5_2_4
6
CONTINUOUS
62
7
100
AcDbLine
10
720.860000000000
20
344.330000000000
30
0.0
11
704.650000000000
21
316.260000000000
31
0.0
0
LINE
5
607
100
AcDbEntity
8
0-5_2_4
6
CONTINUOUS
62
7
100
AcDbLine
10
758.090000000000
20
321.980000000000
30
0.0
11
736.590000000000
21
284.740000000000
31
0.0
0
LINE
5
608
100
AcDbEntity
8
0-5_2_4
6
CONTINUOUS
62
3
100
AcDbLine
10
1000.550000000000
20
413.320000000000
30
0.0
11
722.730000000000
21
343.860000000000
31
0.0
0
LINE
5
609
100
AcDbEntity
8
0-5_2_4
6
CONTINUOUS
62
4
100
AcDbLine
10
905.910000000000
20
389.660000000000
30
0.0
11
924.100000000000
21
419.970000000000
31
0.0
0
LINE
5
60a
100
AcDbEntity
8
0-5_2_4
6
CONTINUOUS
62
4
100
AcDbLine
10
884.310000000000
20
410.030000000000
30
0.0
11
914.620000000000
21
391.840000000000
31
0.0
0
LINE
5
60b
100
AcDbEntity
8
0-5_2_4
6
CONTINUOUS
62
4
100
AcDbLine
10
933.350000000000
20
396.520000000000
30
0.0
11
951.540000000000
21
426.830000000000
31
0.0
0
LINE
5
60c
100
AcDbEntity
8
0-5_2_4
6
CONTINUOUS
62
4
100
AcDbLine
10
911.750000000000
20
416.890000000000
30
0.0
11
942.060000000000
21
398.700000000000
31
0.0
0
LINE
5
60d
100
AcDbEntity
8
0-5_2_4
6
CONTINUOUS
62
4
100
AcDbLine
10
960.790000000000
20
403.380000000000
30
0.0
11
978.980000000000
21
433.690000000000
31
0.0
0
LINE
5
60e
100
AcDbEntity
8
0-5_2_4
6
CONTINUOUS
62
4
100
AcDbLine
10
939.190000000000
20
423.750000000000
30
0.0
11
969.500000000000
21
405.550000000000
31
0.0
0
LINE
5
60f
100
AcDbEntity
8
0-5_2_4
6
CONTINUOUS
62
4
100
AcDbLine
10
966.630000000000
20
430.610000000000
30
0.0
11
996.940000000000
21
412.410000000000
31
0.0
0
LINE
5
610
100
AcDbEntity
8
0-5_2_4
6
CONTINUOUS
62
4
100
AcDbLine
10
988.230000000000
20
410.240000000000
30
0.0
11
997.470000000000
21
425.640000000000
31
0.0
0
LINE
5
611
100
AcDbEntity
8
0-5_2_4
6
CONTINUOUS
62
7
100
AcDbLine
10
1005.470000000000
20
282.090000000000
30
0.0
11
804.540000000000
21
231.860000000000
31
0.0
0
LINE
5
612
100
AcDbEntity
8
0-5_2_4
6
CONTINUOUS
62
7
100
AcDbLine
10
1007.050000000000
20
275.790000000000
30
0.0
11
806.110000000000
21
225.550000000000
31
0.0
0
LINE
5
613
100
AcDbEntity
8
0-6_2_5
6
CONTINUOUS
62
7
100
AcDbLine
10
1346.220000000000
20
365.420000000000
30
0.0
11
1338.970000000000
21
364.920000000000
31
0.0
0
POLYLINE
5
614
100
AcDbEntity
8
0-6_2_5
6
CONTINUOUS
62
  7
100
AcDb2dPolyline
66
1
10
0.0
20
0.0
30
0.0
70
0
0
VERTEX
5
615
100
AcDbEntity
8
0-6_2_5
6
CONTINUOUS
62
  7
100
AcDbVertex
100
AcDb2dVertex
10
1346.180000000000
20
365.920000000000
30
0.0
0
VERTEX
5
616
100
AcDbEntity
8
0-6_2_5
6
CONTINUOUS
62
  7
100
AcDbVertex
100
AcDb2dVertex
10
1338.930000000000
20
365.420000000000
30
0.0
0
VERTEX
5
617
100
AcDbEntity
8
0-6_2_5
6
CONTINUOUS
62
  7
100
AcDbVertex
100
AcDb2dVertex
10
1338.970000000000
20
364.920000000000
30
0.0
0
SEQEND
5
618
100
AcDbEntity
8
0-6_2_5
0
LINE
5
619
100
AcDbEntity
8
0-6_2_5
6
CONTINUOUS
62
7
100
AcDbLine
10
1261.470000000000
20
362.920000000000
30
0.0
11
1261.470000000000
21
355.670000000000
31
0.0
0
LINE
5
61a
100
AcDbEntity
8
0-6_2_5
6
CONTINUOUS
62
7
100
AcDbLine
10
1260.970000000000
20
362.920000000000
30
0.0
11
1260.970000000000
21
355.670000000000
31
0.0
0
LINE
5
61b
100
AcDbEntity
8
0-6_2_5
6
CONTINUOUS
62
7
100
AcDbLine
10
1346.220000000000
20
364.420000000000
30
0.0
11
1261.970000000000
21
364.420000000000
31
0.0
0
LINE
5
61c
100
AcDbEntity
8
0-6_2_5
6
CONTINUOUS
62
7
100
AcDbLine
10
1260.470000000000
20
362.920000000000
30
0.0
11
1260.470000000000
21
355.670000000000
31
0.0
0
LINE
5
61d
100
AcDbEntity
8
0-6_2_5
6
CONTINUOUS
62
7
100
AcDbLine
10
1278.970000000000
20
363.420000000000
30
0.0
11
1261.970000000000
21
363.420000000000
31
0.0
0
LINE
5
61e
100
AcDbEntity
8
0-6_2_5
6
CONTINUOUS
62
7
100
AcDbLine
10
1278.970000000000
20
363.920000000000
30
0.0
11
1261.970000000000
21
363.920000000000
31
0.0
0
LINE
5
61f
100
AcDbEntity
8
0-6_2_5
6
CONTINUOUS
62
7
100
AcDbLine
10
1279.970000000000
20
330.920000000000
30
0.0
11
1280.470000000000
21
323.670000000000
31
0.0
0
POLYLINE
5
620
100
AcDbEntity
8
0-6_2_5
6
CONTINUOUS
62
  7
100
AcDb2dPolyline
66
1
10
0.0
20
0.0
30
0.0
70
0
0
VERTEX
5
621
100
AcDbEntity
8
0-6_2_5
6
CONTINUOUS
62
  7
100
AcDbVertex
100
AcDb2dVertex
10
1279.970000000000
20
330.920000000000
30
0.0
0
VERTEX
5
622
100
AcDbEntity
8
0-6_2_5
6
CONTINUOUS
62
  7
100
AcDbVertex
100
AcDb2dVertex
10
1280.470000000000
20
330.960000000000
30
0.0
0
VERTEX
5
623
100
AcDbEntity
8
0-6_2_5
6
CONTINUOUS
62
  7
100
AcDbVertex
100
AcDb2dVertex
10
1280.970000000000
20
323.710000000000
30
0.0
0
SEQEND
5
624
100
AcDbEntity
8
0-6_2_5
0
LINE
5
625
100
AcDbEntity
8
0-6_2_5
6
CONTINUOUS
62
7
100
AcDbLine
10
1279.970000000000
20
362.920000000000
30
0.0
11
1279.970000000000
21
323.670000000000
31
0.0
0
LINE
5
626
100
AcDbEntity
8
0-6_2_5
6
CONTINUOUS
62
7
100
AcDbLine
10
1279.470000000000
20
362.920000000000
30
0.0
11
1279.470000000000
21
323.670000000000
31
0.0
0
LINE
5
627
100
AcDbEntity
8
0-6_2_5
6
CONTINUOUS
62
7
100
AcDbLine
10
1261.970000000000
20
364.920000000000
30
0.0
11
1346.220000000000
21
364.920000000000
31
0.0
0
LINE
5
628
100
AcDbEntity
8
0-6_2_5
6
CONTINUOUS
62
7
100
AcDbLine
10
1259.970000000000
20
362.920000000000
30
0.0
11
1259.970000000000
21
355.670000000000
31
0.0
0
LINE
5
629
100
AcDbEntity
8
0-6_2_5
6
CONTINUOUS
62
7
100
AcDbLine
10
1281.790000000000
20
338.520000000000
30
0.0
11
1311.590000000000
21
338.520000000000
31
0.0
0
LINE
5
62a
100
AcDbEntity
8
0-6_2_5
6
CONTINUOUS
62
7
100
AcDbLine
10
1281.790000000000
20
337.920000000000
30
0.0
11
1311.590000000000
21
337.920000000000
31
0.0
0
LINE
5
62b
100
AcDbEntity
8
0-6_2_5
6
CONTINUOUS
62
7
100
AcDbLine
10
1281.190000000000
20
339.120000000000
30
0.0
11
1281.190000000000
21
363.220000000000
31
0.0
0
LINE
5
62c
100
AcDbEntity
8
0-6_2_5
6
CONTINUOUS
62
7
100
AcDbLine
10
1280.590000000000
20
363.220000000000
30
0.0
11
1281.190000000000
21
363.220000000000
31
0.0
0
LINE
5
62d
100
AcDbEntity
8
0-6_2_5
6
CONTINUOUS
62
7
100
AcDbLine
10
1280.590000000000
20
339.120000000000
30
0.0
11
1280.590000000000
21
363.220000000000
31
0.0
0
LINE
5
62e
100
AcDbEntity
8
0-6_2_5
6
CONTINUOUS
62
7
100
AcDbLine
10
1261.910000000000
20
363.120000000000
30
0.0
11
1261.910000000000
21
355.340000000000
31
0.0
0
LINE
5
62f
100
AcDbEntity
8
0-6_2_5
6
CONTINUOUS
62
7
100
AcDbLine
10
1262.510000000000
20
363.120000000000
30
0.0
11
1262.510000000000
21
355.340000000000
31
0.0
0
LINE
5
630
100
AcDbEntity
8
0-6_2_5
6
CONTINUOUS
62
7
100
AcDbLine
10
1526.660000000000
20
366.320000000000
30
0.0
11
1260.270000000000
21
366.320000000000
31
0.0
0
LINE
5
631
100
AcDbEntity
8
0-6_2_5
6
CONTINUOUS
62
7
100
AcDbLine
10
1526.660000000000
20
366.920000000000
30
0.0
11
1260.270000000000
21
366.920000000000
31
0.0
0
LINE
5
632
100
AcDbEntity
8
0-6_2_5
6
CONTINUOUS
62
7
100
AcDbLine
10
1260.270000000000
20
377.920000000000
30
0.0
11
1526.660000000000
21
377.920000000000
31
0.0
0
LINE
5
633
100
AcDbEntity
8
0-6_2_5
6
CONTINUOUS
62
7
100
AcDbLine
10
1259.670000000000
20
365.720000000000
30
0.0
11
1259.670000000000
21
355.340000000000
31
0.0
0
LINE
5
634
100
AcDbEntity
8
0-6_2_5
6
DASHED
62
7
100
AcDbLine
10
1361.590000000000
20
365.720000000000
30
0.0
11
1368.820000000000
21
364.920000000000
31
0.0
0
LINE
5
635
100
AcDbEntity
8
0-6_2_5
6
DASHED
62
7
100
AcDbLine
10
1361.590000000000
20
365.720000000000
30
0.0
11
1350.570000000000
21
365.720000000000
31
0.0
0
POLYLINE
5
636
100
AcDbEntity
8
0-6_2_5
6
DASHED
62
  7
100
AcDb2dPolyline
66
1
10
0.0
20
0.0
30
0.0
70
0
0
VERTEX
5
637
100
AcDbEntity
8
0-6_2_5
6
DASHED
62
  7
100
AcDbVertex
100
AcDb2dVertex
10
1338.830000000000
20
365.870000000000
30
0.0
0
VERTEX
5
638
100
AcDbEntity
8
0-6_2_5
6
DASHED
62
  7
100
AcDbVertex
100
AcDb2dVertex
10
1347.420000000000
20
366.100000000000
30
0.0
0
VERTEX
5
639
100
AcDbEntity
8
0-6_2_5
6
DASHED
62
  7
100
AcDbVertex
100
AcDb2dVertex
10
1350.570000000000
20
365.720000000000
30
0.0
0
SEQEND
5
63a
100
AcDbEntity
8
0-6_2_5
0
LINE
5
63b
100
AcDbEntity
8
0-6_2_5
6
DASHED
62
7
100
AcDbLine
10
1338.830000000000
20
365.870000000000
30
0.0
11
1335.810000000000
21
365.720000000000
31
0.0
0
LINE
5
63c
100
AcDbEntity
8
0-6_2_5
6
CONTINUOUS
62
4
100
AcDbLine
10
1306.090000000000
20
365.320000000000
30
0.0
11
1296.090000000000
21
365.320000000000
31
0.0
0
LINE
5
63d
100
AcDbEntity
8
0-6_2_5
6
CONTINUOUS
62
4
100
AcDbLine
10
1304.090000000000
20
365.820000000000
30
0.0
11
1298.090000000000
21
365.820000000000
31
0.0
0
LINE
5
63e
100
AcDbEntity
8
0-6_2_5
6
CONTINUOUS
62
4
100
AcDbLine
10
1296.090000000000
20
365.320000000000
30
0.0
11
1296.090000000000
21
364.920000000000
31
0.0
0
LINE
5
63f
100
AcDbEntity
8
0-6_2_5
6
CONTINUOUS
62
4
100
AcDbLine
10
1298.090000000000
20
365.820000000000
30
0.0
11
1296.590000000000
21
365.320000000000
31
0.0
0
LINE
5
640
100
AcDbEntity
8
0-6_2_5
6
CONTINUOUS
62
4
100
AcDbLine
10
1306.090000000000
20
365.320000000000
30
0.0
11
1306.090000000000
21
364.920000000000
31
0.0
0
LINE
5
641
100
AcDbEntity
8
0-6_2_5
6
CONTINUOUS
62
4
100
AcDbLine
10
1304.090000000000
20
365.820000000000
30
0.0
11
1305.590000000000
21
365.320000000000
31
0.0
0
LINE
5
642
100
AcDbEntity
8
0-6_2_5
6
CONTINUOUS
62
4
100
AcDbLine
10
1306.090000000000
20
364.920000000000
30
0.0
11
1296.090000000000
21
364.920000000000
31
0.0
0
LINE
5
643
100
AcDbEntity
8
0-6_2_5
6
CONTINUOUS
62
4
100
AcDbLine
10
1299.640000000000
20
344.510000000000
30
0.0
11
1302.660000000000
21
345.010000000000
31
0.0
0
LINE
5
644
100
AcDbEntity
8
0-6_2_5
6
CONTINUOUS
62
4
100
AcDbLine
10
1300.140000000000
20
342.590000000000
30
0.0
11
1302.120000000000
21
342.920000000000
31
0.0
0
LINE
5
645
100
AcDbEntity
8
0-6_2_5
6
CONTINUOUS
62
4
100
AcDbLine
10
1300.640000000000
20
340.670000000000
30
0.0
11
1301.580000000000
21
340.830000000000
31
0.0
0
LINE
5
646
100
AcDbEntity
8
0-6_2_5
6
CONTINUOUS
62
4
100
AcDbLine
10
1301.090000000000
20
339.920000000000
30
0.0
11
1299.330000000000
21
346.720000000000
31
0.0
0
LINE
5
647
100
AcDbEntity
8
0-6_2_5
6
CONTINUOUS
62
4
100
AcDbLine
10
1301.090000000000
20
339.920000000000
30
0.0
11
1302.850000000000
21
346.720000000000
31
0.0
0
LINE
5
648
100
AcDbEntity
8
0-6_2_5
6
CONTINUOUS
62
4
100
AcDbLine
10
1298.840000000000
20
346.370000000000
30
0.0
11
1303.340000000000
21
347.120000000000
31
0.0
0
LINE
5
649
100
AcDbEntity
8
0-6_2_5
6
CONTINUOUS
62
4
100
AcDbLine
10
1298.840000000000
20
348.370000000000
30
0.0
11
1303.340000000000
21
349.120000000000
31
0.0
0
LINE
5
64a
100
AcDbEntity
8
0-6_2_5
6
CONTINUOUS
62
4
100
AcDbLine
10
1298.840000000000
20
350.370000000000
30
0.0
11
1303.340000000000
21
351.120000000000
31
0.0
0
LINE
5
64b
100
AcDbEntity
8
0-6_2_5
6
CONTINUOUS
62
4
100
AcDbLine
10
1298.840000000000
20
352.370000000000
30
0.0
11
1303.340000000000
21
353.120000000000
31
0.0
0
LINE
5
64c
100
AcDbEntity
8
0-6_2_5
6
CONTINUOUS
62
4
100
AcDbLine
10
1298.840000000000
20
354.370000000000
30
0.0
11
1303.340000000000
21
355.120000000000
31
0.0
0
LINE
5
64d
100
AcDbEntity
8
0-6_2_5
6
CONTINUOUS
62
4
100
AcDbLine
10
1298.840000000000
20
356.370000000000
30
0.0
11
1303.340000000000
21
357.120000000000
31
0.0
0
LINE
5
64e
100
AcDbEntity
8
0-6_2_5
6
CONTINUOUS
62
4
100
AcDbLine
10
1299.340000000000
20
346.660000000000
30
0.0
11
1299.340000000000
21
364.920000000000
31
0.0
0
LINE
5
64f
100
AcDbEntity
8
0-6_2_5
6
CONTINUOUS
62
4
100
AcDbLine
10
1302.840000000000
20
346.660000000000
30
0.0
11
1302.840000000000
21
364.920000000000
31
0.0
0
LINE
5
650
100
AcDbEntity
8
0-6_2_5
6
CONTINUOUS
62
4
100
AcDbLine
10
1298.840000000000
20
358.370000000000
30
0.0
11
1303.340000000000
21
359.120000000000
31
0.0
0
LINE
5
651
100
AcDbEntity
8
0-6_2_5
6
CONTINUOUS
62
4
100
AcDbLine
10
1298.840000000000
20
360.370000000000
30
0.0
11
1303.340000000000
21
361.120000000000
31
0.0
0
LINE
5
652
100
AcDbEntity
8
0-6_2_5
6
CONTINUOUS
62
4
100
AcDbLine
10
1298.840000000000
20
362.370000000000
30
0.0
11
1303.340000000000
21
363.120000000000
31
0.0
0
POLYLINE
5
653
100
AcDbEntity
8
0-6_2_5
6
DASHED
62
  7
100
AcDb2dPolyline
66
1
10
0.0
20
0.0
30
0.0
70
0
0
VERTEX
5
654
100
AcDbEntity
8
0-6_2_5
6
DASHED
62
  7
100
AcDbVertex
100
AcDb2dVertex
10
1296.830000000000
20
366.070000000000
30
0.0
0
VERTEX
5
655
100
AcDbEntity
8
0-6_2_5
6
DASHED
62
  7
100
AcDbVertex
100
AcDb2dVertex
10
1305.780000000000
20
366.070000000000
30
0.0
0
VERTEX
5
656
100
AcDbEntity
8
0-6_2_5
6
DASHED
62
  7
100
AcDbVertex
100
AcDb2dVertex
10
1307.370000000000
20
365.720000000000
30
0.0
0
SEQEND
5
657
100
AcDbEntity
8
0-6_2_5
0
LINE
5
658
100
AcDbEntity
8
0-6_2_5
6
DASHED
62
7
100
AcDbLine
10
1296.830000000000
20
366.070000000000
30
0.0
11
1295.810000000000
21
365.720000000000
31
0.0
0
LINE
5
659
100
AcDbEntity
8
0-6_2_5
6
CONTINUOUS
62
7
100
AcDbLine
10
1311.590000000000
20
321.350000000000
30
0.0
11
1310.520000000000
21
317.350000000000
31
0.0
0
LINE
5
65a
100
AcDbEntity
8
0-6_2_5
6
CONTINUOUS
62
7
100
AcDbLine
10
1311.590000000000
20
321.350000000000
30
0.0
11
1308.660000000000
21
318.420000000000
31
0.0
0
LINE
5
65b
100
AcDbEntity
8
0-6_2_5
6
CONTINUOUS
62
7
100
AcDbLine
10
1311.590000000000
20
321.350000000000
30
0.0
11
1290.080000000000
21
284.100000000000
31
0.0
0
LINE
5
65c
100
AcDbEntity
8
0-6_2_5
6
CONTINUOUS
62
7
100
AcDbLine
10
1279.470000000000
20
338.480000000000
30
0.0
11
1264.000000000000
21
311.680000000000
31
0.0
0
LINE
5
65d
100
AcDbEntity
8
0-00
6
CONTINUOUS
62
4
100
AcDbLine
10
782.580000000000
20
861.410000000000
30
0.0
11
800.770000000000
21
891.730000000000
31
0.0
0
LINE
5
65e
100
AcDbEntity
8
0-00
6
CONTINUOUS
62
4
100
AcDbLine
10
768.860000000000
20
857.980000000000
30
0.0
11
787.050000000000
21
888.300000000000
31
0.0
0
LINE
5
65f
100
AcDbEntity
8
0-00
6
CONTINUOUS
62
4
100
AcDbLine
10
755.140000000000
20
854.550000000000
30
0.0
11
773.340000000000
21
884.870000000000
31
0.0
0
LINE
5
660
100
AcDbEntity
8
0-00
6
CONTINUOUS
62
4
100
AcDbLine
10
741.420000000000
20
851.120000000000
30
0.0
11
759.620000000000
21
881.440000000000
31
0.0
0
LINE
5
661
100
AcDbEntity
8
0-00
6
CONTINUOUS
62
4
100
AcDbLine
10
727.710000000000
20
847.690000000000
30
0.0
11
745.900000000000
21
878.010000000000
31
0.0
0
LINE
5
662
100
AcDbEntity
8
0-00
6
CONTINUOUS
62
4
100
AcDbLine
10
713.990000000000
20
844.260000000000
30
0.0
11
732.180000000000
21
874.580000000000
31
0.0
0
LINE
5
663
100
AcDbEntity
8
0-00
6
CONTINUOUS
62
4
100
AcDbLine
10
700.270000000000
20
840.830000000000
30
0.0
11
718.460000000000
21
871.150000000000
31
0.0
0
LINE
5
664
100
AcDbEntity
8
0-00
6
CONTINUOUS
62
7
100
AcDbLine
10
699.940000000000
20
852.500000000000
30
0.0
11
702.870000000000
21
849.570000000000
31
0.0
0
LINE
5
665
100
AcDbEntity
8
0-00
6
CONTINUOUS
62
4
100
AcDbLine
10
686.550000000000
20
837.400000000000
30
0.0
11
704.740000000000
21
867.720000000000
31
0.0
0
LINE
5
666
100
AcDbEntity
8
0-00
6
CONTINUOUS
62
4
100
AcDbLine
10
672.830000000000
20
833.970000000000
30
0.0
11
691.020000000000
21
864.290000000000
31
0.0
0
LINE
5
667
100
AcDbEntity
8
0-00
6
CONTINUOUS
62
4
100
AcDbLine
10
659.110000000000
20
830.540000000000
30
0.0
11
677.300000000000
21
860.860000000000
31
0.0
0
LINE
5
668
100
AcDbEntity
8
0-00
6
CONTINUOUS
62
4
100
AcDbLine
10
645.390000000000
20
827.110000000000
30
0.0
11
663.580000000000
21
857.430000000000
31
0.0
0
LINE
5
669
100
AcDbEntity
8
0-00
6
CONTINUOUS
62
4
100
AcDbLine
10
631.670000000000
20
823.680000000000
30
0.0
11
649.860000000000
21
854.000000000000
31
0.0
0
LINE
5
66a
100
AcDbEntity
8
0-00
6
CONTINUOUS
62
4
100
AcDbLine
10
617.950000000000
20
820.250000000000
30
0.0
11
636.140000000000
21
850.570000000000
31
0.0
0
LINE
5
66b
100
AcDbEntity
8
0-00
6
CONTINUOUS
62
4
100
AcDbLine
10
604.230000000000
20
816.820000000000
30
0.0
11
622.420000000000
21
847.140000000000
31
0.0
0
LINE
5
66c
100
AcDbEntity
8
0-00
6
CONTINUOUS
62
4
100
AcDbLine
10
590.510000000000
20
813.390000000000
30
0.0
11
608.700000000000
21
843.710000000000
31
0.0
0
LINE
5
66d
100
AcDbEntity
8
0-00
6
CONTINUOUS
62
4
100
AcDbLine
10
576.790000000000
20
809.960000000000
30
0.0
11
594.980000000000
21
840.280000000000
31
0.0
0
LINE
5
66e
100
AcDbEntity
8
0-00
6
CONTINUOUS
62
4
100
AcDbLine
10
563.070000000000
20
806.530000000000
30
0.0
11
581.260000000000
21
836.850000000000
31
0.0
0
LINE
5
66f
100
AcDbEntity
8
0-00
6
CONTINUOUS
62
4
100
AcDbLine
10
549.350000000000
20
803.100000000000
30
0.0
11
567.540000000000
21
833.420000000000
31
0.0
0
LINE
5
670
100
AcDbEntity
8
0-00
6
CONTINUOUS
62
4
100
AcDbLine
10
535.630000000000
20
799.670000000000
30
0.0
11
553.820000000000
21
829.990000000000
31
0.0
0
LINE
5
671
100
AcDbEntity
8
0-00
6
CONTINUOUS
62
4
100
AcDbLine
10
521.910000000000
20
796.240000000000
30
0.0
11
540.100000000000
21
826.560000000000
31
0.0
0
LINE
5
672
100
AcDbEntity
8
0-00
6
CONTINUOUS
62
4
100
AcDbLine
10
508.190000000000
20
792.810000000000
30
0.0
11
526.380000000000
21
823.130000000000
31
0.0
0
LINE
5
673
100
AcDbEntity
8
0-00
6
CONTINUOUS
62
4
100
AcDbLine
10
494.470000000000
20
789.380000000000
30
0.0
11
512.660000000000
21
819.700000000000
31
0.0
0
LINE
5
674
100
AcDbEntity
8
0-00
6
CONTINUOUS
62
4
100
AcDbLine
10
480.750000000000
20
785.950000000000
30
0.0
11
498.940000000000
21
816.270000000000
31
0.0
0
LINE
5
675
100
AcDbEntity
8
0-00
6
CONTINUOUS
62
4
100
AcDbLine
10
467.030000000000
20
782.520000000000
30
0.0
11
485.220000000000
21
812.840000000000
31
0.0
0
LINE
5
676
100
AcDbEntity
8
0-00
6
CONTINUOUS
62
4
100
AcDbLine
10
453.310000000000
20
779.090000000000
30
0.0
11
471.500000000000
21
809.410000000000
31
0.0
0
LINE
5
677
100
AcDbEntity
8
0-00
6
CONTINUOUS
62
4
100
AcDbLine
10
439.590000000000
20
775.660000000000
30
0.0
11
457.780000000000
21
805.980000000000
31
0.0
0
LINE
5
678
100
AcDbEntity
8
0-00
6
CONTINUOUS
62
4
100
AcDbLine
10
425.870000000000
20
772.230000000000
30
0.0
11
444.060000000000
21
802.550000000000
31
0.0
0
LINE
5
679
100
AcDbEntity
8
0-00
6
CONTINUOUS
62
4
100
AcDbLine
10
412.150000000000
20
768.800000000000
30
0.0
11
430.340000000000
21
799.120000000000
31
0.0
0
LINE
5
67a
100
AcDbEntity
8
0-00
6
CONTINUOUS
62
4
100
AcDbLine
10
398.430000000000
20
765.370000000000
30
0.0
11
416.620000000000
21
795.690000000000
31
0.0
0
LINE
5
67b
100
AcDbEntity
8
0-00
6
CONTINUOUS
62
4
100
AcDbLine
10
384.710000000000
20
761.940000000000
30
0.0
11
402.900000000000
21
792.260000000000
31
0.0
0
LINE
5
67c
100
AcDbEntity
8
0-00
6
CONTINUOUS
62
4
100
AcDbLine
10
370.990000000000
20
758.510000000000
30
0.0
11
389.180000000000
21
788.830000000000
31
0.0
0
LINE
5
67d
100
AcDbEntity
8
0-00
6
CONTINUOUS
62
4
100
AcDbLine
10
357.270000000000
20
755.080000000000
30
0.0
11
375.460000000000
21
785.400000000000
31
0.0
0
LINE
5
67e
100
AcDbEntity
8
0-00
6
CONTINUOUS
62
4
100
AcDbLine
10
343.550000000000
20
751.650000000000
30
0.0
11
361.740000000000
21
781.970000000000
31
0.0
0
LINE
5
67f
100
AcDbEntity
8
1-4_2_19
6
CONTINUOUS
62
4
100
AcDbLine
10
467.450000000000
20
351.190000000000
30
0.0
11
503.830000000000
21
411.830000000000
31
0.0
0
LINE
5
680
100
AcDbEntity
8
1-4_2_19
6
CONTINUOUS
62
4
100
AcDbLine
10
440.010000000000
20
344.330000000000
30
0.0
11
476.390000000000
21
404.970000000000
31
0.0
0
LINE
5
681
100
AcDbEntity
8
1-4_2_19
6
CONTINUOUS
62
4
100
AcDbLine
10
412.570000000000
20
337.470000000000
30
0.0
11
448.950000000000
21
398.110000000000
31
0.0
0
LINE
5
682
100
AcDbEntity
8
1-4_2_19
6
CONTINUOUS
62
4
100
AcDbLine
10
385.130000000000
20
330.610000000000
30
0.0
11
421.510000000000
21
391.250000000000
31
0.0
0
LINE
5
683
100
AcDbEntity
8
1-4_2_19
6
CONTINUOUS
62
4
100
AcDbLine
10
357.690000000000
20
323.750000000000
30
0.0
11
394.070000000000
21
384.390000000000
31
0.0
0
LINE
5
684
100
AcDbEntity
8
1-4_2_19
6
CONTINUOUS
62
4
100
AcDbLine
10
330.250000000000
20
316.890000000000
30
0.0
11
366.630000000000
21
377.530000000000
31
0.0
0
LINE
5
685
100
AcDbEntity
8
1-4_2_19
6
CONTINUOUS
62
4
100
AcDbLine
10
302.810000000000
20
310.030000000000
30
0.0
11
339.190000000000
21
370.670000000000
31
0.0
0
LINE
5
686
100
AcDbEntity
8
1-4_2_19
6
CONTINUOUS
62
4
100
AcDbLine
10
275.370000000000
20
303.170000000000
30
0.0
11
311.750000000000
21
363.810000000000
31
0.0
0
LINE
5
687
100
AcDbEntity
8
1-4_2_19
6
CONTINUOUS
62
4
100
AcDbLine
10
247.930000000000
20
296.310000000000
30
0.0
11
284.310000000000
21
356.950000000000
31
0.0
0
LINE
5
688
100
AcDbEntity
8
1-4_2_19
6
CONTINUOUS
62
4
100
AcDbLine
10
220.490000000000
20
289.450000000000
30
0.0
11
256.870000000000
21
350.090000000000
31
0.0
0
LINE
5
689
100
AcDbEntity
8
1-4_2_19
6
CONTINUOUS
62
4
100
AcDbLine
10
193.050000000000
20
282.590000000000
30
0.0
11
229.430000000000
21
343.230000000000
31
0.0
0
LINE
5
68a
100
AcDbEntity
8
1-4_2_19
6
CONTINUOUS
62
4
100
AcDbLine
10
165.610000000000
20
275.730000000000
30
0.0
11
201.990000000000
21
336.370000000000
31
0.0
0
LINE
5
68b
100
AcDbEntity
8
1-4_2_19
6
CONTINUOUS
62
4
100
AcDbLine
10
145.790000000000
20
320.440000000000
30
0.0
11
147.110000000000
21
322.650000000000
31
0.0
0
LINE
5
68c
100
AcDbEntity
8
1-4_2_19
6
CONTINUOUS
62
4
100
AcDbLine
10
151.400000000000
20
290.910000000000
30
0.0
11
174.550000000000
21
329.510000000000
31
0.0
0
LINE
5
68d
100
AcDbEntity
8
1-4_2_19
6
DASHED
62
7
100
AcDbLine
10
145.500000000000
20
323.270000000000
30
0.0
11
513.610000000000
21
415.300000000000
31
0.0
0
LINE
5
68e
100
AcDbEntity
8
1-4_2_19
6
CONTINUOUS
62
3
100
AcDbLine
10
514.000000000000
20
414.370000000000
30
0.0
11
145.600000000000
21
322.270000000000
31
0.0
0
LINE
5
68f
100
AcDbEntity
8
1-4_2_19
6
CONTINUOUS
62
4
100
AcDbLine
10
494.890000000000
20
358.050000000000
30
0.0
11
519.530000000000
21
399.120000000000
31
0.0
0
LINE
5
690
100
AcDbEntity
8
1-4_2_19
6
CONTINUOUS
62
3
100
AcDbLine
10
526.830000000000
20
366.040000000000
30
0.0
11
157.010000000000
21
273.580000000000
31
0.0
0
LINE
5
691
100
AcDbEntity
8
1-4_2_19
6
CONTINUOUS
62
4
100
AcDbLine
10
522.330000000000
20
364.910000000000
30
0.0
11
526.090000000000
21
371.190000000000
31
0.0
0
LINE
5
692
100
AcDbEntity
8
0-1_2_0
6
CONTINUOUS
62
3
100
AcDbLine
10
1460.310000000000
20
876.420000000000
30
0.0
11
1459.310000000000
21
876.990000000000
31
0.0
0
LINE
5
693
100
AcDbEntity
8
0-1_2_0
6
CONTINUOUS
62
3
100
AcDbLine
10
1460.310000000000
20
876.420000000000
30
0.0
11
1461.310000000000
21
876.990000000000
31
0.0
0
LINE
5
694
100
AcDbEntity
8
0-1_2_0
6
CONTINUOUS
62
3
100
AcDbLine
10
1460.310000000000
20
875.840000000000
30
0.0
11
1459.180000000000
21
876.490000000000
31
0.0
0
LINE
5
695
100
AcDbEntity
8
0-1_2_0
6
CONTINUOUS
62
3
100
AcDbLine
10
1460.310000000000
20
875.840000000000
30
0.0
11
1461.440000000000
21
876.490000000000
31
0.0
0
LINE
5
696
100
AcDbEntity
8
0-1_2_0
6
CONTINUOUS
62
3
100
AcDbLine
10
1468.450000000000
20
876.990000000000
30
0.0
11
1461.310000000000
21
876.990000000000
31
0.0
0
LINE
5
697
100
AcDbEntity
8
0-1_2_0
6
CONTINUOUS
62
3
100
AcDbLine
10
1468.450000000000
20
876.490000000000
30
0.0
11
1461.440000000000
21
876.490000000000
31
0.0
0
LINE
5
698
100
AcDbEntity
8
0-1_2_0
6
CONTINUOUS
62
3
100
AcDbLine
10
1470.120000000000
20
882.240000000000
30
0.0
11
1469.440000000000
21
877.840000000000
31
0.0
0
LINE
5
699
100
AcDbEntity
8
0-1_2_0
6
CONTINUOUS
62
3
100
AcDbLine
10
1470.610000000000
20
882.160000000000
30
0.0
11
1469.930000000000
21
877.760000000000
31
0.0
0
LINE
5
69a
100
AcDbEntity
8
0-1_2_0
6
CONTINUOUS
62
3
100
AcDbLine
10
1471.860000000000
20
883.490000000000
30
0.0
11
1474.400000000000
21
883.040000000000
31
0.0
0
LINE
5
69b
100
AcDbEntity
8
0-1_2_0
6
CONTINUOUS
62
3
100
AcDbLine
10
1474.310000000000
20
882.550000000000
30
0.0
11
1474.400000000000
21
883.040000000000
31
0.0
0
LINE
5
69c
100
AcDbEntity
8
0-1_2_0
6
CONTINUOUS
62
3
100
AcDbLine
10
1471.770000000000
20
882.990000000000
30
0.0
11
1474.310000000000
21
882.550000000000
31
0.0
0
LINE
5
69d
100
AcDbEntity
8
0-1_2_0
6
CONTINUOUS
62
3
100
AcDbLine
10
1451.880000000000
20
876.990000000000
30
0.0
11
1459.310000000000
21
876.990000000000
31
0.0
0
LINE
5
69e
100
AcDbEntity
8
0-1_2_0
6
CONTINUOUS
62
3
100
AcDbLine
10
1451.880000000000
20
876.490000000000
30
0.0
11
1459.180000000000
21
876.490000000000
31
0.0
0
LINE
5
69f
100
AcDbEntity
8
0-1_2_0
6
CONTINUOUS
62
3
100
AcDbLine
10
1446.330000000000
20
886.270000000000
30
0.0
11
1451.020000000000
21
877.480000000000
31
0.0
0
LINE
5
6a0
100
AcDbEntity
8
0-1_2_0
6
CONTINUOUS
62
3
100
AcDbLine
10
1445.900000000000
20
886.010000000000
30
0.0
11
1450.590000000000
21
877.220000000000
31
0.0
0
LINE
5
6a1
100
AcDbEntity
8
0-1_2_0
6
CONTINUOUS
62
3
100
AcDbLine
10
1442.280000000000
20
885.210000000000
30
0.0
11
1444.100000000000
21
886.670000000000
31
0.0
0
LINE
5
6a2
100
AcDbEntity
8
0-1_2_0
6
CONTINUOUS
62
3
100
AcDbLine
10
1444.420000000000
20
886.280000000000
30
0.0
11
1442.600000000000
21
884.820000000000
31
0.0
0
LINE
5
6a3
100
AcDbEntity
8
0-1_2_0
6
CONTINUOUS
62
3
100
AcDbLine
10
1432.370000000000
20
884.490000000000
30
0.0
11
1441.660000000000
21
884.490000000000
31
0.0
0
LINE
5
6a4
100
AcDbEntity
8
0-1_2_0
6
CONTINUOUS
62
3
100
AcDbLine
10
1432.120000000000
20
882.930000000000
30
0.0
11
1441.080000000000
21
881.370000000000
31
0.0
0
LINE
5
6a5
100
AcDbEntity
8
0-1_2_0
6
CONTINUOUS
62
3
100
AcDbLine
10
1432.040000000000
20
882.440000000000
30
0.0
11
1440.990000000000
21
880.880000000000
31
0.0
0
LINE
5
6a6
100
AcDbEntity
8
0-1_2_0
6
CONTINUOUS
62
3
100
AcDbLine
10
1432.370000000000
20
884.990000000000
30
0.0
11
1441.660000000000
21
884.990000000000
31
0.0
0
LINE
5
6a7
100
AcDbEntity
8
0-1_2_0
6
CONTINUOUS
62
3
100
AcDbLine
10
1238.590000000000
20
887.210000000000
30
0.0
11
1237.380000000000
21
880.350000000000
31
0.0
0
LINE
5
6a8
100
AcDbEntity
8
0-1_2_0
6
CONTINUOUS
62
3
100
AcDbLine
10
1248.040000000000
20
879.180000000000
30
0.0
11
1250.800000000000
21
878.150000000000
31
0.0
0
LINE
5
6a9
100
AcDbEntity
8
0-1_2_0
6
CONTINUOUS
62
3
100
AcDbLine
10
1248.210000000000
20
879.650000000000
30
0.0
11
1250.980000000000
21
878.620000000000
31
0.0
0
LINE
5
6aa
100
AcDbEntity
8
0-1_2_0
6
CONTINUOUS
62
3
100
AcDbLine
10
1248.040000000000
20
879.180000000000
30
0.0
11
1248.210000000000
21
879.650000000000
31
0.0
0
LINE
5
6ab
100
AcDbEntity
8
0-1_2_0
6
CONTINUOUS
62
3
100
AcDbLine
10
1244.220000000000
20
880.650000000000
30
0.0
11
1251.120000000000
21
879.930000000000
31
0.0
0
LINE
5
6ac
100
AcDbEntity
8
0-1_2_0
6
CONTINUOUS
62
3
100
AcDbLine
10
1242.480000000000
20
879.950000000000
30
0.0
11
1241.370000000000
21
878.630000000000
31
0.0
0
LINE
5
6ad
100
AcDbEntity
8
0-1_2_0
6
CONTINUOUS
62
3
100
AcDbLine
10
1244.170000000000
20
880.150000000000
30
0.0
11
1251.060000000000
21
879.430000000000
31
0.0
0
LINE
5
6ae
100
AcDbEntity
8
0-1_2_0
6
CONTINUOUS
62
3
100
AcDbLine
10
1242.860000000000
20
879.630000000000
30
0.0
11
1241.760000000000
21
878.310000000000
31
0.0
0
LINE
5
6af
100
AcDbEntity
8
0-1_2_0
6
CONTINUOUS
62
3
100
AcDbLine
10
1239.090000000000
20
887.140000000000
30
0.0
11
1237.870000000000
21
880.270000000000
31
0.0
0
LINE
5
6b0
100
AcDbEntity
8
0-1_2_0
6
CONTINUOUS
62
3
100
AcDbLine
10
1284.310000000000
20
883.300000000000
30
0.0
11
1241.310000000000
21
888.780000000000
31
0.0
0
LINE
5
6b1
100
AcDbEntity
8
0-1_2_0
6
CONTINUOUS
62
3
100
AcDbLine
10
1284.370000000000
20
883.790000000000
30
0.0
11
1241.370000000000
21
889.270000000000
31
0.0
0
LINE
5
6b2
100
AcDbEntity
8
0-1_2_0
6
CONTINUOUS
62
3
100
AcDbLine
10
1333.200000000000
20
876.990000000000
30
0.0
11
1284.380000000000
21
883.790000000000
31
0.0
0
LINE
5
6b3
100
AcDbEntity
8
0-1_2_0
6
CONTINUOUS
62
3
100
AcDbLine
10
1333.170000000000
20
876.490000000000
30
0.0
11
1284.310000000000
21
883.300000000000
31
0.0
0
LINE
5
6b4
100
AcDbEntity
8
0-1_2_0
6
CONTINUOUS
62
7
100
AcDbLine
10
1212.910000000000
20
892.900000000000
30
0.0
11
1211.390000000000
21
881.010000000000
31
0.0
0
LINE
5
6b5
100
AcDbEntity
8
0-1_2_0
6
CONTINUOUS
62
7
100
AcDbLine
10
1226.270000000000
20
879.110000000000
30
0.0
11
1211.390000000000
21
881.010000000000
31
0.0
0
LINE
5
6b6
100
AcDbEntity
8
0-1_2_0
6
CONTINUOUS
62
7
100
AcDbLine
10
1227.790000000000
20
891.010000000000
30
0.0
11
1212.910000000000
21
892.900000000000
31
0.0
0
LINE
5
6b7
100
AcDbEntity
8
0-1_2_0
6
CONTINUOUS
62
7
100
AcDbLine
10
1232.610000000000
20
853.280000000000
30
0.0
11
1246.390000000000
21
850.850000000000
31
0.0
0
LINE
5
6b8
100
AcDbEntity
8
0-1_2_0
6
CONTINUOUS
62
7
100
AcDbLine
10
1235.210000000000
20
868.050000000000
30
0.0
11
1232.610000000000
21
853.280000000000
31
0.0
0
LINE
5
6b9
100
AcDbEntity
8
0-1_2_0
6
CONTINUOUS
62
7
100
AcDbLine
10
1249.000000000000
20
865.620000000000
30
0.0
11
1246.390000000000
21
850.850000000000
31
0.0
0
LINE
5
6ba
100
AcDbEntity
8
0-1_2_0
6
CONTINUOUS
62
7
100
AcDbLine
10
1431.310000000000
20
912.490000000000
30
0.0
11
1445.310000000000
21
912.490000000000
31
0.0
0
LINE
5
6bb
100
AcDbEntity
8
0-1_2_0
6
CONTINUOUS
62
7
100
AcDbLine
10
1431.310000000000
20
897.490000000000
30
0.0
11
1431.310000000000
21
912.490000000000
31
0.0
0
POLYLINE
5
6bc
100
AcDbEntity
8
0-1_2_0
6
CONTINUOUS
62
  7
100
AcDb2dPolyline
66
1
10
0.0
20
0.0
30
0.0
70
0
0
VERTEX
5
6bd
100
AcDbEntity
8
0-1_2_0
6
CONTINUOUS
62
  7
100
AcDbVertex
100
AcDb2dVertex
10
1445.310000000000
20
897.490000000000
30
0.0
0
VERTEX
5
6be
100
AcDbEntity
8
0-1_2_0
6
CONTINUOUS
62
  7
100
AcDbVertex
100
AcDb2dVertex
10
1445.310000000000
20
912.490000000000
30
0.0
0
VERTEX
5
6bf
100
AcDbEntity
8
0-1_2_0
6
CONTINUOUS
62
  7
100
AcDbVertex
100
AcDb2dVertex
10
1474.310000000000
20
912.490000000000
30
0.0
0
SEQEND
5
6c0
100
AcDbEntity
8
0-1_2_0
0
LINE
5
6c1
100
AcDbEntity
8
0-1_2_0
6
CONTINUOUS
62
7
100
AcDbLine
10
1474.310000000000
20
897.490000000000
30
0.0
11
1474.310000000000
21
912.490000000000
31
0.0
0
LINE
5
6c2
100
AcDbEntity
8
0-1_2_0
6
CONTINUOUS
62
7
100
AcDbLine
10
1499.310000000000
20
876.490000000000
30
0.0
11
1499.310000000000
21
887.490000000000
31
0.0
0
LINE
5
6c3
100
AcDbEntity
8
0-1_2_0
6
CONTINUOUS
62
7
100
AcDbLine
10
1484.310000000000
20
876.490000000000
30
0.0
11
1499.310000000000
21
876.490000000000
31
0.0
0
LINE
5
6c4
100
AcDbEntity
8
0-1_2_0
6
CONTINUOUS
62
7
100
AcDbLine
10
1484.310000000000
20
887.490000000000
30
0.0
11
1499.310000000000
21
887.490000000000
31
0.0
0
LINE
5
6c5
100
AcDbEntity
8
0-1_2_0
6
CONTINUOUS
62
7
100
AcDbLine
10
1332.110000000000
20
865.620000000000
30
0.0
11
1332.110000000000
21
858.120000000000
31
0.0
0
LINE
5
6c6
100
AcDbEntity
8
0-1_2_0
6
CONTINUOUS
62
7
100
AcDbLine
10
1442.110000000000
20
865.620000000000
30
0.0
11
1442.110000000000
21
843.120000000000
31
0.0
0
LINE
5
6c7
100
AcDbEntity
8
0-1_2_0
6
CONTINUOUS
62
7
100
AcDbLine
10
1252.110000000000
20
865.620000000000
30
0.0
11
1252.110000000000
21
843.120000000000
31
0.0
0
LINE
5
6c8
100
AcDbEntity
8
0-1_2_0
6
CONTINUOUS
62
7
100
AcDbLine
10
1242.060000000000
20
914.390000000000
30
0.0
11
1336.290000000000
21
902.380000000000
31
0.0
0
LINE
5
6c9
100
AcDbEntity
8
0-1_2_0
6
CONTINUOUS
62
7
100
AcDbLine
10
1241.110000000000
20
906.950000000000
30
0.0
11
1242.060000000000
21
914.390000000000
31
0.0
0
LINE
5
6ca
100
AcDbEntity
8
0-1_2_0
6
CONTINUOUS
62
7
100
AcDbLine
10
1335.340000000000
20
894.940000000000
30
0.0
11
1336.290000000000
21
902.380000000000
31
0.0
0
LINE
5
6cb
100
AcDbEntity
8
0-00
6
CONTINUOUS
62
3
100
AcDbLine
10
508.910000000000
20
819.710000000000
30
0.0
11
507.800000000000
21
820.030000000000
31
0.0
0
LINE
5
6cc
100
AcDbEntity
8
0-00
6
CONTINUOUS
62
3
100
AcDbLine
10
508.910000000000
20
819.710000000000
30
0.0
11
509.740000000000
21
820.510000000000
31
0.0
0
LINE
5
6cd
100
AcDbEntity
8
0-00
6
CONTINUOUS
62
3
100
AcDbLine
10
509.050000000000
20
819.150000000000
30
0.0
11
507.790000000000
21
819.510000000000
31
0.0
0
LINE
5
6ce
100
AcDbEntity
8
0-00
6
CONTINUOUS
62
3
100
AcDbLine
10
509.050000000000
20
819.150000000000
30
0.0
11
509.990000000000
21
820.060000000000
31
0.0
0
LINE
5
6cf
100
AcDbEntity
8
0-00
6
CONTINUOUS
62
3
100
AcDbLine
10
516.670000000000
20
822.250000000000
30
0.0
11
509.740000000000
21
820.510000000000
31
0.0
0
LINE
5
6d0
100
AcDbEntity
8
0-00
6
CONTINUOUS
62
3
100
AcDbLine
10
516.790000000000
20
821.760000000000
30
0.0
11
509.990000000000
21
820.060000000000
31
0.0
0
LINE
5
6d1
100
AcDbEntity
8
0-00
6
CONTINUOUS
62
3
100
AcDbLine
10
517.020000000000
20
827.740000000000
30
0.0
11
517.430000000000
21
823.310000000000
31
0.0
0
LINE
5
6d2
100
AcDbEntity
8
0-00
6
CONTINUOUS
62
3
100
AcDbLine
10
517.510000000000
20
827.780000000000
30
0.0
11
517.920000000000
21
823.360000000000
31
0.0
0
LINE
5
6d3
100
AcDbEntity
8
0-00
6
CONTINUOUS
62
3
100
AcDbLine
10
518.400000000000
20
829.370000000000
30
0.0
11
520.970000000000
21
829.550000000000
31
0.0
0
LINE
5
6d4
100
AcDbEntity
8
0-00
6
CONTINUOUS
62
3
100
AcDbLine
10
521.010000000000
20
829.060000000000
30
0.0
11
520.970000000000
21
829.550000000000
31
0.0
0
LINE
5
6d5
100
AcDbEntity
8
0-00
6
CONTINUOUS
62
3
100
AcDbLine
10
518.440000000000
20
828.870000000000
30
0.0
11
521.010000000000
21
829.060000000000
31
0.0
0
LINE
5
6d6
100
AcDbEntity
8
0-00
6
CONTINUOUS
62
3
100
AcDbLine
10
500.590000000000
20
818.230000000000
30
0.0
11
507.800000000000
21
820.030000000000
31
0.0
0
LINE
5
6d7
100
AcDbEntity
8
0-00
6
CONTINUOUS
62
3
100
AcDbLine
10
500.710000000000
20
817.740000000000
30
0.0
11
507.790000000000
21
819.510000000000
31
0.0
0
LINE
5
6d8
100
AcDbEntity
8
0-00
6
CONTINUOUS
62
3
100
AcDbLine
10
492.960000000000
20
825.880000000000
30
0.0
11
499.640000000000
21
818.490000000000
31
0.0
0
LINE
5
6d9
100
AcDbEntity
8
0-00
6
CONTINUOUS
62
3
100
AcDbLine
10
492.600000000000
20
825.530000000000
30
0.0
11
499.290000000000
21
818.140000000000
31
0.0
0
LINE
5
6da
100
AcDbEntity
8
0-00
6
CONTINUOUS
62
3
100
AcDbLine
10
489.290000000000
20
823.870000000000
30
0.0
11
490.700000000000
21
825.730000000000
31
0.0
0
LINE
5
6db
100
AcDbEntity
8
0-00
6
CONTINUOUS
62
3
100
AcDbLine
10
491.100000000000
20
825.430000000000
30
0.0
11
489.690000000000
21
823.570000000000
31
0.0
0
LINE
5
6dc
100
AcDbEntity
8
0-00
6
CONTINUOUS
62
3
100
AcDbLine
10
479.850000000000
20
820.770000000000
30
0.0
11
488.860000000000
21
823.020000000000
31
0.0
0
LINE
5
6dd
100
AcDbEntity
8
0-00
6
CONTINUOUS
62
3
100
AcDbLine
10
479.990000000000
20
819.200000000000
30
0.0
11
489.050000000000
21
819.860000000000
31
0.0
0
LINE
5
6de
100
AcDbEntity
8
0-00
6
CONTINUOUS
62
3
100
AcDbLine
10
480.020000000000
20
818.700000000000
30
0.0
11
489.090000000000
21
819.360000000000
31
0.0
0
LINE
5
6df
100
AcDbEntity
8
0-00
6
CONTINUOUS
62
3
100
AcDbLine
10
479.720000000000
20
821.260000000000
30
0.0
11
488.740000000000
21
823.510000000000
31
0.0
0
LINE
5
6e0
100
AcDbEntity
8
0-00
6
CONTINUOUS
62
3
100
AcDbLine
10
475.520000000000
20
822.490000000000
30
0.0
11
476.010000000000
21
815.540000000000
31
0.0
0
LINE
5
6e1
100
AcDbEntity
8
0-00
6
CONTINUOUS
62
3
100
AcDbLine
10
486.640000000000
20
816.990000000000
30
0.0
11
489.570000000000
21
816.670000000000
31
0.0
0
LINE
5
6e2
100
AcDbEntity
8
0-00
6
CONTINUOUS
62
3
100
AcDbLine
10
486.690000000000
20
817.490000000000
30
0.0
11
489.620000000000
21
817.170000000000
31
0.0
0
LINE
5
6e3
100
AcDbEntity
8
0-00
6
CONTINUOUS
62
3
100
AcDbLine
10
486.640000000000
20
816.990000000000
30
0.0
11
486.690000000000
21
817.490000000000
31
0.0
0
LINE
5
6e4
100
AcDbEntity
8
0-00
6
CONTINUOUS
62
3
100
AcDbLine
10
482.570000000000
20
817.490000000000
30
0.0
11
489.440000000000
21
818.460000000000
31
0.0
0
LINE
5
6e5
100
AcDbEntity
8
0-00
6
CONTINUOUS
62
3
100
AcDbLine
10
481.060000000000
20
816.390000000000
30
0.0
11
480.300000000000
21
814.850000000000
31
0.0
0
LINE
5
6e6
100
AcDbEntity
8
0-00
6
CONTINUOUS
62
3
100
AcDbLine
10
482.640000000000
20
817.000000000000
30
0.0
11
489.510000000000
21
817.970000000000
31
0.0
0
LINE
5
6e7
100
AcDbEntity
8
0-00
6
CONTINUOUS
62
3
100
AcDbLine
10
481.510000000000
20
816.170000000000
30
0.0
11
480.750000000000
21
814.630000000000
31
0.0
0
LINE
5
6e8
100
AcDbEntity
8
0-00
6
CONTINUOUS
62
3
100
AcDbLine
10
476.020000000000
20
822.540000000000
30
0.0
11
476.510000000000
21
815.580000000000
31
0.0
0
LINE
5
6e9
100
AcDbEntity
8
0-00
6
CONTINUOUS
62
3
100
AcDbLine
10
489.370000000000
20
815.420000000000
30
0.0
11
476.830000000000
21
812.290000000000
31
0.0
0
LINE
5
6ea
100
AcDbEntity
8
0-00
6
CONTINUOUS
62
3
100
AcDbLine
10
489.490000000000
20
814.940000000000
30
0.0
11
476.950000000000
21
811.800000000000
31
0.0
0
LINE
5
6eb
100
AcDbEntity
8
0-00
6
CONTINUOUS
62
3
100
AcDbLine
10
520.830000000000
20
829.780000000000
30
0.0
11
477.780000000000
21
824.670000000000
31
0.0
0
LINE
5
6ec
100
AcDbEntity
8
0-00
6
CONTINUOUS
62
3
100
AcDbLine
10
520.770000000000
20
830.280000000000
30
0.0
11
477.720000000000
21
825.170000000000
31
0.0
0
LINE
5
6ed
100
AcDbEntity
8
0-00
6
CONTINUOUS
62
3
100
AcDbLine
10
569.790000000000
20
835.530000000000
30
0.0
11
520.770000000000
21
830.280000000000
31
0.0
0
LINE
5
6ee
100
AcDbEntity
8
0-00
6
CONTINUOUS
62
3
100
AcDbLine
10
569.870000000000
20
835.030000000000
30
0.0
11
520.830000000000
21
829.780000000000
31
0.0
0
LINE
5
6ef
100
AcDbEntity
8
0-00
6
CONTINUOUS
62
3
100
AcDbLine
10
569.790000000000
20
835.530000000000
30
0.0
11
690.260000000000
21
865.640000000000
31
0.0
0
LINE
5
6f0
100
AcDbEntity
8
0-00
6
CONTINUOUS
62
3
100
AcDbLine
10
569.870000000000
20
835.030000000000
30
0.0
11
690.380000000000
21
865.160000000000
31
0.0
0
LINE
5
6f1
100
AcDbEntity
8
0-00
6
CONTINUOUS
62
3
100
AcDbLine
10
693.240000000000
20
865.790000000000
30
0.0
11
692.130000000000
21
866.110000000000
31
0.0
0
LINE
5
6f2
100
AcDbEntity
8
0-00
6
CONTINUOUS
62
3
100
AcDbLine
10
693.240000000000
20
865.790000000000
30
0.0
11
694.070000000000
21
866.600000000000
31
0.0
0
LINE
5
6f3
100
AcDbEntity
8
0-00
6
CONTINUOUS
62
3
100
AcDbLine
10
693.380000000000
20
865.230000000000
30
0.0
11
692.120000000000
21
865.590000000000
31
0.0
0
LINE
5
6f4
100
AcDbEntity
8
0-00
6
CONTINUOUS
62
3
100
AcDbLine
10
693.380000000000
20
865.230000000000
30
0.0
11
694.320000000000
21
866.140000000000
31
0.0
0
LINE
5
6f5
100
AcDbEntity
8
0-00
6
CONTINUOUS
62
3
100
AcDbLine
10
701.000000000000
20
868.330000000000
30
0.0
11
694.070000000000
21
866.600000000000
31
0.0
0
LINE
5
6f6
100
AcDbEntity
8
0-00
6
CONTINUOUS
62
3
100
AcDbLine
10
701.120000000000
20
867.840000000000
30
0.0
11
694.320000000000
21
866.140000000000
31
0.0
0
LINE
5
6f7
100
AcDbEntity
8
0-00
6
CONTINUOUS
62
3
100
AcDbLine
10
701.340000000000
20
873.820000000000
30
0.0
11
701.750000000000
21
869.390000000000
31
0.0
0
LINE
5
6f8
100
AcDbEntity
8
0-00
6
CONTINUOUS
62
3
100
AcDbLine
10
701.840000000000
20
873.870000000000
30
0.0
11
702.250000000000
21
869.440000000000
31
0.0
0
LINE
5
6f9
100
AcDbEntity
8
0-00
6
CONTINUOUS
62
3
100
AcDbLine
10
702.730000000000
20
875.450000000000
30
0.0
11
705.300000000000
21
875.640000000000
31
0.0
0
LINE
5
6fa
100
AcDbEntity
8
0-00
6
CONTINUOUS
62
3
100
AcDbLine
10
705.340000000000
20
875.140000000000
30
0.0
11
705.300000000000
21
875.640000000000
31
0.0
0
LINE
5
6fb
100
AcDbEntity
8
0-00
6
CONTINUOUS
62
3
100
AcDbLine
10
702.770000000000
20
874.960000000000
30
0.0
11
705.340000000000
21
875.140000000000
31
0.0
0
LINE
5
6fc
100
AcDbEntity
8
0-00
6
CONTINUOUS
62
3
100
AcDbLine
10
684.920000000000
20
864.310000000000
30
0.0
11
692.130000000000
21
866.110000000000
31
0.0
0
LINE
5
6fd
100
AcDbEntity
8
0-00
6
CONTINUOUS
62
3
100
AcDbLine
10
685.040000000000
20
863.820000000000
30
0.0
11
692.120000000000
21
865.590000000000
31
0.0
0
LINE
5
6fe
100
AcDbEntity
8
0-00
6
CONTINUOUS
62
3
100
AcDbLine
10
677.290000000000
20
871.960000000000
30
0.0
11
683.970000000000
21
864.570000000000
31
0.0
0
LINE
5
6ff
100
AcDbEntity
8
0-00
6
CONTINUOUS
62
3
100
AcDbLine
10
676.930000000000
20
871.610000000000
30
0.0
11
683.610000000000
21
864.220000000000
31
0.0
0
LINE
5
700
100
AcDbEntity
8
0-00
6
CONTINUOUS
62
3
100
AcDbLine
10
673.620000000000
20
869.960000000000
30
0.0
11
675.030000000000
21
871.810000000000
31
0.0
0
LINE
5
701
100
AcDbEntity
8
0-00
6
CONTINUOUS
62
3
100
AcDbLine
10
675.430000000000
20
871.510000000000
30
0.0
11
674.020000000000
21
869.650000000000
31
0.0
0
LINE
5
702
100
AcDbEntity
8
0-00
6
CONTINUOUS
62
3
100
AcDbLine
10
664.170000000000
20
866.850000000000
30
0.0
11
673.190000000000
21
869.110000000000
31
0.0
0
LINE
5
703
100
AcDbEntity
8
0-00
6
CONTINUOUS
62
3
100
AcDbLine
10
664.310000000000
20
865.280000000000
30
0.0
11
673.380000000000
21
865.940000000000
31
0.0
0
LINE
5
704
100
AcDbEntity
8
0-00
6
CONTINUOUS
62
3
100
AcDbLine
10
664.350000000000
20
864.780000000000
30
0.0
11
673.410000000000
21
865.440000000000
31
0.0
0
LINE
5
705
100
AcDbEntity
8
0-00
6
CONTINUOUS
62
3
100
AcDbLine
10
664.050000000000
20
867.340000000000
30
0.0
11
673.070000000000
21
869.590000000000
31
0.0
0
LINE
5
706
100
AcDbEntity
8
0-00
6
CONTINUOUS
62
3
100
AcDbLine
10
659.850000000000
20
868.580000000000
30
0.0
11
660.340000000000
21
861.630000000000
31
0.0
0
LINE
5
707
100
AcDbEntity
8
0-00
6
CONTINUOUS
62
3
100
AcDbLine
10
670.960000000000
20
863.080000000000
30
0.0
11
673.890000000000
21
862.750000000000
31
0.0
0
LINE
5
708
100
AcDbEntity
8
0-00
6
CONTINUOUS
62
3
100
AcDbLine
10
671.020000000000
20
863.570000000000
30
0.0
11
673.950000000000
21
863.250000000000
31
0.0
0
LINE
5
709
100
AcDbEntity
8
0-00
6
CONTINUOUS
62
3
100
AcDbLine
10
670.960000000000
20
863.080000000000
30
0.0
11
671.020000000000
21
863.570000000000
31
0.0
0
LINE
5
70a
100
AcDbEntity
8
0-00
6
CONTINUOUS
62
3
100
AcDbLine
10
666.900000000000
20
863.580000000000
30
0.0
11
673.770000000000
21
864.550000000000
31
0.0
0
LINE
5
70b
100
AcDbEntity
8
0-00
6
CONTINUOUS
62
3
100
AcDbLine
10
665.380000000000
20
862.470000000000
30
0.0
11
664.630000000000
21
860.930000000000
31
0.0
0
LINE
5
70c
100
AcDbEntity
8
0-00
6
CONTINUOUS
62
3
100
AcDbLine
10
666.970000000000
20
863.080000000000
30
0.0
11
673.840000000000
21
864.050000000000
31
0.0
0
LINE
5
70d
100
AcDbEntity
8
0-00
6
CONTINUOUS
62
3
100
AcDbLine
10
665.830000000000
20
862.250000000000
30
0.0
11
665.080000000000
21
860.710000000000
31
0.0
0
LINE
5
70e
100
AcDbEntity
8
0-00
6
CONTINUOUS
62
3
100
AcDbLine
10
660.350000000000
20
868.630000000000
30
0.0
11
660.840000000000
21
861.660000000000
31
0.0
0
LINE
5
70f
100
AcDbEntity
8
0-00
6
CONTINUOUS
62
3
100
AcDbLine
10
673.700000000000
20
861.500000000000
30
0.0
11
661.150000000000
21
858.370000000000
31
0.0
0
LINE
5
710
100
AcDbEntity
8
0-00
6
CONTINUOUS
62
3
100
AcDbLine
10
673.820000000000
20
861.020000000000
30
0.0
11
661.280000000000
21
857.880000000000
31
0.0
0
LINE
5
711
100
AcDbEntity
8
0-00
6
CONTINUOUS
62
3
100
AcDbLine
10
705.150000000000
20
875.860000000000
30
0.0
11
662.110000000000
21
870.750000000000
31
0.0
0
LINE
5
712
100
AcDbEntity
8
0-00
6
CONTINUOUS
62
3
100
AcDbLine
10
705.090000000000
20
876.360000000000
30
0.0
11
662.050000000000
21
871.250000000000
31
0.0
0
LINE
5
713
100
AcDbEntity
8
0-00
6
CONTINUOUS
62
3
100
AcDbLine
10
754.110000000000
20
881.610000000000
30
0.0
11
705.100000000000
21
876.360000000000
31
0.0
0
LINE
5
714
100
AcDbEntity
8
0-00
6
CONTINUOUS
62
3
100
AcDbLine
10
754.200000000000
20
881.110000000000
30
0.0
11
705.150000000000
21
875.860000000000
31
0.0
0
LINE
5
715
100
AcDbEntity
8
0-00
6
CONTINUOUS
62
3
100
AcDbLine
10
754.110000000000
20
881.610000000000
30
0.0
11
806.680000000000
21
894.750000000000
31
0.0
0
LINE
5
716
100
AcDbEntity
8
0-00
6
CONTINUOUS
62
3
100
AcDbLine
10
754.200000000000
20
881.110000000000
30
0.0
11
806.800000000000
21
894.260000000000
31
0.0
0
LINE
5
717
100
AcDbEntity
8
0-00
6
CONTINUOUS
62
4
100
AcDbLine
10
697.730000000000
20
868.440000000000
30
0.0
11
688.030000000000
21
866.010000000000
31
0.0
0
LINE
5
718
100
AcDbEntity
8
0-00
6
CONTINUOUS
62
4
100
AcDbLine
10
695.670000000000
20
868.440000000000
30
0.0
11
689.850000000000
21
866.980000000000
31
0.0
0
LINE
5
719
100
AcDbEntity
8
0-00
6
CONTINUOUS
62
4
100
AcDbLine
10
688.030000000000
20
866.010000000000
30
0.0
11
688.130000000000
21
865.630000000000
31
0.0
0
LINE
5
71a
100
AcDbEntity
8
0-00
6
CONTINUOUS
62
4
100
AcDbLine
10
689.850000000000
20
866.980000000000
30
0.0
11
688.520000000000
21
866.140000000000
31
0.0
0
LINE
5
71b
100
AcDbEntity
8
0-00
6
CONTINUOUS
62
4
100
AcDbLine
10
697.730000000000
20
868.440000000000
30
0.0
11
697.830000000000
21
868.050000000000
31
0.0
0
LINE
5
71c
100
AcDbEntity
8
0-00
6
CONTINUOUS
62
4
100
AcDbLine
10
695.670000000000
20
868.440000000000
30
0.0
11
697.250000000000
21
868.320000000000
31
0.0
0
LINE
5
71d
100
AcDbEntity
8
0-00
6
CONTINUOUS
62
4
100
AcDbLine
10
697.830000000000
20
868.050000000000
30
0.0
11
688.130000000000
21
865.630000000000
31
0.0
0
LINE
5
71e
100
AcDbEntity
8
0-00
6
CONTINUOUS
62
4
100
AcDbLine
10
696.530000000000
20
846.690000000000
30
0.0
11
699.330000000000
21
847.910000000000
31
0.0
0
LINE
5
71f
100
AcDbEntity
8
0-00
6
CONTINUOUS
62
4
100
AcDbLine
10
697.470000000000
20
844.950000000000
30
0.0
11
699.320000000000
21
845.750000000000
31
0.0
0
LINE
5
720
100
AcDbEntity
8
0-00
6
CONTINUOUS
62
4
100
AcDbLine
10
698.420000000000
20
843.210000000000
30
0.0
11
699.300000000000
21
843.590000000000
31
0.0
0
LINE
5
721
100
AcDbEntity
8
0-00
6
CONTINUOUS
62
4
100
AcDbLine
10
699.040000000000
20
842.590000000000
30
0.0
11
695.690000000000
21
848.760000000000
31
0.0
0
LINE
5
722
100
AcDbEntity
8
0-00
6
CONTINUOUS
62
4
100
AcDbLine
10
699.040000000000
20
842.590000000000
30
0.0
11
699.100000000000
21
849.620000000000
31
0.0
0
LINE
5
723
100
AcDbEntity
8
0-00
6
CONTINUOUS
62
4
100
AcDbLine
10
695.290000000000
20
848.300000000000
30
0.0
11
699.480000000000
21
850.120000000000
31
0.0
0
LINE
5
724
100
AcDbEntity
8
0-00
6
CONTINUOUS
62
4
100
AcDbLine
10
694.810000000000
20
850.240000000000
30
0.0
11
698.990000000000
21
852.060000000000
31
0.0
0
LINE
5
725
100
AcDbEntity
8
0-00
6
CONTINUOUS
62
4
100
AcDbLine
10
694.320000000000
20
852.180000000000
30
0.0
11
698.510000000000
21
854.000000000000
31
0.0
0
LINE
5
726
100
AcDbEntity
8
0-00
6
CONTINUOUS
62
4
100
AcDbLine
10
693.840000000000
20
854.120000000000
30
0.0
11
698.020000000000
21
855.940000000000
31
0.0
0
LINE
5
727
100
AcDbEntity
8
0-00
6
CONTINUOUS
62
4
100
AcDbLine
10
693.350000000000
20
856.060000000000
30
0.0
11
697.540000000000
21
857.880000000000
31
0.0
0
LINE
5
728
100
AcDbEntity
8
0-00
6
CONTINUOUS
62
4
100
AcDbLine
10
692.870000000000
20
858.000000000000
30
0.0
11
697.050000000000
21
859.820000000000
31
0.0
0
LINE
5
729
100
AcDbEntity
8
0-00
6
CONTINUOUS
62
4
100
AcDbLine
10
695.710000000000
20
848.700000000000
30
0.0
11
691.280000000000
21
866.410000000000
31
0.0
0
LINE
5
72a
100
AcDbEntity
8
0-00
6
CONTINUOUS
62
4
100
AcDbLine
10
699.100000000000
20
849.550000000000
30
0.0
11
694.680000000000
21
867.260000000000
31
0.0
0
LINE
5
72b
100
AcDbEntity
8
0-00
6
CONTINUOUS
62
4
100
AcDbLine
10
692.380000000000
20
859.940000000000
30
0.0
11
696.570000000000
21
861.760000000000
31
0.0
0
LINE
5
72c
100
AcDbEntity
8
0-00
6
CONTINUOUS
62
4
100
AcDbLine
10
691.900000000000
20
861.880000000000
30
0.0
11
696.080000000000
21
863.700000000000
31
0.0
0
LINE
5
72d
100
AcDbEntity
8
0-00
6
CONTINUOUS
62
4
100
AcDbLine
10
691.410000000000
20
863.820000000000
30
0.0
11
695.600000000000
21
865.640000000000
31
0.0
0
LINE
5
72e
100
AcDbEntity
8
0-00
6
CONTINUOUS
62
7
100
AcDbLine
10
513.410000000000
20
829.410000000000
30
0.0
11
528.060000000000
21
872.700000000000
31
0.0
0
LINE
5
72f
100
AcDbEntity
8
0-5_2_4
6
CONTINUOUS
62
3
100
AcDbLine
10
721.760000000000
20
370.420000000000
30
0.0
11
750.710000000000
21
377.660000000000
31
0.0
0
LINE
5
730
100
AcDbEntity
8
0-5_2_4
6
CONTINUOUS
62
3
100
AcDbLine
10
699.080000000000
20
375.280000000000
30
0.0
11
699.570000000000
21
368.330000000000
31
0.0
0
LINE
5
731
100
AcDbEntity
8
0-5_2_4
6
CONTINUOUS
62
3
100
AcDbLine
10
710.190000000000
20
369.780000000000
30
0.0
11
713.120000000000
21
369.460000000000
31
0.0
0
LINE
5
732
100
AcDbEntity
8
0-5_2_4
6
CONTINUOUS
62
3
100
AcDbLine
10
710.250000000000
20
370.280000000000
30
0.0
11
713.180000000000
21
369.950000000000
31
0.0
0
LINE
5
733
100
AcDbEntity
8
0-5_2_4
6
CONTINUOUS
62
3
100
AcDbLine
10
710.190000000000
20
369.780000000000
30
0.0
11
710.250000000000
21
370.280000000000
31
0.0
0
LINE
5
734
100
AcDbEntity
8
0-5_2_4
6
CONTINUOUS
62
3
100
AcDbLine
10
706.130000000000
20
370.280000000000
30
0.0
11
712.990000000000
21
371.250000000000
31
0.0
0
LINE
5
735
100
AcDbEntity
8
0-5_2_4
6
CONTINUOUS
62
3
100
AcDbLine
10
704.610000000000
20
369.180000000000
30
0.0
11
703.860000000000
21
367.630000000000
31
0.0
0
LINE
5
736
100
AcDbEntity
8
0-5_2_4
6
CONTINUOUS
62
3
100
AcDbLine
10
706.200000000000
20
369.790000000000
30
0.0
11
713.060000000000
21
370.760000000000
31
0.0
0
LINE
5
737
100
AcDbEntity
8
0-5_2_4
6
CONTINUOUS
62
3
100
AcDbLine
10
705.060000000000
20
368.960000000000
30
0.0
11
704.310000000000
21
367.410000000000
31
0.0
0
LINE
5
738
100
AcDbEntity
8
0-5_2_4
6
CONTINUOUS
62
3
100
AcDbLine
10
699.570000000000
20
375.330000000000
30
0.0
11
700.060000000000
21
368.370000000000
31
0.0
0
LINE
5
739
100
AcDbEntity
8
0-5_2_4
6
CONTINUOUS
62
7
100
AcDbLine
10
701.120000000000
20
367.690000000000
30
0.0
11
711.190000000000
21
377.780000000000
31
0.0
0
LINE
5
73a
100
AcDbEntity
8
0-5_2_4
6
CONTINUOUS
62
7
100
AcDbLine
10
701.470000000000
20
367.340000000000
30
0.0
11
711.540000000000
21
377.430000000000
31
0.0
0
LINE
5
73b
100
AcDbEntity
8
0-5_2_4
6
CONTINUOUS
62
7
100
AcDbLine
10
711.890000000000
20
377.070000000000
30
0.0
11
701.830000000000
21
366.990000000000
31
0.0
0
LINE
5
73c
100
AcDbEntity
8
0-5_2_4
6
CONTINUOUS
62
7
100
AcDbLine
10
700.760000000000
20
368.050000000000
30
0.0
11
710.830000000000
21
378.130000000000
31
0.0
0
LINE
5
73d
100
AcDbEntity
8
0-5_2_4
6
CONTINUOUS
62
7
100
AcDbLine
10
716.110000000000
20
369.520000000000
30
0.0
11
714.190000000000
21
377.200000000000
31
0.0
0
LINE
5
73e
100
AcDbEntity
8
0-5_2_4
6
CONTINUOUS
62
7
100
AcDbLine
10
715.620000000000
20
369.400000000000
30
0.0
11
713.700000000000
21
377.080000000000
31
0.0
0
LINE
5
73f
100
AcDbEntity
8
0-5_2_4
6
CONTINUOUS
62
7
100
AcDbLine
10
723.140000000000
20
337.260000000000
30
0.0
11
725.390000000000
21
330.350000000000
31
0.0
0
LINE
5
740
100
AcDbEntity
8
0-5_2_4
6
CONTINUOUS
62
7
100
AcDbLine
10
712.730000000000
20
376.840000000000
30
0.0
11
724.410000000000
21
330.110000000000
31
0.0
0
POLYLINE
5
741
100
AcDbEntity
8
0-5_2_4
6
CONTINUOUS
62
  7
100
AcDb2dPolyline
66
1
10
0.0
20
0.0
30
0.0
70
0
0
VERTEX
5
742
100
AcDbEntity
8
0-5_2_4
6
CONTINUOUS
62
  7
100
AcDbVertex
100
AcDb2dVertex
10
723.140000000000
20
337.260000000000
30
0.0
0
VERTEX
5
743
100
AcDbEntity
8
0-5_2_4
6
CONTINUOUS
62
  7
100
AcDbVertex
100
AcDb2dVertex
10
723.620000000000
20
337.420000000000
30
0.0
0
VERTEX
5
744
100
AcDbEntity
8
0-5_2_4
6
CONTINUOUS
62
  7
100
AcDbVertex
100
AcDb2dVertex
10
725.860000000000
20
330.510000000000
30
0.0
0
SEQEND
5
745
100
AcDbEntity
8
0-5_2_4
0
LINE
5
746
100
AcDbEntity
8
0-5_2_4
6
CONTINUOUS
62
7
100
AcDbLine
10
716.710000000000
20
369.160000000000
30
0.0
11
760.130000000000
21
380.010000000000
31
0.0
0
LINE
5
747
100
AcDbEntity
8
0-5_2_4
6
CONTINUOUS
62
7
100
AcDbLine
10
760.250000000000
20
379.530000000000
30
0.0
11
716.840000000000
21
368.670000000000
31
0.0
0
LINE
5
748
100
AcDbEntity
8
0-5_2_4
6
CONTINUOUS
62
7
100
AcDbLine
10
760.010000000000
20
380.500000000000
30
0.0
11
753.090000000000
21
378.250000000000
31
0.0
0
POLYLINE
5
749
100
AcDbEntity
8
0-5_2_4
6
CONTINUOUS
62
  7
100
AcDb2dPolyline
66
1
10
0.0
20
0.0
30
0.0
70
0
0
VERTEX
5
74a
100
AcDbEntity
8
0-5_2_4
6
CONTINUOUS
62
  7
100
AcDbVertex
100
AcDb2dVertex
10
759.850000000000
20
380.970000000000
30
0.0
0
VERTEX
5
74b
100
AcDbEntity
8
0-5_2_4
6
CONTINUOUS
62
  7
100
AcDbVertex
100
AcDb2dVertex
10
752.940000000000
20
378.730000000000
30
0.0
0
VERTEX
5
74c
100
AcDbEntity
8
0-5_2_4
6
CONTINUOUS
62
  7
100
AcDbVertex
100
AcDb2dVertex
10
753.090000000000
20
378.250000000000
30
0.0
0
SEQEND
5
74d
100
AcDbEntity
8
0-5_2_4
0
LINE
5
74e
100
AcDbEntity
8
0-5_2_4
6
CONTINUOUS
62
3
100
AcDbLine
10
793.220000000000
20
388.800000000000
30
0.0
11
913.690000000000
21
418.920000000000
31
0.0
0
LINE
5
74f
100
AcDbEntity
8
0-5_2_4
6
CONTINUOUS
62
3
100
AcDbLine
10
793.310000000000
20
388.310000000000
30
0.0
11
913.810000000000
21
418.430000000000
31
0.0
0
LINE
5
750
100
AcDbEntity
8
0-5_2_4
6
CONTINUOUS
62
7
100
AcDbLine
10
724.900000000000
20
330.230000000000
30
0.0
11
713.220000000000
21
376.960000000000
31
0.0
0
LINE
5
751
100
AcDbEntity
8
0-5_2_4
6
CONTINUOUS
62
3
100
AcDbLine
10
994.490000000000
20
437.570000000000
30
0.0
11
716.670000000000
21
368.120000000000
31
0.0
0
LINE
5
752
100
AcDbEntity
8
0-5_2_4
6
CONTINUOUS
62
3
100
AcDbLine
10
701.330000000000
20
377.460000000000
30
0.0
11
744.380000000000
21
382.570000000000
31
0.0
0
LINE
5
753
100
AcDbEntity
8
0-5_2_4
6
CONTINUOUS
62
3
100
AcDbLine
10
744.330000000000
20
383.070000000000
30
0.0
11
701.270000000000
21
377.960000000000
31
0.0
0
LINE
5
754
100
AcDbEntity
8
0-5_2_4
6
CONTINUOUS
62
3
100
AcDbLine
10
744.380000000000
20
382.570000000000
30
0.0
11
793.310000000000
21
388.310000000000
31
0.0
0
LINE
5
755
100
AcDbEntity
8
0-5_2_4
6
CONTINUOUS
62
3
100
AcDbLine
10
793.220000000000
20
388.800000000000
30
0.0
11
744.330000000000
21
383.070000000000
31
0.0
0
LINE
5
756
100
AcDbEntity
8
0-5_2_4
6
CONTINUOUS
62
7
100
AcDbLine
10
757.090000000000
20
384.560000000000
30
0.0
11
775.710000000000
21
439.600000000000
31
0.0
0
LINE
5
757
100
AcDbEntity
8
0-5_2_4
6
DASHED
62
7
100
AcDbLine
10
774.590000000000
20
385.850000000000
30
0.0
11
752.860000000000
21
378.790000000000
31
0.0
0
POLYLINE
5
758
100
AcDbEntity
8
0-5_2_4
6
DASHED
62
  7
100
AcDb2dPolyline
66
1
10
0.0
20
0.0
30
0.0
70
0
0
VERTEX
5
759
100
AcDbEntity
8
0-5_2_4
6
DASHED
62
  7
100
AcDbVertex
100
AcDb2dVertex
10
774.590000000000
20
385.850000000000
30
0.0
0
VERTEX
5
75a
100
AcDbEntity
8
0-5_2_4
6
DASHED
62
  7
100
AcDbVertex
100
AcDb2dVertex
10
786.010000000000
20
385.970000000000
30
0.0
0
VERTEX
5
75b
100
AcDbEntity
8
0-5_2_4
6
DASHED
62
  7
100
AcDbVertex
100
AcDb2dVertex
10
994.360000000000
20
438.050000000000
30
0.0
0
SEQEND
5
75c
100
AcDbEntity
8
0-5_2_4
0
LINE
5
75d
100
AcDbEntity
8
0-5_2_4
6
CENTER2
62
4
100
AcDbLine
10
750.750000000000
20
355.480000000000
30
0.0
11
744.340000000000
21
381.130000000000
31
0.0
0
LINE
5
75e
100
AcDbEntity
8
0-5_2_4
6
CENTER2
62
4
100
AcDbLine
10
776.950000000000
20
385.240000000000
30
0.0
11
788.710000000000
21
338.170000000000
31
0.0
0
LINE
5
75f
100
AcDbEntity
8
0-5_2_4
6
CONTINUOUS
62
3
100
AcDbLine
10
916.670000000000
20
419.070000000000
30
0.0
11
915.560000000000
21
419.390000000000
31
0.0
0
LINE
5
760
100
AcDbEntity
8
0-5_2_4
6
CONTINUOUS
62
3
100
AcDbLine
10
916.670000000000
20
419.070000000000
30
0.0
11
917.500000000000
21
419.870000000000
31
0.0
0
LINE
5
761
100
AcDbEntity
8
0-5_2_4
6
CONTINUOUS
62
3
100
AcDbLine
10
916.810000000000
20
418.510000000000
30
0.0
11
915.550000000000
21
418.870000000000
31
0.0
0
LINE
5
762
100
AcDbEntity
8
0-5_2_4
6
CONTINUOUS
62
3
100
AcDbLine
10
916.810000000000
20
418.510000000000
30
0.0
11
917.750000000000
21
419.420000000000
31
0.0
0
LINE
5
763
100
AcDbEntity
8
0-5_2_4
6
CONTINUOUS
62
3
100
AcDbLine
10
924.430000000000
20
421.600000000000
30
0.0
11
917.500000000000
21
419.870000000000
31
0.0
0
LINE
5
764
100
AcDbEntity
8
0-5_2_4
6
CONTINUOUS
62
3
100
AcDbLine
10
924.550000000000
20
421.120000000000
30
0.0
11
917.750000000000
21
419.420000000000
31
0.0
0
LINE
5
765
100
AcDbEntity
8
0-5_2_4
6
CONTINUOUS
62
3
100
AcDbLine
10
924.770000000000
20
427.090000000000
30
0.0
11
925.180000000000
21
422.660000000000
31
0.0
0
LINE
5
766
100
AcDbEntity
8
0-5_2_4
6
CONTINUOUS
62
3
100
AcDbLine
10
925.270000000000
20
427.140000000000
30
0.0
11
925.680000000000
21
422.710000000000
31
0.0
0
LINE
5
767
100
AcDbEntity
8
0-5_2_4
6
CONTINUOUS
62
3
100
AcDbLine
10
926.160000000000
20
428.730000000000
30
0.0
11
928.730000000000
21
428.910000000000
31
0.0
0
LINE
5
768
100
AcDbEntity
8
0-5_2_4
6
CONTINUOUS
62
3
100
AcDbLine
10
928.770000000000
20
428.410000000000
30
0.0
11
928.730000000000
21
428.910000000000
31
0.0
0
LINE
5
769
100
AcDbEntity
8
0-5_2_4
6
CONTINUOUS
62
3
100
AcDbLine
10
926.200000000000
20
428.230000000000
30
0.0
11
928.770000000000
21
428.410000000000
31
0.0
0
LINE
5
76a
100
AcDbEntity
8
0-5_2_4
6
CONTINUOUS
62
3
100
AcDbLine
10
908.350000000000
20
417.580000000000
30
0.0
11
915.560000000000
21
419.390000000000
31
0.0
0
LINE
5
76b
100
AcDbEntity
8
0-5_2_4
6
CONTINUOUS
62
3
100
AcDbLine
10
908.470000000000
20
417.100000000000
30
0.0
11
915.550000000000
21
418.870000000000
31
0.0
0
LINE
5
76c
100
AcDbEntity
8
0-5_2_4
6
CONTINUOUS
62
3
100
AcDbLine
10
900.720000000000
20
425.240000000000
30
0.0
11
907.400000000000
21
417.850000000000
31
0.0
0
LINE
5
76d
100
AcDbEntity
8
0-5_2_4
6
CONTINUOUS
62
3
100
AcDbLine
10
900.360000000000
20
424.880000000000
30
0.0
11
907.050000000000
21
417.490000000000
31
0.0
0
LINE
5
76e
100
AcDbEntity
8
0-5_2_4
6
CONTINUOUS
62
3
100
AcDbLine
10
897.050000000000
20
423.230000000000
30
0.0
11
898.460000000000
21
425.080000000000
31
0.0
0
LINE
5
76f
100
AcDbEntity
8
0-5_2_4
6
CONTINUOUS
62
3
100
AcDbLine
10
898.860000000000
20
424.780000000000
30
0.0
11
897.450000000000
21
422.930000000000
31
0.0
0
LINE
5
770
100
AcDbEntity
8
0-5_2_4
6
CONTINUOUS
62
3
100
AcDbLine
10
887.610000000000
20
420.130000000000
30
0.0
11
896.620000000000
21
422.380000000000
31
0.0
0
LINE
5
771
100
AcDbEntity
8
0-5_2_4
6
CONTINUOUS
62
3
100
AcDbLine
10
887.750000000000
20
418.550000000000
30
0.0
11
896.810000000000
21
419.210000000000
31
0.0
0
LINE
5
772
100
AcDbEntity
8
0-5_2_4
6
CONTINUOUS
62
3
100
AcDbLine
10
887.780000000000
20
418.050000000000
30
0.0
11
896.850000000000
21
418.710000000000
31
0.0
0
LINE
5
773
100
AcDbEntity
8
0-5_2_4
6
CONTINUOUS
62
3
100
AcDbLine
10
887.480000000000
20
420.610000000000
30
0.0
11
896.500000000000
21
422.870000000000
31
0.0
0
LINE
5
774
100
AcDbEntity
8
0-5_2_4
6
CONTINUOUS
62
3
100
AcDbLine
10
883.280000000000
20
421.850000000000
30
0.0
11
883.770000000000
21
414.900000000000
31
0.0
0
LINE
5
775
100
AcDbEntity
8
0-5_2_4
6
CONTINUOUS
62
3
100
AcDbLine
10
894.400000000000
20
416.350000000000
30
0.0
11
897.330000000000
21
416.020000000000
31
0.0
0
LINE
5
776
100
AcDbEntity
8
0-5_2_4
6
CONTINUOUS
62
3
100
AcDbLine
10
894.450000000000
20
416.850000000000
30
0.0
11
897.380000000000
21
416.520000000000
31
0.0
0
LINE
5
777
100
AcDbEntity
8
0-5_2_4
6
CONTINUOUS
62
3
100
AcDbLine
10
894.400000000000
20
416.350000000000
30
0.0
11
894.450000000000
21
416.850000000000
31
0.0
0
LINE
5
778
100
AcDbEntity
8
0-5_2_4
6
CONTINUOUS
62
3
100
AcDbLine
10
890.330000000000
20
416.850000000000
30
0.0
11
897.200000000000
21
417.820000000000
31
0.0
0
LINE
5
779
100
AcDbEntity
8
0-5_2_4
6
CONTINUOUS
62
3
100
AcDbLine
10
888.820000000000
20
415.750000000000
30
0.0
11
888.060000000000
21
414.200000000000
31
0.0
0
LINE
5
77a
100
AcDbEntity
8
0-5_2_4
6
CONTINUOUS
62
3
100
AcDbLine
10
890.400000000000
20
416.350000000000
30
0.0
11
897.270000000000
21
417.320000000000
31
0.0
0
LINE
5
77b
100
AcDbEntity
8
0-5_2_4
6
CONTINUOUS
62
3
100
AcDbLine
10
889.270000000000
20
415.530000000000
30
0.0
11
888.510000000000
21
413.980000000000
31
0.0
0
LINE
5
77c
100
AcDbEntity
8
0-5_2_4
6
CONTINUOUS
62
3
100
AcDbLine
10
883.780000000000
20
421.900000000000
30
0.0
11
884.270000000000
21
414.940000000000
31
0.0
0
LINE
5
77d
100
AcDbEntity
8
0-5_2_4
6
CONTINUOUS
62
3
100
AcDbLine
10
897.130000000000
20
414.780000000000
30
0.0
11
884.590000000000
21
411.640000000000
31
0.0
0
LINE
5
77e
100
AcDbEntity
8
0-5_2_4
6
CONTINUOUS
62
3
100
AcDbLine
10
897.250000000000
20
414.290000000000
30
0.0
11
884.710000000000
21
411.160000000000
31
0.0
0
LINE
5
77f
100
AcDbEntity
8
0-5_2_4
6
CONTINUOUS
62
3
100
AcDbLine
10
928.590000000000
20
429.140000000000
30
0.0
11
885.540000000000
21
424.030000000000
31
0.0
0
LINE
5
780
100
AcDbEntity
8
0-5_2_4
6
CONTINUOUS
62
3
100
AcDbLine
10
928.530000000000
20
429.640000000000
30
0.0
11
885.480000000000
21
424.520000000000
31
0.0
0
LINE
5
781
100
AcDbEntity
8
0-5_2_4
6
CONTINUOUS
62
4
100
AcDbLine
10
921.170000000000
20
421.710000000000
30
0.0
11
911.460000000000
21
419.290000000000
31
0.0
0
LINE
5
782
100
AcDbEntity
8
0-5_2_4
6
CONTINUOUS
62
4
100
AcDbLine
10
919.100000000000
20
421.710000000000
30
0.0
11
913.280000000000
21
420.260000000000
31
0.0
0
LINE
5
783
100
AcDbEntity
8
0-5_2_4
6
CONTINUOUS
62
4
100
AcDbLine
10
911.460000000000
20
419.290000000000
30
0.0
11
911.560000000000
21
418.900000000000
31
0.0
0
LINE
5
784
100
AcDbEntity
8
0-5_2_4
6
CONTINUOUS
62
4
100
AcDbLine
10
913.280000000000
20
420.260000000000
30
0.0
11
911.950000000000
21
419.410000000000
31
0.0
0
LINE
5
785
100
AcDbEntity
8
0-5_2_4
6
CONTINUOUS
62
4
100
AcDbLine
10
921.170000000000
20
421.710000000000
30
0.0
11
921.260000000000
21
421.330000000000
31
0.0
0
LINE
5
786
100
AcDbEntity
8
0-5_2_4
6
CONTINUOUS
62
4
100
AcDbLine
10
919.100000000000
20
421.710000000000
30
0.0
11
920.680000000000
21
421.590000000000
31
0.0
0
LINE
5
787
100
AcDbEntity
8
0-5_2_4
6
CONTINUOUS
62
4
100
AcDbLine
10
921.260000000000
20
421.330000000000
30
0.0
11
911.560000000000
21
418.900000000000
31
0.0
0
LINE
5
788
100
AcDbEntity
8
0-5_2_4
6
CONTINUOUS
62
4
100
AcDbLine
10
919.960000000000
20
399.960000000000
30
0.0
11
922.770000000000
21
401.180000000000
31
0.0
0
LINE
5
789
100
AcDbEntity
8
0-5_2_4
6
CONTINUOUS
62
4
100
AcDbLine
10
920.910000000000
20
398.220000000000
30
0.0
11
922.750000000000
21
399.020000000000
31
0.0
0
LINE
5
78a
100
AcDbEntity
8
0-5_2_4
6
CONTINUOUS
62
4
100
AcDbLine
10
921.850000000000
20
396.480000000000
30
0.0
11
922.730000000000
21
396.870000000000
31
0.0
0
LINE
5
78b
100
AcDbEntity
8
0-5_2_4
6
CONTINUOUS
62
4
100
AcDbLine
10
922.470000000000
20
395.860000000000
30
0.0
11
919.120000000000
21
402.040000000000
31
0.0
0
LINE
5
78c
100
AcDbEntity
8
0-5_2_4
6
CONTINUOUS
62
4
100
AcDbLine
10
922.470000000000
20
395.860000000000
30
0.0
11
922.530000000000
21
402.890000000000
31
0.0
0
LINE
5
78d
100
AcDbEntity
8
0-5_2_4
6
CONTINUOUS
62
4
100
AcDbLine
10
918.730000000000
20
401.580000000000
30
0.0
11
922.910000000000
21
403.400000000000
31
0.0
0
LINE
5
78e
100
AcDbEntity
8
0-5_2_4
6
CONTINUOUS
62
4
100
AcDbLine
10
918.240000000000
20
403.520000000000
30
0.0
11
922.420000000000
21
405.340000000000
31
0.0
0
LINE
5
78f
100
AcDbEntity
8
0-5_2_4
6
CONTINUOUS
62
4
100
AcDbLine
10
917.760000000000
20
405.460000000000
30
0.0
11
921.940000000000
21
407.280000000000
31
0.0
0
LINE
5
790
100
AcDbEntity
8
0-5_2_4
6
CONTINUOUS
62
4
100
AcDbLine
10
917.270000000000
20
407.400000000000
30
0.0
11
921.450000000000
21
409.220000000000
31
0.0
0
LINE
5
791
100
AcDbEntity
8
0-5_2_4
6
CONTINUOUS
62
4
100
AcDbLine
10
916.790000000000
20
409.340000000000
30
0.0
11
920.970000000000
21
411.160000000000
31
0.0
0
LINE
5
792
100
AcDbEntity
8
0-5_2_4
6
CONTINUOUS
62
4
100
AcDbLine
10
916.300000000000
20
411.280000000000
30
0.0
11
920.480000000000
21
413.100000000000
31
0.0
0
LINE
5
793
100
AcDbEntity
8
0-5_2_4
6
CONTINUOUS
62
4
100
AcDbLine
10
919.140000000000
20
401.980000000000
30
0.0
11
914.710000000000
21
419.690000000000
31
0.0
0
LINE
5
794
100
AcDbEntity
8
0-5_2_4
6
CONTINUOUS
62
4
100
AcDbLine
10
922.540000000000
20
402.830000000000
30
0.0
11
918.110000000000
21
420.540000000000
31
0.0
0
LINE
5
795
100
AcDbEntity
8
0-5_2_4
6
CONTINUOUS
62
4
100
AcDbLine
10
915.820000000000
20
413.220000000000
30
0.0
11
920.000000000000
21
415.040000000000
31
0.0
0
LINE
5
796
100
AcDbEntity
8
0-5_2_4
6
CONTINUOUS
62
4
100
AcDbLine
10
915.330000000000
20
415.160000000000
30
0.0
11
919.510000000000
21
416.980000000000
31
0.0
0
LINE
5
797
100
AcDbEntity
8
0-5_2_4
6
CONTINUOUS
62
4
100
AcDbLine
10
914.850000000000
20
417.100000000000
30
0.0
11
919.030000000000
21
418.920000000000
31
0.0
0
LINE
5
798
100
AcDbEntity
8
0-00
6
CONTINUOUS
62
7
100
AcDbLine
10
633.550000000000
20
867.870000000000
30
0.0
11
634.970000000000
21
855.960000000000
31
0.0
0
LINE
5
799
100
AcDbEntity
8
0-00
6
CONTINUOUS
62
7
100
AcDbLine
10
649.860000000000
20
857.730000000000
30
0.0
11
634.970000000000
21
855.960000000000
31
0.0
0
LINE
5
79a
100
AcDbEntity
8
0-00
6
CONTINUOUS
62
7
100
AcDbLine
10
648.450000000000
20
869.630000000000
30
0.0
11
633.550000000000
21
867.870000000000
31
0.0
0
LINE
5
79b
100
AcDbEntity
8
0-00
6
CONTINUOUS
62
7
100
AcDbLine
10
656.620000000000
20
895.780000000000
30
0.0
11
750.960000000000
21
906.980000000000
31
0.0
0
LINE
5
79c
100
AcDbEntity
8
0-00
6
CONTINUOUS
62
7
100
AcDbLine
10
657.500000000000
20
888.330000000000
30
0.0
11
656.620000000000
21
895.780000000000
31
0.0
0
LINE
5
79d
100
AcDbEntity
8
0-00
6
CONTINUOUS
62
7
100
AcDbLine
10
751.840000000000
20
899.540000000000
30
0.0
11
750.960000000000
21
906.980000000000
31
0.0
0
LINE
5
79e
100
AcDbEntity
8
0-00
6
CONTINUOUS
62
7
100
AcDbLine
10
449.230000000000
20
821.780000000000
30
0.0
11
450.640000000000
21
809.880000000000
31
0.0
0
LINE
5
79f
100
AcDbEntity
8
0-00
6
CONTINUOUS
62
7
100
AcDbLine
10
465.540000000000
20
811.640000000000
30
0.0
11
450.640000000000
21
809.880000000000
31
0.0
0
LINE
5
7a0
100
AcDbEntity
8
0-00
6
CONTINUOUS
62
7
100
AcDbLine
10
464.120000000000
20
823.550000000000
30
0.0
11
449.230000000000
21
821.780000000000
31
0.0
0
LINE
5
7a1
100
AcDbEntity
8
1-4_2_19
6
CONTINUOUS
62
4
100
AcDbLine
10
340.690000000000
20
375.990000000000
30
0.0
11
321.290000000000
21
371.140000000000
31
0.0
0
LINE
5
7a2
100
AcDbEntity
8
1-4_2_19
6
CONTINUOUS
62
4
100
AcDbLine
10
336.570000000000
20
375.990000000000
30
0.0
11
324.920000000000
21
373.080000000000
31
0.0
0
LINE
5
7a3
100
AcDbEntity
8
1-4_2_19
6
CONTINUOUS
62
4
100
AcDbLine
10
321.290000000000
20
371.140000000000
30
0.0
11
321.480000000000
21
370.360000000000
31
0.0
0
LINE
5
7a4
100
AcDbEntity
8
1-4_2_19
6
CONTINUOUS
62
4
100
AcDbLine
10
324.920000000000
20
373.080000000000
30
0.0
11
322.250000000000
21
371.380000000000
31
0.0
0
LINE
5
7a5
100
AcDbEntity
8
1-4_2_19
6
CONTINUOUS
62
4
100
AcDbLine
10
340.690000000000
20
375.990000000000
30
0.0
11
340.880000000000
21
375.210000000000
31
0.0
0
LINE
5
7a6
100
AcDbEntity
8
1-4_2_19
6
CONTINUOUS
62
4
100
AcDbLine
10
336.570000000000
20
375.990000000000
30
0.0
11
339.720000000000
21
375.750000000000
31
0.0
0
LINE
5
7a7
100
AcDbEntity
8
1-4_2_19
6
CONTINUOUS
62
4
100
AcDbLine
10
340.880000000000
20
375.210000000000
30
0.0
11
321.480000000000
21
370.360000000000
31
0.0
0
LINE
5
7a8
100
AcDbEntity
8
1-4_2_19
6
CONTINUOUS
62
4
100
AcDbLine
10
338.280000000000
20
332.490000000000
30
0.0
11
343.890000000000
21
334.930000000000
31
0.0
0
LINE
5
7a9
100
AcDbEntity
8
1-4_2_19
6
CONTINUOUS
62
4
100
AcDbLine
10
340.170000000000
20
329.010000000000
30
0.0
11
343.860000000000
21
330.610000000000
31
0.0
0
LINE
5
7aa
100
AcDbEntity
8
1-4_2_19
6
CONTINUOUS
62
4
100
AcDbLine
10
342.060000000000
20
325.530000000000
30
0.0
11
343.820000000000
21
326.290000000000
31
0.0
0
LINE
5
7ab
100
AcDbEntity
8
1-4_2_19
6
CONTINUOUS
62
4
100
AcDbLine
10
343.310000000000
20
324.280000000000
30
0.0
11
336.590000000000
21
336.640000000000
31
0.0
0
LINE
5
7ac
100
AcDbEntity
8
1-4_2_19
6
CONTINUOUS
62
4
100
AcDbLine
10
343.310000000000
20
324.280000000000
30
0.0
11
343.420000000000
21
338.340000000000
31
0.0
0
LINE
5
7ad
100
AcDbEntity
8
1-4_2_19
6
CONTINUOUS
62
4
100
AcDbLine
10
335.810000000000
20
335.720000000000
30
0.0
11
344.180000000000
21
339.350000000000
31
0.0
0
LINE
5
7ae
100
AcDbEntity
8
1-4_2_19
6
CONTINUOUS
62
4
100
AcDbLine
10
334.840000000000
20
339.600000000000
30
0.0
11
343.210000000000
21
343.230000000000
31
0.0
0
LINE
5
7af
100
AcDbEntity
8
1-4_2_19
6
CONTINUOUS
62
4
100
AcDbLine
10
333.870000000000
20
343.480000000000
30
0.0
11
342.240000000000
21
347.110000000000
31
0.0
0
LINE
5
7b0
100
AcDbEntity
8
1-4_2_19
6
CONTINUOUS
62
4
100
AcDbLine
10
332.900000000000
20
347.360000000000
30
0.0
11
341.270000000000
21
350.990000000000
31
0.0
0
LINE
5
7b1
100
AcDbEntity
8
1-4_2_19
6
CONTINUOUS
62
4
100
AcDbLine
10
331.930000000000
20
351.240000000000
30
0.0
11
340.300000000000
21
354.870000000000
31
0.0
0
LINE
5
7b2
100
AcDbEntity
8
1-4_2_19
6
CONTINUOUS
62
4
100
AcDbLine
10
330.960000000000
20
355.120000000000
30
0.0
11
339.330000000000
21
358.760000000000
31
0.0
0
LINE
5
7b3
100
AcDbEntity
8
1-4_2_19
6
CONTINUOUS
62
4
100
AcDbLine
10
336.640000000000
20
336.520000000000
30
0.0
11
327.780000000000
21
371.940000000000
31
0.0
0
LINE
5
7b4
100
AcDbEntity
8
1-4_2_19
6
CONTINUOUS
62
4
100
AcDbLine
10
343.430000000000
20
338.220000000000
30
0.0
11
334.580000000000
21
373.640000000000
31
0.0
0
LINE
5
7b5
100
AcDbEntity
8
1-4_2_19
6
CONTINUOUS
62
4
100
AcDbLine
10
329.990000000000
20
359.000000000000
30
0.0
11
338.360000000000
21
362.640000000000
31
0.0
0
LINE
5
7b6
100
AcDbEntity
8
1-4_2_19
6
CONTINUOUS
62
4
100
AcDbLine
10
329.020000000000
20
362.880000000000
30
0.0
11
337.390000000000
21
366.520000000000
31
0.0
0
LINE
5
7b7
100
AcDbEntity
8
1-4_2_19
6
CONTINUOUS
62
4
100
AcDbLine
10
328.050000000000
20
366.760000000000
30
0.0
11
336.420000000000
21
370.400000000000
31
0.0
0
LINE
5
7b8
100
AcDbEntity
8
1-4_2_19
6
CONTINUOUS
62
3
100
AcDbLine
10
331.700000000000
20
370.700000000000
30
0.0
11
329.480000000000
21
371.330000000000
31
0.0
0
LINE
5
7b9
100
AcDbEntity
8
1-4_2_19
6
CONTINUOUS
62
3
100
AcDbLine
10
331.700000000000
20
370.700000000000
30
0.0
11
333.360000000000
21
372.300000000000
31
0.0
0
LINE
5
7ba
100
AcDbEntity
8
1-4_2_19
6
CONTINUOUS
62
3
100
AcDbLine
10
331.980000000000
20
369.580000000000
30
0.0
11
329.470000000000
21
370.300000000000
31
0.0
0
LINE
5
7bb
100
AcDbEntity
8
1-4_2_19
6
CONTINUOUS
62
3
100
AcDbLine
10
331.980000000000
20
369.580000000000
30
0.0
11
333.870000000000
21
371.400000000000
31
0.0
0
LINE
5
7bc
100
AcDbEntity
8
1-4_2_19
6
CONTINUOUS
62
3
100
AcDbLine
10
347.220000000000
20
375.770000000000
30
0.0
11
333.360000000000
21
372.300000000000
31
0.0
0
LINE
5
7bd
100
AcDbEntity
8
1-4_2_19
6
CONTINUOUS
62
3
100
AcDbLine
10
347.460000000000
20
374.800000000000
30
0.0
11
333.870000000000
21
371.400000000000
31
0.0
0
LINE
5
7be
100
AcDbEntity
8
1-4_2_19
6
CONTINUOUS
62
3
100
AcDbLine
10
347.910000000000
20
386.750000000000
30
0.0
11
348.730000000000
21
377.890000000000
31
0.0
0
LINE
5
7bf
100
AcDbEntity
8
1-4_2_19
6
CONTINUOUS
62
3
100
AcDbLine
10
348.900000000000
20
386.840000000000
30
0.0
11
349.720000000000
21
377.980000000000
31
0.0
0
LINE
5
7c0
100
AcDbEntity
8
1-4_2_19
6
CONTINUOUS
62
3
100
AcDbLine
10
350.680000000000
20
390.020000000000
30
0.0
11
355.820000000000
21
390.380000000000
31
0.0
0
LINE
5
7c1
100
AcDbEntity
8
1-4_2_19
6
CONTINUOUS
62
3
100
AcDbLine
10
355.890000000000
20
389.390000000000
30
0.0
11
355.820000000000
21
390.380000000000
31
0.0
0
LINE
5
7c2
100
AcDbEntity
8
1-4_2_19
6
CONTINUOUS
62
3
100
AcDbLine
10
350.750000000000
20
389.020000000000
30
0.0
11
355.890000000000
21
389.390000000000
31
0.0
0
LINE
5
7c3
100
AcDbEntity
8
1-4_2_19
6
CONTINUOUS
62
3
100
AcDbLine
10
315.060000000000
20
367.730000000000
30
0.0
11
329.480000000000
21
371.330000000000
31
0.0
0
LINE
5
7c4
100
AcDbEntity
8
1-4_2_19
6
CONTINUOUS
62
3
100
AcDbLine
10
315.300000000000
20
366.760000000000
30
0.0
11
329.470000000000
21
370.300000000000
31
0.0
0
LINE
5
7c5
100
AcDbEntity
8
1-4_2_19
6
CONTINUOUS
62
3
100
AcDbLine
10
299.790000000000
20
383.030000000000
30
0.0
11
313.160000000000
21
368.250000000000
31
0.0
0
LINE
5
7c6
100
AcDbEntity
8
1-4_2_19
6
CONTINUOUS
62
3
100
AcDbLine
10
299.090000000000
20
382.330000000000
30
0.0
11
312.450000000000
21
367.550000000000
31
0.0
0
LINE
5
7c7
100
AcDbEntity
8
1-4_2_19
6
CONTINUOUS
62
3
100
AcDbLine
10
292.460000000000
20
379.020000000000
30
0.0
11
295.290000000000
21
382.730000000000
31
0.0
0
LINE
5
7c8
100
AcDbEntity
8
1-4_2_19
6
CONTINUOUS
62
3
100
AcDbLine
10
296.080000000000
20
382.120000000000
30
0.0
11
293.250000000000
21
378.420000000000
31
0.0
0
LINE
5
7c9
100
AcDbEntity
8
1-4_2_19
6
CONTINUOUS
62
3
100
AcDbLine
10
273.570000000000
20
372.820000000000
30
0.0
11
291.600000000000
21
377.320000000000
31
0.0
0
LINE
5
7ca
100
AcDbEntity
8
1-4_2_19
6
CONTINUOUS
62
3
100
AcDbLine
10
273.850000000000
20
369.670000000000
30
0.0
11
291.980000000000
21
370.990000000000
31
0.0
0
LINE
5
7cb
100
AcDbEntity
8
1-4_2_19
6
CONTINUOUS
62
3
100
AcDbLine
10
273.920000000000
20
368.670000000000
30
0.0
11
292.050000000000
21
369.990000000000
31
0.0
0
LINE
5
7cc
100
AcDbEntity
8
1-4_2_19
6
CONTINUOUS
62
3
100
AcDbLine
10
273.330000000000
20
373.790000000000
30
0.0
11
291.350000000000
21
378.290000000000
31
0.0
0
LINE
5
7cd
100
AcDbEntity
8
1-4_2_19
6
CONTINUOUS
62
3
100
AcDbLine
10
264.920000000000
20
376.260000000000
30
0.0
11
265.900000000000
21
362.360000000000
31
0.0
0
LINE
5
7ce
100
AcDbEntity
8
1-4_2_19
6
CONTINUOUS
62
3
100
AcDbLine
10
287.150000000000
20
365.260000000000
30
0.0
11
293.010000000000
21
364.610000000000
31
0.0
0
LINE
5
7cf
100
AcDbEntity
8
1-4_2_19
6
CONTINUOUS
62
3
100
AcDbLine
10
287.260000000000
20
366.260000000000
30
0.0
11
293.120000000000
21
365.600000000000
31
0.0
0
LINE
5
7d0
100
AcDbEntity
8
1-4_2_19
6
CONTINUOUS
62
3
100
AcDbLine
10
287.150000000000
20
365.260000000000
30
0.0
11
287.260000000000
21
366.260000000000
31
0.0
0
LINE
5
7d1
100
AcDbEntity
8
1-4_2_19
6
CONTINUOUS
62
3
100
AcDbLine
10
279.030000000000
20
366.260000000000
30
0.0
11
292.760000000000
21
368.200000000000
31
0.0
0
LINE
5
7d2
100
AcDbEntity
8
1-4_2_19
6
CONTINUOUS
62
3
100
AcDbLine
10
275.990000000000
20
364.050000000000
30
0.0
11
274.490000000000
21
360.960000000000
31
0.0
0
LINE
5
7d3
100
AcDbEntity
8
1-4_2_19
6
CONTINUOUS
62
3
100
AcDbLine
10
279.170000000000
20
365.270000000000
30
0.0
11
292.900000000000
21
367.210000000000
31
0.0
0
LINE
5
7d4
100
AcDbEntity
8
1-4_2_19
6
CONTINUOUS
62
3
100
AcDbLine
10
276.890000000000
20
363.610000000000
30
0.0
11
275.380000000000
21
360.530000000000
31
0.0
0
LINE
5
7d5
100
AcDbEntity
8
1-4_2_19
6
CONTINUOUS
62
3
100
AcDbLine
10
265.920000000000
20
376.360000000000
30
0.0
11
266.900000000000
21
362.430000000000
31
0.0
0
LINE
5
7d6
100
AcDbEntity
8
1-4_2_19
6
CONTINUOUS
62
3
100
AcDbLine
10
292.620000000000
20
362.120000000000
30
0.0
11
267.530000000000
21
355.840000000000
31
0.0
0
LINE
5
7d7
100
AcDbEntity
8
1-4_2_19
6
CONTINUOUS
62
3
100
AcDbLine
10
292.860000000000
20
361.150000000000
30
0.0
11
267.770000000000
21
354.870000000000
31
0.0
0
LINE
5
7d8
100
AcDbEntity
8
1-4_2_19
6
CONTINUOUS
62
3
100
AcDbLine
10
355.530000000000
20
390.840000000000
30
0.0
11
269.430000000000
21
380.620000000000
31
0.0
0
LINE
5
7d9
100
AcDbEntity
8
1-4_2_19
6
CONTINUOUS
62
3
100
AcDbLine
10
355.410000000000
20
391.830000000000
30
0.0
11
269.320000000000
21
381.610000000000
31
0.0
0
LINE
5
7da
100
AcDbEntity
8
1-4_2_19
6
CONTINUOUS
62
3
100
AcDbLine
10
453.450000000000
20
402.320000000000
30
0.0
11
355.420000000000
21
391.830000000000
31
0.0
0
LINE
5
7db
100
AcDbEntity
8
1-4_2_19
6
CONTINUOUS
62
3
100
AcDbLine
10
453.620000000000
20
401.340000000000
30
0.0
11
355.530000000000
21
390.840000000000
31
0.0
0
LINE
5
7dc
100
AcDbEntity
8
1-4_2_19
6
CONTINUOUS
62
7
100
AcDbLine
10
212.330000000000
20
374.840000000000
30
0.0
11
215.160000000000
21
351.030000000000
31
0.0
0
LINE
5
7dd
100
AcDbEntity
8
1-4_2_19
6
CONTINUOUS
62
7
100
AcDbLine
10
244.950000000000
20
354.560000000000
30
0.0
11
215.160000000000
21
351.030000000000
31
0.0
0
LINE
5
7de
100
AcDbEntity
8
1-4_2_19
6
CONTINUOUS
62
7
100
AcDbLine
10
242.120000000000
20
378.380000000000
30
0.0
11
212.330000000000
21
374.840000000000
31
0.0
0
LINE
5
7df
100
AcDbEntity
8
1-4_2_19
6
CONTINUOUS
62
3
100
AcDbLine
10
453.450000000000
20
402.320000000000
30
0.0
11
512.820000000000
21
417.170000000000
31
0.0
0
LINE
5
7e0
100
AcDbEntity
8
1-4_2_19
6
CONTINUOUS
62
3
100
AcDbLine
10
453.620000000000
20
401.340000000000
30
0.0
11
513.220000000000
21
416.240000000000
31
0.0
0
LINE
5
7e1
100
AcDbEntity
8
1-4_2_19
6
CONTINUOUS
62
3
100
AcDbLine
10
145.320000000000
20
325.290000000000
30
0.0
11
267.530000000000
21
355.840000000000
31
0.0
0
LINE
5
7e2
100
AcDbEntity
8
1-4_2_19
6
CONTINUOUS
62
3
100
AcDbLine
10
145.400000000000
20
324.280000000000
30
0.0
11
267.770000000000
21
354.870000000000
31
0.0
0
LINE
5
7e3
100
AcDbEntity
8
0-6_2_5
6
CONTINUOUS
62
7
100
AcDbLine
10
1259.070000000000
20
376.720000000000
30
0.0
11
1259.070000000000
21
355.340000000000
31
0.0
0
LINE
5
7e4
100
AcDbEntity
8
0-6_2_5
6
CONTINUOUS
62
7
100
AcDbLine
10
1408.360000000000
20
377.920000000000
30
0.0
11
1388.980000000000
21
435.200000000000
31
0.0
0
LINE
5
7e5
100
AcDbEntity
8
0-00
6
CONTINUOUS
62
4
100
AcDbLine
10
504.620000000000
20
907.290000000000
30
0.0
11
640.440000000000
21
941.240000000000
31
0.0
0
LINE
5
7e6
100
AcDbEntity
8
0-00
6
CONTINUOUS
62
4
100
AcDbLine
10
640.440000000000
20
941.240000000000
30
0.0
11
785.960000000000
21
977.620000000000
31
0.0
0
LINE
5
7e7
100
AcDbEntity
8
0-00
6
CONTINUOUS
62
3
100
AcDbLine
10
385.460000000000
20
789.440000000000
30
0.0
11
336.450000000000
21
784.200000000000
31
0.0
0
LINE
5
7e8
100
AcDbEntity
8
0-00
6
CONTINUOUS
62
3
100
AcDbLine
10
385.460000000000
20
789.440000000000
30
0.0
11
476.830000000000
21
812.290000000000
31
0.0
0
LINE
5
7e9
100
AcDbEntity
8
0-00
6
CONTINUOUS
62
3
100
AcDbLine
10
385.550000000000
20
788.950000000000
30
0.0
11
336.500000000000
21
783.700000000000
31
0.0
0
LINE
5
7ea
100
AcDbEntity
8
0-00
6
CONTINUOUS
62
3
100
AcDbLine
10
385.550000000000
20
788.950000000000
30
0.0
11
476.950000000000
21
811.800000000000
31
0.0
0
LINE
5
7eb
100
AcDbEntity
8
0-00
6
CONTINUOUS
62
3
100
AcDbLine
10
336.500000000000
20
783.700000000000
30
0.0
11
329.560000000000
21
782.880000000000
31
0.0
0
LINE
5
7ec
100
AcDbEntity
8
0-00
6
CONTINUOUS
62
3
100
AcDbLine
10
336.440000000000
20
784.200000000000
30
0.0
11
329.440000000000
21
783.370000000000
31
0.0
0
LINE
5
7ed
100
AcDbEntity
8
0-00
6
DASHED
62
7
100
AcDbLine
10
331.550000000000
20
774.940000000000
30
0.0
11
806.920000000000
21
893.780000000000
31
0.0
0
LINE
5
7ee
100
AcDbEntity
8
0-00
6
CONTINUOUS
62
3
100
AcDbLine
10
807.040000000000
20
893.290000000000
30
0.0
11
331.670000000000
21
774.450000000000
31
0.0
0
LINE
5
7ef
100
AcDbEntity
8
0-00
6
CONTINUOUS
62
4
100
AcDbLine
10
796.300000000000
20
864.840000000000
30
0.0
11
808.900000000000
21
885.840000000000
31
0.0
0
LINE
5
7f0
100
AcDbEntity
8
0-00
6
CONTINUOUS
62
3
100
AcDbLine
10
813.100000000000
20
869.040000000000
30
0.0
11
337.730000000000
21
750.200000000000
31
0.0
0
LINE
5
7f1
100
AcDbEntity
8
0-00
6
CONTINUOUS
62
4
100
AcDbLine
10
810.180000000000
20
868.310000000000
30
0.0
11
812.370000000000
21
871.960000000000
31
0.0
0
LINE
5
7f2
100
AcDbEntity
8
0-1_2_0
6
CONTINUOUS
62
7
100
AcDbLine
10
1332.110000000000
20
858.120000000000
30
0.0
11
1442.110000000000
21
858.120000000000
31
0.0
0
LINE
5
7f3
100
AcDbEntity
8
0-1_2_0
6
CONTINUOUS
62
7
100
AcDbLine
10
1252.110000000000
20
843.120000000000
30
0.0
11
1442.110000000000
21
843.120000000000
31
0.0
0
LINE
5
7f4
100
AcDbEntity
8
0-1_2_0
6
CONTINUOUS
62
3
100
AcDbLine
10
1440.310000000000
20
876.990000000000
30
0.0
11
1427.380000000000
21
876.990000000000
31
0.0
0
LINE
5
7f5
100
AcDbEntity
8
0-1_2_0
6
CONTINUOUS
62
3
100
AcDbLine
10
1333.200000000000
20
876.990000000000
30
0.0
11
1440.310000000000
21
876.990000000000
31
0.0
0
LINE
5
7f6
100
AcDbEntity
8
0-1_2_0
6
CONTINUOUS
62
3
100
AcDbLine
10
1440.310000000000
20
876.490000000000
30
0.0
11
1427.380000000000
21
876.490000000000
31
0.0
0
LINE
5
7f7
100
AcDbEntity
8
0-1_2_0
6
CONTINUOUS
62
3
100
AcDbLine
10
1333.170000000000
20
876.490000000000
30
0.0
11
1440.310000000000
21
876.490000000000
31
0.0
0
LINE
5
7f8
100
AcDbEntity
8
0-5_2_4
6
CONTINUOUS
62
3
100
AcDbLine
10
977.550000000000
20
434.880000000000
30
0.0
11
928.530000000000
21
429.640000000000
31
0.0
0
LINE
5
7f9
100
AcDbEntity
8
0-5_2_4
6
CONTINUOUS
62
3
100
AcDbLine
10
977.630000000000
20
434.390000000000
30
0.0
11
928.590000000000
21
429.140000000000
31
0.0
0
LINE
5
7fa
100
AcDbEntity
8
0-5_2_4
6
CONTINUOUS
62
3
100
AcDbLine
10
977.550000000000
20
434.880000000000
30
0.0
11
994.120000000000
21
439.020000000000
31
0.0
0
LINE
5
7fb
100
AcDbEntity
8
0-5_2_4
6
CONTINUOUS
62
3
100
AcDbLine
10
977.630000000000
20
434.390000000000
30
0.0
11
994.240000000000
21
438.540000000000
31
0.0
0
ARC
5
7fc
100
AcDbEntity
8
0-6_2_5
6
CONTINUOUS
62
3
100
AcDbCircle
10
1336.090000000000
20
336.620000000000
30
0.0
40
2.299999732846
100
AcDbArc
50
90.000000000000
51
180.000000000000
0
ARC
5
7fd
100
AcDbEntity
8
0-6_2_5
6
CONTINUOUS
62
3
100
AcDbCircle
10
1381.490000000000
20
336.620000000000
30
0.0
40
2.299999732846
100
AcDbArc
50
360.000000000000
51
450.000000000000
0
ARC
5
7fe
100
AcDbEntity
8
0-6_2_5
6
CONTINUOUS
62
3
100
AcDbCircle
10
1381.490000000000
20
241.220000000000
30
0.0
40
2.299999732846
100
AcDbArc
50
270.000000000000
51
360.000000000000
0
ARC
5
7ff
100
AcDbEntity
8
0-6_2_5
6
CONTINUOUS
62
3
100
AcDbCircle
10
1336.090000000000
20
241.220000000000
30
0.0
40
2.299999732846
100
AcDbArc
50
180.000000000000
51
-90.000000000000
0
ARC
5
800
100
AcDbEntity
8
0-6_2_5
6
CONTINUOUS
62
7
100
AcDbCircle
10
1311.590000000000
20
337.920000000000
30
0.0
40
0.600000010249
100
AcDbArc
50
360.000000000000
51
450.000000000000
0
ARC
5
801
100
AcDbEntity
8
0-6_2_5
6
CONTINUOUS
62
7
100
AcDbCircle
10
1312.490000000000
20
288.920000000000
30
0.0
40
0.300000126089
100
AcDbArc
50
179.990539550781
51
359.990539550781
0
ARC
5
802
100
AcDbEntity
8
0-6_2_5
6
CONTINUOUS
62
7
100
AcDbCircle
10
1312.490000000000
20
288.920000000000
30
0.0
40
0.900006644204
100
AcDbArc
50
180.000000000000
51
0.000000000000
0
ARC
5
803
100
AcDbEntity
8
0-6_2_5
6
CONTINUOUS
62
7
100
AcDbCircle
10
1260.270000000000
20
365.720000000000
30
0.0
40
0.600000010249
100
AcDbArc
50
90.000000000000
51
180.000000000000
0
ARC
5
804
100
AcDbEntity
8
0-6_2_5
6
CONTINUOUS
62
7
100
AcDbCircle
10
1260.270000000000
20
365.720000000000
30
0.0
40
1.200000020498
100
AcDbArc
50
90.000000000000
51
180.000000000000
0
ARC
5
805
100
AcDbEntity
8
0-6_2_5
6
CONTINUOUS
62
7
100
AcDbCircle
10
1260.270000000000
20
376.720000000000
30
0.0
40
1.200000020498
100
AcDbArc
50
90.000000000000
51
180.000000000000
0
CIRCLE
5
806
100
AcDbEntity
8
F-F
6
CONTINUOUS
62
3
100
AcDbCircle
10
79.720000000000
20
67.100000000000
30
0.0
40
11.313709759210
0
CIRCLE
5
807
100
AcDbEntity
8
F-F
6
CONTINUOUS
62
3
100
AcDbCircle
10
79.720000000000
20
67.100000000000
30
0.0
40
12.913709270428
0
CIRCLE
5
808
100
AcDbEntity
8
F-F
6
CONTINUOUS
62
4
100
AcDbCircle
10
79.720000000000
20
67.100000000000
30
0.0
40
11.473710561919
0
CIRCLE
5
809
100
AcDbEntity
8
F-F
6
CONTINUOUS
62
4
100
AcDbCircle
10
79.720000000000
20
67.100000000000
30
0.0
40
11.793707522317
0
CIRCLE
5
80a
100
AcDbEntity
8
F-F
6
CONTINUOUS
62
4
100
AcDbCircle
10
79.720000000000
20
67.100000000000
30
0.0
40
12.113709127734
0
CIRCLE
5
80b
100
AcDbEntity
8
F-F
6
CONTINUOUS
62
4
100
AcDbCircle
10
79.720000000000
20
67.100000000000
30
0.0
40
12.433706862302
0
CIRCLE
5
80c
100
AcDbEntity
8
F-F
6
CONTINUOUS
62
4
100
AcDbCircle
10
79.720000000000
20
67.100000000000
30
0.0
40
12.753706145210
0
ARC
5
80d
100
AcDbEntity
8
0-00
6
CONTINUOUS
62
4
100
AcDbCircle
10
509.080000000000
20
819.040000000000
30
0.0
40
4.017474503680
100
AcDbArc
50
55.732177734375
51
152.345916748047
0
ARC
5
80e
100
AcDbEntity
8
0-5_2_4
6
CONTINUOUS
62
3
100
AcDbCircle
10
775.190000000000
20
354.610000000000
30
0.0
40
2.299999732846
100
AcDbArc
50
104.036254882813
51
194.036254882813
0
ARC
5
80f
100
AcDbEntity
8
0-5_2_4
6
CONTINUOUS
62
3
100
AcDbCircle
10
819.240000000000
20
365.620000000000
30
0.0
40
2.299999732846
100
AcDbArc
50
14.036254882813
51
104.036254882813
0
ARC
5
810
100
AcDbEntity
8
0-5_2_4
6
CONTINUOUS
62
3
100
AcDbCircle
10
842.370000000000
20
273.070000000000
30
0.0
40
2.299999732846
100
AcDbArc
50
284.036254882813
51
374.036254882813
0
ARC
5
811
100
AcDbEntity
8
0-5_2_4
6
CONTINUOUS
62
3
100
AcDbCircle
10
798.330000000000
20
262.050000000000
30
0.0
40
2.299999732846
100
AcDbArc
50
194.036254882813
51
-75.963745117188
0
ARC
5
812
100
AcDbEntity
8
0-5_2_4
6
CONTINUOUS
62
7
100
AcDbCircle
10
751.110000000000
20
349.920000000000
30
0.0
40
0.600000010249
100
AcDbArc
50
14.036254882813
51
104.036254882813
0
ARC
5
813
100
AcDbEntity
8
0-5_2_4
6
CONTINUOUS
62
7
100
AcDbCircle
10
763.860000000000
20
302.610000000000
30
0.0
40
0.300000126089
100
AcDbArc
50
194.026794433594
51
374.026794433594
0
ARC
5
814
100
AcDbEntity
8
0-5_2_4
6
CONTINUOUS
62
7
100
AcDbCircle
10
763.860000000000
20
302.610000000000
30
0.0
40
0.900006644204
100
AcDbArc
50
194.036254882813
51
14.036254882813
0
ARC
5
815
100
AcDbEntity
8
0-5_2_4
6
CONTINUOUS
62
4
100
AcDbCircle
10
777.820000000000
20
381.730000000000
30
0.0
40
4.017474503680
100
AcDbArc
50
55.732177734375
51
152.345916748047
0
ARC
5
816
100
AcDbEntity
8
0-5_2_4
6
CONTINUOUS
62
4
100
AcDbCircle
10
745.890000000000
20
374.930000000000
30
0.0
40
4.017474503680
100
AcDbArc
50
55.732177734375
51
152.345916748047
0
ARC
5
817
100
AcDbEntity
8
0-5_2_4
6
CONTINUOUS
62
7
100
AcDbCircle
10
722.970000000000
20
344.130000000000
30
0.0
40
0.600000010249
100
AcDbArc
50
194.022476196289
51
284.036239624023
0
ARC
5
818
100
AcDbEntity
8
0-5_2_4
6
CONTINUOUS
62
7
100
AcDbCircle
10
722.970000000000
20
344.130000000000
30
0.0
40
1.200000020498
100
AcDbArc
50
194.022476196289
51
284.036239624023
0
ARC
5
819
100
AcDbEntity
8
0-5_2_4
6
DASHED
62
7
100
AcDbCircle
10
745.890000000000
20
374.930000000000
30
0.0
40
4.617474417158
100
AcDbArc
50
55.732177734375
51
152.345916748047
0
ARC
5
81a
100
AcDbEntity
8
0-6_2_5
6
CONTINUOUS
62
7
100
AcDbCircle
10
1346.220000000000
20
365.170000000000
30
0.0
40
0.249988770742
100
AcDbArc
50
270.000000000000
51
90.000000000000
0
ARC
5
81b
100
AcDbEntity
8
0-6_2_5
6
CONTINUOUS
62
7
100
AcDbCircle
10
1346.220000000000
20
365.170000000000
30
0.0
40
0.749988714769
100
AcDbArc
50
270.000000000000
51
90.000000000000
0
ARC
5
81c
100
AcDbEntity
8
0-6_2_5
6
CONTINUOUS
62
7
100
AcDbCircle
10
1260.720000000000
20
355.670000000000
30
0.0
40
0.249988770742
100
AcDbArc
50
180.000000000000
51
0.000000000000
0
ARC
5
81d
100
AcDbEntity
8
0-6_2_5
6
CONTINUOUS
62
7
100
AcDbCircle
10
1260.720000000000
20
355.670000000000
30
0.0
40
0.749988714769
100
AcDbArc
50
180.000000000000
51
0.000000000000
0
ARC
5
81e
100
AcDbEntity
8
0-6_2_5
6
CONTINUOUS
62
7
100
AcDbCircle
10
1261.970000000000
20
362.920000000000
30
0.0
40
0.499999992412
100
AcDbArc
50
90.000000000000
51
180.000000000000
0
ARC
5
81f
100
AcDbEntity
8
0-6_2_5
6
CONTINUOUS
62
7
100
AcDbCircle
10
1261.970000000000
20
362.920000000000
30
0.0
40
0.999999984825
100
AcDbArc
50
90.000000000000
51
180.000000000000
0
ARC
5
820
100
AcDbEntity
8
0-6_2_5
6
CONTINUOUS
62
7
100
AcDbCircle
10
1261.970000000000
20
362.920000000000
30
0.0
40
1.499999977237
100
AcDbArc
50
90.000000000000
51
180.000000000000
0
ARC
5
821
100
AcDbEntity
8
0-6_2_5
6
CONTINUOUS
62
7
100
AcDbCircle
10
1261.970000000000
20
362.920000000000
30
0.0
40
1.999999969650
100
AcDbArc
50
90.000000000000
51
180.000000000000
0
ARC
5
822
100
AcDbEntity
8
0-6_2_5
6
CONTINUOUS
62
7
100
AcDbCircle
10
1278.970000000000
20
362.920000000000
30
0.0
40
0.499999992412
100
AcDbArc
50
360.000000000000
51
450.000000000000
0
ARC
5
823
100
AcDbEntity
8
0-6_2_5
6
CONTINUOUS
62
7
100
AcDbCircle
10
1278.970000000000
20
362.920000000000
30
0.0
40
0.999999984825
100
AcDbArc
50
360.000000000000
51
450.000000000000
0
ARC
5
824
100
AcDbEntity
8
0-6_2_5
6
CONTINUOUS
62
7
100
AcDbCircle
10
1280.220000000000
20
323.670000000000
30
0.0
40
0.250001157461
100
AcDbArc
50
180.000000000000
51
0.000000000000
0
ARC
5
825
100
AcDbEntity
8
0-6_2_5
6
CONTINUOUS
62
7
100
AcDbCircle
10
1280.220000000000
20
323.670000000000
30
0.0
40
0.750001053102
100
AcDbArc
50
180.000000000000
51
0.000000000000
0
ARC
5
826
100
AcDbEntity
8
0-6_2_5
6
CONTINUOUS
62
7
100
AcDbCircle
10
1281.790000000000
20
339.120000000000
30
0.0
40
0.600000010249
100
AcDbArc
50
180.000000000000
51
270.000000000000
0
ARC
5
827
100
AcDbEntity
8
0-6_2_5
6
CONTINUOUS
62
7
100
AcDbCircle
10
1281.790000000000
20
339.120000000000
30
0.0
40
1.200000020498
100
AcDbArc
50
180.000000000000
51
270.000000000000
0
ARC
5
828
100
AcDbEntity
8
0-6_2_5
6
CONTINUOUS
62
7
100
AcDbCircle
10
1260.790000000000
20
355.340000000000
30
0.0
40
1.117480276545
100
AcDbArc
50
180.000000000000
51
0.000000000000
0
ARC
5
829
100
AcDbEntity
8
0-6_2_5
6
CONTINUOUS
62
7
100
AcDbCircle
10
1260.790000000000
20
355.340000000000
30
0.0
40
1.717492963828
100
AcDbArc
50
180.000000000000
51
0.000000000000
0
CIRCLE
5
82a
100
AcDbEntity
8
1-4_2_19
6
DOT
62
7
100
AcDbCircle
10
336.530000000000
20
341.370000000000
30
0.0
40
191.890486100239
0
ARC
5
82b
100
AcDbEntity
8
0-00
6
DOT
62
7
100
AcDbCircle
10
511.330000000000
20
805.050000000000
30
0.0
40
95.945243050120
100
AcDbArc
50
64.276443481445
51
45.484802246094
0
ARC
5
82c
100
AcDbEntity
8
0-1_2_0
6
CONTINUOUS
62
3
100
AcDbCircle
10
1468.450000000000
20
877.990000000000
30
0.0
40
0.999999984825
100
AcDbArc
50
270.000000000000
51
351.253997802734
0
ARC
5
82d
100
AcDbEntity
8
0-1_2_0
6
CONTINUOUS
62
3
100
AcDbCircle
10
1468.450000000000
20
877.990000000000
30
0.0
40
1.499999977237
100
AcDbArc
50
270.000000000000
51
351.253997802734
0
ARC
5
82e
100
AcDbEntity
8
0-1_2_0
6
CONTINUOUS
62
3
100
AcDbCircle
10
1471.600000000000
20
882.010000000000
30
0.0
40
0.999999984825
100
AcDbArc
50
80.000030517578
51
171.254287719727
0
ARC
5
82f
100
AcDbEntity
8
0-1_2_0
6
CONTINUOUS
62
3
100
AcDbCircle
10
1471.600000000000
20
882.010000000000
30
0.0
40
1.499999977237
100
AcDbArc
50
80.000030517578
51
171.254287719727
0
ARC
5
830
100
AcDbEntity
8
0-1_2_0
6
CONTINUOUS
62
3
100
AcDbCircle
10
1451.880000000000
20
877.990000000000
30
0.0
40
0.999999984825
100
AcDbArc
50
210.964096069336
51
270.000000000000
0
ARC
5
831
100
AcDbEntity
8
0-1_2_0
6
CONTINUOUS
62
3
100
AcDbCircle
10
1451.880000000000
20
877.990000000000
30
0.0
40
1.499999977237
100
AcDbArc
50
210.964096069336
51
270.000000000000
0
ARC
5
832
100
AcDbEntity
8
0-1_2_0
6
CONTINUOUS
62
3
100
AcDbCircle
10
1445.040000000000
20
885.500000000000
30
0.0
40
0.999999984825
100
AcDbArc
50
30.963073730469
51
128.660125732422
0
ARC
5
833
100
AcDbEntity
8
0-1_2_0
6
CONTINUOUS
62
3
100
AcDbCircle
10
1445.040000000000
20
885.500000000000
30
0.0
40
1.499999977237
100
AcDbArc
50
30.963073730469
51
128.660125732422
0
ARC
5
834
100
AcDbEntity
8
0-1_2_0
6
CONTINUOUS
62
3
100
AcDbCircle
10
1441.660000000000
20
885.990000000000
30
0.0
40
0.999999984825
100
AcDbArc
50
270.000000000000
51
308.660125732422
0
ARC
5
835
100
AcDbEntity
8
0-1_2_0
6
CONTINUOUS
62
3
100
AcDbCircle
10
1441.660000000000
20
885.990000000000
30
0.0
40
1.499999977237
100
AcDbArc
50
270.000000000000
51
308.660125732422
0
ARC
5
836
100
AcDbEntity
8
0-1_2_0
6
CONTINUOUS
62
3
100
AcDbCircle
10
1432.370000000000
20
883.690000000000
30
0.0
40
0.799999997537
100
AcDbArc
50
90.000000000000
51
252.163848876953
0
ARC
5
837
100
AcDbEntity
8
0-1_2_0
6
CONTINUOUS
62
3
100
AcDbCircle
10
1432.370000000000
20
883.690000000000
30
0.0
40
1.300000038335
100
AcDbArc
50
90.000000000000
51
252.163848876953
0
ARC
5
838
100
AcDbEntity
8
0-1_2_0
6
CONTINUOUS
62
3
100
AcDbCircle
10
1440.310000000000
20
878.990000000000
30
0.0
40
1.999999969650
100
AcDbArc
50
270.000000000000
51
72.164886474609
0
ARC
5
839
100
AcDbEntity
8
0-1_2_0
6
CONTINUOUS
62
3
100
AcDbCircle
10
1440.310000000000
20
878.990000000000
30
0.0
40
2.500000155605
100
AcDbArc
50
270.000000000000
51
72.164886474609
0
ARC
5
83a
100
AcDbEntity
8
0-1_2_0
6
CONTINUOUS
62
3
100
AcDbCircle
10
1239.840000000000
20
879.920000000000
30
0.0
40
2.500000155605
100
AcDbArc
50
170.000244140625
51
319.999832153320
0
ARC
5
83b
100
AcDbEntity
8
0-1_2_0
6
CONTINUOUS
62
3
100
AcDbCircle
10
1239.840000000000
20
879.920000000000
30
0.0
40
1.999999969650
100
AcDbArc
50
170.000213623047
51
319.999832153320
0
ARC
5
83c
100
AcDbEntity
8
0-1_2_0
6
CONTINUOUS
62
3
100
AcDbCircle
10
1250.960000000000
20
879.040000000000
30
0.0
40
0.899990773720
100
AcDbArc
50
260.000732421875
51
80.000732421875
0
ARC
5
83d
100
AcDbEntity
8
0-1_2_0
6
CONTINUOUS
62
3
100
AcDbCircle
10
1250.980000000000
20
879.040000000000
30
0.0
40
0.398551599348
100
AcDbArc
50
257.492202758789
51
77.492202758789
0
ARC
5
83e
100
AcDbEntity
8
0-1_2_0
6
CONTINUOUS
62
3
100
AcDbCircle
10
1244.010000000000
20
878.660000000000
30
0.0
40
1.999999969650
100
AcDbArc
50
83.999816894531
51
139.999832153320
0
ARC
5
83f
100
AcDbEntity
8
0-1_2_0
6
CONTINUOUS
62
3
100
AcDbCircle
10
1244.010000000000
20
878.660000000000
30
0.0
40
1.499999977237
100
AcDbArc
50
83.999816894531
51
139.999832153320
0
ARC
5
840
100
AcDbEntity
8
0-1_2_0
6
CONTINUOUS
62
3
100
AcDbCircle
10
1241.060000000000
20
886.790000000000
30
0.0
40
1.999999969650
100
AcDbArc
50
82.736206054688
51
170.000213623047
0
ARC
5
841
100
AcDbEntity
8
0-1_2_0
6
CONTINUOUS
62
3
100
AcDbCircle
10
1241.060000000000
20
886.790000000000
30
0.0
40
2.500000155605
100
AcDbArc
50
82.736206054688
51
170.000213623047
0
ARC
5
842
100
AcDbEntity
8
0-00
6
CONTINUOUS
62
3
100
AcDbCircle
10
516.430000000000
20
823.220000000000
30
0.0
40
0.999999984825
100
AcDbArc
50
284.036193847656
51
365.290191650391
0
ARC
5
843
100
AcDbEntity
8
0-00
6
CONTINUOUS
62
3
100
AcDbCircle
10
516.430000000000
20
823.220000000000
30
0.0
40
1.499999977237
100
AcDbArc
50
284.036193847656
51
365.290191650391
0
ARC
5
844
100
AcDbEntity
8
0-00
6
CONTINUOUS
62
3
100
AcDbCircle
10
518.510000000000
20
827.880000000000
30
0.0
40
0.999999984825
100
AcDbArc
50
94.036224365234
51
185.290481567383
0
ARC
5
845
100
AcDbEntity
8
0-00
6
CONTINUOUS
62
3
100
AcDbCircle
10
518.510000000000
20
827.880000000000
30
0.0
40
1.499999977237
100
AcDbArc
50
94.036224365234
51
185.290481567383
0
ARC
5
846
100
AcDbEntity
8
0-00
6
CONTINUOUS
62
3
100
AcDbCircle
10
500.350000000000
20
819.200000000000
30
0.0
40
0.999999984825
100
AcDbArc
50
225.000289916992
51
284.036193847656
0
ARC
5
847
100
AcDbEntity
8
0-00
6
CONTINUOUS
62
3
100
AcDbCircle
10
500.350000000000
20
819.200000000000
30
0.0
40
1.499999977237
100
AcDbArc
50
225.000289916992
51
284.036193847656
0
ARC
5
848
100
AcDbEntity
8
0-00
6
CONTINUOUS
62
3
100
AcDbCircle
10
491.900000000000
20
824.820000000000
30
0.0
40
0.999999984825
100
AcDbArc
50
44.999267578125
51
142.696319580078
0
ARC
5
849
100
AcDbEntity
8
0-00
6
CONTINUOUS
62
3
100
AcDbCircle
10
491.900000000000
20
824.820000000000
30
0.0
40
1.499999977237
100
AcDbArc
50
44.999267578125
51
142.696319580078
0
ARC
5
84a
100
AcDbEntity
8
0-00
6
CONTINUOUS
62
3
100
AcDbCircle
10
488.500000000000
20
824.480000000000
30
0.0
40
0.999999984825
100
AcDbArc
50
284.036193847656
51
322.696319580078
0
ARC
5
84b
100
AcDbEntity
8
0-00
6
CONTINUOUS
62
3
100
AcDbCircle
10
488.500000000000
20
824.480000000000
30
0.0
40
1.499999977237
100
AcDbArc
50
284.036193847656
51
322.696319580078
0
ARC
5
84c
100
AcDbEntity
8
0-00
6
CONTINUOUS
62
3
100
AcDbCircle
10
480.040000000000
20
820.000000000000
30
0.0
40
0.799999997537
100
AcDbArc
50
104.036193847656
51
266.200042724609
0
ARC
5
84d
100
AcDbEntity
8
0-00
6
CONTINUOUS
62
3
100
AcDbCircle
10
480.040000000000
20
820.000000000000
30
0.0
40
1.300000038335
100
AcDbArc
50
104.036193847656
51
266.200042724609
0
ARC
5
84e
100
AcDbEntity
8
0-00
6
CONTINUOUS
62
3
100
AcDbCircle
10
488.890000000000
20
817.360000000000
30
0.0
40
1.999999969650
100
AcDbArc
50
284.036193847656
51
86.201080322266
0
ARC
5
84f
100
AcDbEntity
8
0-00
6
CONTINUOUS
62
3
100
AcDbCircle
10
488.890000000000
20
817.360000000000
30
0.0
40
2.500000155605
100
AcDbArc
50
284.036193847656
51
86.201080322266
0
ARC
5
850
100
AcDbEntity
8
0-00
6
CONTINUOUS
62
3
100
AcDbCircle
10
478.510000000000
20
815.720000000000
30
0.0
40
2.500000155605
100
AcDbArc
50
184.036437988281
51
334.036026000977
0
ARC
5
851
100
AcDbEntity
8
0-00
6
CONTINUOUS
62
3
100
AcDbCircle
10
478.510000000000
20
815.720000000000
30
0.0
40
1.999999969650
100
AcDbArc
50
184.036407470703
51
334.036026000977
0
ARC
5
852
100
AcDbEntity
8
0-00
6
CONTINUOUS
62
3
100
AcDbCircle
10
489.500000000000
20
817.570000000000
30
0.0
40
0.899990773720
100
AcDbArc
50
274.036926269531
51
94.036926269531
0
ARC
5
853
100
AcDbEntity
8
0-00
6
CONTINUOUS
62
3
100
AcDbCircle
10
489.520000000000
20
817.570000000000
30
0.0
40
0.398551599348
100
AcDbArc
50
271.528396606445
51
91.528396606445
0
ARC
5
854
100
AcDbEntity
8
0-00
6
CONTINUOUS
62
3
100
AcDbCircle
10
482.850000000000
20
815.510000000000
30
0.0
40
1.999999969650
100
AcDbArc
50
98.036010742188
51
154.036026000977
0
ARC
5
855
100
AcDbEntity
8
0-00
6
CONTINUOUS
62
3
100
AcDbCircle
10
482.850000000000
20
815.510000000000
30
0.0
40
1.499999977237
100
AcDbArc
50
98.036010742188
51
154.036026000977
0
ARC
5
856
100
AcDbEntity
8
0-00
6
CONTINUOUS
62
3
100
AcDbCircle
10
478.010000000000
20
822.690000000000
30
0.0
40
1.999999969650
100
AcDbArc
50
96.772399902344
51
184.036407470703
0
ARC
5
857
100
AcDbEntity
8
0-00
6
CONTINUOUS
62
3
100
AcDbCircle
10
478.010000000000
20
822.690000000000
30
0.0
40
2.500000155605
100
AcDbArc
50
96.772399902344
51
184.036407470703
0
ARC
5
858
100
AcDbEntity
8
0-00
6
CONTINUOUS
62
3
100
AcDbCircle
10
700.760000000000
20
869.300000000000
30
0.0
40
0.999999984825
100
AcDbArc
50
284.036193847656
51
365.290191650391
0
ARC
5
859
100
AcDbEntity
8
0-00
6
CONTINUOUS
62
3
100
AcDbCircle
10
700.760000000000
20
869.300000000000
30
0.0
40
1.499999977237
100
AcDbArc
50
284.036193847656
51
365.290191650391
0
ARC
5
85a
100
AcDbEntity
8
0-00
6
CONTINUOUS
62
3
100
AcDbCircle
10
702.840000000000
20
873.960000000000
30
0.0
40
0.999999984825
100
AcDbArc
50
94.036224365234
51
185.290481567383
0
ARC
5
85b
100
AcDbEntity
8
0-00
6
CONTINUOUS
62
3
100
AcDbCircle
10
702.840000000000
20
873.960000000000
30
0.0
40
1.499999977237
100
AcDbArc
50
94.036224365234
51
185.290481567383
0
ARC
5
85c
100
AcDbEntity
8
0-00
6
CONTINUOUS
62
3
100
AcDbCircle
10
684.680000000000
20
865.280000000000
30
0.0
40
0.999999984825
100
AcDbArc
50
225.000289916992
51
284.036193847656
0
ARC
5
85d
100
AcDbEntity
8
0-00
6
CONTINUOUS
62
3
100
AcDbCircle
10
684.680000000000
20
865.280000000000
30
0.0
40
1.499999977237
100
AcDbArc
50
225.000289916992
51
284.036193847656
0
ARC
5
85e
100
AcDbEntity
8
0-00
6
CONTINUOUS
62
3
100
AcDbCircle
10
676.220000000000
20
870.900000000000
30
0.0
40
0.999999984825
100
AcDbArc
50
44.999267578125
51
142.696319580078
0
ARC
5
85f
100
AcDbEntity
8
0-00
6
CONTINUOUS
62
3
100
AcDbCircle
10
676.220000000000
20
870.900000000000
30
0.0
40
1.499999977237
100
AcDbArc
50
44.999267578125
51
142.696319580078
0
ARC
5
860
100
AcDbEntity
8
0-00
6
CONTINUOUS
62
3
100
AcDbCircle
10
672.820000000000
20
870.560000000000
30
0.0
40
0.999999984825
100
AcDbArc
50
284.036193847656
51
322.696319580078
0
ARC
5
861
100
AcDbEntity
8
0-00
6
CONTINUOUS
62
3
100
AcDbCircle
10
672.820000000000
20
870.560000000000
30
0.0
40
1.499999977237
100
AcDbArc
50
284.036193847656
51
322.696319580078
0
ARC
5
862
100
AcDbEntity
8
0-00
6
CONTINUOUS
62
3
100
AcDbCircle
10
664.370000000000
20
866.080000000000
30
0.0
40
0.799999997537
100
AcDbArc
50
104.036193847656
51
266.200042724609
0
ARC
5
863
100
AcDbEntity
8
0-00
6
CONTINUOUS
62
3
100
AcDbCircle
10
664.370000000000
20
866.080000000000
30
0.0
40
1.300000038335
100
AcDbArc
50
104.036193847656
51
266.200042724609
0
ARC
5
864
100
AcDbEntity
8
0-00
6
CONTINUOUS
62
3
100
AcDbCircle
10
673.210000000000
20
863.440000000000
30
0.0
40
1.999999969650
100
AcDbArc
50
284.036193847656
51
86.201080322266
0
ARC
5
865
100
AcDbEntity
8
0-00
6
CONTINUOUS
62
3
100
AcDbCircle
10
673.210000000000
20
863.440000000000
30
0.0
40
2.500000155605
100
AcDbArc
50
284.036193847656
51
86.201080322266
0
ARC
5
866
100
AcDbEntity
8
0-00
6
CONTINUOUS
62
3
100
AcDbCircle
10
662.830000000000
20
861.800000000000
30
0.0
40
2.500000155605
100
AcDbArc
50
184.036437988281
51
334.036026000977
0
ARC
5
867
100
AcDbEntity
8
0-00
6
CONTINUOUS
62
3
100
AcDbCircle
10
662.830000000000
20
861.800000000000
30
0.0
40
1.999999969650
100
AcDbArc
50
184.036407470703
51
334.036026000977
0
ARC
5
868
100
AcDbEntity
8
0-00
6
CONTINUOUS
62
3
100
AcDbCircle
10
673.830000000000
20
863.650000000000
30
0.0
40
0.899990773720
100
AcDbArc
50
274.036926269531
51
94.036926269531
0
ARC
5
869
100
AcDbEntity
8
0-00
6
CONTINUOUS
62
3
100
AcDbCircle
10
673.850000000000
20
863.650000000000
30
0.0
40
0.398551599348
100
AcDbArc
50
271.528396606445
51
91.528396606445
0
ARC
5
86a
100
AcDbEntity
8
0-00
6
CONTINUOUS
62
3
100
AcDbCircle
10
667.180000000000
20
861.600000000000
30
0.0
40
1.999999969650
100
AcDbArc
50
98.036010742188
51
154.036026000977
0
ARC
5
86b
100
AcDbEntity
8
0-00
6
CONTINUOUS
62
3
100
AcDbCircle
10
667.180000000000
20
861.600000000000
30
0.0
40
1.499999977237
100
AcDbArc
50
98.036010742188
51
154.036026000977
0
ARC
5
86c
100
AcDbEntity
8
0-00
6
CONTINUOUS
62
3
100
AcDbCircle
10
662.340000000000
20
868.770000000000
30
0.0
40
1.999999969650
100
AcDbArc
50
96.772399902344
51
184.036407470703
0
ARC
5
86d
100
AcDbEntity
8
0-00
6
CONTINUOUS
62
3
100
AcDbCircle
10
662.340000000000
20
868.770000000000
30
0.0
40
2.500000155605
100
AcDbArc
50
96.772399902344
51
184.036407470703
0
ARC
5
86e
100
AcDbEntity
8
0-00
6
CONTINUOUS
62
4
100
AcDbCircle
10
693.410000000000
20
865.120000000000
30
0.0
40
4.017474503680
100
AcDbArc
50
55.732177734375
51
152.345916748047
0
ARC
5
86f
100
AcDbEntity
8
0-5_2_4
6
CONTINUOUS
62
3
100
AcDbCircle
10
702.060000000000
20
368.510000000000
30
0.0
40
2.500000155605
100
AcDbArc
50
184.036437988281
51
334.036026000977
0
ARC
5
870
100
AcDbEntity
8
0-5_2_4
6
CONTINUOUS
62
3
100
AcDbCircle
10
702.060000000000
20
368.510000000000
30
0.0
40
1.999999969650
100
AcDbArc
50
184.036407470703
51
334.036026000977
0
ARC
5
871
100
AcDbEntity
8
0-5_2_4
6
CONTINUOUS
62
3
100
AcDbCircle
10
713.060000000000
20
370.350000000000
30
0.0
40
0.899990773720
100
AcDbArc
50
274.036926269531
51
94.036926269531
0
ARC
5
872
100
AcDbEntity
8
0-5_2_4
6
CONTINUOUS
62
3
100
AcDbCircle
10
713.070000000000
20
370.360000000000
30
0.0
40
0.398551599348
100
AcDbArc
50
271.528396606445
51
91.528396606445
0
ARC
5
873
100
AcDbEntity
8
0-5_2_4
6
CONTINUOUS
62
3
100
AcDbCircle
10
706.410000000000
20
368.300000000000
30
0.0
40
1.999999969650
100
AcDbArc
50
98.036010742188
51
154.036026000977
0
ARC
5
874
100
AcDbEntity
8
0-5_2_4
6
CONTINUOUS
62
3
100
AcDbCircle
10
706.410000000000
20
368.300000000000
30
0.0
40
1.499999977237
100
AcDbArc
50
98.036010742188
51
154.036026000977
0
ARC
5
875
100
AcDbEntity
8
0-5_2_4
6
CONTINUOUS
62
3
100
AcDbCircle
10
701.570000000000
20
375.470000000000
30
0.0
40
1.999999969650
100
AcDbArc
50
96.772399902344
51
184.036407470703
0
ARC
5
876
100
AcDbEntity
8
0-5_2_4
6
CONTINUOUS
62
3
100
AcDbCircle
10
701.570000000000
20
375.470000000000
30
0.0
40
2.500000155605
100
AcDbArc
50
96.772399902344
51
184.036407470703
0
ARC
5
877
100
AcDbEntity
8
0-5_2_4
6
CONTINUOUS
62
7
100
AcDbCircle
10
712.250000000000
20
376.720000000000
30
0.0
40
0.499999992412
100
AcDbArc
50
14.036193847656
51
135.051559448242
0
ARC
5
878
100
AcDbEntity
8
0-5_2_4
6
CONTINUOUS
62
7
100
AcDbCircle
10
712.250000000000
20
376.720000000000
30
0.0
40
0.999999984825
100
AcDbArc
50
14.036193847656
51
135.051559448242
0
ARC
5
879
100
AcDbEntity
8
0-5_2_4
6
CONTINUOUS
62
7
100
AcDbCircle
10
712.250000000000
20
376.720000000000
30
0.0
40
1.499999977237
100
AcDbArc
50
14.036193847656
51
135.051559448242
0
ARC
5
87a
100
AcDbEntity
8
0-5_2_4
6
CONTINUOUS
62
7
100
AcDbCircle
10
712.250000000000
20
376.720000000000
30
0.0
40
1.999999969650
100
AcDbArc
50
14.036193847656
51
135.051559448242
0
ARC
5
87b
100
AcDbEntity
8
0-5_2_4
6
CONTINUOUS
62
7
100
AcDbCircle
10
701.300000000000
20
367.520000000000
30
0.0
40
0.249988311078
100
AcDbArc
50
135.054473876953
51
315.054473876953
0
ARC
5
87c
100
AcDbEntity
8
0-5_2_4
6
CONTINUOUS
62
7
100
AcDbCircle
10
701.300000000000
20
367.520000000000
30
0.0
40
0.749988230912
100
AcDbArc
50
135.054473876953
51
315.054473876953
0
ARC
5
87d
100
AcDbEntity
8
0-5_2_4
6
CONTINUOUS
62
7
100
AcDbCircle
10
716.590000000000
20
369.640000000000
30
0.0
40
0.499999992412
100
AcDbArc
50
194.036193847656
51
284.036193847656
0
ARC
5
87e
100
AcDbEntity
8
0-5_2_4
6
CONTINUOUS
62
7
100
AcDbCircle
10
716.590000000000
20
369.640000000000
30
0.0
40
0.999999984825
100
AcDbArc
50
194.036193847656
51
284.036193847656
0
ARC
5
87f
100
AcDbEntity
8
0-5_2_4
6
CONTINUOUS
62
7
100
AcDbCircle
10
725.140000000000
20
330.290000000000
30
0.0
40
0.250001157461
100
AcDbArc
50
194.036193847656
51
14.036193847656
0
ARC
5
880
100
AcDbEntity
8
0-5_2_4
6
CONTINUOUS
62
7
100
AcDbCircle
10
725.140000000000
20
330.290000000000
30
0.0
40
0.750001101488
100
AcDbArc
50
194.036193847656
51
14.036193847656
0
ARC
5
881
100
AcDbEntity
8
0-5_2_4
6
CONTINUOUS
62
7
100
AcDbCircle
10
760.070000000000
20
380.250000000000
30
0.0
40
0.249988770742
100
AcDbArc
50
284.036193847656
51
104.036193847656
0
ARC
5
882
100
AcDbEntity
8
0-5_2_4
6
CONTINUOUS
62
7
100
AcDbCircle
10
760.070000000000
20
380.250000000000
30
0.0
40
0.749988714769
100
AcDbArc
50
284.036193847656
51
104.036193847656
0
ARC
5
883
100
AcDbEntity
8
0-5_2_4
6
CONTINUOUS
62
3
100
AcDbCircle
10
924.190000000000
20
422.570000000000
30
0.0
40
0.999999984825
100
AcDbArc
50
284.036193847656
51
365.290191650391
0
ARC
5
884
100
AcDbEntity
8
0-5_2_4
6
CONTINUOUS
62
3
100
AcDbCircle
10
924.190000000000
20
422.570000000000
30
0.0
40
1.499999977237
100
AcDbArc
50
284.036193847656
51
365.290191650391
0
ARC
5
885
100
AcDbEntity
8
0-5_2_4
6
CONTINUOUS
62
3
100
AcDbCircle
10
926.270000000000
20
427.230000000000
30
0.0
40
0.999999984825
100
AcDbArc
50
94.036224365234
51
185.290481567383
0
ARC
5
886
100
AcDbEntity
8
0-5_2_4
6
CONTINUOUS
62
3
100
AcDbCircle
10
926.270000000000
20
427.230000000000
30
0.0
40
1.499999977237
100
AcDbArc
50
94.036224365234
51
185.290481567383
0
ARC
5
887
100
AcDbEntity
8
0-5_2_4
6
CONTINUOUS
62
3
100
AcDbCircle
10
908.110000000000
20
418.550000000000
30
0.0
40
0.999999984825
100
AcDbArc
50
225.000289916992
51
284.036193847656
0
ARC
5
888
100
AcDbEntity
8
0-5_2_4
6
CONTINUOUS
62
3
100
AcDbCircle
10
908.110000000000
20
418.550000000000
30
0.0
40
1.499999977237
100
AcDbArc
50
225.000289916992
51
284.036193847656
0
ARC
5
889
100
AcDbEntity
8
0-5_2_4
6
CONTINUOUS
62
3
100
AcDbCircle
10
899.660000000000
20
424.170000000000
30
0.0
40
0.999999984825
100
AcDbArc
50
44.999267578125
51
142.696319580078
0
ARC
5
88a
100
AcDbEntity
8
0-5_2_4
6
CONTINUOUS
62
3
100
AcDbCircle
10
899.660000000000
20
424.170000000000
30
0.0
40
1.499999977237
100
AcDbArc
50
44.999267578125
51
142.696319580078
0
ARC
5
88b
100
AcDbEntity
8
0-5_2_4
6
CONTINUOUS
62
3
100
AcDbCircle
10
896.260000000000
20
423.840000000000
30
0.0
40
0.999999984825
100
AcDbArc
50
284.036193847656
51
322.696319580078
0
ARC
5
88c
100
AcDbEntity
8
0-5_2_4
6
CONTINUOUS
62
3
100
AcDbCircle
10
896.260000000000
20
423.840000000000
30
0.0
40
1.499999977237
100
AcDbArc
50
284.036193847656
51
322.696319580078
0
ARC
5
88d
100
AcDbEntity
8
0-5_2_4
6
CONTINUOUS
62
3
100
AcDbCircle
10
887.800000000000
20
419.350000000000
30
0.0
40
0.799999997537
100
AcDbArc
50
104.036193847656
51
266.200042724609
0
ARC
5
88e
100
AcDbEntity
8
0-5_2_4
6
CONTINUOUS
62
3
100
AcDbCircle
10
887.800000000000
20
419.350000000000
30
0.0
40
1.300000038335
100
AcDbArc
50
104.036193847656
51
266.200042724609
0
ARC
5
88f
100
AcDbEntity
8
0-5_2_4
6
CONTINUOUS
62
3
100
AcDbCircle
10
896.640000000000
20
416.720000000000
30
0.0
40
1.999999969650
100
AcDbArc
50
284.036193847656
51
86.201080322266
0
ARC
5
890
100
AcDbEntity
8
0-5_2_4
6
CONTINUOUS
62
3
100
AcDbCircle
10
896.640000000000
20
416.720000000000
30
0.0
40
2.500000155605
100
AcDbArc
50
284.036193847656
51
86.201080322266
0
ARC
5
891
100
AcDbEntity
8
0-5_2_4
6
CONTINUOUS
62
3
100
AcDbCircle
10
886.270000000000
20
415.080000000000
30
0.0
40
2.500000155605
100
AcDbArc
50
184.036437988281
51
334.036026000977
0
ARC
5
892
100
AcDbEntity
8
0-5_2_4
6
CONTINUOUS
62
3
100
AcDbCircle
10
886.270000000000
20
415.080000000000
30
0.0
40
1.999999969650
100
AcDbArc
50
184.036407470703
51
334.036026000977
0
ARC
5
893
100
AcDbEntity
8
0-5_2_4
6
CONTINUOUS
62
3
100
AcDbCircle
10
897.260000000000
20
416.920000000000
30
0.0
40
0.899990773720
100
AcDbArc
50
274.036926269531
51
94.036926269531
0
ARC
5
894
100
AcDbEntity
8
0-5_2_4
6
CONTINUOUS
62
3
100
AcDbCircle
10
897.280000000000
20
416.930000000000
30
0.0
40
0.398551599348
100
AcDbArc
50
271.528396606445
51
91.528396606445
0
ARC
5
895
100
AcDbEntity
8
0-5_2_4
6
CONTINUOUS
62
3
100
AcDbCircle
10
890.610000000000
20
414.870000000000
30
0.0
40
1.999999969650
100
AcDbArc
50
98.036010742188
51
154.036026000977
0
ARC
5
896
100
AcDbEntity
8
0-5_2_4
6
CONTINUOUS
62
3
100
AcDbCircle
10
890.610000000000
20
414.870000000000
30
0.0
40
1.499999977237
100
AcDbArc
50
98.036010742188
51
154.036026000977
0
ARC
5
897
100
AcDbEntity
8
0-5_2_4
6
CONTINUOUS
62
3
100
AcDbCircle
10
885.770000000000
20
422.040000000000
30
0.0
40
1.999999969650
100
AcDbArc
50
96.772399902344
51
184.036407470703
0
ARC
5
898
100
AcDbEntity
8
0-5_2_4
6
CONTINUOUS
62
3
100
AcDbCircle
10
885.770000000000
20
422.040000000000
30
0.0
40
2.500000155605
100
AcDbArc
50
96.772399902344
51
184.036407470703
0
ARC
5
899
100
AcDbEntity
8
0-5_2_4
6
CONTINUOUS
62
4
100
AcDbCircle
10
916.840000000000
20
418.390000000000
30
0.0
40
4.017474503680
100
AcDbArc
50
55.732177734375
51
152.345916748047
0
ARC
5
89a
100
AcDbEntity
8
1-4_2_19
6
CONTINUOUS
62
4
100
AcDbCircle
10
332.040000000000
20
369.350000000000
30
0.0
40
8.034949007360
100
AcDbArc
50
55.732177734375
51
152.345916748047
0
ARC
5
89b
100
AcDbEntity
8
1-4_2_19
6
CONTINUOUS
62
3
100
AcDbCircle
10
346.740000000000
20
377.710000000000
30
0.0
40
1.999999969650
100
AcDbArc
50
284.036193847656
51
365.290191650391
0
ARC
5
89c
100
AcDbEntity
8
1-4_2_19
6
CONTINUOUS
62
3
100
AcDbCircle
10
346.740000000000
20
377.710000000000
30
0.0
40
2.999999954475
100
AcDbArc
50
284.036193847656
51
365.290191650391
0
ARC
5
89d
100
AcDbEntity
8
1-4_2_19
6
CONTINUOUS
62
3
100
AcDbCircle
10
350.890000000000
20
387.030000000000
30
0.0
40
1.999999969650
100
AcDbArc
50
94.036224365234
51
185.290481567383
0
ARC
5
89e
100
AcDbEntity
8
1-4_2_19
6
CONTINUOUS
62
3
100
AcDbCircle
10
350.890000000000
20
387.030000000000
30
0.0
40
2.999999954475
100
AcDbArc
50
94.036224365234
51
185.290481567383
0
ARC
5
89f
100
AcDbEntity
8
1-4_2_19
6
CONTINUOUS
62
3
100
AcDbCircle
10
314.570000000000
20
369.670000000000
30
0.0
40
1.999999969650
100
AcDbArc
50
225.000289916992
51
284.036193847656
0
ARC
5
8a0
100
AcDbEntity
8
1-4_2_19
6
CONTINUOUS
62
3
100
AcDbCircle
10
314.570000000000
20
369.670000000000
30
0.0
40
2.999999954475
100
AcDbArc
50
225.000289916992
51
284.036193847656
0
ARC
5
8a1
100
AcDbEntity
8
1-4_2_19
6
CONTINUOUS
62
3
100
AcDbCircle
10
297.670000000000
20
380.910000000000
30
0.0
40
1.999999969650
100
AcDbArc
50
44.999267578125
51
142.696319580078
0
ARC
5
8a2
100
AcDbEntity
8
1-4_2_19
6
CONTINUOUS
62
3
100
AcDbCircle
10
297.670000000000
20
380.910000000000
30
0.0
40
2.999999954475
100
AcDbArc
50
44.999267578125
51
142.696319580078
0
ARC
5
8a3
100
AcDbEntity
8
1-4_2_19
6
CONTINUOUS
62
3
100
AcDbCircle
10
290.870000000000
20
380.230000000000
30
0.0
40
1.999999969650
100
AcDbArc
50
284.036193847656
51
322.696319580078
0
ARC
5
8a4
100
AcDbEntity
8
1-4_2_19
6
CONTINUOUS
62
3
100
AcDbCircle
10
290.870000000000
20
380.230000000000
30
0.0
40
2.999999954475
100
AcDbArc
50
284.036193847656
51
322.696319580078
0
ARC
5
8a5
100
AcDbEntity
8
1-4_2_19
6
CONTINUOUS
62
3
100
AcDbCircle
10
273.960000000000
20
371.260000000000
30
0.0
40
1.599999995074
100
AcDbArc
50
104.036193847656
51
266.200042724609
0
ARC
5
8a6
100
AcDbEntity
8
1-4_2_19
6
CONTINUOUS
62
3
100
AcDbCircle
10
273.960000000000
20
371.260000000000
30
0.0
40
2.600000076670
100
AcDbArc
50
104.036193847656
51
266.200042724609
0
ARC
5
8a7
100
AcDbEntity
8
1-4_2_19
6
CONTINUOUS
62
3
100
AcDbCircle
10
291.650000000000
20
366.000000000000
30
0.0
40
3.999999939299
100
AcDbArc
50
284.036193847656
51
86.201080322266
0
ARC
5
8a8
100
AcDbEntity
8
1-4_2_19
6
CONTINUOUS
62
3
100
AcDbCircle
10
291.650000000000
20
366.000000000000
30
0.0
40
5.000000311209
100
AcDbArc
50
284.036193847656
51
86.201080322266
0
ARC
5
8a9
100
AcDbEntity
8
1-4_2_19
6
CONTINUOUS
62
3
100
AcDbCircle
10
270.890000000000
20
362.720000000000
30
0.0
40
5.000000311209
100
AcDbArc
50
184.036437988281
51
334.036026000977
0
ARC
5
8aa
100
AcDbEntity
8
1-4_2_19
6
CONTINUOUS
62
3
100
AcDbCircle
10
270.890000000000
20
362.720000000000
30
0.0
40
3.999999939299
100
AcDbArc
50
184.036407470703
51
334.036026000977
0
ARC
5
8ab
100
AcDbEntity
8
1-4_2_19
6
CONTINUOUS
62
3
100
AcDbCircle
10
292.880000000000
20
366.410000000000
30
0.0
40
1.799981547440
100
AcDbArc
50
274.036926269531
51
94.036926269531
0
ARC
5
8ac
100
AcDbEntity
8
1-4_2_19
6
CONTINUOUS
62
3
100
AcDbCircle
10
292.920000000000
20
366.410000000000
30
0.0
40
0.797103198696
100
AcDbArc
50
271.528396606445
51
91.528396606445
0
ARC
5
8ad
100
AcDbEntity
8
1-4_2_19
6
CONTINUOUS
62
3
100
AcDbCircle
10
279.590000000000
20
362.300000000000
30
0.0
40
3.999999939299
100
AcDbArc
50
98.036010742188
51
154.036026000977
0
ARC
5
8ae
100
AcDbEntity
8
1-4_2_19
6
CONTINUOUS
62
3
100
AcDbCircle
10
279.590000000000
20
362.300000000000
30
0.0
40
2.999999954475
100
AcDbArc
50
98.036010742188
51
154.036026000977
0
ARC
5
8af
100
AcDbEntity
8
1-4_2_19
6
CONTINUOUS
62
3
100
AcDbCircle
10
269.910000000000
20
376.640000000000
30
0.0
40
3.999999939299
100
AcDbArc
50
96.772399902344
51
184.036407470703
0
ARC
5
8b0
100
AcDbEntity
8
1-4_2_19
6
CONTINUOUS
62
3
100
AcDbCircle
10
269.910000000000
20
376.640000000000
30
0.0
40
5.000000311209
100
AcDbArc
50
96.772399902344
51
184.036407470703
0
TEXT
5
8b1
100
AcDbEntity
8
F-F
62
3
370
-3
100
AcDbText
10
532.090
20
75.752
30
0.0
40
4.923
1
変　　　　　　更　　　　　　記　　　　　　事
41
0.999
50
0.000
100
AcDbText
0
TEXT
5
8b2
100
AcDbEntity
8
F-F
62
3
370
-3
100
AcDbText
10
815.825
20
74.952
30
0.0
40
4.923
1
受領　　日附
41
0.999
50
0.000
100
AcDbText
0
TEXT
5
8b3
100
AcDbEntity
8
F-F
62
3
370
-3
100
AcDbText
10
1014.042
20
45.520
30
0.0
40
4.923
1
施工者
41
0.999
50
0.000
100
AcDbText
0
TEXT
5
8b4
100
AcDbEntity
8
F-F
62
3
370
-3
100
AcDbText
10
1014.042
20
75.150
30
0.0
40
4.923
1
設計者
41
0.999
50
0.000
100
AcDbText
0
TEXT
5
8b5
100
AcDbEntity
8
F-F
62
3
370
-3
100
AcDbText
10
1219.525
20
44.977
30
0.0
40
4.923
1
作図
41
0.999
50
0.000
100
AcDbText
0
TEXT
5
8b6
100
AcDbEntity
8
F-F
62
3
370
-3
100
AcDbText
10
1291.352
20
45.508
30
0.0
40
4.923
1
図面名
41
0.999
50
0.000
100
AcDbText
0
TEXT
5
8b7
100
AcDbEntity
8
F-F
62
3
370
-3
100
AcDbText
10
1219.525
20
74.607
30
0.0
40
4.923
1
日附
41
0.999
50
0.000
100
AcDbText
0
TEXT
5
8b8
100
AcDbEntity
8
F-F
62
3
370
-3
100
AcDbText
10
1291.352
20
75.137
30
0.0
40
4.923
1
工事件名
41
0.999
50
0.000
100
AcDbText
0
TEXT
5
8b9
100
AcDbEntity
8
F-F
62
3
370
-3
100
AcDbText
10
1241.661
20
74.355
30
0.0
40
4.923
1
年　月　日
41
0.999
50
0.000
100
AcDbText
0
TEXT
5
8ba
100
AcDbEntity
8
F-F
62
3
370
-3
100
AcDbText
10
1241.661
20
44.725
30
0.0
40
4.923
1
年　月　日
41
0.999
50
0.000
100
AcDbText
0
TEXT
5
8bb
100
AcDbEntity
8
F-F
62
3
370
-3
100
AcDbText
10
1543.695
20
75.137
30
0.0
40
4.923
1
設計番号
41
0.999
50
0.000
100
AcDbText
0
TEXT
5
8bc
100
AcDbEntity
8
F-F
62
3
370
-3
100
AcDbText
10
1543.695
20
45.508
30
0.0
40
4.923
1
縮　尺
41
0.999
50
0.000
100
AcDbText
0
MTEXT
5
8bd
100
AcDbEntity
8
F-F
62
3
370
-3
100
AcDbMText
10
387.012
20
67.821
30
0.0
40
4.649
41
0.000
71
7
72
1
1
\W1.134;{\W0.817;. }　{\W0.817;.}　{\W0.817; }
7
STANDARD
11
1.00000
21
0.00000
31
0.0
0
MTEXT
5
8be
100
AcDbEntity
8
F-F
62
3
370
-3
100
AcDbMText
10
387.012
20
57.944
30
0.0
40
4.649
41
0.000
71
7
72
1
1
\W1.134;{\W0.817;. }　{\W0.817;.}　{\W0.817; }
7
STANDARD
11
1.00000
21
0.00000
31
0.0
0
MTEXT
5
8bf
100
AcDbEntity
8
F-F
62
3
370
-3
100
AcDbMText
10
387.012
20
48.068
30
0.0
40
4.649
41
0.000
71
7
72
1
1
\W1.134;{\W0.817;. }　{\W0.817;.}　{\W0.817; }
7
STANDARD
11
1.00000
21
0.00000
31
0.0
0
MTEXT
5
8c0
100
AcDbEntity
8
F-F
62
3
370
-3
100
AcDbMText
10
387.012
20
38.191
30
0.0
40
4.649
41
0.000
71
7
72
1
1
\W1.134;{\W0.817;. }　{\W0.817;.}　{\W0.817; }
7
STANDARD
11
1.00000
21
0.00000
31
0.0
0
MTEXT
5
8c1
100
AcDbEntity
8
F-F
62
3
370
-3
100
AcDbMText
10
387.012
20
28.314
30
0.0
40
4.649
41
0.000
71
7
72
1
1
\W1.134;{\W0.817;. }　{\W0.817;.}　{\W0.817; }
7
STANDARD
11
1.00000
21
0.00000
31
0.0
0
TEXT
5
8c2
100
AcDbEntity
8
F-F
62
3
370
-3
100
AcDbText
10
1034.383
20
62.373
30
0.0
40
6.564
1
　　　　　　　　　　
41
0.963
50
0.000
100
AcDbText
0
TEXT
5
8c3
100
AcDbEntity
8
F-F
62
3
370
-3
100
AcDbText
10
1034.383
20
32.743
30
0.0
40
6.564
1
　　　　　　　　　　
41
0.963
50
0.000
100
AcDbText
0
TEXT
5
8c4
100
AcDbEntity
8
F-F
62
3
370
-3
100
AcDbText
10
1317.846
20
63.920
30
0.0
40
6.564
1
　　　　　　　　　　　　　
41
0.963
50
0.000
100
AcDbText
0
TEXT
5
8c5
100
AcDbEntity
8
F-F
62
3
370
-3
100
AcDbText
10
378.040
20
75.687
30
0.0
40
4.923
1
年　月　日
41
0.999
50
0.000
100
AcDbText
0
TEXT
5
8c6
100
AcDbEntity
8
F-F
62
3
370
-3
100
AcDbText
10
872.996
20
74.368
30
0.0
40
4.923
1
年　　月　　日
41
0.999
50
0.000
100
AcDbText
0
MTEXT
5
8c7
100
AcDbEntity
8
F-F
62
3
370
-3
100
AcDbMText
10
885.548
20
63.398
30
0.0
40
4.649
41
0.000
71
7
72
1
1
\W1.134;{\W0.817;.}　{\W0.817; }　{\W0.817;.}
7
STANDARD
11
1.00000
21
0.00000
31
0.0
0
TEXT
5
8c8
100
AcDbEntity
8
F-F
62
3
370
-3
100
AcDbText
10
815.825
20
45.322
30
0.0
40
4.923
1
受領　　日附
41
0.999
50
0.000
100
AcDbText
0
TEXT
5
8c9
100
AcDbEntity
8
F-F
62
3
370
-3
100
AcDbText
10
872.996
20
44.738
30
0.0
40
4.923
1
年　　月　　日
41
0.999
50
0.000
100
AcDbText
0
MTEXT
5
8ca
100
AcDbEntity
8
F-F
62
3
370
-3
100
AcDbMText
10
885.548
20
33.768
30
0.0
40
4.649
41
0.000
71
7
72
1
1
\W1.134;{\W0.817;.}　{\W0.817; }　{\W0.817;.}
7
STANDARD
11
1.00000
21
0.00000
31
0.0
0
MTEXT
5
8cb
100
AcDbEntity
8
F-F
62
3
370
-3
100
AcDbMText
10
1248.433
20
61.685
30
0.0
40
4.649
41
0.000
71
7
72
1
1
\W1.134;{\W0.817;.}　　{\W0.817;.}　
7
STANDARD
11
1.00000
21
0.00000
31
0.0
0
TEXT
5
8cc
100
AcDbEntity
8
F-F
62
3
370
-3
100
AcDbText
10
1567.012
20
41.647
30
0.0
40
6.564
1
Ａ１－１／２　
41
0.963
50
0.000
100
AcDbText
0
TEXT
5
8cd
100
AcDbEntity
8
F-F
62
3
370
-3
100
AcDbText
10
1567.012
20
26.832
30
0.0
40
6.564
1
Ａ３－１／４　
41
0.963
50
0.000
100
AcDbText
0
TEXT
5
8ce
100
AcDbEntity
8
0-00
62
3
370
-3
100
AcDbText
10
491.982
20
999.168
30
0.0
40
9.846
41
0.999
50
0.000
1
１０
72
1
11
505.632
21
998.074
31
0.0
100
AcDbText
73
1
0
MTEXT
5
8cf
100
AcDbEntity
8
0-00
62
3
370
-3
100
AcDbMText
10
556.784
20
1018.567
30
0.0
40
9.299
41
0.000
71
7
72
1
1
\W1.134;{\W0.817;2.5}以上
7
STANDARD
11
1.00000
21
0.00000
31
0.0
0
TEXT
5
8d0
100
AcDbEntity
8
0-00
62
3
370
-3
100
AcDbText
10
714.518
20
829.874
30
0.0
40
8.205
1
野地板材
41
0.942
50
0.000
100
AcDbText
0
TEXT
5
8d1
100
AcDbEntity
8
0-00
62
3
370
-3
100
AcDbText
10
622.643
20
806.378
30
0.0
40
8.205
1
アスファルトルーフィング９４０
41
0.942
50
0.000
100
AcDbText
0
TEXT
5
8d2
100
AcDbEntity
8
0-6_2_5
62
3
370
-3
100
AcDbText
10
1455.831
20
325.648
30
0.0
40
8.205
1
野地板材
41
0.942
50
0.000
100
AcDbText
0
TEXT
5
8d3
100
AcDbEntity
8
0-6_2_5
62
3
370
-3
100
AcDbText
10
1396.504
20
281.735
30
0.0
40
8.205
1
アスファルトルーフィング９４０
41
0.942
50
0.000
100
AcDbText
0
TEXT
5
8d4
100
AcDbEntity
8
0-6_2_5
62
3
370
-3
100
AcDbText
10
1269.575
20
214.095
30
0.0
40
8.205
1
鼻隠し
41
0.942
50
0.000
100
AcDbText
0
TEXT
5
8d5
100
AcDbEntity
8
0-6_2_5
62
3
370
-3
100
AcDbText
10
1395.007
20
174.148
30
0.0
40
8.205
1
軒天
41
0.942
50
0.000
100
AcDbText
0
TEXT
5
8d6
100
AcDbEntity
8
F-F
62
3
370
-3
100
AcDbText
10
166.668
20
28.767
30
0.0
40
6.564
1
電話（０５４）２６３－２２８０（代表）
41
0.963
50
0.000
100
AcDbText
0
TEXT
5
8d7
100
AcDbEntity
8
F-F
62
2
370
-3
100
AcDbText
10
122.770
20
61.158
30
0.0
40
13.127
1
小　池　弥　太　郎　商　店
41
0.963
50
0.000
100
AcDbText
0
TEXT
5
8d8
100
AcDbEntity
8
F-F
62
3
370
-3
100
AcDbText
10
166.664
20
43.600
30
0.0
40
6.564
1
静岡県静岡市葵区流通センター１６番
41
0.963
50
0.000
100
AcDbText
0
TEXT
5
8d9
100
AcDbEntity
8
F-F
62
3
370
-3
100
AcDbText
10
100.135
20
68.249
30
0.0
40
4.923
1
株
41
0.999
50
0.000
100
AcDbText
0
TEXT
5
8da
100
AcDbEntity
8
F-F
62
3
370
-3
100
AcDbText
10
107.285
20
60.999
30
0.0
40
4.923
1
社
41
0.999
50
0.000
100
AcDbText
0
TEXT
5
8db
100
AcDbEntity
8
F-F
62
3
370
-3
100
AcDbText
10
100.085
20
60.999
30
0.0
40
4.923
1
会
41
0.999
50
0.000
100
AcDbText
0
TEXT
5
8dc
100
AcDbEntity
8
F-F
62
3
370
-3
100
AcDbText
10
106.885
20
68.049
30
0.0
40
4.923
1
式
41
0.999
50
0.000
100
AcDbText
0
TEXT
5
8dd
100
AcDbEntity
8
0-5_2_4
62
3
370
-3
100
AcDbText
10
863.045
20
354.552
30
0.0
40
8.205
1
野地板材
41
0.942
50
0.000
100
AcDbText
0
TEXT
5
8de
100
AcDbEntity
8
0-5_2_4
62
3
370
-3
100
AcDbText
10
730.823
20
216.805
30
0.0
40
8.205
1
鼻隠し
41
0.942
50
0.000
100
AcDbText
0
TEXT
5
8df
100
AcDbEntity
8
0-5_2_4
62
3
370
-3
100
AcDbText
10
856.531
20
213.256
30
0.0
40
8.205
1
軒天
41
0.942
50
0.000
100
AcDbText
0
TEXT
5
8e0
100
AcDbEntity
8
0-5_2_4
62
3
370
-3
100
AcDbText
10
802.520
20
321.938
30
0.0
40
8.205
1
アスファルトルーフィング９４０
41
0.942
50
0.000
100
AcDbText
0
TEXT
5
8e1
100
AcDbEntity
8
0-5_2_4
62
3
370
-3
100
AcDbText
10
707.833
20
273.896
30
0.0
40
8.205
1
軒先水切
41
0.942
50
0.000
100
AcDbText
0
TEXT
5
8e2
100
AcDbEntity
8
0-6_2_5
62
3
370
-3
100
AcDbText
10
1253.173
20
273.259
30
0.0
40
8.205
1
けらば水切
41
0.942
50
0.000
100
AcDbText
0
MTEXT
5
8e3
100
AcDbEntity
8
0-6_2_5
62
3
370
-3
100
AcDbMText
10
1177.417
20
300.092
30
0.0
40
7.749
41
0.000
71
7
72
1
1
\W1.069;けらば唐草{\W0.770; }ＥＲ{\W0.770;-}２３
7
STANDARD
11
1.00000
21
0.00000
31
0.0
0
TEXT
5
8e4
100
AcDbEntity
8
0-1_2_0
62
3
370
-3
100
AcDbText
10
1434.450
20
914.490
30
0.0
40
8.205
41
0.736
50
0.000
1
14
72
1
11
1439.812
21
913.578
31
0.0
100
AcDbText
73
1
0
TEXT
5
8e5
100
AcDbEntity
8
0-1_2_0
62
3
370
-3
100
AcDbText
10
1455.950
20
914.490
30
0.0
40
8.205
41
0.550
50
0.000
1
29
72
1
11
1461.312
21
913.578
31
0.0
100
AcDbText
73
1
0
TEXT
5
8e6
100
AcDbEntity
8
0-1_2_0
62
3
370
-3
100
AcDbText
10
1500.950
20
879.489
30
0.0
40
8.205
41
0.798
50
0.000
1
10
72
1
11
1506.312
21
878.578
31
0.0
100
AcDbText
73
1
0
TEXT
5
8e7
100
AcDbEntity
8
0-1_2_0
62
3
370
-3
100
AcDbText
10
1201.151
20
885.917
30
0.0
40
8.205
41
0.946
50
352.736
1
11
72
1
11
1206.355
21
884.335
31
0.0
100
AcDbText
73
1
0
TEXT
5
8e8
100
AcDbEntity
8
0-1_2_0
62
3
370
-3
100
AcDbText
10
1235.148
20
855.364
30
0.0
40
8.205
41
0.736
50
350.000
1
14
72
1
11
1240.271
21
853.535
31
0.0
100
AcDbText
73
1
0
TEXT
5
8e9
100
AcDbEntity
8
0-1_2_0
62
3
370
-3
100
AcDbText
10
1284.669
20
911.474
30
0.0
40
8.205
41
0.575
50
352.736
1
95
72
1
11
1289.873
21
909.892
31
0.0
100
AcDbText
73
1
0
MTEXT
5
8ea
100
AcDbEntity
8
0-5_2_4
62
3
370
-3
100
AcDbMText
10
621.668
20
306.655
30
0.0
40
7.749
41
0.000
71
7
72
1
1
\W1.069;軒先唐草{\W0.770; }ＥＲ{\W0.770;-}３２
7
STANDARD
11
1.00000
21
0.00000
31
0.0
0
TEXT
5
8eb
100
AcDbEntity
8
0-00
62
3
370
-3
100
AcDbText
10
623.842
20
858.238
30
0.0
40
8.205
41
0.946
50
6.772
1
11
72
1
11
629.274
21
857.965
31
0.0
100
AcDbText
73
1
0
TEXT
5
8ec
100
AcDbEntity
8
0-00
62
3
370
-3
100
AcDbText
10
698.667
20
903.288
30
0.0
40
8.205
41
0.575
50
6.772
1
95
72
1
11
704.100
21
903.015
31
0.0
100
AcDbText
73
1
0
TEXT
5
8ed
100
AcDbEntity
8
0-00
62
3
370
-3
100
AcDbText
10
439.515
20
812.156
30
0.0
40
8.205
41
0.946
50
6.772
1
11
72
1
11
444.947
21
811.883
31
0.0
100
AcDbText
73
1
0
TEXT
5
8ee
100
AcDbEntity
8
1-4_2_19
62
6
370
-3
100
AcDbText
10
192.864
20
355.279
30
0.0
40
14.768
41
0.956
50
6.772
1
11
72
1
11
202.739
21
354.799
31
0.0
100
AcDbText
73
1
0
MTEXT
5
8ef
100
AcDbEntity
8
0-00
62
3
370
-3
100
AcDbMText
10
362.129
20
874.064
30
0.0
40
9.299
41
0.000
71
7
72
1
1
\W1.134;＠{\W0.817;190}
7
STANDARD
11
0.97014
21
0.24253
31
0.0
0
MTEXT
5
8f0
100
AcDbEntity
8
0-00
62
3
370
-3
100
AcDbMText
10
701.210
20
958.834
30
0.0
40
9.299
41
0.000
71
7
72
1
1
\W1.134;＠{\W0.817;190}
7
STANDARD
11
0.97014
21
0.24254
31
0.0
0
TEXT
5
8f1
100
AcDbEntity
8
0-1_2_0
62
3
370
-3
100
AcDbText
10
1379.500
20
860.614
30
0.0
40
8.205
41
0.842
50
0.000
1
110
72
1
11
1387.544
21
859.702
31
0.0
100
AcDbText
73
1
0
MTEXT
5
8f2
100
AcDbEntity
8
0-1_2_0
62
3
370
-3
100
AcDbMText
10
1316.000
20
844.203
30
0.0
40
7.749
41
0.000
71
7
72
1
1
\W1.069;働き巾　{\W0.770;190}
7
STANDARD
11
1.00000
21
0.00000
31
0.0
0
TEXT
5
8f3
100
AcDbEntity
8
0-00
62
2
370
-3
100
AcDbText
10
536.895
20
918.546
30
0.0
40
11.486
41
0.748
50
14.036
1
190
72
1
11
548.555
21
920.146
31
0.0
100
AcDbText
73
1
0
MTEXT
5
8f4
100
AcDbEntity
8
0-00
62
3
370
-3
100
AcDbMText
10
231.386
20
1118.542
30
0.0
40
7.749
41
0.000
71
7
72
1
1
\W1.069;ｅルーフ横葺{\fMS Gothic;Ⅰ}型（190）　嵌合断面図
7
STANDARD
11
1.00000
21
0.00000
31
0.0
0
MTEXT
5
8f5
100
AcDbEntity
8
0-1_2_0
62
3
370
-3
100
AcDbMText
10
1282.646
20
1118.542
30
0.0
40
7.749
41
0.000
71
7
72
1
1
\W1.069;ｅルーフ横葺{\fMS Gothic;Ⅰ}型(190)　製品本体図
7
STANDARD
11
1.00000
21
0.00000
31
0.0
0
MTEXT
5
8f6
100
AcDbEntity
8
0-1_2_0
62
3
370
-3
100
AcDbMText
10
1178.721
20
955.396
30
0.0
40
7.749
41
0.000
71
7
72
1
1
\W1.069;ｅルーフ横葺{\fMS Gothic;Ⅰ}型（190）　製品本体図　（ポリ裏貼はオプション）
7
STANDARD
11
1.00000
21
0.00000
31
0.0
0
MTEXT
5
8f7
100
AcDbEntity
8
0-00
62
3
370
-3
100
AcDbMText
10
516.595
20
876.430
30
0.0
40
7.749
41
0.000
71
7
72
1
1
\W1.069;ｅルーフ横葺{\fMS Gothic;Ⅰ}型(190)
7
STANDARD
11
1.00000
21
0.00000
31
0.0
0
MTEXT
5
8f8
100
AcDbEntity
8
1-4_2_19
62
3
370
-3
100
AcDbMText
10
231.386
20
588.168
30
0.0
40
7.749
41
0.000
71
7
72
1
1
\W1.069;ｅルーフ横葺{\fMS Gothic;Ⅰ}型(190)　嵌合断面拡大図
7
STANDARD
11
1.00000
21
0.00000
31
0.0
0
MTEXT
5
8f9
100
AcDbEntity
8
0-5_2_4
62
3
370
-3
100
AcDbMText
10
757.016
20
588.168
30
0.0
40
7.749
41
0.000
71
7
72
1
1
\W1.069;ｅルーフ横葺{\fMS Gothic;Ⅰ}型(190)　軒先納め図
7
STANDARD
11
1.00000
21
0.00000
31
0.0
0
MTEXT
5
8fa
100
AcDbEntity
8
0-5_2_4
62
3
370
-3
100
AcDbMText
10
743.770
20
443.330
30
0.0
40
7.749
41
0.000
71
7
72
1
1
\W1.069;ｅルーフ横葺{\fMS Gothic;Ⅰ}型(190)
7
STANDARD
11
1.00000
21
0.00000
31
0.0
0
MTEXT
5
8fb
100
AcDbEntity
8
0-6_2_5
62
3
370
-3
100
AcDbMText
10
1282.646
20
588.168
30
0.0
40
7.749
41
0.000
71
7
72
1
1
\W1.069;ｅルーフ横葺{\fMS Gothic;Ⅰ}型(190)　けらば納め図
7
STANDARD
11
1.00000
21
0.00000
31
0.0
0
MTEXT
5
8fc
100
AcDbEntity
8
0-6_2_5
62
3
370
-3
100
AcDbMText
10
1357.043
20
438.934
30
0.0
40
7.749
41
0.000
71
7
72
1
1
\W1.069;ｅルーフ横葺{\fMS Gothic;Ⅰ}型(190)
7
STANDARD
11
1.00000
21
0.00000
31
0.0
0
TEXT
5
8fd
100
AcDbEntity
8
F-F
62
3
370
-3
100
AcDbText
10
1222.716
20
31.565
30
0.0
40
4.923
1
MA 2015-06-12
41
0.671
50
0.000
100
AcDbText
0
TEXT
5
8fe
100
AcDbEntity
8
F-F
62
3
370
-3
100
AcDbText
10
1550.894
20
62.052
30
0.0
40
6.564
1
ＥＲ１９０－０１
41
0.963
50
0.000
100
AcDbText
0
MTEXT
5
8ff
100
AcDbEntity
8
F-F
62
3
370
-3
100
AcDbMText
10
1317.846
20
33.561
30
0.0
40
6.199
41
0.000
71
7
72
1
1
\W1.093;ｅルーフ横葺{\fMS Gothic;Ⅰ}型(190)　参考納め図（１）
7
STANDARD
11
1.00000
21
0.00000
31
0.0
0
POLYLINE
5
900
100
AcDbEntity
  8
0-00
6
CONTINUOUS
62
3
100
AcDb2dPolyline
66
1
10
0
20
0
70
1
40
0.800
41
0.800
0
VERTEX
5
901
100
AcDbEntity
  8
0-00
6
CONTINUOUS
62
3
100
AcDbVertex
100
AcDb2dVertex
10
455.709
20
895.159
30
0.0
42
1.000
0
VERTEX
5
902
100
AcDbEntity
  8
0-00
6
CONTINUOUS
62
3
100
AcDbVertex
100
AcDb2dVertex
10
456.509
20
895.159
30
0.0
42
1.000
0
SEQEND
5
903
100
AcDbEntity
  8
0-00
0
POLYLINE
5
904
100
AcDbEntity
  8
0-00
6
CONTINUOUS
62
3
100
AcDb2dPolyline
66
1
10
0
20
0
70
1
40
0.800
41
0.800
0
VERTEX
5
905
100
AcDbEntity
  8
0-00
6
CONTINUOUS
62
3
100
AcDbVertex
100
AcDb2dVertex
10
640.036
20
941.241
30
0.0
42
1.000
0
VERTEX
5
906
100
AcDbEntity
  8
0-00
6
CONTINUOUS
62
3
100
AcDbVertex
100
AcDb2dVertex
10
640.836
20
941.241
30
0.0
42
1.000
0
SEQEND
5
907
100
AcDbEntity
  8
0-00
0
POLYLINE
5
908
100
AcDbEntity
  8
F-F
6
CONTINUOUS
62
3
100
AcDb2dPolyline
66
1
10
0
20
0
70
1
40
0.800
41
0.800
0
VERTEX
5
909
100
AcDbEntity
  8
F-F
6
CONTINUOUS
62
3
100
AcDbVertex
100
AcDb2dVertex
10
54.357
20
1143.641
30
0.0
42
1.000
0
VERTEX
5
90a
100
AcDbEntity
  8
F-F
6
CONTINUOUS
62
3
100
AcDbVertex
100
AcDb2dVertex
10
55.157
20
1143.641
30
0.0
42
1.000
0
SEQEND
5
90b
100
AcDbEntity
  8
F-F
0
POLYLINE
5
90c
100
AcDbEntity
  8
0-00
6
CONTINUOUS
62
4
100
AcDb2dPolyline
66
1
10
0
20
0
70
1
40
0.800
41
0.800
0
VERTEX
5
90d
100
AcDbEntity
  8
0-00
6
CONTINUOUS
62
4
100
AcDbVertex
100
AcDb2dVertex
10
476.791
20
810.830
30
0.0
42
1.000
0
VERTEX
5
90e
100
AcDbEntity
  8
0-00
6
CONTINUOUS
62
4
100
AcDbVertex
100
AcDb2dVertex
10
477.591
20
810.830
30
0.0
42
1.000
0
SEQEND
5
90f
100
AcDbEntity
  8
0-00
0
POLYLINE
5
910
100
AcDbEntity
  8
0-00
6
CONTINUOUS
62
4
100
AcDb2dPolyline
66
1
10
0
20
0
70
1
40
0.800
41
0.800
0
VERTEX
5
911
100
AcDbEntity
  8
0-00
6
CONTINUOUS
62
4
100
AcDbVertex
100
AcDb2dVertex
10
661.118
20
856.912
30
0.0
42
1.000
0
VERTEX
5
912
100
AcDbEntity
  8
0-00
6
CONTINUOUS
62
4
100
AcDbVertex
100
AcDb2dVertex
10
661.918
20
856.912
30
0.0
42
1.000
0
SEQEND
5
913
100
AcDbEntity
  8
0-00
0
POLYLINE
5
914
100
AcDbEntity
  8
1-4_2_19
6
CONTINUOUS
62
4
100
AcDb2dPolyline
66
1
10
0
20
0
70
1
40
0.800
41
0.800
0
VERTEX
5
915
100
AcDbEntity
  8
1-4_2_19
6
CONTINUOUS
62
4
100
AcDbVertex
100
AcDb2dVertex
10
267.859
20
352.934
30
0.0
42
1.000
0
VERTEX
5
916
100
AcDbEntity
  8
1-4_2_19
6
CONTINUOUS
62
4
100
AcDbVertex
100
AcDb2dVertex
10
268.659
20
352.934
30
0.0
42
1.000
0
SEQEND
5
917
100
AcDbEntity
  8
1-4_2_19
0
POLYLINE
5
918
100
AcDbEntity
  8
0-1_2_0
6
CONTINUOUS
62
3
100
AcDb2dPolyline
66
1
10
0
20
0
70
1
40
0.800
41
0.800
0
VERTEX
5
919
100
AcDbEntity
  8
0-1_2_0
6
CONTINUOUS
62
3
100
AcDbVertex
100
AcDb2dVertex
10
1212.509
20
892.902
30
0.0
42
1.000
0
VERTEX
5
91a
100
AcDbEntity
  8
0-1_2_0
6
CONTINUOUS
62
3
100
AcDbVertex
100
AcDb2dVertex
10
1213.309
20
892.902
30
0.0
42
1.000
0
SEQEND
5
91b
100
AcDbEntity
  8
0-1_2_0
0
POLYLINE
5
91c
100
AcDbEntity
  8
0-1_2_0
6
CONTINUOUS
62
3
100
AcDb2dPolyline
66
1
10
0
20
0
70
1
40
0.800
41
0.800
0
VERTEX
5
91d
100
AcDbEntity
  8
0-1_2_0
6
CONTINUOUS
62
3
100
AcDbVertex
100
AcDb2dVertex
10
1210.992
20
881.006
30
0.0
42
1.000
0
VERTEX
5
91e
100
AcDbEntity
  8
0-1_2_0
6
CONTINUOUS
62
3
100
AcDbVertex
100
AcDb2dVertex
10
1211.792
20
881.006
30
0.0
42
1.000
0
SEQEND
5
91f
100
AcDbEntity
  8
0-1_2_0
0
POLYLINE
5
920
100
AcDbEntity
  8
0-1_2_0
6
CONTINUOUS
62
3
100
AcDb2dPolyline
66
1
10
0
20
0
70
1
40
0.800
41
0.800
0
VERTEX
5
921
100
AcDbEntity
  8
0-1_2_0
6
CONTINUOUS
62
3
100
AcDbVertex
100
AcDb2dVertex
10
1232.207
20
853.276
30
0.0
42
1.000
0
VERTEX
5
922
100
AcDbEntity
  8
0-1_2_0
6
CONTINUOUS
62
3
100
AcDbVertex
100
AcDb2dVertex
10
1233.007
20
853.276
30
0.0
42
1.000
0
SEQEND
5
923
100
AcDbEntity
  8
0-1_2_0
0
POLYLINE
5
924
100
AcDbEntity
  8
0-1_2_0
6
CONTINUOUS
62
3
100
AcDb2dPolyline
66
1
10
0
20
0
70
1
40
0.800
41
0.800
0
VERTEX
5
925
100
AcDbEntity
  8
0-1_2_0
6
CONTINUOUS
62
3
100
AcDbVertex
100
AcDb2dVertex
10
1245.994
20
850.845
30
0.0
42
1.000
0
VERTEX
5
926
100
AcDbEntity
  8
0-1_2_0
6
CONTINUOUS
62
3
100
AcDbVertex
100
AcDb2dVertex
10
1246.794
20
850.845
30
0.0
42
1.000
0
SEQEND
5
927
100
AcDbEntity
  8
0-1_2_0
0
POLYLINE
5
928
100
AcDbEntity
  8
0-1_2_0
6
CONTINUOUS
62
3
100
AcDb2dPolyline
66
1
10
0
20
0
70
1
40
0.800
41
0.800
0
VERTEX
5
929
100
AcDbEntity
  8
0-1_2_0
6
CONTINUOUS
62
3
100
AcDbVertex
100
AcDb2dVertex
10
1251.710
20
843.118
30
0.0
42
1.000
0
VERTEX
5
92a
100
AcDbEntity
  8
0-1_2_0
6
CONTINUOUS
62
3
100
AcDbVertex
100
AcDb2dVertex
10
1252.510
20
843.118
30
0.0
42
1.000
0
SEQEND
5
92b
100
AcDbEntity
  8
0-1_2_0
0
POLYLINE
5
92c
100
AcDbEntity
  8
0-1_2_0
6
CONTINUOUS
62
3
100
AcDb2dPolyline
66
1
10
0
20
0
70
1
40
0.800
41
0.800
0
VERTEX
5
92d
100
AcDbEntity
  8
0-1_2_0
6
CONTINUOUS
62
3
100
AcDbVertex
100
AcDb2dVertex
10
1441.710
20
843.118
30
0.0
42
1.000
0
VERTEX
5
92e
100
AcDbEntity
  8
0-1_2_0
6
CONTINUOUS
62
3
100
AcDbVertex
100
AcDb2dVertex
10
1442.510
20
843.118
30
0.0
42
1.000
0
SEQEND
5
92f
100
AcDbEntity
  8
0-1_2_0
0
POLYLINE
5
930
100
AcDbEntity
  8
0-1_2_0
6
CONTINUOUS
62
3
100
AcDb2dPolyline
66
1
10
0
20
0
70
1
40
0.800
41
0.800
0
VERTEX
5
931
100
AcDbEntity
  8
0-1_2_0
6
CONTINUOUS
62
3
100
AcDbVertex
100
AcDb2dVertex
10
1430.910
20
912.493
30
0.0
42
1.000
0
VERTEX
5
932
100
AcDbEntity
  8
0-1_2_0
6
CONTINUOUS
62
3
100
AcDbVertex
100
AcDb2dVertex
10
1431.710
20
912.493
30
0.0
42
1.000
0
SEQEND
5
933
100
AcDbEntity
  8
0-1_2_0
0
POLYLINE
5
934
100
AcDbEntity
  8
0-1_2_0
6
CONTINUOUS
62
3
100
AcDb2dPolyline
66
1
10
0
20
0
70
1
40
0.800
41
0.800
0
VERTEX
5
935
100
AcDbEntity
  8
0-1_2_0
6
CONTINUOUS
62
3
100
AcDbVertex
100
AcDb2dVertex
10
1444.910
20
912.493
30
0.0
42
1.000
0
VERTEX
5
936
100
AcDbEntity
  8
0-1_2_0
6
CONTINUOUS
62
3
100
AcDbVertex
100
AcDb2dVertex
10
1445.710
20
912.493
30
0.0
42
1.000
0
SEQEND
5
937
100
AcDbEntity
  8
0-1_2_0
0
POLYLINE
5
938
100
AcDbEntity
  8
0-1_2_0
6
CONTINUOUS
62
3
100
AcDb2dPolyline
66
1
10
0
20
0
70
1
40
0.800
41
0.800
0
VERTEX
5
939
100
AcDbEntity
  8
0-1_2_0
6
CONTINUOUS
62
3
100
AcDbVertex
100
AcDb2dVertex
10
1473.910
20
912.493
30
0.0
42
1.000
0
VERTEX
5
93a
100
AcDbEntity
  8
0-1_2_0
6
CONTINUOUS
62
3
100
AcDbVertex
100
AcDb2dVertex
10
1474.710
20
912.493
30
0.0
42
1.000
0
SEQEND
5
93b
100
AcDbEntity
  8
0-1_2_0
0
POLYLINE
5
93c
100
AcDbEntity
  8
0-1_2_0
6
CONTINUOUS
62
3
100
AcDb2dPolyline
66
1
10
0
20
0
70
1
40
0.800
41
0.800
0
VERTEX
5
93d
100
AcDbEntity
  8
0-1_2_0
6
CONTINUOUS
62
3
100
AcDbVertex
100
AcDb2dVertex
10
1498.910
20
887.493
30
0.0
42
1.000
0
VERTEX
5
93e
100
AcDbEntity
  8
0-1_2_0
6
CONTINUOUS
62
3
100
AcDbVertex
100
AcDb2dVertex
10
1499.710
20
887.493
30
0.0
42
1.000
0
SEQEND
5
93f
100
AcDbEntity
  8
0-1_2_0
0
POLYLINE
5
940
100
AcDbEntity
  8
0-1_2_0
6
CONTINUOUS
62
3
100
AcDb2dPolyline
66
1
10
0
20
0
70
1
40
0.800
41
0.800
0
VERTEX
5
941
100
AcDbEntity
  8
0-1_2_0
6
CONTINUOUS
62
3
100
AcDbVertex
100
AcDb2dVertex
10
1498.910
20
876.493
30
0.0
42
1.000
0
VERTEX
5
942
100
AcDbEntity
  8
0-1_2_0
6
CONTINUOUS
62
3
100
AcDbVertex
100
AcDb2dVertex
10
1499.710
20
876.493
30
0.0
42
1.000
0
SEQEND
5
943
100
AcDbEntity
  8
0-1_2_0
0
POLYLINE
5
944
100
AcDbEntity
  8
0-1_2_0
6
CONTINUOUS
62
3
100
AcDb2dPolyline
66
1
10
0
20
0
70
1
40
0.800
41
0.800
0
VERTEX
5
945
100
AcDbEntity
  8
0-1_2_0
6
CONTINUOUS
62
3
100
AcDbVertex
100
AcDb2dVertex
10
1331.710
20
858.118
30
0.0
42
1.000
0
VERTEX
5
946
100
AcDbEntity
  8
0-1_2_0
6
CONTINUOUS
62
3
100
AcDbVertex
100
AcDb2dVertex
10
1332.510
20
858.118
30
0.0
42
1.000
0
SEQEND
5
947
100
AcDbEntity
  8
0-1_2_0
0
POLYLINE
5
948
100
AcDbEntity
  8
0-1_2_0
6
CONTINUOUS
62
3
100
AcDb2dPolyline
66
1
10
0
20
0
70
1
40
0.800
41
0.800
0
VERTEX
5
949
100
AcDbEntity
  8
0-1_2_0
6
CONTINUOUS
62
3
100
AcDbVertex
100
AcDb2dVertex
10
1441.710
20
858.118
30
0.0
42
1.000
0
VERTEX
5
94a
100
AcDbEntity
  8
0-1_2_0
6
CONTINUOUS
62
3
100
AcDbVertex
100
AcDb2dVertex
10
1442.510
20
858.118
30
0.0
42
1.000
0
SEQEND
5
94b
100
AcDbEntity
  8
0-1_2_0
0
POLYLINE
5
94c
100
AcDbEntity
  8
0-1_2_0
6
CONTINUOUS
62
3
100
AcDb2dPolyline
66
1
10
0
20
0
70
1
40
0.800
41
0.800
0
VERTEX
5
94d
100
AcDbEntity
  8
0-1_2_0
6
CONTINUOUS
62
3
100
AcDbVertex
100
AcDb2dVertex
10
1241.655
20
914.389
30
0.0
42
1.000
0
VERTEX
5
94e
100
AcDbEntity
  8
0-1_2_0
6
CONTINUOUS
62
3
100
AcDbVertex
100
AcDb2dVertex
10
1242.455
20
914.389
30
0.0
42
1.000
0
SEQEND
5
94f
100
AcDbEntity
  8
0-1_2_0
0
POLYLINE
5
950
100
AcDbEntity
  8
0-1_2_0
6
CONTINUOUS
62
3
100
AcDb2dPolyline
66
1
10
0
20
0
70
1
40
0.800
41
0.800
0
VERTEX
5
951
100
AcDbEntity
  8
0-1_2_0
6
CONTINUOUS
62
3
100
AcDbVertex
100
AcDb2dVertex
10
1335.893
20
902.377
30
0.0
42
1.000
0
VERTEX
5
952
100
AcDbEntity
  8
0-1_2_0
6
CONTINUOUS
62
3
100
AcDbVertex
100
AcDb2dVertex
10
1336.693
20
902.377
30
0.0
42
1.000
0
SEQEND
5
953
100
AcDbEntity
  8
0-1_2_0
0
POLYLINE
5
954
100
AcDbEntity
  8
0-1_2_0
6
CONTINUOUS
62
3
100
AcDb2dPolyline
66
1
10
0
20
0
70
1
40
0.800
41
0.800
0
VERTEX
5
955
100
AcDbEntity
  8
0-1_2_0
6
CONTINUOUS
62
3
100
AcDbVertex
100
AcDb2dVertex
10
1459.910
20
875.493
30
0.0
42
1.000
0
VERTEX
5
956
100
AcDbEntity
  8
0-1_2_0
6
CONTINUOUS
62
3
100
AcDbVertex
100
AcDb2dVertex
10
1460.710
20
875.493
30
0.0
42
1.000
0
SEQEND
5
957
100
AcDbEntity
  8
0-1_2_0
0
POLYLINE
5
958
100
AcDbEntity
  8
0-00
6
CONTINUOUS
62
3
100
AcDb2dPolyline
66
1
10
0
20
0
70
1
40
0.800
41
0.800
0
VERTEX
5
959
100
AcDbEntity
  8
0-00
6
CONTINUOUS
62
3
100
AcDbVertex
100
AcDb2dVertex
10
508.737
20
818.817
30
0.0
42
1.000
0
VERTEX
5
95a
100
AcDbEntity
  8
0-00
6
CONTINUOUS
62
3
100
AcDbVertex
100
AcDb2dVertex
10
509.537
20
818.817
30
0.0
42
1.000
0
SEQEND
5
95b
100
AcDbEntity
  8
0-00
0
POLYLINE
5
95c
100
AcDbEntity
  8
0-00
6
CONTINUOUS
62
3
100
AcDb2dPolyline
66
1
10
0
20
0
70
1
40
0.800
41
0.800
0
VERTEX
5
95d
100
AcDbEntity
  8
0-00
6
CONTINUOUS
62
3
100
AcDbVertex
100
AcDb2dVertex
10
476.791
20
810.830
30
0.0
42
1.000
0
VERTEX
5
95e
100
AcDbEntity
  8
0-00
6
CONTINUOUS
62
3
100
AcDbVertex
100
AcDb2dVertex
10
477.591
20
810.830
30
0.0
42
1.000
0
SEQEND
5
95f
100
AcDbEntity
  8
0-00
0
POLYLINE
5
960
100
AcDbEntity
  8
0-00
6
CONTINUOUS
62
3
100
AcDb2dPolyline
66
1
10
0
20
0
70
1
40
0.800
41
0.800
0
VERTEX
5
961
100
AcDbEntity
  8
0-00
6
CONTINUOUS
62
3
100
AcDbVertex
100
AcDb2dVertex
10
693.064
20
864.898
30
0.0
42
1.000
0
VERTEX
5
962
100
AcDbEntity
  8
0-00
6
CONTINUOUS
62
3
100
AcDbVertex
100
AcDb2dVertex
10
693.864
20
864.898
30
0.0
42
1.000
0
SEQEND
5
963
100
AcDbEntity
  8
0-00
0
POLYLINE
5
964
100
AcDbEntity
  8
0-00
6
CONTINUOUS
62
3
100
AcDb2dPolyline
66
1
10
0
20
0
70
1
40
0.800
41
0.800
0
VERTEX
5
965
100
AcDbEntity
  8
0-00
6
CONTINUOUS
62
3
100
AcDbVertex
100
AcDb2dVertex
10
661.118
20
856.912
30
0.0
42
1.000
0
VERTEX
5
966
100
AcDbEntity
  8
0-00
6
CONTINUOUS
62
3
100
AcDbVertex
100
AcDb2dVertex
10
661.918
20
856.912
30
0.0
42
1.000
0
SEQEND
5
967
100
AcDbEntity
  8
0-00
0
POLYLINE
5
968
100
AcDbEntity
  8
0-5_2_4
6
CONTINUOUS
62
3
100
AcDb2dPolyline
66
1
10
0
20
0
70
1
40
0.800
41
0.800
0
VERTEX
5
969
100
AcDbEntity
  8
0-5_2_4
6
CONTINUOUS
62
3
100
AcDbVertex
100
AcDb2dVertex
10
700.345
20
363.619
30
0.0
42
1.000
0
VERTEX
5
96a
100
AcDbEntity
  8
0-5_2_4
6
CONTINUOUS
62
3
100
AcDbVertex
100
AcDb2dVertex
10
701.145
20
363.619
30
0.0
42
1.000
0
SEQEND
5
96b
100
AcDbEntity
  8
0-5_2_4
0
POLYLINE
5
96c
100
AcDbEntity
  8
0-5_2_4
6
CONTINUOUS
62
3
100
AcDb2dPolyline
66
1
10
0
20
0
70
1
40
0.800
41
0.800
0
VERTEX
5
96d
100
AcDbEntity
  8
0-5_2_4
6
CONTINUOUS
62
3
100
AcDbVertex
100
AcDb2dVertex
10
916.496
20
418.172
30
0.0
42
1.000
0
VERTEX
5
96e
100
AcDbEntity
  8
0-5_2_4
6
CONTINUOUS
62
3
100
AcDbVertex
100
AcDb2dVertex
10
917.296
20
418.172
30
0.0
42
1.000
0
SEQEND
5
96f
100
AcDbEntity
  8
0-5_2_4
0
POLYLINE
5
970
100
AcDbEntity
  8
0-5_2_4
6
CONTINUOUS
62
3
100
AcDb2dPolyline
66
1
10
0
20
0
70
1
40
0.800
41
0.800
0
VERTEX
5
971
100
AcDbEntity
  8
0-5_2_4
6
CONTINUOUS
62
3
100
AcDbVertex
100
AcDb2dVertex
10
884.550
20
410.186
30
0.0
42
1.000
0
VERTEX
5
972
100
AcDbEntity
  8
0-5_2_4
6
CONTINUOUS
62
3
100
AcDbVertex
100
AcDb2dVertex
10
885.350
20
410.186
30
0.0
42
1.000
0
SEQEND
5
973
100
AcDbEntity
  8
0-5_2_4
0
POLYLINE
5
974
100
AcDbEntity
  8
0-00
6
CONTINUOUS
62
3
100
AcDb2dPolyline
66
1
10
0
20
0
70
1
40
0.800
41
0.800
0
VERTEX
5
975
100
AcDbEntity
  8
0-00
6
CONTINUOUS
62
3
100
AcDbVertex
100
AcDb2dVertex
10
633.154
20
867.866
30
0.0
42
1.000
0
VERTEX
5
976
100
AcDbEntity
  8
0-00
6
CONTINUOUS
62
3
100
AcDbVertex
100
AcDb2dVertex
10
633.954
20
867.866
30
0.0
42
1.000
0
SEQEND
5
977
100
AcDbEntity
  8
0-00
0
POLYLINE
5
978
100
AcDbEntity
  8
0-00
6
CONTINUOUS
62
3
100
AcDb2dPolyline
66
1
10
0
20
0
70
1
40
0.800
41
0.800
0
VERTEX
5
979
100
AcDbEntity
  8
0-00
6
CONTINUOUS
62
3
100
AcDbVertex
100
AcDb2dVertex
10
634.568
20
855.958
30
0.0
42
1.000
0
VERTEX
5
97a
100
AcDbEntity
  8
0-00
6
CONTINUOUS
62
3
100
AcDbVertex
100
AcDb2dVertex
10
635.368
20
855.958
30
0.0
42
1.000
0
SEQEND
5
97b
100
AcDbEntity
  8
0-00
0
POLYLINE
5
97c
100
AcDbEntity
  8
0-00
6
CONTINUOUS
62
3
100
AcDb2dPolyline
66
1
10
0
20
0
70
1
40
0.800
41
0.800
0
VERTEX
5
97d
100
AcDbEntity
  8
0-00
6
CONTINUOUS
62
3
100
AcDbVertex
100
AcDb2dVertex
10
656.219
20
895.780
30
0.0
42
1.000
0
VERTEX
5
97e
100
AcDbEntity
  8
0-00
6
CONTINUOUS
62
3
100
AcDbVertex
100
AcDb2dVertex
10
657.019
20
895.780
30
0.0
42
1.000
0
SEQEND
5
97f
100
AcDbEntity
  8
0-00
0
POLYLINE
5
980
100
AcDbEntity
  8
0-00
6
CONTINUOUS
62
3
100
AcDb2dPolyline
66
1
10
0
20
0
70
1
40
0.800
41
0.800
0
VERTEX
5
981
100
AcDbEntity
  8
0-00
6
CONTINUOUS
62
3
100
AcDbVertex
100
AcDb2dVertex
10
750.557
20
906.983
30
0.0
42
1.000
0
VERTEX
5
982
100
AcDbEntity
  8
0-00
6
CONTINUOUS
62
3
100
AcDbVertex
100
AcDb2dVertex
10
751.357
20
906.983
30
0.0
42
1.000
0
SEQEND
5
983
100
AcDbEntity
  8
0-00
0
POLYLINE
5
984
100
AcDbEntity
  8
0-00
6
CONTINUOUS
62
3
100
AcDb2dPolyline
66
1
10
0
20
0
70
1
40
0.800
41
0.800
0
VERTEX
5
985
100
AcDbEntity
  8
0-00
6
CONTINUOUS
62
3
100
AcDbVertex
100
AcDb2dVertex
10
448.827
20
821.784
30
0.0
42
1.000
0
VERTEX
5
986
100
AcDbEntity
  8
0-00
6
CONTINUOUS
62
3
100
AcDbVertex
100
AcDb2dVertex
10
449.627
20
821.784
30
0.0
42
1.000
0
SEQEND
5
987
100
AcDbEntity
  8
0-00
0
POLYLINE
5
988
100
AcDbEntity
  8
0-00
6
CONTINUOUS
62
3
100
AcDb2dPolyline
66
1
10
0
20
0
70
1
40
0.800
41
0.800
0
VERTEX
5
989
100
AcDbEntity
  8
0-00
6
CONTINUOUS
62
3
100
AcDbVertex
100
AcDb2dVertex
10
450.241
20
809.876
30
0.0
42
1.000
0
VERTEX
5
98a
100
AcDbEntity
  8
0-00
6
CONTINUOUS
62
3
100
AcDbVertex
100
AcDb2dVertex
10
451.041
20
809.876
30
0.0
42
1.000
0
SEQEND
5
98b
100
AcDbEntity
  8
0-00
0
POLYLINE
5
98c
100
AcDbEntity
  8
1-4_2_19
6
CONTINUOUS
62
4
100
AcDb2dPolyline
66
1
10
0
20
0
70
1
40
0.800
41
0.800
0
VERTEX
5
98d
100
AcDbEntity
  8
1-4_2_19
6
CONTINUOUS
62
4
100
AcDbVertex
100
AcDb2dVertex
10
267.859
20
352.934
30
0.0
42
1.000
0
VERTEX
5
98e
100
AcDbEntity
  8
1-4_2_19
6
CONTINUOUS
62
4
100
AcDbVertex
100
AcDb2dVertex
10
268.659
20
352.934
30
0.0
42
1.000
0
SEQEND
5
98f
100
AcDbEntity
  8
1-4_2_19
0
POLYLINE
5
990
100
AcDbEntity
  8
1-4_2_19
6
CONTINUOUS
62
3
100
AcDb2dPolyline
66
1
10
0
20
0
70
1
40
0.800
41
0.800
0
VERTEX
5
991
100
AcDbEntity
  8
1-4_2_19
6
CONTINUOUS
62
3
100
AcDbVertex
100
AcDb2dVertex
10
331.751
20
368.907
30
0.0
42
1.000
0
VERTEX
5
992
100
AcDbEntity
  8
1-4_2_19
6
CONTINUOUS
62
3
100
AcDbVertex
100
AcDb2dVertex
10
332.551
20
368.907
30
0.0
42
1.000
0
SEQEND
5
993
100
AcDbEntity
  8
1-4_2_19
0
POLYLINE
5
994
100
AcDbEntity
  8
1-4_2_19
6
CONTINUOUS
62
3
100
AcDb2dPolyline
66
1
10
0
20
0
70
1
40
0.800
41
0.800
0
VERTEX
5
995
100
AcDbEntity
  8
1-4_2_19
6
CONTINUOUS
62
3
100
AcDbVertex
100
AcDb2dVertex
10
267.859
20
352.934
30
0.0
42
1.000
0
VERTEX
5
996
100
AcDbEntity
  8
1-4_2_19
6
CONTINUOUS
62
3
100
AcDbVertex
100
AcDb2dVertex
10
268.659
20
352.934
30
0.0
42
1.000
0
SEQEND
5
997
100
AcDbEntity
  8
1-4_2_19
0
POLYLINE
5
998
100
AcDbEntity
  8
1-4_2_19
6
CONTINUOUS
62
3
100
AcDb2dPolyline
66
1
10
0
20
0
70
1
40
0.800
41
0.800
0
VERTEX
5
999
100
AcDbEntity
  8
1-4_2_19
6
CONTINUOUS
62
3
100
AcDbVertex
100
AcDb2dVertex
10
211.931
20
374.841
30
0.0
42
1.000
0
VERTEX
5
99a
100
AcDbEntity
  8
1-4_2_19
6
CONTINUOUS
62
3
100
AcDbVertex
100
AcDb2dVertex
10
212.731
20
374.841
30
0.0
42
1.000
0
SEQEND
5
99b
100
AcDbEntity
  8
1-4_2_19
0
POLYLINE
5
99c
100
AcDbEntity
  8
1-4_2_19
6
CONTINUOUS
62
3
100
AcDb2dPolyline
66
1
10
0
20
0
70
1
40
0.800
41
0.800
0
VERTEX
5
99d
100
AcDbEntity
  8
1-4_2_19
6
CONTINUOUS
62
3
100
AcDbVertex
100
AcDb2dVertex
10
214.759
20
351.025
30
0.0
42
1.000
0
VERTEX
5
99e
100
AcDbEntity
  8
1-4_2_19
6
CONTINUOUS
62
3
100
AcDbVertex
100
AcDb2dVertex
10
215.559
20
351.025
30
0.0
42
1.000
0
SEQEND
5
99f
100
AcDbEntity
  8
1-4_2_19
0
ENDSEC
 0
SECTION
  2
OBJECTS
 0
DICTIONARY
  5
C
100
AcDbDictionary
  3
ACAD_GROUP
350
D
  3
ACAD_MLINESTYLE
350
E
 0
DICTIONARY
  5
D
102
{ACAD_REACTORS
102
}
100
AcDbDictionary
 0
DICTIONARY
  5
E
102
{ACAD_REACTORS
102
}
100
AcDbDictionary
  3
STANDARD
350
13
0
MLINESTYLE
  5
13
102
{ACAD_REACTORS
102
}
100
AcDbMlineStyle
  2
STANDARD
 70
    0
3

62
256
51
90.0
52
90.0
71
0
0
ACDBPLACEHOLDER
  5
14
102
{ACAD_REACTORS
102
}
0
ENDSEC
0
EOF
