0
SECTION
2
HEADER
9
$ACADVER
1
AC1015
9
$ACADMAINTVER
 70
6
9
$DWGCODEPAGE
3
ANSI_932
9
$EXTMIN
10
0.000
20
0.000
30
0.0
9
$EXTMAX
10
1682.000
20
1188.000
30
0.0
9
$LIMMIN
10
0.000
20
0.000
9
$LIMMAX
10
1682.000
20
1188.000
9
$DIMSCALE
40
2.000000
9
$LTSCALE
40
2.000
9
$PDMODE
70
0
9
$PDSIZE
40
40.0
9
$HANDSEED
5
61ef0
9
$UNITMODE
70
0
9
$VISRETAIN
70
0
9
$PLINEGEN
70
0
9
$PSLTSCALE
70
1
9
$TREEDEPTH
70
3020
9
$CMLSTYLE
2
STANDARD
9
$CMLJUST
70
0
9
$CMLSCALE
40
1.0
9
$PROXYGRAPHICS
70
1
9
$MEASUREMENT
70
0
9
$CELWEIGHT
370
-1
9
$ENDCAPS
280
0
9
$JOINSTYLE
280
0
9
$LWDISPLAY
290
0
9
$INSUNITS
70
0
9
$HYPERLINKBASE
1

9
$STYLESHEET
1

9
$XEDIT
290
1
9
$CEPSNTYPE
380
0
9
$PSTYLEMODE
290
1
9
$FINGERPRINTGUID
2
{5F082321-0195-11D3-BDFB-0060B0CD5109}
9
$VERSIONGUID
2
{12943756-294D-11D3-98C2-0060B087942D}
9
$EXTNAMES
290
1
9
$PSVPSCALE
40
0.0
9
$OLESTARTUP
290
0
0
ENDSEC
0
SECTION
  2
CLASSES
0
ENDSEC
0
SECTION
2
TABLES
0
TABLE
2
VPORT
5
190
100
AcDbSymbolTable
70
2
0
VPORT
5
191
100
AcDbSymbolTableRecord
100
AcDbViewportTableRecord
2
*ACTIVE
70
0
10
0.0
20
0.0
11
1.0
21
1.0
12
841.000
22
594.000
13
0.0
23
0.0
14
1.0
24
1.0
15
0.0
25
0.0
16
0.0
26
0.0
36
1.0
17
0.0
27
0.0
37
0.0
40
1218.841
41
2.0
42
50.0
43
0.0
44
0.0
50
0.0
51
0.0
71
0
72
1000
73
1
74
1
75
0
76
0
77
0
78
0
0
ENDTAB
0
TABLE
2
LTYPE
5
1f4
100
AcDbSymbolTable
70
9
0
LTYPE
5
1f5
100
AcDbSymbolTableRecord
100
AcDbLinetypeTableRecord
2
BYBLOCK
70
 64
3

72
 65
73
  0
40
0.0
0
LTYPE
5
1f6
100
AcDbSymbolTableRecord
100
AcDbLinetypeTableRecord
2
BYLAYER
70
 64
3

72
 65
73
  0
40
0.0
0
LTYPE
5
1f7
100
AcDbSymbolTableRecord
100
AcDbLinetypeTableRecord
2
CONTINUOUS
70
64
3
SolidLine
72
65
73
0
40
0.0
0
LTYPE
5
1f8
100
AcDbSymbolTableRecord
100
AcDbLinetypeTableRecord
2
DOT
70
64
3
--  --  --  --  --  --  --  --     
72
65
73
2
40
3.000
49
1.000
74
0
49
-2.000
74
0
0
LTYPE
5
1f9
100
AcDbSymbolTableRecord
100
AcDbLinetypeTableRecord
2
DASHED
70
64
3
----    ----    ----    ----    
72
65
73
2
40
5.000
49
2.000
74
0
49
-3.000
74
0
0
LTYPE
5
1fa
100
AcDbSymbolTableRecord
100
AcDbLinetypeTableRecord
2
DASHED2
70
64
3
------  ------  ------  ------ 
72
65
73
2
40
10.000
49
4.000
74
0
49
-6.000
74
0
0
LTYPE
5
1fb
100
AcDbSymbolTableRecord
100
AcDbLinetypeTableRecord
2
CENTER
70
64
3
----- - ----- - ----- - ----- - 
72
65
73
4
40
10.000
49
6.000
74
0
49
-3.000
74
0
49
1.000
74
0
49
-3.000
74
0
0
LTYPE
5
1fc
100
AcDbSymbolTableRecord
100
AcDbLinetypeTableRecord
2
CENTER2
70
64
3
----------  --  ----------  -- 
72
65
73
4
40
17.000
49
12.000
74
0
49
-5.000
74
0
49
2.000
74
0
49
-5.000
74
0
0
LTYPE
5
1fd
100
AcDbSymbolTableRecord
100
AcDbLinetypeTableRecord
2
PHANTOM
70
64
3
--- - - --- - - --- - - --- - -
72
65
73
6
40
13.000
49
5.000
74
0
49
-3.000
74
0
49
1.000
74
0
49
-3.000
74
0
49
1.000
74
0
49
-3.000
74
0
0
LTYPE
5
1fe
100
AcDbSymbolTableRecord
100
AcDbLinetypeTableRecord
2
PHANTOM2
70
64
3
--------  -  -  --------  -  -
72
65
73
6
40
20.000
49
6.000
74
0
49
-5.000
74
0
49
2.000
74
0
49
-5.000
74
0
49
2.000
74
0
49
-5.000
74
0
0
LTYPE
5
1ff
100
AcDbSymbolTableRecord
100
AcDbLinetypeTableRecord
2
HIDDEN
70
64
3
-   -   -   -   -   -   -   -   
72
65
73
2
40
3.000
49
0.500
74
0
49
-2.500
74
0
0
ENDTAB
0
TABLE
2
STYLE
5
200
100
AcDbSymbolTable
70
1
0
STYLE
5
201
100
AcDbSymbolTableRecord
100
AcDbTextStyleTableRecord
2
STANDARD
70
0
40
0.0
41
1.0
50
0.0
71
0
42
0.0
3
txt.shx
4
extfont.shx
0
STYLE
5
202
100
AcDbSymbolTableRecord
100
AcDbTextStyleTableRecord
2
TATEGAKI
70
4
40
0.0
41
1.0
50
0.0
71
0
42
0.0
3
txt.shx
4
extfont.shx
0
STYLE
5
203
100
AcDbSymbolTableRecord
100
AcDbTextStyleTableRecord
2
DIM
70
0
40
0.0
41
0.75
50
0.0
71
0
42
0.0
3
txt.shx
4
extfont.shx
0
STYLE
5
204
100
AcDbSymbolTableRecord
100
AcDbTextStyleTableRecord
2
_Gothic_
70
0
40
1.0
41
1.0
50
0.0
71
0
42
10.0
3

4

1001
ACAD
1000
MS Gothic
1071
32817
0
STYLE
5
205
100
AcDbSymbolTableRecord
100
AcDbTextStyleTableRecord
2
_TateGothic_
70
4
40
0.0
41
1.0
50
0.0
71
0
42
0.0
3
@MS Gothic
4

0
ENDTAB
0
TABLE
2
VIEW
5
206
100
AcDbSymbolTable
70
0
0
ENDTAB
0
TABLE
2
UCS
5
207
100
AcDbSymbolTable
70
0
0
ENDTAB
0
TABLE
2
APPID
5
208
100
AcDbSymbolTable
70
1
0
APPID
5
209
100
AcDbSymbolTableRecord
100
AcDbRegAppTableRecord
2
ACAD
70
0
0
ENDTAB
0
TABLE
2
DIMSTYLE
5
403
330
0
100
AcDbSymbolTable
70
1
100
AcDbDimStyleTable
71
0
0
DIMSTYLE
105
404
330
402
100
AcDbSymbolTableRecord
100
AcDbDimStyleTableRecord
2
JAC_DIM
70
0
41
4.000
42
0.000
44
0.0
73
0
74
0
77
1
78
8
79
2
140
0.000
170
0
171
2
172
0
173
0
174
0
175
0
176
0
177
0
178
0
270
2
271
0
272
0
273
2
274
2
340
201
275
0
280
0
281
0
282
0
283
0
284
0
285
0
286
0
287
3
288
0
0
ENDTAB
0
TABLE
2
BLOCK_RECORD
5
405
100
AcDbSymbolTable
70
0
0
BLOCK_RECORD
5
406
100
AcDbSymbolTableRecord
100
AcDbBlockTableRecord
2
*MODEL_SPACE
0
BLOCK_RECORD
5
407
100
AcDbSymbolTableRecord
100
AcDbBlockTableRecord
2
*PAPER_SPACE
0
BLOCK_RECORD
5
408
100
AcDbSymbolTableRecord
100
AcDbBlockTableRecord
2
_JACCONVERT_
0
ENDTAB
0
TABLE
2
LAYER
5
409
100
AcDbSymbolTable
70
10
0
LAYER
5
40a
100
AcDbSymbolTableRecord
100
AcDbLayerTableRecord
2
0
70
0
62
7
6
CONTINUOUS
370
-3
390
14
0
LAYER
5
40b
100
AcDbSymbolTableRecord
100
AcDbLayerTableRecord
2
0-00
70
0
62
7
6
CONTINUOUS
370
-3
390
14
0
LAYER
5
40c
100
AcDbSymbolTableRecord
100
AcDbLayerTableRecord
2
0-1_2_0
70
0
62
7
6
CONTINUOUS
370
-3
390
14
0
LAYER
5
40d
100
AcDbSymbolTableRecord
100
AcDbLayerTableRecord
2
0-5_2_4
70
0
62
7
6
CONTINUOUS
370
-3
390
14
0
LAYER
5
40e
100
AcDbSymbolTableRecord
100
AcDbLayerTableRecord
2
0-6_2_5
70
0
62
7
6
CONTINUOUS
370
-3
390
14
0
LAYER
5
40f
100
AcDbSymbolTableRecord
100
AcDbLayerTableRecord
2
1-4_2_19
70
0
62
7
6
CONTINUOUS
370
-3
390
14
0
LAYER
5
410
100
AcDbSymbolTableRecord
100
AcDbLayerTableRecord
2
F-E_J_ADD
70
0
62
-7
6
CONTINUOUS
290
0
370
-3
390
14
0
LAYER
5
411
100
AcDbSymbolTableRecord
100
AcDbLayerTableRecord
2
F-F
70
0
62
7
6
CONTINUOUS
370
-3
390
14
0
ENDTAB
0
ENDSEC
0
SECTION
2
BLOCKS
0
BLOCK
5
412
100
AcDbEntity
67
1
8
0
100
AcDbBlockBegin
2
*MODEL_SPACE
70
0
10
0.0
20
0.0
30
0.0
3
*MODEL_SPACE
1

0
ENDBLK
5
413
100
AcDbEntity
8
0
100
AcDbBlockEnd
0
BLOCK
5
414
100
AcDbEntity
67
1
8
0
100
AcDbBlockBegin
2
*PAPER_SPACE
70
0
10
0.0
20
0.0
30
0.0
3
*PAPER_SPACE
1

0
ENDBLK
5
415
100
AcDbEntity
67
1
8
0
100
AcDbBlockEnd
0
BLOCK
5
416
100
AcDbEntity
8
0
100
AcDbBlockBegin
2
_JACCONVERT_
70
2
10
0.0
20
0.0
30
0.0
3
_JACCONVERT_
1
_JACCONVERT_
0
ATTDEF
5
417
100
AcDbEntity
8
0
62
0
100
AcDbText
10
0.0
20
0.0
30
0.0
40
1.0
1
User:460950EB0890EC0964308A
100
AcDbAttributeDefinition
3

2
USER
70
8
0
ATTDEF
5
418
100
AcDbEntity
8
0
62
0
100
AcDbText
10
0.0
20
2.0
30
0.0
40
1.0
1
Date:15/06/12 13:46
100
AcDbAttributeDefinition
3

2
REVDATE
70
8
0
ATTDEF
5
419
100
AcDbEntity
8
0
62
0
100
AcDbText
10
0.0
20
4.0
30
0.0
40
1.0
1
File:ｅルーフ横葺Ⅱ型　断面・納め図１.dxf
100
AcDbAttributeDefinition
3

2
FNAME
70
8
0
ATTDEF
5
41a
100
AcDbEntity
8
0
62
0
100
AcDbText
10
0.0
20
6.0
30
0.0
40
1.0
1
JacConvert Version3.09 copyright (c) 2001-2013 K.Nakahara
100
AcDbAttributeDefinition
3

2
VER
70
8
0
ENDBLK
5
41b
100
AcDbEntity
67
1
8
0
100
AcDbBlockEnd
0
ENDSEC
0
SECTION
2
ENTITIES
0
LINE
5
41c
100
AcDbEntity
8
F-F
6
CONTINUOUS
62
3
100
AcDbLine
10
1106.020000000000
20
82.890000000000
30
0.0
11
1106.020000000000
21
1143.640000000000
31
0.0
0
LINE
5
41d
100
AcDbEntity
8
F-F
6
CONTINUOUS
62
3
100
AcDbLine
10
54.760000000000
20
613.270000000000
30
0.0
11
1631.650000000000
21
613.270000000000
31
0.0
0
LINE
5
41e
100
AcDbEntity
8
0-00
6
CONTINUOUS
62
4
100
AcDbLine
10
228.490000000000
20
841.790000000000
30
0.0
11
234.490000000000
21
841.690000000000
31
0.0
0
LINE
5
41f
100
AcDbEntity
8
0-00
6
CONTINUOUS
62
4
100
AcDbLine
10
228.490000000000
20
841.790000000000
30
0.0
11
233.740000000000
21
844.710000000000
31
0.0
0
LINE
5
420
100
AcDbEntity
8
F-F
6
CONTINUOUS
62
3
100
AcDbLine
10
54.760000000000
20
1103.640000000000
30
0.0
11
1631.650000000000
21
1103.640000000000
31
0.0
0
LINE
5
421
100
AcDbEntity
8
F-F
6
CONTINUOUS
62
3
100
AcDbLine
10
54.760000000000
20
573.270000000000
30
0.0
11
1631.650000000000
21
573.270000000000
31
0.0
0
LINE
5
422
100
AcDbEntity
8
F-F
6
CONTINUOUS
62
2
100
AcDbLine
10
54.760000000000
20
23.630000000000
30
0.0
11
54.760000000000
21
1143.640000000000
31
0.0
0
LINE
5
423
100
AcDbEntity
8
F-F
6
CONTINUOUS
62
2
100
AcDbLine
10
1284.760000000000
20
82.890000000000
30
0.0
11
1284.760000000000
21
23.630000000000
31
0.0
0
LINE
5
424
100
AcDbEntity
8
F-F
6
CONTINUOUS
62
2
100
AcDbLine
10
1214.540000000000
20
82.890000000000
30
0.0
11
1214.540000000000
21
23.630000000000
31
0.0
0
LINE
5
425
100
AcDbEntity
8
F-F
6
CONTINUOUS
62
2
100
AcDbLine
10
1537.120000000000
20
23.630000000000
30
0.0
11
1537.120000000000
21
82.890000000000
31
0.0
0
LINE
5
426
100
AcDbEntity
8
F-F
6
CONTINUOUS
62
2
100
AcDbLine
10
806.890000000000
20
82.890000000000
30
0.0
11
806.890000000000
21
23.630000000000
31
0.0
0
LINE
5
427
100
AcDbEntity
8
F-F
6
CONTINUOUS
62
2
100
AcDbLine
10
1009.740000000000
20
82.890000000000
30
0.0
11
1009.740000000000
21
23.630000000000
31
0.0
0
LINE
5
428
100
AcDbEntity
8
F-F
6
CONTINUOUS
62
2
100
AcDbLine
10
806.890000000000
20
63.140000000000
30
0.0
11
369.760000000000
21
63.140000000000
31
0.0
0
LINE
5
429
100
AcDbEntity
8
F-F
6
CONTINUOUS
62
2
100
AcDbLine
10
806.890000000000
20
43.390000000000
30
0.0
11
369.760000000000
21
43.390000000000
31
0.0
0
LINE
5
42a
100
AcDbEntity
8
F-F
6
CONTINUOUS
62
2
100
AcDbLine
10
806.890000000000
20
33.510000000000
30
0.0
11
369.760000000000
21
33.510000000000
31
0.0
0
LINE
5
42b
100
AcDbEntity
8
F-F
6
CONTINUOUS
62
2
100
AcDbLine
10
806.890000000000
20
73.020000000000
30
0.0
11
369.760000000000
21
73.020000000000
31
0.0
0
LINE
5
42c
100
AcDbEntity
8
F-F
6
CONTINUOUS
62
2
100
AcDbLine
10
422.420000000000
20
82.890000000000
30
0.0
11
422.420000000000
21
23.630000000000
31
0.0
0
LINE
5
42d
100
AcDbEntity
8
F-F
6
CONTINUOUS
62
2
100
AcDbLine
10
369.760000000000
20
82.890000000000
30
0.0
11
369.760000000000
21
23.630000000000
31
0.0
0
LINE
5
42e
100
AcDbEntity
8
F-F
6
CONTINUOUS
62
2
100
AcDbLine
10
1631.650000000000
20
23.630000000000
30
0.0
11
1631.650000000000
21
1143.640000000000
31
0.0
0
LINE
5
42f
100
AcDbEntity
8
F-F
6
CONTINUOUS
62
2
100
AcDbLine
10
54.760000000000
20
1143.640000000000
30
0.0
11
1631.650000000000
21
1143.640000000000
31
0.0
0
LINE
5
430
100
AcDbEntity
8
F-F
6
CONTINUOUS
62
2
100
AcDbLine
10
54.760000000000
20
23.630000000000
30
0.0
11
1631.650000000000
21
23.630000000000
31
0.0
0
LINE
5
431
100
AcDbEntity
8
F-F
6
CONTINUOUS
62
2
100
AcDbLine
10
1631.650000000000
20
82.890000000000
30
0.0
11
54.760000000000
21
82.890000000000
31
0.0
0
LINE
5
432
100
AcDbEntity
8
F-F
6
CONTINUOUS
62
2
100
AcDbLine
10
369.760000000000
20
53.260000000000
30
0.0
11
1631.650000000000
21
53.260000000000
31
0.0
0
POLYLINE
5
433
100
AcDbEntity
8
0-00
6
CONTINUOUS
62
  3
100
AcDb2dPolyline
66
1
10
0.0
20
0.0
30
0.0
70
0
0
VERTEX
5
434
100
AcDbEntity
8
0-00
6
CONTINUOUS
62
  3
100
AcDbVertex
100
AcDb2dVertex
10
369.420000000000
20
993.390000000000
30
0.0
0
VERTEX
5
435
100
AcDbEntity
8
0-00
6
CONTINUOUS
62
  3
100
AcDbVertex
100
AcDb2dVertex
10
469.420000000000
20
1018.390000000000
30
0.0
0
VERTEX
5
436
100
AcDbEntity
8
0-00
6
CONTINUOUS
62
  3
100
AcDbVertex
100
AcDb2dVertex
10
469.420000000000
20
993.390000000000
30
0.0
0
VERTEX
5
437
100
AcDbEntity
8
0-00
6
CONTINUOUS
62
  3
100
AcDbVertex
100
AcDb2dVertex
10
369.420000000000
20
993.390000000000
30
0.0
0
SEQEND
5
438
100
AcDbEntity
8
0-00
0
LINE
5
439
100
AcDbEntity
8
0-00
6
CONTINUOUS
62
4
100
AcDbLine
10
422.520000000000
20
890.300000000000
30
0.0
11
665.060000000000
21
950.940000000000
31
0.0
0
LINE
5
43a
100
AcDbEntity
8
0-00
6
CONTINUOUS
62
4
100
AcDbLine
10
859.090000000000
20
999.440000000000
30
0.0
11
853.840000000000
21
996.530000000000
31
0.0
0
LINE
5
43b
100
AcDbEntity
8
0-00
6
CONTINUOUS
62
4
100
AcDbLine
10
859.090000000000
20
999.440000000000
30
0.0
11
853.090000000000
21
999.540000000000
31
0.0
0
LINE
5
43c
100
AcDbEntity
8
0-00
6
CONTINUOUS
62
7
100
AcDbLine
10
433.330000000000
20
818.370000000000
30
0.0
11
433.600000000000
21
822.500000000000
31
0.0
0
LINE
5
43d
100
AcDbEntity
8
0-00
6
CONTINUOUS
62
7
100
AcDbLine
10
433.330000000000
20
818.370000000000
30
0.0
11
435.630000000000
21
821.810000000000
31
0.0
0
LINE
5
43e
100
AcDbEntity
8
0-00
6
CONTINUOUS
62
7
100
AcDbLine
10
617.840000000000
20
835.510000000000
30
0.0
11
618.920000000000
21
831.510000000000
31
0.0
0
LINE
5
43f
100
AcDbEntity
8
0-00
6
CONTINUOUS
62
7
100
AcDbLine
10
617.840000000000
20
835.510000000000
30
0.0
11
629.390000000000
21
815.510000000000
31
0.0
0
LINE
5
440
100
AcDbEntity
8
0-00
6
CONTINUOUS
62
7
100
AcDbLine
10
535.550000000000
20
829.470000000000
30
0.0
11
536.620000000000
21
825.470000000000
31
0.0
0
LINE
5
441
100
AcDbEntity
8
0-00
6
CONTINUOUS
62
7
100
AcDbLine
10
535.550000000000
20
829.470000000000
30
0.0
11
538.480000000000
21
826.550000000000
31
0.0
0
LINE
5
442
100
AcDbEntity
8
0-00
6
CONTINUOUS
62
7
100
AcDbLine
10
535.550000000000
20
829.470000000000
30
0.0
11
552.240000000000
21
800.560000000000
31
0.0
0
LINE
5
443
100
AcDbEntity
8
0-00
6
CENTER2
62
4
100
AcDbLine
10
374.010000000000
20
878.170000000000
30
0.0
11
388.240000000000
21
821.260000000000
31
0.0
0
LINE
5
444
100
AcDbEntity
8
0-00
6
CENTER2
62
4
100
AcDbLine
10
665.060000000000
20
950.940000000000
30
0.0
11
679.290000000000
21
894.020000000000
31
0.0
0
LINE
5
445
100
AcDbEntity
8
0-6_2_5
6
CONTINUOUS
62
3
100
AcDbLine
10
1381.490000000000
20
241.220000000000
30
0.0
11
1336.090000000000
21
241.220000000000
31
0.0
0
LINE
5
446
100
AcDbEntity
8
0-6_2_5
6
CONTINUOUS
62
3
100
AcDbLine
10
1333.790000000000
20
336.620000000000
30
0.0
11
1333.790000000000
21
241.220000000000
31
0.0
0
LINE
5
447
100
AcDbEntity
8
0-6_2_5
6
CONTINUOUS
62
3
100
AcDbLine
10
1336.090000000000
20
241.220000000000
30
0.0
11
1336.090000000000
21
336.620000000000
31
0.0
0
LINE
5
448
100
AcDbEntity
8
0-6_2_5
6
CONTINUOUS
62
3
100
AcDbLine
10
1381.490000000000
20
338.920000000000
30
0.0
11
1336.090000000000
21
338.920000000000
31
0.0
0
LINE
5
449
100
AcDbEntity
8
0-6_2_5
6
CONTINUOUS
62
3
100
AcDbLine
10
1336.090000000000
20
336.620000000000
30
0.0
11
1381.490000000000
21
336.620000000000
31
0.0
0
LINE
5
44a
100
AcDbEntity
8
0-6_2_5
6
CONTINUOUS
62
3
100
AcDbLine
10
1383.790000000000
20
318.920000000000
30
0.0
11
1383.790000000000
21
336.620000000000
31
0.0
0
POLYLINE
5
44b
100
AcDbEntity
8
0-6_2_5
6
CONTINUOUS
62
  3
100
AcDb2dPolyline
66
1
10
0.0
20
0.0
30
0.0
70
0
0
VERTEX
5
44c
100
AcDbEntity
8
0-6_2_5
6
CONTINUOUS
62
  3
100
AcDbVertex
100
AcDb2dVertex
10
1381.490000000000
20
336.620000000000
30
0.0
0
VERTEX
5
44d
100
AcDbEntity
8
0-6_2_5
6
CONTINUOUS
62
  3
100
AcDbVertex
100
AcDb2dVertex
10
1381.490000000000
20
318.920000000000
30
0.0
0
VERTEX
5
44e
100
AcDbEntity
8
0-6_2_5
6
CONTINUOUS
62
  3
100
AcDbVertex
100
AcDb2dVertex
10
1383.790000000000
20
318.920000000000
30
0.0
0
SEQEND
5
44f
100
AcDbEntity
8
0-6_2_5
0
LINE
5
450
100
AcDbEntity
8
0-6_2_5
6
CONTINUOUS
62
3
100
AcDbLine
10
1381.490000000000
20
258.920000000000
30
0.0
11
1381.490000000000
21
241.220000000000
31
0.0
0
POLYLINE
5
451
100
AcDbEntity
8
0-6_2_5
6
CONTINUOUS
62
  3
100
AcDb2dPolyline
66
1
10
0.0
20
0.0
30
0.0
70
0
0
VERTEX
5
452
100
AcDbEntity
8
0-6_2_5
6
CONTINUOUS
62
  3
100
AcDbVertex
100
AcDb2dVertex
10
1383.790000000000
20
241.220000000000
30
0.0
0
VERTEX
5
453
100
AcDbEntity
8
0-6_2_5
6
CONTINUOUS
62
  3
100
AcDbVertex
100
AcDb2dVertex
10
1383.790000000000
20
258.920000000000
30
0.0
0
VERTEX
5
454
100
AcDbEntity
8
0-6_2_5
6
CONTINUOUS
62
  3
100
AcDbVertex
100
AcDb2dVertex
10
1381.490000000000
20
258.920000000000
30
0.0
0
SEQEND
5
455
100
AcDbEntity
8
0-6_2_5
0
LINE
5
456
100
AcDbEntity
8
0-6_2_5
6
CONTINUOUS
62
3
100
AcDbLine
10
1336.090000000000
20
238.920000000000
30
0.0
11
1381.490000000000
21
238.920000000000
31
0.0
0
LINE
5
457
100
AcDbEntity
8
0-6_2_5
6
CONTINUOUS
62
3
100
AcDbLine
10
1281.590000000000
20
363.920000000000
30
0.0
11
1281.590000000000
21
338.920000000000
31
0.0
0
LINE
5
458
100
AcDbEntity
8
0-6_2_5
6
CONTINUOUS
62
7
100
AcDbLine
10
1311.590000000000
20
288.920000000000
30
0.0
11
1311.590000000000
21
337.920000000000
31
0.0
0
LINE
5
459
100
AcDbEntity
8
0-6_2_5
6
CONTINUOUS
62
7
100
AcDbLine
10
1312.190000000000
20
337.920000000000
30
0.0
11
1312.190000000000
21
288.920000000000
31
0.0
0
POLYLINE
5
45a
100
AcDbEntity
8
0-6_2_5
6
CONTINUOUS
62
  7
100
AcDb2dPolyline
66
1
10
0.0
20
0.0
30
0.0
70
0
0
VERTEX
5
45b
100
AcDbEntity
8
0-6_2_5
6
CONTINUOUS
62
  7
100
AcDbVertex
100
AcDb2dVertex
10
1312.790000000000
20
288.920000000000
30
0.0
0
VERTEX
5
45c
100
AcDbEntity
8
0-6_2_5
6
CONTINUOUS
62
  7
100
AcDbVertex
100
AcDb2dVertex
10
1312.790000000000
20
298.920000000000
30
0.0
0
VERTEX
5
45d
100
AcDbEntity
8
0-6_2_5
6
CONTINUOUS
62
  7
100
AcDbVertex
100
AcDb2dVertex
10
1313.390000000000
20
298.920000000000
30
0.0
0
VERTEX
5
45e
100
AcDbEntity
8
0-6_2_5
6
CONTINUOUS
62
  7
100
AcDbVertex
100
AcDb2dVertex
10
1313.390000000000
20
288.920000000000
30
0.0
0
SEQEND
5
45f
100
AcDbEntity
8
0-6_2_5
0
LINE
5
460
100
AcDbEntity
8
0-6_2_5
6
CONTINUOUS
62
4
100
AcDbLine
10
1442.120000000000
20
338.920000000000
30
0.0
11
1467.120000000000
21
363.920000000000
31
0.0
0
LINE
5
461
100
AcDbEntity
8
0-6_2_5
6
CONTINUOUS
62
4
100
AcDbLine
10
1413.840000000000
20
338.920000000000
30
0.0
11
1438.840000000000
21
363.920000000000
31
0.0
0
LINE
5
462
100
AcDbEntity
8
0-6_2_5
6
CONTINUOUS
62
4
100
AcDbLine
10
1385.550000000000
20
338.920000000000
30
0.0
11
1410.550000000000
21
363.920000000000
31
0.0
0
LINE
5
463
100
AcDbEntity
8
0-6_2_5
6
CONTINUOUS
62
4
100
AcDbLine
10
1357.270000000000
20
338.920000000000
30
0.0
11
1382.270000000000
21
363.920000000000
31
0.0
0
LINE
5
464
100
AcDbEntity
8
0-6_2_5
6
CONTINUOUS
62
4
100
AcDbLine
10
1328.980000000000
20
338.920000000000
30
0.0
11
1353.980000000000
21
363.920000000000
31
0.0
0
LINE
5
465
100
AcDbEntity
8
0-6_2_5
6
CONTINUOUS
62
4
100
AcDbLine
10
1300.700000000000
20
338.920000000000
30
0.0
11
1325.700000000000
21
363.920000000000
31
0.0
0
LINE
5
466
100
AcDbEntity
8
0-6_2_5
6
CONTINUOUS
62
4
100
AcDbLine
10
1281.590000000000
20
348.100000000000
30
0.0
11
1297.410000000000
21
363.920000000000
31
0.0
0
LINE
5
467
100
AcDbEntity
8
0-6_2_5
6
CONTINUOUS
62
4
100
AcDbLine
10
1284.680000000000
20
363.920000000000
30
0.0
11
1309.680000000000
21
338.920000000000
31
0.0
0
LINE
5
468
100
AcDbEntity
8
0-6_2_5
6
CONTINUOUS
62
4
100
AcDbLine
10
1312.970000000000
20
363.920000000000
30
0.0
11
1337.970000000000
21
338.920000000000
31
0.0
0
LINE
5
469
100
AcDbEntity
8
0-6_2_5
6
CONTINUOUS
62
4
100
AcDbLine
10
1341.250000000000
20
363.920000000000
30
0.0
11
1366.250000000000
21
338.920000000000
31
0.0
0
LINE
5
46a
100
AcDbEntity
8
0-6_2_5
6
CONTINUOUS
62
4
100
AcDbLine
10
1369.540000000000
20
363.920000000000
30
0.0
11
1394.540000000000
21
338.920000000000
31
0.0
0
LINE
5
46b
100
AcDbEntity
8
0-6_2_5
6
CONTINUOUS
62
4
100
AcDbLine
10
1397.820000000000
20
363.920000000000
30
0.0
11
1422.820000000000
21
338.920000000000
31
0.0
0
LINE
5
46c
100
AcDbEntity
8
0-6_2_5
6
CONTINUOUS
62
4
100
AcDbLine
10
1426.110000000000
20
363.920000000000
30
0.0
11
1451.110000000000
21
338.920000000000
31
0.0
0
LINE
5
46d
100
AcDbEntity
8
0-6_2_5
6
CONTINUOUS
62
3
100
AcDbLine
10
1388.790000000000
20
338.920000000000
30
0.0
11
1388.790000000000
21
238.920000000000
31
0.0
0
LINE
5
46e
100
AcDbEntity
8
0-6_2_5
6
CONTINUOUS
62
7
100
AcDbLine
10
1459.260000000000
20
348.720000000000
30
0.0
11
1460.330000000000
21
344.720000000000
31
0.0
0
LINE
5
46f
100
AcDbEntity
8
0-6_2_5
6
CONTINUOUS
62
7
100
AcDbLine
10
1459.260000000000
20
348.720000000000
30
0.0
11
1462.180000000000
21
345.790000000000
31
0.0
0
LINE
5
470
100
AcDbEntity
8
0-6_2_5
6
CONTINUOUS
62
7
100
AcDbLine
10
1279.470000000000
20
338.480000000000
30
0.0
11
1278.400000000000
21
334.480000000000
31
0.0
0
LINE
5
471
100
AcDbEntity
8
0-6_2_5
6
CONTINUOUS
62
7
100
AcDbLine
10
1279.470000000000
20
338.480000000000
30
0.0
11
1276.540000000000
21
335.550000000000
31
0.0
0
LINE
5
472
100
AcDbEntity
8
0-6_2_5
6
CONTINUOUS
62
7
100
AcDbLine
10
1313.790000000000
20
258.090000000000
30
0.0
11
1312.720000000000
21
254.090000000000
31
0.0
0
LINE
5
473
100
AcDbEntity
8
0-6_2_5
6
CONTINUOUS
62
7
100
AcDbLine
10
1313.790000000000
20
258.090000000000
30
0.0
11
1310.860000000000
21
255.160000000000
31
0.0
0
LINE
5
474
100
AcDbEntity
8
0-6_2_5
6
CONTINUOUS
62
7
100
AcDbLine
10
1376.960000000000
20
364.950000000000
30
0.0
11
1378.030000000000
21
360.950000000000
31
0.0
0
LINE
5
475
100
AcDbEntity
8
0-6_2_5
6
CONTINUOUS
62
7
100
AcDbLine
10
1376.960000000000
20
364.950000000000
30
0.0
11
1379.890000000000
21
362.030000000000
31
0.0
0
LINE
5
476
100
AcDbEntity
8
0-6_2_5
6
CONTINUOUS
62
7
100
AcDbLine
10
1262.510000000000
20
363.120000000000
30
0.0
11
1261.910000000000
21
363.120000000000
31
0.0
0
LINE
5
477
100
AcDbEntity
8
0-6_2_5
6
CONTINUOUS
62
4
100
AcDbLine
10
1352.080000000000
20
364.600000000000
30
0.0
11
1362.080000000000
21
364.600000000000
31
0.0
0
LINE
5
478
100
AcDbEntity
8
0-6_2_5
6
CONTINUOUS
62
4
100
AcDbLine
10
1354.080000000000
20
365.100000000000
30
0.0
11
1360.080000000000
21
365.100000000000
31
0.0
0
LINE
5
479
100
AcDbEntity
8
0-6_2_5
6
CONTINUOUS
62
4
100
AcDbLine
10
1362.080000000000
20
364.600000000000
30
0.0
11
1362.080000000000
21
364.200000000000
31
0.0
0
LINE
5
47a
100
AcDbEntity
8
0-6_2_5
6
CONTINUOUS
62
4
100
AcDbLine
10
1360.080000000000
20
365.100000000000
30
0.0
11
1361.580000000000
21
364.600000000000
31
0.0
0
LINE
5
47b
100
AcDbEntity
8
0-6_2_5
6
CONTINUOUS
62
4
100
AcDbLine
10
1359.480000000000
20
354.000000000000
30
0.0
11
1354.680000000000
21
354.800000000000
31
0.0
0
LINE
5
47c
100
AcDbEntity
8
0-6_2_5
6
CONTINUOUS
62
4
100
AcDbLine
10
1359.480000000000
20
352.400000000000
30
0.0
11
1354.680000000000
21
353.200000000000
31
0.0
0
LINE
5
47d
100
AcDbEntity
8
0-6_2_5
6
CONTINUOUS
62
4
100
AcDbLine
10
1359.480000000000
20
350.800000000000
30
0.0
11
1354.680000000000
21
351.600000000000
31
0.0
0
LINE
5
47e
100
AcDbEntity
8
0-6_2_5
6
CONTINUOUS
62
4
100
AcDbLine
10
1359.480000000000
20
355.600000000000
30
0.0
11
1354.680000000000
21
356.400000000000
31
0.0
0
LINE
5
47f
100
AcDbEntity
8
0-6_2_5
6
CONTINUOUS
62
4
100
AcDbLine
10
1352.080000000000
20
364.600000000000
30
0.0
11
1352.080000000000
21
364.200000000000
31
0.0
0
LINE
5
480
100
AcDbEntity
8
0-6_2_5
6
CONTINUOUS
62
4
100
AcDbLine
10
1354.080000000000
20
365.100000000000
30
0.0
11
1352.580000000000
21
364.600000000000
31
0.0
0
LINE
5
481
100
AcDbEntity
8
0-6_2_5
6
CONTINUOUS
62
4
100
AcDbLine
10
1359.480000000000
20
347.600000000000
30
0.0
11
1354.680000000000
21
348.400000000000
31
0.0
0
LINE
5
482
100
AcDbEntity
8
0-6_2_5
6
CONTINUOUS
62
4
100
AcDbLine
10
1359.480000000000
20
349.200000000000
30
0.0
11
1354.680000000000
21
350.000000000000
31
0.0
0
LINE
5
483
100
AcDbEntity
8
0-6_2_5
6
CONTINUOUS
62
4
100
AcDbLine
10
1359.480000000000
20
346.000000000000
30
0.0
11
1354.680000000000
21
346.800000000000
31
0.0
0
LINE
5
484
100
AcDbEntity
8
0-6_2_5
6
CONTINUOUS
62
4
100
AcDbLine
10
1359.480000000000
20
344.400000000000
30
0.0
11
1354.680000000000
21
345.200000000000
31
0.0
0
LINE
5
485
100
AcDbEntity
8
0-6_2_5
6
CONTINUOUS
62
4
100
AcDbLine
10
1357.080000000000
20
324.200000000000
30
0.0
11
1355.080000000000
21
325.800000000000
31
0.0
0
LINE
5
486
100
AcDbEntity
8
0-6_2_5
6
CONTINUOUS
62
4
100
AcDbLine
10
1359.080000000000
20
325.800000000000
30
0.0
11
1357.080000000000
21
324.200000000000
31
0.0
0
LINE
5
487
100
AcDbEntity
8
0-6_2_5
6
CONTINUOUS
62
4
100
AcDbLine
10
1352.080000000000
20
364.200000000000
30
0.0
11
1362.080000000000
21
364.200000000000
31
0.0
0
LINE
5
488
100
AcDbEntity
8
0-6_2_5
6
CONTINUOUS
62
4
100
AcDbLine
10
1359.480000000000
20
358.800000000000
30
0.0
11
1354.680000000000
21
359.600000000000
31
0.0
0
LINE
5
489
100
AcDbEntity
8
0-6_2_5
6
CONTINUOUS
62
4
100
AcDbLine
10
1359.480000000000
20
357.200000000000
30
0.0
11
1354.680000000000
21
358.000000000000
31
0.0
0
LINE
5
48a
100
AcDbEntity
8
0-6_2_5
6
CONTINUOUS
62
4
100
AcDbLine
10
1359.480000000000
20
360.400000000000
30
0.0
11
1354.680000000000
21
361.200000000000
31
0.0
0
LINE
5
48b
100
AcDbEntity
8
0-6_2_5
6
CONTINUOUS
62
4
100
AcDbLine
10
1359.480000000000
20
342.800000000000
30
0.0
11
1354.680000000000
21
343.600000000000
31
0.0
0
LINE
5
48c
100
AcDbEntity
8
0-6_2_5
6
CONTINUOUS
62
4
100
AcDbLine
10
1359.480000000000
20
341.200000000000
30
0.0
11
1354.680000000000
21
342.000000000000
31
0.0
0
LINE
5
48d
100
AcDbEntity
8
0-6_2_5
6
CONTINUOUS
62
4
100
AcDbLine
10
1359.480000000000
20
339.600000000000
30
0.0
11
1354.680000000000
21
340.400000000000
31
0.0
0
LINE
5
48e
100
AcDbEntity
8
0-6_2_5
6
CONTINUOUS
62
4
100
AcDbLine
10
1359.480000000000
20
338.000000000000
30
0.0
11
1354.680000000000
21
338.800000000000
31
0.0
0
LINE
5
48f
100
AcDbEntity
8
0-6_2_5
6
CONTINUOUS
62
4
100
AcDbLine
10
1359.480000000000
20
336.400000000000
30
0.0
11
1354.680000000000
21
337.200000000000
31
0.0
0
LINE
5
490
100
AcDbEntity
8
0-6_2_5
6
CONTINUOUS
62
4
100
AcDbLine
10
1359.480000000000
20
334.800000000000
30
0.0
11
1354.680000000000
21
335.600000000000
31
0.0
0
LINE
5
491
100
AcDbEntity
8
0-6_2_5
6
CONTINUOUS
62
4
100
AcDbLine
10
1359.480000000000
20
333.200000000000
30
0.0
11
1354.680000000000
21
334.000000000000
31
0.0
0
LINE
5
492
100
AcDbEntity
8
0-6_2_5
6
CONTINUOUS
62
4
100
AcDbLine
10
1359.480000000000
20
331.600000000000
30
0.0
11
1354.680000000000
21
332.400000000000
31
0.0
0
LINE
5
493
100
AcDbEntity
8
0-6_2_5
6
CONTINUOUS
62
4
100
AcDbLine
10
1359.480000000000
20
330.010000000000
30
0.0
11
1354.680000000000
21
330.810000000000
31
0.0
0
LINE
5
494
100
AcDbEntity
8
0-6_2_5
6
CENTER2
62
4
100
AcDbLine
10
1357.080000000000
20
365.480000000000
30
0.0
11
1357.080000000000
21
317.810000000000
31
0.0
0
LINE
5
495
100
AcDbEntity
8
0-6_2_5
6
CONTINUOUS
62
4
100
AcDbLine
10
1359.080000000000
20
325.800000000000
30
0.0
11
1359.080000000000
21
364.200000000000
31
0.0
0
LINE
5
496
100
AcDbEntity
8
0-6_2_5
6
CONTINUOUS
62
4
100
AcDbLine
10
1355.080000000000
20
325.800000000000
30
0.0
11
1355.080000000000
21
364.200000000000
31
0.0
0
LINE
5
497
100
AcDbEntity
8
0-6_2_5
6
DASHED
62
7
100
AcDbLine
10
1335.810000000000
20
365.720000000000
30
0.0
11
1307.370000000000
21
365.720000000000
31
0.0
0
LINE
5
498
100
AcDbEntity
8
0-6_2_5
6
DASHED
62
7
100
AcDbLine
10
1295.810000000000
20
365.720000000000
30
0.0
11
1260.990000000000
21
365.720000000000
31
0.0
0
LINE
5
499
100
AcDbEntity
8
0-6_2_5
6
CONTINUOUS
62
4
100
AcDbLine
10
1470.400000000000
20
338.920000000000
30
0.0
11
1495.400000000000
21
363.920000000000
31
0.0
0
LINE
5
49a
100
AcDbEntity
8
0-6_2_5
6
CONTINUOUS
62
4
100
AcDbLine
10
1454.390000000000
20
363.920000000000
30
0.0
11
1479.390000000000
21
338.920000000000
31
0.0
0
LINE
5
49b
100
AcDbEntity
8
0-6_2_5
6
CONTINUOUS
62
4
100
AcDbLine
10
1498.690000000000
20
338.920000000000
30
0.0
11
1523.690000000000
21
363.920000000000
31
0.0
0
LINE
5
49c
100
AcDbEntity
8
0-6_2_5
6
CONTINUOUS
62
4
100
AcDbLine
10
1482.670000000000
20
363.920000000000
30
0.0
11
1507.670000000000
21
338.920000000000
31
0.0
0
LINE
5
49d
100
AcDbEntity
8
0-6_2_5
6
CONTINUOUS
62
7
100
AcDbLine
10
1376.960000000000
20
364.950000000000
30
0.0
11
1418.440000000000
21
293.120000000000
31
0.0
0
LINE
5
49e
100
AcDbEntity
8
0-6_2_5
6
CONTINUOUS
62
7
100
AcDbLine
10
1459.260000000000
20
348.720000000000
30
0.0
11
1466.820000000000
21
335.620000000000
31
0.0
0
LINE
5
49f
100
AcDbEntity
8
0-6_2_5
6
CONTINUOUS
62
7
100
AcDbLine
10
1313.790000000000
20
258.090000000000
30
0.0
11
1296.910000000000
21
228.850000000000
31
0.0
0
LINE
5
4a0
100
AcDbEntity
8
0-6_2_5
6
DASHED
62
7
100
AcDbLine
10
1526.660000000000
20
364.920000000000
30
0.0
11
1368.820000000000
21
364.920000000000
31
0.0
0
LINE
5
4a1
100
AcDbEntity
8
0-6_2_5
6
CONTINUOUS
62
3
100
AcDbLine
10
1526.660000000000
20
363.920000000000
30
0.0
11
1281.590000000000
21
363.920000000000
31
0.0
0
LINE
5
4a2
100
AcDbEntity
8
0-6_2_5
6
CONTINUOUS
62
4
100
AcDbLine
10
1510.960000000000
20
363.920000000000
30
0.0
11
1526.660000000000
21
348.220000000000
31
0.0
0
LINE
5
4a3
100
AcDbEntity
8
0-6_2_5
6
CONTINUOUS
62
3
100
AcDbLine
10
1526.660000000000
20
338.920000000000
30
0.0
11
1281.590000000000
21
338.920000000000
31
0.0
0
LINE
5
4a4
100
AcDbEntity
8
0-6_2_5
6
CONTINUOUS
62
3
100
AcDbLine
10
1388.790000000000
20
318.920000000000
30
0.0
11
1526.660000000000
21
318.920000000000
31
0.0
0
LINE
5
4a5
100
AcDbEntity
8
0-6_2_5
6
CONTINUOUS
62
3
100
AcDbLine
10
1388.790000000000
20
258.920000000000
30
0.0
11
1526.660000000000
21
258.920000000000
31
0.0
0
LINE
5
4a6
100
AcDbEntity
8
0-6_2_5
6
CONTINUOUS
62
3
100
AcDbLine
10
1388.790000000000
20
238.920000000000
30
0.0
11
1526.660000000000
21
238.920000000000
31
0.0
0
LINE
5
4a7
100
AcDbEntity
8
0-6_2_5
6
CONTINUOUS
62
7
100
AcDbLine
10
1406.330000000000
20
383.920000000000
30
0.0
11
1406.070000000000
21
388.050000000000
31
0.0
0
LINE
5
4a8
100
AcDbEntity
8
0-6_2_5
6
CONTINUOUS
62
7
100
AcDbLine
10
1406.330000000000
20
383.920000000000
30
0.0
11
1404.040000000000
21
387.370000000000
31
0.0
0
LINE
5
4a9
100
AcDbEntity
8
0-6_2_5
6
CONTINUOUS
62
7
100
AcDbLine
10
1406.330000000000
20
383.920000000000
30
0.0
11
1388.980000000000
21
435.200000000000
31
0.0
0
POLYLINE
5
4aa
100
AcDbEntity
8
0-6_2_5
6
CONTINUOUS
62
  7
100
AcDb2dPolyline
66
1
10
0.0
20
0.0
30
0.0
70
0
0
VERTEX
5
4ab
100
AcDbEntity
8
0-6_2_5
6
CONTINUOUS
62
  7
100
AcDbVertex
100
AcDb2dVertex
10
1526.660000000000
20
209.920000000000
30
0.0
0
VERTEX
5
4ac
100
AcDbEntity
8
0-6_2_5
6
CONTINUOUS
62
  7
100
AcDbVertex
100
AcDb2dVertex
10
1335.790000000000
20
209.920000000000
30
0.0
0
VERTEX
5
4ad
100
AcDbEntity
8
0-6_2_5
6
CONTINUOUS
62
  7
100
AcDbVertex
100
AcDb2dVertex
10
1335.790000000000
20
203.920000000000
30
0.0
0
SEQEND
5
4ae
100
AcDbEntity
8
0-6_2_5
0
LINE
5
4af
100
AcDbEntity
8
0-6_2_5
6
CONTINUOUS
62
7
100
AcDbLine
10
1526.660000000000
20
203.920000000000
30
0.0
11
1335.790000000000
21
203.920000000000
31
0.0
0
POLYLINE
5
4b0
100
AcDbEntity
8
0-6_2_5
6
CONTINUOUS
62
  7
100
AcDb2dPolyline
66
1
10
0.0
20
0.0
30
0.0
70
0
0
VERTEX
5
4b1
100
AcDbEntity
8
0-6_2_5
6
CONTINUOUS
62
  7
100
AcDbVertex
100
AcDb2dVertex
10
1333.790000000000
20
336.620000000000
30
0.0
0
VERTEX
5
4b2
100
AcDbEntity
8
0-6_2_5
6
CONTINUOUS
62
  7
100
AcDbVertex
100
AcDb2dVertex
10
1333.790000000000
20
188.920000000000
30
0.0
0
VERTEX
5
4b3
100
AcDbEntity
8
0-6_2_5
6
CONTINUOUS
62
  7
100
AcDbVertex
100
AcDb2dVertex
10
1313.790000000000
20
188.920000000000
30
0.0
0
SEQEND
5
4b4
100
AcDbEntity
8
0-6_2_5
0
LINE
5
4b5
100
AcDbEntity
8
0-6_2_5
6
CONTINUOUS
62
7
100
AcDbLine
10
1313.790000000000
20
336.620000000000
30
0.0
11
1313.790000000000
21
188.920000000000
31
0.0
0
LINE
5
4b6
100
AcDbEntity
8
0-6_2_5
6
CONTINUOUS
62
7
100
AcDbLine
10
1416.580000000000
20
204.440000000000
30
0.0
11
1415.510000000000
21
200.440000000000
31
0.0
0
LINE
5
4b7
100
AcDbEntity
8
0-6_2_5
6
CONTINUOUS
62
7
100
AcDbLine
10
1416.580000000000
20
204.440000000000
30
0.0
11
1413.650000000000
21
201.510000000000
31
0.0
0
LINE
5
4b8
100
AcDbEntity
8
0-6_2_5
6
CONTINUOUS
62
7
100
AcDbLine
10
1416.580000000000
20
204.440000000000
30
0.0
11
1405.030000000000
21
184.440000000000
31
0.0
0
LINE
5
4b9
100
AcDbEntity
8
0-6_2_5
6
CONTINUOUS
62
7
100
AcDbLine
10
1333.790000000000
20
336.620000000000
30
0.0
11
1313.790000000000
21
336.620000000000
31
0.0
0
LINE
5
4ba
100
AcDbEntity
8
0-6_2_5
6
CONTINUOUS
62
4
100
AcDbLine
10
1313.790000000000
20
274.790000000000
30
0.0
11
1333.790000000000
21
296.790000000000
31
0.0
0
LINE
5
4bb
100
AcDbEntity
8
0-6_2_5
6
CONTINUOUS
62
4
100
AcDbLine
10
1313.790000000000
20
259.930000000000
30
0.0
11
1333.790000000000
21
281.930000000000
31
0.0
0
LINE
5
4bc
100
AcDbEntity
8
0-6_2_5
6
CONTINUOUS
62
4
100
AcDbLine
10
1313.790000000000
20
245.060000000000
30
0.0
11
1333.790000000000
21
267.060000000000
31
0.0
0
LINE
5
4bd
100
AcDbEntity
8
0-6_2_5
6
CONTINUOUS
62
4
100
AcDbLine
10
1313.790000000000
20
230.190000000000
30
0.0
11
1333.790000000000
21
252.190000000000
31
0.0
0
LINE
5
4be
100
AcDbEntity
8
0-6_2_5
6
CONTINUOUS
62
4
100
AcDbLine
10
1313.790000000000
20
215.330000000000
30
0.0
11
1333.790000000000
21
237.330000000000
31
0.0
0
LINE
5
4bf
100
AcDbEntity
8
0-6_2_5
6
CONTINUOUS
62
4
100
AcDbLine
10
1313.790000000000
20
200.460000000000
30
0.0
11
1333.790000000000
21
222.460000000000
31
0.0
0
LINE
5
4c0
100
AcDbEntity
8
0-6_2_5
6
CONTINUOUS
62
4
100
AcDbLine
10
1316.810000000000
20
188.920000000000
30
0.0
11
1333.790000000000
21
207.600000000000
31
0.0
0
LINE
5
4c1
100
AcDbEntity
8
0-6_2_5
6
CONTINUOUS
62
4
100
AcDbLine
10
1330.330000000000
20
188.920000000000
30
0.0
11
1333.790000000000
21
192.730000000000
31
0.0
0
LINE
5
4c2
100
AcDbEntity
8
0-6_2_5
6
CONTINUOUS
62
4
100
AcDbLine
10
1313.790000000000
20
304.530000000000
30
0.0
11
1333.790000000000
21
326.530000000000
31
0.0
0
LINE
5
4c3
100
AcDbEntity
8
0-6_2_5
6
CONTINUOUS
62
4
100
AcDbLine
10
1313.790000000000
20
289.660000000000
30
0.0
11
1333.790000000000
21
311.660000000000
31
0.0
0
LINE
5
4c4
100
AcDbEntity
8
0-6_2_5
6
CONTINUOUS
62
4
100
AcDbLine
10
1313.790000000000
20
334.260000000000
30
0.0
11
1315.940000000000
21
336.620000000000
31
0.0
0
LINE
5
4c5
100
AcDbEntity
8
0-6_2_5
6
CONTINUOUS
62
4
100
AcDbLine
10
1313.790000000000
20
319.390000000000
30
0.0
11
1329.450000000000
21
336.620000000000
31
0.0
0
POLYLINE
5
4c6
100
AcDbEntity
8
0-6_2_5
6
CONTINUOUS
62
  4
100
AcDb2dPolyline
66
1
10
0.0
20
0.0
30
0.0
70
0
0
VERTEX
5
4c7
100
AcDbEntity
8
0-6_2_5
6
CONTINUOUS
62
  4
100
AcDbVertex
100
AcDb2dVertex
10
1356.280000000000
20
325.000000000000
30
0.0
0
VERTEX
5
4c8
100
AcDbEntity
8
0-6_2_5
6
CONTINUOUS
62
  4
100
AcDbVertex
100
AcDb2dVertex
10
1357.080000000000
20
325.800000000000
30
0.0
0
VERTEX
5
4c9
100
AcDbEntity
8
0-6_2_5
6
CONTINUOUS
62
  4
100
AcDbVertex
100
AcDb2dVertex
10
1356.540000000000
20
326.890000000000
30
0.0
0
VERTEX
5
4ca
100
AcDbEntity
8
0-6_2_5
6
CONTINUOUS
62
  4
100
AcDbVertex
100
AcDb2dVertex
10
1357.760000000000
20
327.590000000000
30
0.0
0
VERTEX
5
4cb
100
AcDbEntity
8
0-6_2_5
6
CONTINUOUS
62
  4
100
AcDbVertex
100
AcDb2dVertex
10
1359.080000000000
20
325.800000000000
30
0.0
0
SEQEND
5
4cc
100
AcDbEntity
8
0-6_2_5
0
POLYLINE
5
4cd
100
AcDbEntity
8
F-F
6
CONTINUOUS
62
  3
100
AcDb2dPolyline
66
1
10
0.0
20
0.0
30
0.0
70
0
0
VERTEX
5
4ce
100
AcDbEntity
8
F-F
6
CONTINUOUS
62
  3
100
AcDbVertex
100
AcDb2dVertex
10
71.720000000000
20
59.100000000000
30
0.0
0
VERTEX
5
4cf
100
AcDbEntity
8
F-F
6
CONTINUOUS
62
  3
100
AcDbVertex
100
AcDb2dVertex
10
71.720000000000
20
75.100000000000
30
0.0
0
VERTEX
5
4d0
100
AcDbEntity
8
F-F
6
CONTINUOUS
62
  3
100
AcDbVertex
100
AcDb2dVertex
10
87.720000000000
20
75.100000000000
30
0.0
0
VERTEX
5
4d1
100
AcDbEntity
8
F-F
6
CONTINUOUS
62
  3
100
AcDbVertex
100
AcDb2dVertex
10
87.720000000000
20
59.100000000000
30
0.0
0
VERTEX
5
4d2
100
AcDbEntity
8
F-F
6
CONTINUOUS
62
  3
100
AcDbVertex
100
AcDb2dVertex
10
71.720000000000
20
59.100000000000
30
0.0
0
SEQEND
5
4d3
100
AcDbEntity
8
F-F
0
LINE
5
4d4
100
AcDbEntity
8
F-F
6
CONTINUOUS
62
3
100
AcDbLine
10
73.320000000000
20
61.260000000000
30
0.0
11
73.320000000000
21
73.500000000000
31
0.0
0
LINE
5
4d5
100
AcDbEntity
8
F-F
6
CONTINUOUS
62
3
100
AcDbLine
10
86.120000000000
20
60.700000000000
30
0.0
11
73.880000000000
21
60.700000000000
31
0.0
0
POLYLINE
5
4d6
100
AcDbEntity
8
F-F
6
CONTINUOUS
62
  3
100
AcDb2dPolyline
66
1
10
0.0
20
0.0
30
0.0
70
0
0
VERTEX
5
4d7
100
AcDbEntity
8
F-F
6
CONTINUOUS
62
  3
100
AcDbVertex
100
AcDb2dVertex
10
73.320000000000
20
73.500000000000
30
0.0
0
VERTEX
5
4d8
100
AcDbEntity
8
F-F
6
CONTINUOUS
62
  3
100
AcDbVertex
100
AcDb2dVertex
10
85.550000000000
20
73.500000000000
30
0.0
0
VERTEX
5
4d9
100
AcDbEntity
8
F-F
6
CONTINUOUS
62
  3
100
AcDbVertex
100
AcDb2dVertex
10
73.320000000000
20
61.260000000000
30
0.0
0
SEQEND
5
4da
100
AcDbEntity
8
F-F
0
LINE
5
4db
100
AcDbEntity
8
F-F
6
CONTINUOUS
62
3
100
AcDbLine
10
86.120000000000
20
72.930000000000
30
0.0
11
73.880000000000
21
60.700000000000
31
0.0
0
LINE
5
4dc
100
AcDbEntity
8
F-F
6
CONTINUOUS
62
3
100
AcDbLine
10
86.120000000000
20
72.930000000000
30
0.0
11
86.120000000000
21
60.700000000000
31
0.0
0
LINE
5
4dd
100
AcDbEntity
8
F-F
6
CONTINUOUS
62
4
100
AcDbLine
10
71.720000000000
20
74.940000000000
30
0.0
11
87.720000000000
21
74.940000000000
31
0.0
0
LINE
5
4de
100
AcDbEntity
8
F-F
6
CONTINUOUS
62
4
100
AcDbLine
10
71.720000000000
20
74.620000000000
30
0.0
11
87.720000000000
21
74.620000000000
31
0.0
0
LINE
5
4df
100
AcDbEntity
8
F-F
6
CONTINUOUS
62
4
100
AcDbLine
10
71.720000000000
20
74.300000000000
30
0.0
11
87.720000000000
21
74.300000000000
31
0.0
0
LINE
5
4e0
100
AcDbEntity
8
F-F
6
CONTINUOUS
62
4
100
AcDbLine
10
71.720000000000
20
73.980000000000
30
0.0
11
87.720000000000
21
73.980000000000
31
0.0
0
LINE
5
4e1
100
AcDbEntity
8
F-F
6
CONTINUOUS
62
4
100
AcDbLine
10
71.720000000000
20
73.660000000000
30
0.0
11
87.720000000000
21
73.660000000000
31
0.0
0
LINE
5
4e2
100
AcDbEntity
8
F-F
6
CONTINUOUS
62
4
100
AcDbLine
10
71.720000000000
20
60.540000000000
30
0.0
11
87.720000000000
21
60.540000000000
31
0.0
0
LINE
5
4e3
100
AcDbEntity
8
F-F
6
CONTINUOUS
62
4
100
AcDbLine
10
71.720000000000
20
60.220000000000
30
0.0
11
87.720000000000
21
60.220000000000
31
0.0
0
LINE
5
4e4
100
AcDbEntity
8
F-F
6
CONTINUOUS
62
4
100
AcDbLine
10
71.720000000000
20
59.900000000000
30
0.0
11
87.720000000000
21
59.900000000000
31
0.0
0
LINE
5
4e5
100
AcDbEntity
8
F-F
6
CONTINUOUS
62
4
100
AcDbLine
10
71.720000000000
20
59.580000000000
30
0.0
11
87.720000000000
21
59.580000000000
31
0.0
0
LINE
5
4e6
100
AcDbEntity
8
F-F
6
CONTINUOUS
62
4
100
AcDbLine
10
71.720000000000
20
59.260000000000
30
0.0
11
87.720000000000
21
59.260000000000
31
0.0
0
LINE
5
4e7
100
AcDbEntity
8
F-F
6
CONTINUOUS
62
4
100
AcDbLine
10
71.720000000000
20
61.500000000000
30
0.0
11
73.320000000000
21
61.500000000000
31
0.0
0
LINE
5
4e8
100
AcDbEntity
8
F-F
6
CONTINUOUS
62
4
100
AcDbLine
10
71.720000000000
20
61.820000000000
30
0.0
11
73.320000000000
21
61.820000000000
31
0.0
0
LINE
5
4e9
100
AcDbEntity
8
F-F
6
CONTINUOUS
62
4
100
AcDbLine
10
71.720000000000
20
62.140000000000
30
0.0
11
73.320000000000
21
62.140000000000
31
0.0
0
LINE
5
4ea
100
AcDbEntity
8
F-F
6
CONTINUOUS
62
4
100
AcDbLine
10
71.720000000000
20
62.460000000000
30
0.0
11
73.320000000000
21
62.460000000000
31
0.0
0
LINE
5
4eb
100
AcDbEntity
8
F-F
6
CONTINUOUS
62
4
100
AcDbLine
10
71.720000000000
20
62.780000000000
30
0.0
11
73.320000000000
21
62.780000000000
31
0.0
0
LINE
5
4ec
100
AcDbEntity
8
F-F
6
CONTINUOUS
62
4
100
AcDbLine
10
71.720000000000
20
63.100000000000
30
0.0
11
73.320000000000
21
63.100000000000
31
0.0
0
LINE
5
4ed
100
AcDbEntity
8
F-F
6
CONTINUOUS
62
4
100
AcDbLine
10
71.720000000000
20
63.420000000000
30
0.0
11
73.320000000000
21
63.420000000000
31
0.0
0
LINE
5
4ee
100
AcDbEntity
8
F-F
6
CONTINUOUS
62
4
100
AcDbLine
10
71.720000000000
20
63.740000000000
30
0.0
11
73.320000000000
21
63.740000000000
31
0.0
0
LINE
5
4ef
100
AcDbEntity
8
F-F
6
CONTINUOUS
62
4
100
AcDbLine
10
71.720000000000
20
64.060000000000
30
0.0
11
73.320000000000
21
64.060000000000
31
0.0
0
LINE
5
4f0
100
AcDbEntity
8
F-F
6
CONTINUOUS
62
4
100
AcDbLine
10
71.720000000000
20
64.380000000000
30
0.0
11
73.320000000000
21
64.380000000000
31
0.0
0
LINE
5
4f1
100
AcDbEntity
8
F-F
6
CONTINUOUS
62
4
100
AcDbLine
10
71.720000000000
20
64.700000000000
30
0.0
11
73.320000000000
21
64.700000000000
31
0.0
0
LINE
5
4f2
100
AcDbEntity
8
F-F
6
CONTINUOUS
62
4
100
AcDbLine
10
71.720000000000
20
65.020000000000
30
0.0
11
73.320000000000
21
65.020000000000
31
0.0
0
LINE
5
4f3
100
AcDbEntity
8
F-F
6
CONTINUOUS
62
4
100
AcDbLine
10
71.720000000000
20
65.340000000000
30
0.0
11
73.320000000000
21
65.340000000000
31
0.0
0
LINE
5
4f4
100
AcDbEntity
8
F-F
6
CONTINUOUS
62
4
100
AcDbLine
10
71.720000000000
20
65.660000000000
30
0.0
11
73.320000000000
21
65.660000000000
31
0.0
0
LINE
5
4f5
100
AcDbEntity
8
F-F
6
CONTINUOUS
62
4
100
AcDbLine
10
71.720000000000
20
65.980000000000
30
0.0
11
73.320000000000
21
65.980000000000
31
0.0
0
LINE
5
4f6
100
AcDbEntity
8
F-F
6
CONTINUOUS
62
4
100
AcDbLine
10
71.720000000000
20
66.300000000000
30
0.0
11
73.320000000000
21
66.300000000000
31
0.0
0
LINE
5
4f7
100
AcDbEntity
8
F-F
6
CONTINUOUS
62
4
100
AcDbLine
10
71.720000000000
20
66.620000000000
30
0.0
11
73.320000000000
21
66.620000000000
31
0.0
0
LINE
5
4f8
100
AcDbEntity
8
F-F
6
CONTINUOUS
62
4
100
AcDbLine
10
71.720000000000
20
66.940000000000
30
0.0
11
73.320000000000
21
66.940000000000
31
0.0
0
LINE
5
4f9
100
AcDbEntity
8
F-F
6
CONTINUOUS
62
4
100
AcDbLine
10
71.720000000000
20
67.260000000000
30
0.0
11
73.320000000000
21
67.260000000000
31
0.0
0
LINE
5
4fa
100
AcDbEntity
8
F-F
6
CONTINUOUS
62
4
100
AcDbLine
10
71.720000000000
20
67.580000000000
30
0.0
11
73.320000000000
21
67.580000000000
31
0.0
0
LINE
5
4fb
100
AcDbEntity
8
F-F
6
CONTINUOUS
62
4
100
AcDbLine
10
71.720000000000
20
67.900000000000
30
0.0
11
73.320000000000
21
67.900000000000
31
0.0
0
LINE
5
4fc
100
AcDbEntity
8
F-F
6
CONTINUOUS
62
4
100
AcDbLine
10
71.720000000000
20
68.220000000000
30
0.0
11
73.320000000000
21
68.220000000000
31
0.0
0
LINE
5
4fd
100
AcDbEntity
8
F-F
6
CONTINUOUS
62
4
100
AcDbLine
10
71.720000000000
20
68.540000000000
30
0.0
11
73.320000000000
21
68.540000000000
31
0.0
0
LINE
5
4fe
100
AcDbEntity
8
F-F
6
CONTINUOUS
62
4
100
AcDbLine
10
71.720000000000
20
68.860000000000
30
0.0
11
73.320000000000
21
68.860000000000
31
0.0
0
LINE
5
4ff
100
AcDbEntity
8
F-F
6
CONTINUOUS
62
4
100
AcDbLine
10
71.720000000000
20
69.820000000000
30
0.0
11
73.320000000000
21
69.820000000000
31
0.0
0
LINE
5
500
100
AcDbEntity
8
F-F
6
CONTINUOUS
62
4
100
AcDbLine
10
71.720000000000
20
70.780000000000
30
0.0
11
73.320000000000
21
70.780000000000
31
0.0
0
LINE
5
501
100
AcDbEntity
8
F-F
6
CONTINUOUS
62
4
100
AcDbLine
10
71.720000000000
20
71.100000000000
30
0.0
11
73.320000000000
21
71.100000000000
31
0.0
0
LINE
5
502
100
AcDbEntity
8
F-F
6
CONTINUOUS
62
4
100
AcDbLine
10
71.720000000000
20
71.420000000000
30
0.0
11
73.320000000000
21
71.420000000000
31
0.0
0
LINE
5
503
100
AcDbEntity
8
F-F
6
CONTINUOUS
62
4
100
AcDbLine
10
71.720000000000
20
71.740000000000
30
0.0
11
73.320000000000
21
71.740000000000
31
0.0
0
LINE
5
504
100
AcDbEntity
8
F-F
6
CONTINUOUS
62
4
100
AcDbLine
10
71.720000000000
20
73.340000000000
30
0.0
11
73.320000000000
21
73.340000000000
31
0.0
0
LINE
5
505
100
AcDbEntity
8
F-F
6
CONTINUOUS
62
4
100
AcDbLine
10
71.720000000000
20
73.020000000000
30
0.0
11
73.320000000000
21
73.020000000000
31
0.0
0
LINE
5
506
100
AcDbEntity
8
F-F
6
CONTINUOUS
62
4
100
AcDbLine
10
71.720000000000
20
72.700000000000
30
0.0
11
73.320000000000
21
72.700000000000
31
0.0
0
LINE
5
507
100
AcDbEntity
8
F-F
6
CONTINUOUS
62
4
100
AcDbLine
10
71.720000000000
20
72.380000000000
30
0.0
11
73.320000000000
21
72.380000000000
31
0.0
0
LINE
5
508
100
AcDbEntity
8
F-F
6
CONTINUOUS
62
4
100
AcDbLine
10
71.720000000000
20
72.060000000000
30
0.0
11
73.320000000000
21
72.060000000000
31
0.0
0
LINE
5
509
100
AcDbEntity
8
F-F
6
CONTINUOUS
62
4
100
AcDbLine
10
71.720000000000
20
70.140000000000
30
0.0
11
73.320000000000
21
70.140000000000
31
0.0
0
LINE
5
50a
100
AcDbEntity
8
F-F
6
CONTINUOUS
62
4
100
AcDbLine
10
71.720000000000
20
70.460000000000
30
0.0
11
73.320000000000
21
70.460000000000
31
0.0
0
LINE
5
50b
100
AcDbEntity
8
F-F
6
CONTINUOUS
62
4
100
AcDbLine
10
71.720000000000
20
69.500000000000
30
0.0
11
73.320000000000
21
69.500000000000
31
0.0
0
LINE
5
50c
100
AcDbEntity
8
F-F
6
CONTINUOUS
62
4
100
AcDbLine
10
71.720000000000
20
69.180000000000
30
0.0
11
73.320000000000
21
69.180000000000
31
0.0
0
LINE
5
50d
100
AcDbEntity
8
F-F
6
CONTINUOUS
62
4
100
AcDbLine
10
73.870000000000
20
61.820000000000
30
0.0
11
75.000000000000
21
61.820000000000
31
0.0
0
LINE
5
50e
100
AcDbEntity
8
F-F
6
CONTINUOUS
62
4
100
AcDbLine
10
73.550000000000
20
61.500000000000
30
0.0
11
74.680000000000
21
61.500000000000
31
0.0
0
LINE
5
50f
100
AcDbEntity
8
F-F
6
CONTINUOUS
62
4
100
AcDbLine
10
71.720000000000
20
61.180000000000
30
0.0
11
74.360000000000
21
61.180000000000
31
0.0
0
LINE
5
510
100
AcDbEntity
8
F-F
6
CONTINUOUS
62
4
100
AcDbLine
10
71.720000000000
20
60.860000000000
30
0.0
11
74.040000000000
21
60.860000000000
31
0.0
0
LINE
5
511
100
AcDbEntity
8
F-F
6
CONTINUOUS
62
4
100
AcDbLine
10
75.790000000000
20
63.740000000000
30
0.0
11
76.920000000000
21
63.740000000000
31
0.0
0
LINE
5
512
100
AcDbEntity
8
F-F
6
CONTINUOUS
62
4
100
AcDbLine
10
75.470000000000
20
63.420000000000
30
0.0
11
76.600000000000
21
63.420000000000
31
0.0
0
LINE
5
513
100
AcDbEntity
8
F-F
6
CONTINUOUS
62
4
100
AcDbLine
10
75.150000000000
20
63.100000000000
30
0.0
11
76.280000000000
21
63.100000000000
31
0.0
0
LINE
5
514
100
AcDbEntity
8
F-F
6
CONTINUOUS
62
4
100
AcDbLine
10
74.830000000000
20
62.780000000000
30
0.0
11
75.960000000000
21
62.780000000000
31
0.0
0
LINE
5
515
100
AcDbEntity
8
F-F
6
CONTINUOUS
62
4
100
AcDbLine
10
74.510000000000
20
62.460000000000
30
0.0
11
75.640000000000
21
62.460000000000
31
0.0
0
LINE
5
516
100
AcDbEntity
8
F-F
6
CONTINUOUS
62
4
100
AcDbLine
10
74.190000000000
20
62.140000000000
30
0.0
11
75.320000000000
21
62.140000000000
31
0.0
0
LINE
5
517
100
AcDbEntity
8
F-F
6
CONTINUOUS
62
4
100
AcDbLine
10
73.320000000000
20
73.500000000000
30
0.0
11
73.320000000000
21
73.820000000000
31
0.0
0
LINE
5
518
100
AcDbEntity
8
F-F
6
CONTINUOUS
62
4
100
AcDbLine
10
86.120000000000
20
61.500000000000
30
0.0
11
87.720000000000
21
61.500000000000
31
0.0
0
LINE
5
519
100
AcDbEntity
8
F-F
6
CONTINUOUS
62
4
100
AcDbLine
10
86.120000000000
20
61.820000000000
30
0.0
11
87.720000000000
21
61.820000000000
31
0.0
0
LINE
5
51a
100
AcDbEntity
8
F-F
6
CONTINUOUS
62
4
100
AcDbLine
10
86.120000000000
20
62.140000000000
30
0.0
11
87.720000000000
21
62.140000000000
31
0.0
0
LINE
5
51b
100
AcDbEntity
8
F-F
6
CONTINUOUS
62
4
100
AcDbLine
10
86.120000000000
20
62.460000000000
30
0.0
11
87.720000000000
21
62.460000000000
31
0.0
0
LINE
5
51c
100
AcDbEntity
8
F-F
6
CONTINUOUS
62
4
100
AcDbLine
10
86.120000000000
20
62.780000000000
30
0.0
11
87.720000000000
21
62.780000000000
31
0.0
0
LINE
5
51d
100
AcDbEntity
8
F-F
6
CONTINUOUS
62
4
100
AcDbLine
10
86.120000000000
20
63.100000000000
30
0.0
11
87.720000000000
21
63.100000000000
31
0.0
0
LINE
5
51e
100
AcDbEntity
8
F-F
6
CONTINUOUS
62
4
100
AcDbLine
10
86.120000000000
20
63.420000000000
30
0.0
11
87.720000000000
21
63.420000000000
31
0.0
0
LINE
5
51f
100
AcDbEntity
8
F-F
6
CONTINUOUS
62
4
100
AcDbLine
10
86.120000000000
20
63.740000000000
30
0.0
11
87.720000000000
21
63.740000000000
31
0.0
0
LINE
5
520
100
AcDbEntity
8
F-F
6
CONTINUOUS
62
4
100
AcDbLine
10
86.120000000000
20
64.060000000000
30
0.0
11
87.720000000000
21
64.060000000000
31
0.0
0
LINE
5
521
100
AcDbEntity
8
F-F
6
CONTINUOUS
62
4
100
AcDbLine
10
86.120000000000
20
64.380000000000
30
0.0
11
87.720000000000
21
64.380000000000
31
0.0
0
LINE
5
522
100
AcDbEntity
8
F-F
6
CONTINUOUS
62
4
100
AcDbLine
10
86.120000000000
20
64.700000000000
30
0.0
11
87.720000000000
21
64.700000000000
31
0.0
0
LINE
5
523
100
AcDbEntity
8
F-F
6
CONTINUOUS
62
4
100
AcDbLine
10
86.120000000000
20
65.020000000000
30
0.0
11
87.720000000000
21
65.020000000000
31
0.0
0
LINE
5
524
100
AcDbEntity
8
F-F
6
CONTINUOUS
62
4
100
AcDbLine
10
86.120000000000
20
65.340000000000
30
0.0
11
87.720000000000
21
65.340000000000
31
0.0
0
LINE
5
525
100
AcDbEntity
8
F-F
6
CONTINUOUS
62
4
100
AcDbLine
10
86.120000000000
20
65.980000000000
30
0.0
11
87.720000000000
21
65.980000000000
31
0.0
0
LINE
5
526
100
AcDbEntity
8
F-F
6
CONTINUOUS
62
4
100
AcDbLine
10
86.120000000000
20
66.300000000000
30
0.0
11
87.720000000000
21
66.300000000000
31
0.0
0
LINE
5
527
100
AcDbEntity
8
F-F
6
CONTINUOUS
62
4
100
AcDbLine
10
86.120000000000
20
66.620000000000
30
0.0
11
87.720000000000
21
66.620000000000
31
0.0
0
LINE
5
528
100
AcDbEntity
8
F-F
6
CONTINUOUS
62
4
100
AcDbLine
10
86.120000000000
20
66.940000000000
30
0.0
11
87.720000000000
21
66.940000000000
31
0.0
0
LINE
5
529
100
AcDbEntity
8
F-F
6
CONTINUOUS
62
4
100
AcDbLine
10
86.120000000000
20
67.260000000000
30
0.0
11
87.720000000000
21
67.260000000000
31
0.0
0
LINE
5
52a
100
AcDbEntity
8
F-F
6
CONTINUOUS
62
4
100
AcDbLine
10
86.120000000000
20
67.580000000000
30
0.0
11
87.720000000000
21
67.580000000000
31
0.0
0
LINE
5
52b
100
AcDbEntity
8
F-F
6
CONTINUOUS
62
4
100
AcDbLine
10
86.120000000000
20
67.900000000000
30
0.0
11
87.720000000000
21
67.900000000000
31
0.0
0
LINE
5
52c
100
AcDbEntity
8
F-F
6
CONTINUOUS
62
4
100
AcDbLine
10
86.120000000000
20
68.220000000000
30
0.0
11
87.720000000000
21
68.220000000000
31
0.0
0
LINE
5
52d
100
AcDbEntity
8
F-F
6
CONTINUOUS
62
4
100
AcDbLine
10
86.120000000000
20
68.540000000000
30
0.0
11
87.720000000000
21
68.540000000000
31
0.0
0
LINE
5
52e
100
AcDbEntity
8
F-F
6
CONTINUOUS
62
4
100
AcDbLine
10
86.120000000000
20
68.860000000000
30
0.0
11
87.720000000000
21
68.860000000000
31
0.0
0
LINE
5
52f
100
AcDbEntity
8
F-F
6
CONTINUOUS
62
4
100
AcDbLine
10
86.120000000000
20
69.820000000000
30
0.0
11
87.720000000000
21
69.820000000000
31
0.0
0
LINE
5
530
100
AcDbEntity
8
F-F
6
CONTINUOUS
62
4
100
AcDbLine
10
86.120000000000
20
70.780000000000
30
0.0
11
87.720000000000
21
70.780000000000
31
0.0
0
LINE
5
531
100
AcDbEntity
8
F-F
6
CONTINUOUS
62
4
100
AcDbLine
10
86.120000000000
20
71.100000000000
30
0.0
11
87.720000000000
21
71.100000000000
31
0.0
0
LINE
5
532
100
AcDbEntity
8
F-F
6
CONTINUOUS
62
4
100
AcDbLine
10
86.120000000000
20
71.420000000000
30
0.0
11
87.720000000000
21
71.420000000000
31
0.0
0
LINE
5
533
100
AcDbEntity
8
F-F
6
CONTINUOUS
62
4
100
AcDbLine
10
86.120000000000
20
71.740000000000
30
0.0
11
87.720000000000
21
71.740000000000
31
0.0
0
LINE
5
534
100
AcDbEntity
8
F-F
6
CONTINUOUS
62
4
100
AcDbLine
10
86.120000000000
20
72.700000000000
30
0.0
11
87.720000000000
21
72.700000000000
31
0.0
0
LINE
5
535
100
AcDbEntity
8
F-F
6
CONTINUOUS
62
4
100
AcDbLine
10
86.120000000000
20
72.380000000000
30
0.0
11
87.720000000000
21
72.380000000000
31
0.0
0
LINE
5
536
100
AcDbEntity
8
F-F
6
CONTINUOUS
62
4
100
AcDbLine
10
86.120000000000
20
72.060000000000
30
0.0
11
87.720000000000
21
72.060000000000
31
0.0
0
LINE
5
537
100
AcDbEntity
8
F-F
6
CONTINUOUS
62
4
100
AcDbLine
10
86.120000000000
20
70.140000000000
30
0.0
11
87.720000000000
21
70.140000000000
31
0.0
0
LINE
5
538
100
AcDbEntity
8
F-F
6
CONTINUOUS
62
4
100
AcDbLine
10
86.120000000000
20
70.460000000000
30
0.0
11
87.720000000000
21
70.460000000000
31
0.0
0
LINE
5
539
100
AcDbEntity
8
F-F
6
CONTINUOUS
62
4
100
AcDbLine
10
86.120000000000
20
69.500000000000
30
0.0
11
87.720000000000
21
69.500000000000
31
0.0
0
LINE
5
53a
100
AcDbEntity
8
F-F
6
CONTINUOUS
62
4
100
AcDbLine
10
86.120000000000
20
69.180000000000
30
0.0
11
87.720000000000
21
69.180000000000
31
0.0
0
LINE
5
53b
100
AcDbEntity
8
F-F
6
CONTINUOUS
62
4
100
AcDbLine
10
86.120000000000
20
60.860000000000
30
0.0
11
87.720000000000
21
60.860000000000
31
0.0
0
LINE
5
53c
100
AcDbEntity
8
F-F
6
CONTINUOUS
62
4
100
AcDbLine
10
86.120000000000
20
61.180000000000
30
0.0
11
87.720000000000
21
61.180000000000
31
0.0
0
LINE
5
53d
100
AcDbEntity
8
F-F
6
CONTINUOUS
62
4
100
AcDbLine
10
85.390000000000
20
73.340000000000
30
0.0
11
87.720000000000
21
73.340000000000
31
0.0
0
LINE
5
53e
100
AcDbEntity
8
F-F
6
CONTINUOUS
62
4
100
AcDbLine
10
85.070000000000
20
73.020000000000
30
0.0
11
87.720000000000
21
73.020000000000
31
0.0
0
LINE
5
53f
100
AcDbEntity
8
F-F
6
CONTINUOUS
62
4
100
AcDbLine
10
77.070000000000
20
65.020000000000
30
0.0
11
78.200000000000
21
65.020000000000
31
0.0
0
LINE
5
540
100
AcDbEntity
8
F-F
6
CONTINUOUS
62
4
100
AcDbLine
10
76.750000000000
20
64.700000000000
30
0.0
11
77.880000000000
21
64.700000000000
31
0.0
0
LINE
5
541
100
AcDbEntity
8
F-F
6
CONTINUOUS
62
4
100
AcDbLine
10
76.430000000000
20
64.380000000000
30
0.0
11
77.560000000000
21
64.380000000000
31
0.0
0
LINE
5
542
100
AcDbEntity
8
F-F
6
CONTINUOUS
62
4
100
AcDbLine
10
76.110000000000
20
64.060000000000
30
0.0
11
77.240000000000
21
64.060000000000
31
0.0
0
LINE
5
543
100
AcDbEntity
8
F-F
6
CONTINUOUS
62
4
100
AcDbLine
10
78.350000000000
20
66.300000000000
30
0.0
11
79.480000000000
21
66.300000000000
31
0.0
0
LINE
5
544
100
AcDbEntity
8
F-F
6
CONTINUOUS
62
4
100
AcDbLine
10
78.030000000000
20
65.980000000000
30
0.0
11
79.160000000000
21
65.980000000000
31
0.0
0
LINE
5
545
100
AcDbEntity
8
F-F
6
CONTINUOUS
62
4
100
AcDbLine
10
77.710000000000
20
65.660000000000
30
0.0
11
78.840000000000
21
65.660000000000
31
0.0
0
LINE
5
546
100
AcDbEntity
8
F-F
6
CONTINUOUS
62
4
100
AcDbLine
10
77.390000000000
20
65.340000000000
30
0.0
11
78.520000000000
21
65.340000000000
31
0.0
0
LINE
5
547
100
AcDbEntity
8
F-F
6
CONTINUOUS
62
4
100
AcDbLine
10
79.630000000000
20
67.580000000000
30
0.0
11
80.760000000000
21
67.580000000000
31
0.0
0
LINE
5
548
100
AcDbEntity
8
F-F
6
CONTINUOUS
62
4
100
AcDbLine
10
79.310000000000
20
67.260000000000
30
0.0
11
80.440000000000
21
67.260000000000
31
0.0
0
LINE
5
549
100
AcDbEntity
8
F-F
6
CONTINUOUS
62
4
100
AcDbLine
10
78.990000000000
20
66.940000000000
30
0.0
11
80.120000000000
21
66.940000000000
31
0.0
0
LINE
5
54a
100
AcDbEntity
8
F-F
6
CONTINUOUS
62
4
100
AcDbLine
10
78.670000000000
20
66.620000000000
30
0.0
11
79.800000000000
21
66.620000000000
31
0.0
0
LINE
5
54b
100
AcDbEntity
8
F-F
6
CONTINUOUS
62
4
100
AcDbLine
10
80.910000000000
20
68.860000000000
30
0.0
11
82.040000000000
21
68.860000000000
31
0.0
0
LINE
5
54c
100
AcDbEntity
8
F-F
6
CONTINUOUS
62
4
100
AcDbLine
10
80.590000000000
20
68.540000000000
30
0.0
11
81.720000000000
21
68.540000000000
31
0.0
0
LINE
5
54d
100
AcDbEntity
8
F-F
6
CONTINUOUS
62
4
100
AcDbLine
10
80.270000000000
20
68.220000000000
30
0.0
11
81.400000000000
21
68.220000000000
31
0.0
0
LINE
5
54e
100
AcDbEntity
8
F-F
6
CONTINUOUS
62
4
100
AcDbLine
10
79.950000000000
20
67.900000000000
30
0.0
11
81.080000000000
21
67.900000000000
31
0.0
0
LINE
5
54f
100
AcDbEntity
8
F-F
6
CONTINUOUS
62
4
100
AcDbLine
10
82.190000000000
20
70.140000000000
30
0.0
11
83.320000000000
21
70.140000000000
31
0.0
0
LINE
5
550
100
AcDbEntity
8
F-F
6
CONTINUOUS
62
4
100
AcDbLine
10
81.870000000000
20
69.820000000000
30
0.0
11
83.000000000000
21
69.820000000000
31
0.0
0
LINE
5
551
100
AcDbEntity
8
F-F
6
CONTINUOUS
62
4
100
AcDbLine
10
81.550000000000
20
69.500000000000
30
0.0
11
82.680000000000
21
69.500000000000
31
0.0
0
LINE
5
552
100
AcDbEntity
8
F-F
6
CONTINUOUS
62
4
100
AcDbLine
10
81.230000000000
20
69.180000000000
30
0.0
11
82.360000000000
21
69.180000000000
31
0.0
0
LINE
5
553
100
AcDbEntity
8
F-F
6
CONTINUOUS
62
4
100
AcDbLine
10
83.470000000000
20
71.420000000000
30
0.0
11
84.600000000000
21
71.420000000000
31
0.0
0
LINE
5
554
100
AcDbEntity
8
F-F
6
CONTINUOUS
62
4
100
AcDbLine
10
83.150000000000
20
71.100000000000
30
0.0
11
84.280000000000
21
71.100000000000
31
0.0
0
LINE
5
555
100
AcDbEntity
8
F-F
6
CONTINUOUS
62
4
100
AcDbLine
10
82.830000000000
20
70.780000000000
30
0.0
11
83.960000000000
21
70.780000000000
31
0.0
0
LINE
5
556
100
AcDbEntity
8
F-F
6
CONTINUOUS
62
4
100
AcDbLine
10
82.510000000000
20
70.460000000000
30
0.0
11
83.640000000000
21
70.460000000000
31
0.0
0
LINE
5
557
100
AcDbEntity
8
F-F
6
CONTINUOUS
62
4
100
AcDbLine
10
84.750000000000
20
72.700000000000
30
0.0
11
85.880000000000
21
72.700000000000
31
0.0
0
LINE
5
558
100
AcDbEntity
8
F-F
6
CONTINUOUS
62
4
100
AcDbLine
10
84.430000000000
20
72.380000000000
30
0.0
11
85.560000000000
21
72.380000000000
31
0.0
0
LINE
5
559
100
AcDbEntity
8
F-F
6
CONTINUOUS
62
4
100
AcDbLine
10
84.110000000000
20
72.060000000000
30
0.0
11
85.240000000000
21
72.060000000000
31
0.0
0
LINE
5
55a
100
AcDbEntity
8
F-F
6
CONTINUOUS
62
4
100
AcDbLine
10
83.790000000000
20
71.740000000000
30
0.0
11
84.920000000000
21
71.740000000000
31
0.0
0
LINE
5
55b
100
AcDbEntity
8
F-F
6
CONTINUOUS
62
4
100
AcDbLine
10
86.120000000000
20
65.660000000000
30
0.0
11
87.720000000000
21
65.660000000000
31
0.0
0
LINE
5
55c
100
AcDbEntity
8
F-F
6
CONTINUOUS
62
3
100
AcDbLine
10
580.390000000000
20
82.890000000000
30
0.0
11
580.390000000000
21
613.270000000000
31
0.0
0
LINE
5
55d
100
AcDbEntity
8
0-1_2_0
6
CONTINUOUS
62
3
100
AcDbLine
10
1187.110000000000
20
814.600000000000
30
0.0
11
1185.420000000000
21
805.000000000000
31
0.0
0
LINE
5
55e
100
AcDbEntity
8
0-1_2_0
6
CONTINUOUS
62
3
100
AcDbLine
10
1200.340000000000
20
803.360000000000
30
0.0
11
1204.210000000000
21
801.920000000000
31
0.0
0
LINE
5
55f
100
AcDbEntity
8
0-1_2_0
6
CONTINUOUS
62
3
100
AcDbLine
10
1200.590000000000
20
804.020000000000
30
0.0
11
1204.450000000000
21
802.580000000000
31
0.0
0
LINE
5
560
100
AcDbEntity
8
0-1_2_0
6
CONTINUOUS
62
3
100
AcDbLine
10
1200.340000000000
20
803.360000000000
30
0.0
11
1200.590000000000
21
804.020000000000
31
0.0
0
LINE
5
561
100
AcDbEntity
8
0-1_2_0
6
CONTINUOUS
62
3
100
AcDbLine
10
1194.990000000000
20
805.420000000000
30
0.0
11
1204.650000000000
21
804.400000000000
31
0.0
0
LINE
5
562
100
AcDbEntity
8
0-1_2_0
6
CONTINUOUS
62
3
100
AcDbLine
10
1192.560000000000
20
804.430000000000
30
0.0
11
1191.010000000000
21
802.590000000000
31
0.0
0
LINE
5
563
100
AcDbEntity
8
0-1_2_0
6
CONTINUOUS
62
3
100
AcDbLine
10
1194.920000000000
20
804.720000000000
30
0.0
11
1204.570000000000
21
803.710000000000
31
0.0
0
LINE
5
564
100
AcDbEntity
8
0-1_2_0
6
CONTINUOUS
62
3
100
AcDbLine
10
1193.090000000000
20
803.980000000000
30
0.0
11
1191.550000000000
21
802.140000000000
31
0.0
0
LINE
5
565
100
AcDbEntity
8
0-1_2_0
6
CONTINUOUS
62
3
100
AcDbLine
10
1187.810000000000
20
814.500000000000
30
0.0
11
1186.110000000000
21
804.880000000000
31
0.0
0
LINE
5
566
100
AcDbEntity
8
0-1_2_0
6
CONTINUOUS
62
3
100
AcDbLine
10
1251.120000000000
20
809.120000000000
30
0.0
11
1190.920000000000
21
816.790000000000
31
0.0
0
LINE
5
567
100
AcDbEntity
8
0-1_2_0
6
CONTINUOUS
62
3
100
AcDbLine
10
1251.210000000000
20
809.820000000000
30
0.0
11
1191.010000000000
21
817.490000000000
31
0.0
0
LINE
5
568
100
AcDbEntity
8
0-1_2_0
6
CONTINUOUS
62
3
100
AcDbLine
10
1541.650000000000
20
807.640000000000
30
0.0
11
1540.700000000000
21
801.480000000000
31
0.0
0
LINE
5
569
100
AcDbEntity
8
0-1_2_0
6
CONTINUOUS
62
3
100
AcDbLine
10
1542.340000000000
20
807.530000000000
30
0.0
11
1541.390000000000
21
801.380000000000
31
0.0
0
LINE
5
56a
100
AcDbEntity
8
0-1_2_0
6
CONTINUOUS
62
3
100
AcDbLine
10
1544.090000000000
20
809.390000000000
30
0.0
11
1547.640000000000
21
808.760000000000
31
0.0
0
LINE
5
56b
100
AcDbEntity
8
0-1_2_0
6
CONTINUOUS
62
3
100
AcDbLine
10
1547.520000000000
20
808.070000000000
30
0.0
11
1547.640000000000
21
808.760000000000
31
0.0
0
LINE
5
56c
100
AcDbEntity
8
0-1_2_0
6
CONTINUOUS
62
3
100
AcDbLine
10
1543.970000000000
20
808.700000000000
30
0.0
11
1547.520000000000
21
808.070000000000
31
0.0
0
LINE
5
56d
100
AcDbEntity
8
0-1_2_0
6
CONTINUOUS
62
3
100
AcDbLine
10
1511.940000000000
20
813.280000000000
30
0.0
11
1518.510000000000
21
800.980000000000
31
0.0
0
LINE
5
56e
100
AcDbEntity
8
0-1_2_0
6
CONTINUOUS
62
3
100
AcDbLine
10
1511.340000000000
20
812.920000000000
30
0.0
11
1517.910000000000
21
800.620000000000
31
0.0
0
LINE
5
56f
100
AcDbEntity
8
0-1_2_0
6
CONTINUOUS
62
3
100
AcDbLine
10
1506.280000000000
20
811.800000000000
30
0.0
11
1508.830000000000
21
813.840000000000
31
0.0
0
LINE
5
570
100
AcDbEntity
8
0-1_2_0
6
CONTINUOUS
62
3
100
AcDbLine
10
1509.270000000000
20
813.300000000000
30
0.0
11
1506.720000000000
21
811.260000000000
31
0.0
0
LINE
5
571
100
AcDbEntity
8
0-1_2_0
6
CONTINUOUS
62
3
100
AcDbLine
10
1492.400000000000
20
810.800000000000
30
0.0
11
1505.410000000000
21
810.800000000000
31
0.0
0
LINE
5
572
100
AcDbEntity
8
0-1_2_0
6
CONTINUOUS
62
3
100
AcDbLine
10
1492.060000000000
20
808.610000000000
30
0.0
11
1504.590000000000
21
806.430000000000
31
0.0
0
LINE
5
573
100
AcDbEntity
8
0-1_2_0
6
CONTINUOUS
62
3
100
AcDbLine
10
1491.940000000000
20
807.920000000000
30
0.0
11
1504.470000000000
21
805.740000000000
31
0.0
0
LINE
5
574
100
AcDbEntity
8
0-1_2_0
6
CONTINUOUS
62
3
100
AcDbLine
10
1492.400000000000
20
811.500000000000
30
0.0
11
1505.410000000000
21
811.500000000000
31
0.0
0
LINE
5
575
100
AcDbEntity
8
0-1_2_0
6
CONTINUOUS
62
3
100
AcDbLine
10
1539.320000000000
20
800.300000000000
30
0.0
11
1530.920000000000
21
800.300000000000
31
0.0
0
LINE
5
576
100
AcDbEntity
8
0-1_2_0
6
CONTINUOUS
62
3
100
AcDbLine
10
1529.520000000000
20
799.490000000000
30
0.0
11
1530.920000000000
21
800.300000000000
31
0.0
0
LINE
5
577
100
AcDbEntity
8
0-1_2_0
6
CONTINUOUS
62
3
100
AcDbLine
10
1529.520000000000
20
798.680000000000
30
0.0
11
1531.100000000000
21
799.600000000000
31
0.0
0
LINE
5
578
100
AcDbEntity
8
0-1_2_0
6
CONTINUOUS
62
3
100
AcDbLine
10
1539.320000000000
20
799.600000000000
30
0.0
11
1531.100000000000
21
799.600000000000
31
0.0
0
LINE
5
579
100
AcDbEntity
8
0-1_2_0
6
CONTINUOUS
62
3
100
AcDbLine
10
1519.710000000000
20
800.300000000000
30
0.0
11
1528.120000000000
21
800.300000000000
31
0.0
0
LINE
5
57a
100
AcDbEntity
8
0-1_2_0
6
CONTINUOUS
62
3
100
AcDbLine
10
1529.520000000000
20
799.490000000000
30
0.0
11
1528.120000000000
21
800.300000000000
31
0.0
0
LINE
5
57b
100
AcDbEntity
8
0-1_2_0
6
CONTINUOUS
62
3
100
AcDbLine
10
1519.710000000000
20
799.600000000000
30
0.0
11
1527.930000000000
21
799.600000000000
31
0.0
0
LINE
5
57c
100
AcDbEntity
8
0-1_2_0
6
CONTINUOUS
62
3
100
AcDbLine
10
1529.520000000000
20
798.680000000000
30
0.0
11
1527.930000000000
21
799.600000000000
31
0.0
0
LINE
5
57d
100
AcDbEntity
8
0-1_2_0
6
CONTINUOUS
62
3
100
AcDbLine
10
1319.570000000000
20
800.300000000000
30
0.0
11
1251.220000000000
21
809.810000000000
31
0.0
0
LINE
5
57e
100
AcDbEntity
8
0-1_2_0
6
CONTINUOUS
62
3
100
AcDbLine
10
1503.520000000000
20
800.300000000000
30
0.0
11
1319.570000000000
21
800.300000000000
31
0.0
0
POLYLINE
5
57f
100
AcDbEntity
8
0-1_2_0
6
CONTINUOUS
62
  3
100
AcDb2dPolyline
66
1
10
0.0
20
0.0
30
0.0
70
0
0
VERTEX
5
580
100
AcDbEntity
8
0-1_2_0
6
CONTINUOUS
62
  3
100
AcDbVertex
100
AcDb2dVertex
10
1503.520000000000
20
799.600000000000
30
0.0
0
VERTEX
5
581
100
AcDbEntity
8
0-1_2_0
6
CONTINUOUS
62
  3
100
AcDbVertex
100
AcDb2dVertex
10
1319.520000000000
20
799.600000000000
30
0.0
0
VERTEX
5
582
100
AcDbEntity
8
0-1_2_0
6
CONTINUOUS
62
  3
100
AcDbVertex
100
AcDb2dVertex
10
1251.120000000000
20
809.120000000000
30
0.0
0
SEQEND
5
583
100
AcDbEntity
8
0-1_2_0
0
LINE
5
584
100
AcDbEntity
8
0-1_2_0
6
CONTINUOUS
62
7
100
AcDbLine
10
1547.550000000000
20
823.210000000000
30
0.0
11
1547.550000000000
21
838.210000000000
31
0.0
0
LINE
5
585
100
AcDbEntity
8
0-1_2_0
6
CONTINUOUS
62
7
100
AcDbLine
10
1505.320000000000
20
788.720000000000
30
0.0
11
1505.320000000000
21
766.220000000000
31
0.0
0
LINE
5
586
100
AcDbEntity
8
0-1_2_0
6
CONTINUOUS
62
7
100
AcDbLine
10
1205.320000000000
20
766.220000000000
30
0.0
11
1505.320000000000
21
766.220000000000
31
0.0
0
LINE
5
587
100
AcDbEntity
8
0-1_2_0
6
CONTINUOUS
62
7
100
AcDbLine
10
1205.320000000000
20
788.720000000000
30
0.0
11
1205.320000000000
21
766.220000000000
31
0.0
0
LINE
5
588
100
AcDbEntity
8
0-1_2_0
6
CONTINUOUS
62
7
100
AcDbLine
10
1177.420000000000
20
819.220000000000
30
0.0
11
1162.540000000000
21
821.120000000000
31
0.0
0
POLYLINE
5
589
100
AcDbEntity
8
0-1_2_0
6
CONTINUOUS
62
  7
100
AcDb2dPolyline
66
1
10
0.0
20
0.0
30
0.0
70
0
0
VERTEX
5
58a
100
AcDbEntity
8
0-1_2_0
6
CONTINUOUS
62
  7
100
AcDbVertex
100
AcDb2dVertex
10
1190.740000000000
20
835.160000000000
30
0.0
0
VERTEX
5
58b
100
AcDbEntity
8
0-1_2_0
6
CONTINUOUS
62
  7
100
AcDbVertex
100
AcDb2dVertex
10
1191.690000000000
20
842.600000000000
30
0.0
0
VERTEX
5
58c
100
AcDbEntity
8
0-1_2_0
6
CONTINUOUS
62
  7
100
AcDbVertex
100
AcDb2dVertex
10
1322.830000000000
20
825.890000000000
30
0.0
0
SEQEND
5
58d
100
AcDbEntity
8
0-1_2_0
0
LINE
5
58e
100
AcDbEntity
8
0-1_2_0
6
CONTINUOUS
62
7
100
AcDbLine
10
1321.880000000000
20
818.450000000000
30
0.0
11
1322.830000000000
21
825.890000000000
31
0.0
0
LINE
5
58f
100
AcDbEntity
8
0-1_2_0
6
CONTINUOUS
62
7
100
AcDbLine
10
1510.550000000000
20
823.210000000000
30
0.0
11
1510.550000000000
21
838.210000000000
31
0.0
0
POLYLINE
5
590
100
AcDbEntity
8
0-1_2_0
6
CONTINUOUS
62
  7
100
AcDb2dPolyline
66
1
10
0.0
20
0.0
30
0.0
70
0
0
VERTEX
5
591
100
AcDbEntity
8
0-1_2_0
6
CONTINUOUS
62
  7
100
AcDbVertex
100
AcDb2dVertex
10
1490.550000000000
20
823.210000000000
30
0.0
0
VERTEX
5
592
100
AcDbEntity
8
0-1_2_0
6
CONTINUOUS
62
  7
100
AcDbVertex
100
AcDb2dVertex
10
1490.550000000000
20
838.210000000000
30
0.0
0
VERTEX
5
593
100
AcDbEntity
8
0-1_2_0
6
CONTINUOUS
62
  7
100
AcDbVertex
100
AcDb2dVertex
10
1510.550000000000
20
838.210000000000
30
0.0
0
VERTEX
5
594
100
AcDbEntity
8
0-1_2_0
6
CONTINUOUS
62
  7
100
AcDbVertex
100
AcDb2dVertex
10
1547.550000000000
20
838.210000000000
30
0.0
0
SEQEND
5
595
100
AcDbEntity
8
0-1_2_0
0
LINE
5
596
100
AcDbEntity
8
0-1_2_0
6
CONTINUOUS
62
7
100
AcDbLine
10
1175.270000000000
20
802.360000000000
30
0.0
11
1160.390000000000
21
804.250000000000
31
0.0
0
LINE
5
597
100
AcDbEntity
8
0-1_2_0
6
CONTINUOUS
62
7
100
AcDbLine
10
1162.540000000000
20
821.120000000000
30
0.0
11
1160.390000000000
21
804.250000000000
31
0.0
0
LINE
5
598
100
AcDbEntity
8
0-1_2_0
6
CONTINUOUS
62
7
100
AcDbLine
10
1183.010000000000
20
791.320000000000
30
0.0
11
1180.400000000000
21
776.540000000000
31
0.0
0
LINE
5
599
100
AcDbEntity
8
0-1_2_0
6
CONTINUOUS
62
7
100
AcDbLine
10
1199.110000000000
20
773.250000000000
30
0.0
11
1180.400000000000
21
776.540000000000
31
0.0
0
LINE
5
59a
100
AcDbEntity
8
0-1_2_0
6
CONTINUOUS
62
7
100
AcDbLine
10
1201.720000000000
20
788.020000000000
30
0.0
11
1199.110000000000
21
773.250000000000
31
0.0
0
POLYLINE
5
59b
100
AcDbEntity
8
0-1_2_0
6
CONTINUOUS
62
  7
100
AcDb2dPolyline
66
1
10
0.0
20
0.0
30
0.0
70
0
0
VERTEX
5
59c
100
AcDbEntity
8
0-1_2_0
6
CONTINUOUS
62
  7
100
AcDbVertex
100
AcDb2dVertex
10
1319.570000000000
20
788.720000000000
30
0.0
0
VERTEX
5
59d
100
AcDbEntity
8
0-1_2_0
6
CONTINUOUS
62
  7
100
AcDbVertex
100
AcDb2dVertex
10
1319.570000000000
20
781.220000000000
30
0.0
0
VERTEX
5
59e
100
AcDbEntity
8
0-1_2_0
6
CONTINUOUS
62
  7
100
AcDbVertex
100
AcDb2dVertex
10
1505.320000000000
20
781.220000000000
30
0.0
0
SEQEND
5
59f
100
AcDbEntity
8
0-1_2_0
0
LINE
5
5a0
100
AcDbEntity
8
0-1_2_0
6
CONTINUOUS
62
7
100
AcDbLine
10
1557.550000000000
20
814.210000000000
30
0.0
11
1572.550000000000
21
814.210000000000
31
0.0
0
POLYLINE
5
5a1
100
AcDbEntity
8
0-1_2_0
6
CONTINUOUS
62
  7
100
AcDb2dPolyline
66
1
10
0.0
20
0.0
30
0.0
70
0
0
VERTEX
5
5a2
100
AcDbEntity
8
0-1_2_0
6
CONTINUOUS
62
  7
100
AcDbVertex
100
AcDb2dVertex
10
1557.550000000000
20
799.210000000000
30
0.0
0
VERTEX
5
5a3
100
AcDbEntity
8
0-1_2_0
6
CONTINUOUS
62
  7
100
AcDbVertex
100
AcDb2dVertex
10
1572.550000000000
20
799.210000000000
30
0.0
0
VERTEX
5
5a4
100
AcDbEntity
8
0-1_2_0
6
CONTINUOUS
62
  7
100
AcDbVertex
100
AcDb2dVertex
10
1572.550000000000
20
814.210000000000
30
0.0
0
SEQEND
5
5a5
100
AcDbEntity
8
0-1_2_0
0
LINE
5
5a6
100
AcDbEntity
8
0-00
6
CONTINUOUS
62
3
100
AcDbLine
10
447.360000000000
20
816.640000000000
30
0.0
11
447.930000000000
21
810.440000000000
31
0.0
0
LINE
5
5a7
100
AcDbEntity
8
0-00
6
CONTINUOUS
62
3
100
AcDbLine
10
448.050000000000
20
816.710000000000
30
0.0
11
448.630000000000
21
810.510000000000
31
0.0
0
LINE
5
5a8
100
AcDbEntity
8
0-00
6
CONTINUOUS
62
3
100
AcDbLine
10
449.300000000000
20
818.930000000000
30
0.0
11
452.900000000000
21
819.190000000000
31
0.0
0
LINE
5
5a9
100
AcDbEntity
8
0-00
6
CONTINUOUS
62
3
100
AcDbLine
10
452.950000000000
20
818.490000000000
30
0.0
11
452.900000000000
21
819.190000000000
31
0.0
0
LINE
5
5aa
100
AcDbEntity
8
0-00
6
CONTINUOUS
62
3
100
AcDbLine
10
449.350000000000
20
818.230000000000
30
0.0
11
452.950000000000
21
818.490000000000
31
0.0
0
LINE
5
5ab
100
AcDbEntity
8
0-00
6
CONTINUOUS
62
3
100
AcDbLine
10
417.170000000000
20
814.910000000000
30
0.0
11
426.530000000000
21
804.570000000000
31
0.0
0
LINE
5
5ac
100
AcDbEntity
8
0-00
6
CONTINUOUS
62
3
100
AcDbLine
10
416.680000000000
20
814.420000000000
30
0.0
11
426.030000000000
21
804.070000000000
31
0.0
0
LINE
5
5ad
100
AcDbEntity
8
0-00
6
CONTINUOUS
62
3
100
AcDbLine
10
412.040000000000
20
812.110000000000
30
0.0
11
414.020000000000
21
814.700000000000
31
0.0
0
LINE
5
5ae
100
AcDbEntity
8
0-00
6
CONTINUOUS
62
3
100
AcDbLine
10
414.570000000000
20
814.280000000000
30
0.0
11
412.590000000000
21
811.680000000000
31
0.0
0
LINE
5
5af
100
AcDbEntity
8
0-00
6
CONTINUOUS
62
3
100
AcDbLine
10
398.810000000000
20
807.760000000000
30
0.0
11
411.430000000000
21
810.920000000000
31
0.0
0
LINE
5
5b0
100
AcDbEntity
8
0-00
6
CONTINUOUS
62
3
100
AcDbLine
10
399.010000000000
20
805.560000000000
30
0.0
11
411.700000000000
21
806.480000000000
31
0.0
0
LINE
5
5b1
100
AcDbEntity
8
0-00
6
CONTINUOUS
62
3
100
AcDbLine
10
399.060000000000
20
804.860000000000
30
0.0
11
411.750000000000
21
805.780000000000
31
0.0
0
LINE
5
5b2
100
AcDbEntity
8
0-00
6
CONTINUOUS
62
3
100
AcDbLine
10
398.640000000000
20
808.440000000000
30
0.0
11
411.260000000000
21
811.600000000000
31
0.0
0
LINE
5
5b3
100
AcDbEntity
8
0-00
6
CONTINUOUS
62
3
100
AcDbLine
10
446.880000000000
20
808.960000000000
30
0.0
11
438.730000000000
21
806.920000000000
31
0.0
0
LINE
5
5b4
100
AcDbEntity
8
0-00
6
CONTINUOUS
62
3
100
AcDbLine
10
437.560000000000
20
805.790000000000
30
0.0
11
438.730000000000
21
806.920000000000
31
0.0
0
LINE
5
5b5
100
AcDbEntity
8
0-00
6
CONTINUOUS
62
3
100
AcDbLine
10
437.760000000000
20
805.010000000000
30
0.0
11
439.080000000000
21
806.280000000000
31
0.0
0
LINE
5
5b6
100
AcDbEntity
8
0-00
6
CONTINUOUS
62
3
100
AcDbLine
10
447.050000000000
20
808.280000000000
30
0.0
11
439.080000000000
21
806.280000000000
31
0.0
0
LINE
5
5b7
100
AcDbEntity
8
0-00
6
CONTINUOUS
62
3
100
AcDbLine
10
427.860000000000
20
804.200000000000
30
0.0
11
436.010000000000
21
806.240000000000
31
0.0
0
LINE
5
5b8
100
AcDbEntity
8
0-00
6
CONTINUOUS
62
3
100
AcDbLine
10
437.560000000000
20
805.790000000000
30
0.0
11
436.010000000000
21
806.240000000000
31
0.0
0
LINE
5
5b9
100
AcDbEntity
8
0-00
6
CONTINUOUS
62
3
100
AcDbLine
10
428.030000000000
20
803.520000000000
30
0.0
11
436.000000000000
21
805.510000000000
31
0.0
0
LINE
5
5ba
100
AcDbEntity
8
0-00
6
CONTINUOUS
62
3
100
AcDbLine
10
437.760000000000
20
805.010000000000
30
0.0
11
436.000000000000
21
805.510000000000
31
0.0
0
LINE
5
5bb
100
AcDbEntity
8
0-00
6
CONTINUOUS
62
3
100
AcDbLine
10
392.760000000000
20
810.170000000000
30
0.0
11
393.450000000000
21
800.450000000000
31
0.0
0
LINE
5
5bc
100
AcDbEntity
8
0-00
6
CONTINUOUS
62
3
100
AcDbLine
10
408.320000000000
20
802.480000000000
30
0.0
11
412.420000000000
21
802.020000000000
31
0.0
0
LINE
5
5bd
100
AcDbEntity
8
0-00
6
CONTINUOUS
62
3
100
AcDbLine
10
408.400000000000
20
803.170000000000
30
0.0
11
412.500000000000
21
802.710000000000
31
0.0
0
LINE
5
5be
100
AcDbEntity
8
0-00
6
CONTINUOUS
62
3
100
AcDbLine
10
408.320000000000
20
802.480000000000
30
0.0
11
408.400000000000
21
803.170000000000
31
0.0
0
LINE
5
5bf
100
AcDbEntity
8
0-00
6
CONTINUOUS
62
3
100
AcDbLine
10
402.630000000000
20
803.170000000000
30
0.0
11
412.250000000000
21
804.530000000000
31
0.0
0
LINE
5
5c0
100
AcDbEntity
8
0-00
6
CONTINUOUS
62
3
100
AcDbLine
10
400.510000000000
20
801.630000000000
30
0.0
11
399.460000000000
21
799.470000000000
31
0.0
0
LINE
5
5c1
100
AcDbEntity
8
0-00
6
CONTINUOUS
62
3
100
AcDbLine
10
402.730000000000
20
802.480000000000
30
0.0
11
412.340000000000
21
803.840000000000
31
0.0
0
LINE
5
5c2
100
AcDbEntity
8
0-00
6
CONTINUOUS
62
3
100
AcDbLine
10
401.140000000000
20
801.320000000000
30
0.0
11
400.080000000000
21
799.160000000000
31
0.0
0
LINE
5
5c3
100
AcDbEntity
8
0-00
6
CONTINUOUS
62
3
100
AcDbLine
10
393.460000000000
20
810.250000000000
30
0.0
11
394.140000000000
21
800.490000000000
31
0.0
0
LINE
5
5c4
100
AcDbEntity
8
0-00
6
CONTINUOUS
62
3
100
AcDbLine
10
456.190000000000
20
820.380000000000
30
0.0
11
395.920000000000
21
813.220000000000
31
0.0
0
LINE
5
5c5
100
AcDbEntity
8
0-00
6
CONTINUOUS
62
3
100
AcDbLine
10
456.100000000000
20
821.070000000000
30
0.0
11
395.840000000000
21
813.920000000000
31
0.0
0
LINE
5
5c6
100
AcDbEntity
8
0-00
6
CONTINUOUS
62
3
100
AcDbLine
10
738.400000000000
20
889.400000000000
30
0.0
11
738.970000000000
21
883.200000000000
31
0.0
0
LINE
5
5c7
100
AcDbEntity
8
0-00
6
CONTINUOUS
62
3
100
AcDbLine
10
739.100000000000
20
889.470000000000
30
0.0
11
739.670000000000
21
883.270000000000
31
0.0
0
LINE
5
5c8
100
AcDbEntity
8
0-00
6
CONTINUOUS
62
3
100
AcDbLine
10
740.340000000000
20
891.690000000000
30
0.0
11
743.940000000000
21
891.950000000000
31
0.0
0
LINE
5
5c9
100
AcDbEntity
8
0-00
6
CONTINUOUS
62
3
100
AcDbLine
10
743.990000000000
20
891.250000000000
30
0.0
11
743.940000000000
21
891.950000000000
31
0.0
0
LINE
5
5ca
100
AcDbEntity
8
0-00
6
CONTINUOUS
62
3
100
AcDbLine
10
740.390000000000
20
890.990000000000
30
0.0
11
743.990000000000
21
891.250000000000
31
0.0
0
LINE
5
5cb
100
AcDbEntity
8
0-00
6
CONTINUOUS
62
3
100
AcDbLine
10
708.210000000000
20
887.680000000000
30
0.0
11
717.570000000000
21
877.330000000000
31
0.0
0
LINE
5
5cc
100
AcDbEntity
8
0-00
6
CONTINUOUS
62
3
100
AcDbLine
10
707.720000000000
20
887.180000000000
30
0.0
11
717.080000000000
21
876.830000000000
31
0.0
0
LINE
5
5cd
100
AcDbEntity
8
0-00
6
CONTINUOUS
62
3
100
AcDbLine
10
703.080000000000
20
884.870000000000
30
0.0
11
705.060000000000
21
887.460000000000
31
0.0
0
LINE
5
5ce
100
AcDbEntity
8
0-00
6
CONTINUOUS
62
3
100
AcDbLine
10
705.610000000000
20
887.040000000000
30
0.0
11
703.640000000000
21
884.440000000000
31
0.0
0
LINE
5
5cf
100
AcDbEntity
8
0-00
6
CONTINUOUS
62
3
100
AcDbLine
10
689.860000000000
20
880.520000000000
30
0.0
11
702.480000000000
21
883.680000000000
31
0.0
0
LINE
5
5d0
100
AcDbEntity
8
0-00
6
CONTINUOUS
62
3
100
AcDbLine
10
690.050000000000
20
878.320000000000
30
0.0
11
702.740000000000
21
879.240000000000
31
0.0
0
LINE
5
5d1
100
AcDbEntity
8
0-00
6
CONTINUOUS
62
3
100
AcDbLine
10
690.110000000000
20
877.620000000000
30
0.0
11
702.790000000000
21
878.540000000000
31
0.0
0
LINE
5
5d2
100
AcDbEntity
8
0-00
6
CONTINUOUS
62
3
100
AcDbLine
10
689.690000000000
20
881.200000000000
30
0.0
11
702.310000000000
21
884.360000000000
31
0.0
0
LINE
5
5d3
100
AcDbEntity
8
0-00
6
CONTINUOUS
62
3
100
AcDbLine
10
737.920000000000
20
881.720000000000
30
0.0
11
729.770000000000
21
879.680000000000
31
0.0
0
LINE
5
5d4
100
AcDbEntity
8
0-00
6
CONTINUOUS
62
3
100
AcDbLine
10
738.090000000000
20
881.040000000000
30
0.0
11
730.120000000000
21
879.040000000000
31
0.0
0
LINE
5
5d5
100
AcDbEntity
8
0-00
6
CONTINUOUS
62
3
100
AcDbLine
10
718.900000000000
20
876.960000000000
30
0.0
11
727.050000000000
21
879.000000000000
31
0.0
0
LINE
5
5d6
100
AcDbEntity
8
0-00
6
CONTINUOUS
62
3
100
AcDbLine
10
719.070000000000
20
876.280000000000
30
0.0
11
727.040000000000
21
878.270000000000
31
0.0
0
LINE
5
5d7
100
AcDbEntity
8
0-00
6
CONTINUOUS
62
3
100
AcDbLine
10
524.730000000000
20
828.420000000000
30
0.0
11
456.110000000000
21
821.070000000000
31
0.0
0
LINE
5
5d8
100
AcDbEntity
8
0-00
6
CONTINUOUS
62
3
100
AcDbLine
10
703.190000000000
20
873.030000000000
30
0.0
11
524.730000000000
21
828.420000000000
31
0.0
0
POLYLINE
5
5d9
100
AcDbEntity
8
0-00
6
CONTINUOUS
62
  3
100
AcDb2dPolyline
66
1
10
0.0
20
0.0
30
0.0
70
0
0
VERTEX
5
5da
100
AcDbEntity
8
0-00
6
CONTINUOUS
62
  3
100
AcDbVertex
100
AcDb2dVertex
10
703.360000000000
20
872.350000000000
30
0.0
0
VERTEX
5
5db
100
AcDbEntity
8
0-00
6
CONTINUOUS
62
  3
100
AcDbVertex
100
AcDb2dVertex
10
524.850000000000
20
827.730000000000
30
0.0
0
VERTEX
5
5dc
100
AcDbEntity
8
0-00
6
CONTINUOUS
62
  3
100
AcDbVertex
100
AcDb2dVertex
10
456.190000000000
20
820.380000000000
30
0.0
0
SEQEND
5
5dd
100
AcDbEntity
8
0-00
0
LINE
5
5de
100
AcDbEntity
8
0-00
6
CONTINUOUS
62
3
100
AcDbLine
10
683.800000000000
20
882.930000000000
30
0.0
11
684.490000000000
21
873.210000000000
31
0.0
0
LINE
5
5df
100
AcDbEntity
8
0-00
6
CONTINUOUS
62
3
100
AcDbLine
10
699.360000000000
20
875.240000000000
30
0.0
11
703.470000000000
21
874.780000000000
31
0.0
0
LINE
5
5e0
100
AcDbEntity
8
0-00
6
CONTINUOUS
62
3
100
AcDbLine
10
699.440000000000
20
875.930000000000
30
0.0
11
703.540000000000
21
875.470000000000
31
0.0
0
LINE
5
5e1
100
AcDbEntity
8
0-00
6
CONTINUOUS
62
3
100
AcDbLine
10
699.360000000000
20
875.240000000000
30
0.0
11
699.440000000000
21
875.930000000000
31
0.0
0
LINE
5
5e2
100
AcDbEntity
8
0-00
6
CONTINUOUS
62
3
100
AcDbLine
10
693.680000000000
20
875.930000000000
30
0.0
11
703.290000000000
21
877.290000000000
31
0.0
0
LINE
5
5e3
100
AcDbEntity
8
0-00
6
CONTINUOUS
62
3
100
AcDbLine
10
691.550000000000
20
874.390000000000
30
0.0
11
690.500000000000
21
872.230000000000
31
0.0
0
LINE
5
5e4
100
AcDbEntity
8
0-00
6
CONTINUOUS
62
3
100
AcDbLine
10
693.770000000000
20
875.240000000000
30
0.0
11
703.390000000000
21
876.600000000000
31
0.0
0
LINE
5
5e5
100
AcDbEntity
8
0-00
6
CONTINUOUS
62
3
100
AcDbLine
10
692.180000000000
20
874.080000000000
30
0.0
11
691.130000000000
21
871.920000000000
31
0.0
0
LINE
5
5e6
100
AcDbEntity
8
0-00
6
CONTINUOUS
62
3
100
AcDbLine
10
684.500000000000
20
883.010000000000
30
0.0
11
685.190000000000
21
873.260000000000
31
0.0
0
LINE
5
5e7
100
AcDbEntity
8
0-00
6
CONTINUOUS
62
3
100
AcDbLine
10
747.230000000000
20
893.140000000000
30
0.0
11
686.960000000000
21
885.980000000000
31
0.0
0
LINE
5
5e8
100
AcDbEntity
8
0-00
6
CONTINUOUS
62
3
100
AcDbLine
10
747.150000000000
20
893.830000000000
30
0.0
11
686.880000000000
21
886.680000000000
31
0.0
0
LINE
5
5e9
100
AcDbEntity
8
0-00
6
CONTINUOUS
62
3
100
AcDbLine
10
815.770000000000
20
901.180000000000
30
0.0
11
747.150000000000
21
893.840000000000
31
0.0
0
LINE
5
5ea
100
AcDbEntity
8
0-00
6
CONTINUOUS
62
3
100
AcDbLine
10
815.890000000000
20
900.490000000000
30
0.0
11
747.230000000000
21
893.140000000000
31
0.0
0
LINE
5
5eb
100
AcDbEntity
8
0-00
6
CONTINUOUS
62
3
100
AcDbLine
10
412.150000000000
20
800.270000000000
30
0.0
11
249.070000000000
21
759.500000000000
31
0.0
0
LINE
5
5ec
100
AcDbEntity
8
0-00
6
CONTINUOUS
62
3
100
AcDbLine
10
412.320000000000
20
799.590000000000
30
0.0
11
249.240000000000
21
758.820000000000
31
0.0
0
LINE
5
5ed
100
AcDbEntity
8
0-00
6
CONTINUOUS
62
4
100
AcDbLine
10
422.520000000000
20
890.300000000000
30
0.0
11
228.490000000000
21
841.790000000000
31
0.0
0
LINE
5
5ee
100
AcDbEntity
8
0-00
6
CONTINUOUS
62
4
100
AcDbLine
10
253.660000000000
20
741.120000000000
30
0.0
11
265.920000000000
21
761.550000000000
31
0.0
0
LINE
5
5ef
100
AcDbEntity
8
0-00
6
CONTINUOUS
62
4
100
AcDbLine
10
665.060000000000
20
950.940000000000
30
0.0
11
859.090000000000
21
999.440000000000
31
0.0
0
LINE
5
5f0
100
AcDbEntity
8
0-00
6
DASHED
62
7
100
AcDbLine
10
249.450000000000
20
757.950000000000
30
0.0
11
880.050000000000
21
915.600000000000
31
0.0
0
LINE
5
5f1
100
AcDbEntity
8
0-00
6
CONTINUOUS
62
3
100
AcDbLine
10
880.170000000000
20
915.110000000000
30
0.0
11
249.580000000000
21
757.470000000000
31
0.0
0
LINE
5
5f2
100
AcDbEntity
8
0-00
6
CONTINUOUS
62
3
100
AcDbLine
10
886.230000000000
20
890.860000000000
30
0.0
11
255.640000000000
21
733.210000000000
31
0.0
0
LINE
5
5f3
100
AcDbEntity
8
0-00
6
CONTINUOUS
62
3
100
AcDbLine
10
879.660000000000
20
917.150000000000
30
0.0
11
815.770000000000
21
901.180000000000
31
0.0
0
LINE
5
5f4
100
AcDbEntity
8
0-00
6
CONTINUOUS
62
3
100
AcDbLine
10
879.830000000000
20
916.470000000000
30
0.0
11
815.890000000000
21
900.490000000000
31
0.0
0
LINE
5
5f5
100
AcDbEntity
8
0-00
6
CONTINUOUS
62
7
100
AcDbLine
10
433.330000000000
20
818.370000000000
30
0.0
11
445.960000000000
21
855.710000000000
31
0.0
0
LINE
5
5f6
100
AcDbEntity
8
0-00
6
CONTINUOUS
62
4
100
AcDbLine
10
442.110000000000
20
808.390000000000
30
0.0
11
432.410000000000
21
805.970000000000
31
0.0
0
LINE
5
5f7
100
AcDbEntity
8
0-00
6
CONTINUOUS
62
4
100
AcDbLine
10
440.050000000000
20
808.390000000000
30
0.0
11
434.230000000000
21
806.940000000000
31
0.0
0
LINE
5
5f8
100
AcDbEntity
8
0-00
6
CONTINUOUS
62
4
100
AcDbLine
10
432.410000000000
20
805.970000000000
30
0.0
11
432.510000000000
21
805.580000000000
31
0.0
0
LINE
5
5f9
100
AcDbEntity
8
0-00
6
CONTINUOUS
62
4
100
AcDbLine
10
434.230000000000
20
806.940000000000
30
0.0
11
432.900000000000
21
806.090000000000
31
0.0
0
LINE
5
5fa
100
AcDbEntity
8
0-00
6
CONTINUOUS
62
4
100
AcDbLine
10
442.110000000000
20
808.390000000000
30
0.0
11
442.210000000000
21
808.000000000000
31
0.0
0
LINE
5
5fb
100
AcDbEntity
8
0-00
6
CONTINUOUS
62
4
100
AcDbLine
10
440.050000000000
20
808.390000000000
30
0.0
11
441.630000000000
21
808.270000000000
31
0.0
0
LINE
5
5fc
100
AcDbEntity
8
0-00
6
CONTINUOUS
62
4
100
AcDbLine
10
442.210000000000
20
808.000000000000
30
0.0
11
432.510000000000
21
805.580000000000
31
0.0
0
LINE
5
5fd
100
AcDbEntity
8
0-00
6
CONTINUOUS
62
4
100
AcDbLine
10
440.910000000000
20
786.640000000000
30
0.0
11
443.710000000000
21
787.860000000000
31
0.0
0
LINE
5
5fe
100
AcDbEntity
8
0-00
6
CONTINUOUS
62
4
100
AcDbLine
10
441.850000000000
20
784.900000000000
30
0.0
11
443.700000000000
21
785.700000000000
31
0.0
0
LINE
5
5ff
100
AcDbEntity
8
0-00
6
CONTINUOUS
62
4
100
AcDbLine
10
442.800000000000
20
783.160000000000
30
0.0
11
443.680000000000
21
783.540000000000
31
0.0
0
LINE
5
600
100
AcDbEntity
8
0-00
6
CONTINUOUS
62
4
100
AcDbLine
10
443.420000000000
20
782.540000000000
30
0.0
11
440.070000000000
21
788.710000000000
31
0.0
0
LINE
5
601
100
AcDbEntity
8
0-00
6
CONTINUOUS
62
4
100
AcDbLine
10
443.420000000000
20
782.540000000000
30
0.0
11
443.480000000000
21
789.570000000000
31
0.0
0
LINE
5
602
100
AcDbEntity
8
0-00
6
CONTINUOUS
62
4
100
AcDbLine
10
439.670000000000
20
788.250000000000
30
0.0
11
443.860000000000
21
790.070000000000
31
0.0
0
LINE
5
603
100
AcDbEntity
8
0-00
6
CONTINUOUS
62
4
100
AcDbLine
10
439.190000000000
20
790.190000000000
30
0.0
11
443.370000000000
21
792.010000000000
31
0.0
0
LINE
5
604
100
AcDbEntity
8
0-00
6
CONTINUOUS
62
4
100
AcDbLine
10
438.700000000000
20
792.130000000000
30
0.0
11
442.890000000000
21
793.950000000000
31
0.0
0
LINE
5
605
100
AcDbEntity
8
0-00
6
CONTINUOUS
62
4
100
AcDbLine
10
438.220000000000
20
794.070000000000
30
0.0
11
442.400000000000
21
795.890000000000
31
0.0
0
LINE
5
606
100
AcDbEntity
8
0-00
6
CONTINUOUS
62
4
100
AcDbLine
10
437.730000000000
20
796.010000000000
30
0.0
11
441.920000000000
21
797.830000000000
31
0.0
0
LINE
5
607
100
AcDbEntity
8
0-00
6
CONTINUOUS
62
4
100
AcDbLine
10
437.250000000000
20
797.950000000000
30
0.0
11
441.430000000000
21
799.770000000000
31
0.0
0
LINE
5
608
100
AcDbEntity
8
0-00
6
CONTINUOUS
62
4
100
AcDbLine
10
440.090000000000
20
788.660000000000
30
0.0
11
435.660000000000
21
806.370000000000
31
0.0
0
LINE
5
609
100
AcDbEntity
8
0-00
6
CONTINUOUS
62
4
100
AcDbLine
10
443.480000000000
20
789.500000000000
30
0.0
11
439.060000000000
21
807.210000000000
31
0.0
0
LINE
5
60a
100
AcDbEntity
8
0-00
6
CONTINUOUS
62
4
100
AcDbLine
10
436.760000000000
20
799.890000000000
30
0.0
11
440.950000000000
21
801.710000000000
31
0.0
0
LINE
5
60b
100
AcDbEntity
8
0-00
6
CONTINUOUS
62
4
100
AcDbLine
10
436.280000000000
20
801.840000000000
30
0.0
11
440.460000000000
21
803.650000000000
31
0.0
0
LINE
5
60c
100
AcDbEntity
8
0-00
6
CONTINUOUS
62
4
100
AcDbLine
10
435.790000000000
20
803.780000000000
30
0.0
11
439.980000000000
21
805.590000000000
31
0.0
0
LINE
5
60d
100
AcDbEntity
8
0-00
6
CONTINUOUS
62
3
100
AcDbLine
10
728.610000000000
20
878.550000000000
30
0.0
11
729.770000000000
21
879.680000000000
31
0.0
0
LINE
5
60e
100
AcDbEntity
8
0-00
6
CONTINUOUS
62
3
100
AcDbLine
10
728.800000000000
20
877.770000000000
30
0.0
11
730.120000000000
21
879.040000000000
31
0.0
0
LINE
5
60f
100
AcDbEntity
8
0-00
6
CONTINUOUS
62
3
100
AcDbLine
10
728.610000000000
20
878.550000000000
30
0.0
11
727.050000000000
21
879.000000000000
31
0.0
0
LINE
5
610
100
AcDbEntity
8
0-00
6
CONTINUOUS
62
3
100
AcDbLine
10
728.800000000000
20
877.770000000000
30
0.0
11
727.040000000000
21
878.270000000000
31
0.0
0
LINE
5
611
100
AcDbEntity
8
0-00
6
CONTINUOUS
62
4
100
AcDbLine
10
733.160000000000
20
881.150000000000
30
0.0
11
723.450000000000
21
878.730000000000
31
0.0
0
LINE
5
612
100
AcDbEntity
8
0-00
6
CONTINUOUS
62
4
100
AcDbLine
10
731.090000000000
20
881.150000000000
30
0.0
11
725.270000000000
21
879.700000000000
31
0.0
0
LINE
5
613
100
AcDbEntity
8
0-00
6
CONTINUOUS
62
4
100
AcDbLine
10
723.450000000000
20
878.730000000000
30
0.0
11
723.550000000000
21
878.340000000000
31
0.0
0
LINE
5
614
100
AcDbEntity
8
0-00
6
CONTINUOUS
62
4
100
AcDbLine
10
725.270000000000
20
879.700000000000
30
0.0
11
723.940000000000
21
878.850000000000
31
0.0
0
LINE
5
615
100
AcDbEntity
8
0-00
6
CONTINUOUS
62
4
100
AcDbLine
10
733.160000000000
20
881.150000000000
30
0.0
11
733.250000000000
21
880.760000000000
31
0.0
0
LINE
5
616
100
AcDbEntity
8
0-00
6
CONTINUOUS
62
4
100
AcDbLine
10
731.090000000000
20
881.150000000000
30
0.0
11
732.670000000000
21
881.030000000000
31
0.0
0
LINE
5
617
100
AcDbEntity
8
0-00
6
CONTINUOUS
62
4
100
AcDbLine
10
733.250000000000
20
880.760000000000
30
0.0
11
723.550000000000
21
878.340000000000
31
0.0
0
LINE
5
618
100
AcDbEntity
8
0-00
6
CONTINUOUS
62
4
100
AcDbLine
10
731.950000000000
20
859.400000000000
30
0.0
11
734.760000000000
21
860.620000000000
31
0.0
0
LINE
5
619
100
AcDbEntity
8
0-00
6
CONTINUOUS
62
4
100
AcDbLine
10
732.900000000000
20
857.660000000000
30
0.0
11
734.740000000000
21
858.460000000000
31
0.0
0
LINE
5
61a
100
AcDbEntity
8
0-00
6
CONTINUOUS
62
4
100
AcDbLine
10
733.840000000000
20
855.920000000000
30
0.0
11
734.720000000000
21
856.300000000000
31
0.0
0
LINE
5
61b
100
AcDbEntity
8
0-00
6
CONTINUOUS
62
4
100
AcDbLine
10
734.460000000000
20
855.300000000000
30
0.0
11
731.110000000000
21
861.470000000000
31
0.0
0
LINE
5
61c
100
AcDbEntity
8
0-00
6
CONTINUOUS
62
4
100
AcDbLine
10
734.460000000000
20
855.300000000000
30
0.0
11
734.520000000000
21
862.330000000000
31
0.0
0
LINE
5
61d
100
AcDbEntity
8
0-00
6
CONTINUOUS
62
4
100
AcDbLine
10
730.720000000000
20
861.010000000000
30
0.0
11
734.900000000000
21
862.830000000000
31
0.0
0
LINE
5
61e
100
AcDbEntity
8
0-00
6
CONTINUOUS
62
4
100
AcDbLine
10
730.230000000000
20
862.950000000000
30
0.0
11
734.420000000000
21
864.770000000000
31
0.0
0
LINE
5
61f
100
AcDbEntity
8
0-00
6
CONTINUOUS
62
4
100
AcDbLine
10
729.750000000000
20
864.890000000000
30
0.0
11
733.930000000000
21
866.710000000000
31
0.0
0
LINE
5
620
100
AcDbEntity
8
0-00
6
CONTINUOUS
62
4
100
AcDbLine
10
729.260000000000
20
866.830000000000
30
0.0
11
733.450000000000
21
868.650000000000
31
0.0
0
LINE
5
621
100
AcDbEntity
8
0-00
6
CONTINUOUS
62
4
100
AcDbLine
10
728.780000000000
20
868.770000000000
30
0.0
11
732.960000000000
21
870.590000000000
31
0.0
0
LINE
5
622
100
AcDbEntity
8
0-00
6
CONTINUOUS
62
4
100
AcDbLine
10
728.290000000000
20
870.710000000000
30
0.0
11
732.470000000000
21
872.530000000000
31
0.0
0
LINE
5
623
100
AcDbEntity
8
0-00
6
CONTINUOUS
62
4
100
AcDbLine
10
731.130000000000
20
861.420000000000
30
0.0
11
726.700000000000
21
879.130000000000
31
0.0
0
LINE
5
624
100
AcDbEntity
8
0-00
6
CONTINUOUS
62
4
100
AcDbLine
10
734.530000000000
20
862.260000000000
30
0.0
11
730.100000000000
21
879.970000000000
31
0.0
0
LINE
5
625
100
AcDbEntity
8
0-00
6
CONTINUOUS
62
4
100
AcDbLine
10
727.810000000000
20
872.660000000000
30
0.0
11
731.990000000000
21
874.470000000000
31
0.0
0
LINE
5
626
100
AcDbEntity
8
0-00
6
CONTINUOUS
62
4
100
AcDbLine
10
727.320000000000
20
874.600000000000
30
0.0
11
731.500000000000
21
876.410000000000
31
0.0
0
LINE
5
627
100
AcDbEntity
8
0-00
6
CONTINUOUS
62
4
100
AcDbLine
10
726.840000000000
20
876.540000000000
30
0.0
11
731.020000000000
21
878.350000000000
31
0.0
0
LINE
5
628
100
AcDbEntity
8
0-00
6
CONTINUOUS
62
7
100
AcDbLine
10
382.240000000000
20
812.300000000000
30
0.0
11
367.340000000000
21
810.530000000000
31
0.0
0
LINE
5
629
100
AcDbEntity
8
0-00
6
CONTINUOUS
62
7
100
AcDbLine
10
384.240000000000
20
795.420000000000
30
0.0
11
369.350000000000
21
793.650000000000
31
0.0
0
LINE
5
62a
100
AcDbEntity
8
0-00
6
CONTINUOUS
62
7
100
AcDbLine
10
367.340000000000
20
810.530000000000
30
0.0
11
369.350000000000
21
793.650000000000
31
0.0
0
LINE
5
62b
100
AcDbEntity
8
0-00
6
CONTINUOUS
62
7
100
AcDbLine
10
673.280000000000
20
885.060000000000
30
0.0
11
658.390000000000
21
883.290000000000
31
0.0
0
LINE
5
62c
100
AcDbEntity
8
0-00
6
CONTINUOUS
62
7
100
AcDbLine
10
675.290000000000
20
868.180000000000
30
0.0
11
660.390000000000
21
866.410000000000
31
0.0
0
LINE
5
62d
100
AcDbEntity
8
0-00
6
CONTINUOUS
62
7
100
AcDbLine
10
658.390000000000
20
883.290000000000
30
0.0
11
660.390000000000
21
866.410000000000
31
0.0
0
POLYLINE
5
62e
100
AcDbEntity
8
0-00
6
CONTINUOUS
62
  7
100
AcDb2dPolyline
66
1
10
0.0
20
0.0
30
0.0
70
0
0
VERTEX
5
62f
100
AcDbEntity
8
0-00
6
CONTINUOUS
62
  7
100
AcDbVertex
100
AcDb2dVertex
10
682.340000000000
20
903.760000000000
30
0.0
0
VERTEX
5
630
100
AcDbEntity
8
0-00
6
CONTINUOUS
62
  7
100
AcDbVertex
100
AcDb2dVertex
10
681.450000000000
20
911.210000000000
30
0.0
0
VERTEX
5
631
100
AcDbEntity
8
0-00
6
CONTINUOUS
62
  7
100
AcDbVertex
100
AcDb2dVertex
10
812.730000000000
20
926.800000000000
30
0.0
0
SEQEND
5
632
100
AcDbEntity
8
0-00
0
LINE
5
633
100
AcDbEntity
8
0-00
6
CONTINUOUS
62
7
100
AcDbLine
10
813.610000000000
20
919.350000000000
30
0.0
11
812.730000000000
21
926.800000000000
31
0.0
0
POLYLINE
5
634
100
AcDbEntity
8
0-5_2_4
6
CONTINUOUS
62
  3
100
AcDb2dPolyline
66
1
10
0.0
20
0.0
30
0.0
70
0
0
VERTEX
5
635
100
AcDbEntity
8
0-5_2_4
6
CONTINUOUS
62
  3
100
AcDbVertex
100
AcDb2dVertex
10
842.370000000000
20
273.070000000000
30
0.0
0
VERTEX
5
636
100
AcDbEntity
8
0-5_2_4
6
CONTINUOUS
62
  3
100
AcDbVertex
100
AcDb2dVertex
10
798.330000000000
20
262.050000000000
30
0.0
0
VERTEX
5
637
100
AcDbEntity
8
0-5_2_4
6
CONTINUOUS
62
  3
100
AcDbVertex
100
AcDb2dVertex
10
775.190000000000
20
354.610000000000
30
0.0
0
SEQEND
5
638
100
AcDbEntity
8
0-5_2_4
0
LINE
5
639
100
AcDbEntity
8
0-5_2_4
6
CONTINUOUS
62
3
100
AcDbLine
10
818.680000000000
20
367.850000000000
30
0.0
11
774.630000000000
21
356.840000000000
31
0.0
0
LINE
5
63a
100
AcDbEntity
8
0-5_2_4
6
CONTINUOUS
62
3
100
AcDbLine
10
775.190000000000
20
354.610000000000
30
0.0
11
819.240000000000
21
365.620000000000
31
0.0
0
LINE
5
63b
100
AcDbEntity
8
0-5_2_4
6
CONTINUOUS
62
3
100
AcDbLine
10
825.760000000000
20
349.000000000000
30
0.0
11
821.470000000000
21
366.170000000000
31
0.0
0
POLYLINE
5
63c
100
AcDbEntity
8
0-5_2_4
6
CONTINUOUS
62
  3
100
AcDb2dPolyline
66
1
10
0.0
20
0.0
30
0.0
70
0
0
VERTEX
5
63d
100
AcDbEntity
8
0-5_2_4
6
CONTINUOUS
62
  3
100
AcDbVertex
100
AcDb2dVertex
10
819.240000000000
20
365.620000000000
30
0.0
0
VERTEX
5
63e
100
AcDbEntity
8
0-5_2_4
6
CONTINUOUS
62
  3
100
AcDbVertex
100
AcDb2dVertex
10
823.530000000000
20
348.450000000000
30
0.0
0
VERTEX
5
63f
100
AcDbEntity
8
0-5_2_4
6
CONTINUOUS
62
  3
100
AcDbVertex
100
AcDb2dVertex
10
825.760000000000
20
349.000000000000
30
0.0
0
SEQEND
5
640
100
AcDbEntity
8
0-5_2_4
0
LINE
5
641
100
AcDbEntity
8
0-5_2_4
6
CONTINUOUS
62
3
100
AcDbLine
10
838.080000000000
20
290.240000000000
30
0.0
11
842.370000000000
21
273.070000000000
31
0.0
0
POLYLINE
5
642
100
AcDbEntity
8
0-5_2_4
6
CONTINUOUS
62
  3
100
AcDb2dPolyline
66
1
10
0.0
20
0.0
30
0.0
70
0
0
VERTEX
5
643
100
AcDbEntity
8
0-5_2_4
6
CONTINUOUS
62
  3
100
AcDbVertex
100
AcDb2dVertex
10
844.600000000000
20
273.620000000000
30
0.0
0
VERTEX
5
644
100
AcDbEntity
8
0-5_2_4
6
CONTINUOUS
62
  3
100
AcDbVertex
100
AcDb2dVertex
10
840.310000000000
20
290.790000000000
30
0.0
0
VERTEX
5
645
100
AcDbEntity
8
0-5_2_4
6
CONTINUOUS
62
  3
100
AcDbVertex
100
AcDb2dVertex
10
838.080000000000
20
290.240000000000
30
0.0
0
SEQEND
5
646
100
AcDbEntity
8
0-5_2_4
0
LINE
5
647
100
AcDbEntity
8
0-5_2_4
6
CONTINUOUS
62
3
100
AcDbLine
10
798.890000000000
20
259.820000000000
30
0.0
11
842.930000000000
21
270.830000000000
31
0.0
0
LINE
5
648
100
AcDbEntity
8
0-5_2_4
6
CONTINUOUS
62
7
100
AcDbLine
10
715.800000000000
20
367.900000000000
30
0.0
11
716.380000000000
21
368.040000000000
31
0.0
0
LINE
5
649
100
AcDbEntity
8
0-5_2_4
6
CONTINUOUS
62
4
100
AcDbLine
10
786.030000000000
20
386.020000000000
30
0.0
11
795.730000000000
21
388.440000000000
31
0.0
0
LINE
5
64a
100
AcDbEntity
8
0-5_2_4
6
CONTINUOUS
62
4
100
AcDbLine
10
787.850000000000
20
386.990000000000
30
0.0
11
793.670000000000
21
388.440000000000
31
0.0
0
LINE
5
64b
100
AcDbEntity
8
0-5_2_4
6
CONTINUOUS
62
4
100
AcDbLine
10
795.730000000000
20
388.440000000000
30
0.0
11
795.830000000000
21
388.050000000000
31
0.0
0
LINE
5
64c
100
AcDbEntity
8
0-5_2_4
6
CONTINUOUS
62
4
100
AcDbLine
10
793.670000000000
20
388.440000000000
30
0.0
11
795.250000000000
21
388.320000000000
31
0.0
0
LINE
5
64d
100
AcDbEntity
8
0-5_2_4
6
CONTINUOUS
62
4
100
AcDbLine
10
795.850000000000
20
377.260000000000
30
0.0
11
790.990000000000
21
376.880000000000
31
0.0
0
LINE
5
64e
100
AcDbEntity
8
0-5_2_4
6
CONTINUOUS
62
4
100
AcDbLine
10
796.230000000000
20
375.710000000000
30
0.0
11
791.380000000000
21
375.320000000000
31
0.0
0
LINE
5
64f
100
AcDbEntity
8
0-5_2_4
6
CONTINUOUS
62
4
100
AcDbLine
10
796.620000000000
20
374.160000000000
30
0.0
11
791.770000000000
21
373.770000000000
31
0.0
0
LINE
5
650
100
AcDbEntity
8
0-5_2_4
6
CONTINUOUS
62
4
100
AcDbLine
10
795.460000000000
20
378.820000000000
30
0.0
11
790.610000000000
21
378.430000000000
31
0.0
0
LINE
5
651
100
AcDbEntity
8
0-5_2_4
6
CONTINUOUS
62
4
100
AcDbLine
10
786.030000000000
20
386.020000000000
30
0.0
11
786.130000000000
21
385.630000000000
31
0.0
0
LINE
5
652
100
AcDbEntity
8
0-5_2_4
6
CONTINUOUS
62
4
100
AcDbLine
10
787.850000000000
20
386.990000000000
30
0.0
11
786.520000000000
21
386.140000000000
31
0.0
0
LINE
5
653
100
AcDbEntity
8
0-5_2_4
6
CONTINUOUS
62
4
100
AcDbLine
10
797.400000000000
20
371.050000000000
30
0.0
11
792.550000000000
21
370.670000000000
31
0.0
0
LINE
5
654
100
AcDbEntity
8
0-5_2_4
6
CONTINUOUS
62
4
100
AcDbLine
10
797.010000000000
20
372.610000000000
30
0.0
11
792.160000000000
21
372.220000000000
31
0.0
0
LINE
5
655
100
AcDbEntity
8
0-5_2_4
6
CONTINUOUS
62
4
100
AcDbLine
10
797.790000000000
20
369.500000000000
30
0.0
11
792.930000000000
21
369.120000000000
31
0.0
0
LINE
5
656
100
AcDbEntity
8
0-5_2_4
6
CONTINUOUS
62
4
100
AcDbLine
10
798.170000000000
20
367.950000000000
30
0.0
11
793.320000000000
21
367.560000000000
31
0.0
0
LINE
5
657
100
AcDbEntity
8
0-5_2_4
6
CONTINUOUS
62
4
100
AcDbLine
10
800.680000000000
20
348.040000000000
30
0.0
11
798.350000000000
21
349.100000000000
31
0.0
0
LINE
5
658
100
AcDbEntity
8
0-5_2_4
6
CONTINUOUS
62
4
100
AcDbLine
10
802.230000000000
20
350.070000000000
30
0.0
11
800.680000000000
21
348.040000000000
31
0.0
0
LINE
5
659
100
AcDbEntity
8
0-5_2_4
6
CONTINUOUS
62
4
100
AcDbLine
10
786.130000000000
20
385.630000000000
30
0.0
11
795.830000000000
21
388.050000000000
31
0.0
0
LINE
5
65a
100
AcDbEntity
8
0-5_2_4
6
CONTINUOUS
62
4
100
AcDbLine
10
794.680000000000
20
381.920000000000
30
0.0
11
789.830000000000
21
381.530000000000
31
0.0
0
LINE
5
65b
100
AcDbEntity
8
0-5_2_4
6
CONTINUOUS
62
4
100
AcDbLine
10
795.070000000000
20
380.370000000000
30
0.0
11
790.220000000000
21
379.980000000000
31
0.0
0
LINE
5
65c
100
AcDbEntity
8
0-5_2_4
6
CONTINUOUS
62
4
100
AcDbLine
10
794.290000000000
20
383.470000000000
30
0.0
11
789.440000000000
21
383.090000000000
31
0.0
0
LINE
5
65d
100
AcDbEntity
8
0-5_2_4
6
CONTINUOUS
62
4
100
AcDbLine
10
798.560000000000
20
366.400000000000
30
0.0
11
793.710000000000
21
366.010000000000
31
0.0
0
LINE
5
65e
100
AcDbEntity
8
0-5_2_4
6
CONTINUOUS
62
4
100
AcDbLine
10
798.950000000000
20
364.850000000000
30
0.0
11
794.100000000000
21
364.460000000000
31
0.0
0
LINE
5
65f
100
AcDbEntity
8
0-5_2_4
6
CONTINUOUS
62
4
100
AcDbLine
10
799.340000000000
20
363.290000000000
30
0.0
11
794.490000000000
21
362.910000000000
31
0.0
0
LINE
5
660
100
AcDbEntity
8
0-5_2_4
6
CONTINUOUS
62
4
100
AcDbLine
10
799.730000000000
20
361.740000000000
30
0.0
11
794.880000000000
21
361.350000000000
31
0.0
0
LINE
5
661
100
AcDbEntity
8
0-5_2_4
6
CONTINUOUS
62
4
100
AcDbLine
10
800.110000000000
20
360.190000000000
30
0.0
11
795.260000000000
21
359.800000000000
31
0.0
0
LINE
5
662
100
AcDbEntity
8
0-5_2_4
6
CONTINUOUS
62
4
100
AcDbLine
10
800.500000000000
20
358.640000000000
30
0.0
11
795.650000000000
21
358.250000000000
31
0.0
0
LINE
5
663
100
AcDbEntity
8
0-5_2_4
6
CONTINUOUS
62
4
100
AcDbLine
10
800.890000000000
20
357.090000000000
30
0.0
11
796.040000000000
21
356.700000000000
31
0.0
0
LINE
5
664
100
AcDbEntity
8
0-5_2_4
6
CONTINUOUS
62
4
100
AcDbLine
10
801.280000000000
20
355.530000000000
30
0.0
11
796.430000000000
21
355.150000000000
31
0.0
0
LINE
5
665
100
AcDbEntity
8
0-5_2_4
6
CONTINUOUS
62
4
100
AcDbLine
10
801.670000000000
20
353.980000000000
30
0.0
11
796.810000000000
21
353.590000000000
31
0.0
0
LINE
5
666
100
AcDbEntity
8
0-5_2_4
6
CONTINUOUS
62
4
100
AcDbLine
10
802.230000000000
20
350.070000000000
30
0.0
11
792.920000000000
21
387.330000000000
31
0.0
0
LINE
5
667
100
AcDbEntity
8
0-5_2_4
6
CONTINUOUS
62
4
100
AcDbLine
10
798.350000000000
20
349.100000000000
30
0.0
11
789.040000000000
21
386.360000000000
31
0.0
0
LINE
5
668
100
AcDbEntity
8
0-5_2_4
6
CONTINUOUS
62
7
100
AcDbLine
10
762.990000000000
20
302.390000000000
30
0.0
11
751.110000000000
21
349.920000000000
31
0.0
0
LINE
5
669
100
AcDbEntity
8
0-5_2_4
6
CONTINUOUS
62
7
100
AcDbLine
10
751.690000000000
20
350.070000000000
30
0.0
11
763.570000000000
21
302.530000000000
31
0.0
0
POLYLINE
5
66a
100
AcDbEntity
8
0-5_2_4
6
CONTINUOUS
62
  7
100
AcDb2dPolyline
66
1
10
0.0
20
0.0
30
0.0
70
0
0
VERTEX
5
66b
100
AcDbEntity
8
0-5_2_4
6
CONTINUOUS
62
  7
100
AcDbVertex
100
AcDb2dVertex
10
764.160000000000
20
302.680000000000
30
0.0
0
VERTEX
5
66c
100
AcDbEntity
8
0-5_2_4
6
CONTINUOUS
62
  7
100
AcDbVertex
100
AcDb2dVertex
10
761.730000000000
20
312.380000000000
30
0.0
0
VERTEX
5
66d
100
AcDbEntity
8
0-5_2_4
6
CONTINUOUS
62
  7
100
AcDbVertex
100
AcDb2dVertex
10
762.310000000000
20
312.530000000000
30
0.0
0
VERTEX
5
66e
100
AcDbEntity
8
0-5_2_4
6
CONTINUOUS
62
  7
100
AcDbVertex
100
AcDb2dVertex
10
764.740000000000
20
302.820000000000
30
0.0
0
SEQEND
5
66f
100
AcDbEntity
8
0-5_2_4
0
LINE
5
670
100
AcDbEntity
8
0-5_2_4
6
CONTINUOUS
62
4
100
AcDbLine
10
878.470000000000
20
382.800000000000
30
0.0
11
896.660000000000
21
413.110000000000
31
0.0
0
LINE
5
671
100
AcDbEntity
8
0-5_2_4
6
CONTINUOUS
62
4
100
AcDbLine
10
851.030000000000
20
375.940000000000
30
0.0
11
869.220000000000
21
406.250000000000
31
0.0
0
LINE
5
672
100
AcDbEntity
8
0-5_2_4
6
CONTINUOUS
62
4
100
AcDbLine
10
823.590000000000
20
369.080000000000
30
0.0
11
841.780000000000
21
399.390000000000
31
0.0
0
LINE
5
673
100
AcDbEntity
8
0-5_2_4
6
CONTINUOUS
62
4
100
AcDbLine
10
796.150000000000
20
362.220000000000
30
0.0
11
814.340000000000
21
392.530000000000
31
0.0
0
LINE
5
674
100
AcDbEntity
8
0-5_2_4
6
CONTINUOUS
62
4
100
AcDbLine
10
768.710000000000
20
355.360000000000
30
0.0
11
786.900000000000
21
385.670000000000
31
0.0
0
LINE
5
675
100
AcDbEntity
8
0-5_2_4
6
CONTINUOUS
62
4
100
AcDbLine
10
741.270000000000
20
348.500000000000
30
0.0
11
759.460000000000
21
378.810000000000
31
0.0
0
LINE
5
676
100
AcDbEntity
8
0-5_2_4
6
CONTINUOUS
62
4
100
AcDbLine
10
720.510000000000
20
352.760000000000
30
0.0
11
732.020000000000
21
371.950000000000
31
0.0
0
LINE
5
677
100
AcDbEntity
8
0-5_2_4
6
CONTINUOUS
62
4
100
AcDbLine
10
719.670000000000
20
368.870000000000
30
0.0
11
749.990000000000
21
350.680000000000
31
0.0
0
LINE
5
678
100
AcDbEntity
8
0-5_2_4
6
CONTINUOUS
62
4
100
AcDbLine
10
747.110000000000
20
375.730000000000
30
0.0
11
777.430000000000
21
357.540000000000
31
0.0
0
LINE
5
679
100
AcDbEntity
8
0-5_2_4
6
CONTINUOUS
62
4
100
AcDbLine
10
774.550000000000
20
382.590000000000
30
0.0
11
804.870000000000
21
364.400000000000
31
0.0
0
LINE
5
67a
100
AcDbEntity
8
0-5_2_4
6
CONTINUOUS
62
4
100
AcDbLine
10
801.990000000000
20
389.450000000000
30
0.0
11
832.310000000000
21
371.260000000000
31
0.0
0
LINE
5
67b
100
AcDbEntity
8
0-5_2_4
6
CONTINUOUS
62
4
100
AcDbLine
10
829.430000000000
20
396.310000000000
30
0.0
11
859.740000000000
21
378.120000000000
31
0.0
0
LINE
5
67c
100
AcDbEntity
8
0-5_2_4
6
CONTINUOUS
62
4
100
AcDbLine
10
856.870000000000
20
403.170000000000
30
0.0
11
887.180000000000
21
384.980000000000
31
0.0
0
LINE
5
67d
100
AcDbEntity
8
0-5_2_4
6
CONTINUOUS
62
3
100
AcDbLine
10
808.780000000000
20
210.760000000000
30
0.0
11
789.380000000000
21
205.910000000000
31
0.0
0
LINE
5
67e
100
AcDbEntity
8
0-5_2_4
6
CONTINUOUS
62
7
100
AcDbLine
10
804.540000000000
20
231.860000000000
30
0.0
11
806.110000000000
21
225.550000000000
31
0.0
0
LINE
5
67f
100
AcDbEntity
8
0-5_2_4
6
CONTINUOUS
62
3
100
AcDbLine
10
772.960000000000
20
354.050000000000
30
0.0
11
796.100000000000
21
261.500000000000
31
0.0
0
LINE
5
680
100
AcDbEntity
8
0-5_2_4
6
CONTINUOUS
62
3
100
AcDbLine
10
772.960000000000
20
354.050000000000
30
0.0
11
753.560000000000
21
349.200000000000
31
0.0
0
LINE
5
681
100
AcDbEntity
8
0-5_2_4
6
CONTINUOUS
62
4
100
AcDbLine
10
788.950000000000
20
207.620000000000
30
0.0
11
805.120000000000
21
225.400000000000
31
0.0
0
LINE
5
682
100
AcDbEntity
8
0-5_2_4
6
CONTINUOUS
62
4
100
AcDbLine
10
786.040000000000
20
219.280000000000
30
0.0
11
802.210000000000
21
237.060000000000
31
0.0
0
LINE
5
683
100
AcDbEntity
8
0-5_2_4
6
CONTINUOUS
62
4
100
AcDbLine
10
783.120000000000
20
230.940000000000
30
0.0
11
799.290000000000
21
248.720000000000
31
0.0
0
LINE
5
684
100
AcDbEntity
8
0-5_2_4
6
CONTINUOUS
62
4
100
AcDbLine
10
780.210000000000
20
242.600000000000
30
0.0
11
796.380000000000
21
260.380000000000
31
0.0
0
LINE
5
685
100
AcDbEntity
8
0-5_2_4
6
CONTINUOUS
62
4
100
AcDbLine
10
777.290000000000
20
254.260000000000
30
0.0
11
793.460000000000
21
272.040000000000
31
0.0
0
LINE
5
686
100
AcDbEntity
8
0-5_2_4
6
CONTINUOUS
62
4
100
AcDbLine
10
774.380000000000
20
265.920000000000
30
0.0
11
790.550000000000
21
283.700000000000
31
0.0
0
LINE
5
687
100
AcDbEntity
8
0-5_2_4
6
CONTINUOUS
62
4
100
AcDbLine
10
771.460000000000
20
277.580000000000
30
0.0
11
787.630000000000
21
295.360000000000
31
0.0
0
LINE
5
688
100
AcDbEntity
8
0-5_2_4
6
CONTINUOUS
62
4
100
AcDbLine
10
768.550000000000
20
289.240000000000
30
0.0
11
784.720000000000
21
307.020000000000
31
0.0
0
LINE
5
689
100
AcDbEntity
8
0-5_2_4
6
CONTINUOUS
62
4
100
AcDbLine
10
765.630000000000
20
300.900000000000
30
0.0
11
781.800000000000
21
318.680000000000
31
0.0
0
LINE
5
68a
100
AcDbEntity
8
0-5_2_4
6
CONTINUOUS
62
4
100
AcDbLine
10
762.720000000000
20
312.560000000000
30
0.0
11
778.890000000000
21
330.340000000000
31
0.0
0
LINE
5
68b
100
AcDbEntity
8
0-5_2_4
6
CONTINUOUS
62
4
100
AcDbLine
10
759.800000000000
20
324.220000000000
30
0.0
11
775.970000000000
21
342.000000000000
31
0.0
0
LINE
5
68c
100
AcDbEntity
8
0-5_2_4
6
CONTINUOUS
62
4
100
AcDbLine
10
756.890000000000
20
335.880000000000
30
0.0
11
773.060000000000
21
353.660000000000
31
0.0
0
LINE
5
68d
100
AcDbEntity
8
0-5_2_4
6
CONTINUOUS
62
4
100
AcDbLine
10
753.970000000000
20
347.530000000000
30
0.0
11
756.050000000000
21
349.820000000000
31
0.0
0
LINE
5
68e
100
AcDbEntity
8
0-5_2_4
6
CONTINUOUS
62
3
100
AcDbLine
10
753.560000000000
20
349.200000000000
30
0.0
11
789.380000000000
21
205.910000000000
31
0.0
0
LINE
5
68f
100
AcDbEntity
8
0-5_2_4
6
CONTINUOUS
62
3
100
AcDbLine
10
796.100000000000
20
261.500000000000
30
0.0
11
808.780000000000
21
210.760000000000
31
0.0
0
LINE
5
690
100
AcDbEntity
8
0-5_2_4
6
CONTINUOUS
62
4
100
AcDbLine
10
804.300000000000
20
209.640000000000
30
0.0
11
808.040000000000
21
213.740000000000
31
0.0
0
LINE
5
691
100
AcDbEntity
8
0-5_2_4
6
CONTINUOUS
62
7
100
AcDbLine
10
864.230000000000
20
386.250000000000
30
0.0
11
865.300000000000
21
382.250000000000
31
0.0
0
LINE
5
692
100
AcDbEntity
8
0-5_2_4
6
CONTINUOUS
62
7
100
AcDbLine
10
864.230000000000
20
386.250000000000
30
0.0
11
867.160000000000
21
383.320000000000
31
0.0
0
LINE
5
693
100
AcDbEntity
8
0-5_2_4
6
CONTINUOUS
62
7
100
AcDbLine
10
864.230000000000
20
386.250000000000
30
0.0
11
875.780000000000
21
366.250000000000
31
0.0
0
LINE
5
694
100
AcDbEntity
8
0-5_2_4
6
CONTINUOUS
62
7
100
AcDbLine
10
720.860000000000
20
344.330000000000
30
0.0
11
719.790000000000
21
340.330000000000
31
0.0
0
LINE
5
695
100
AcDbEntity
8
0-5_2_4
6
CONTINUOUS
62
7
100
AcDbLine
10
720.860000000000
20
344.330000000000
30
0.0
11
717.930000000000
21
341.410000000000
31
0.0
0
LINE
5
696
100
AcDbEntity
8
0-5_2_4
6
CONTINUOUS
62
7
100
AcDbLine
10
776.100000000000
20
259.020000000000
30
0.0
11
775.030000000000
21
255.020000000000
31
0.0
0
LINE
5
697
100
AcDbEntity
8
0-5_2_4
6
CONTINUOUS
62
7
100
AcDbLine
10
776.100000000000
20
259.020000000000
30
0.0
11
773.170000000000
21
256.090000000000
31
0.0
0
LINE
5
698
100
AcDbEntity
8
0-5_2_4
6
CONTINUOUS
62
7
100
AcDbLine
10
878.100000000000
20
243.550000000000
30
0.0
11
877.030000000000
21
239.550000000000
31
0.0
0
LINE
5
699
100
AcDbEntity
8
0-5_2_4
6
CONTINUOUS
62
7
100
AcDbLine
10
878.100000000000
20
243.550000000000
30
0.0
11
875.170000000000
21
240.620000000000
31
0.0
0
LINE
5
69a
100
AcDbEntity
8
0-5_2_4
6
CONTINUOUS
62
7
100
AcDbLine
10
878.100000000000
20
243.550000000000
30
0.0
11
866.550000000000
21
223.550000000000
31
0.0
0
LINE
5
69b
100
AcDbEntity
8
0-5_2_4
6
CONTINUOUS
62
7
100
AcDbLine
10
759.030000000000
20
390.300000000000
30
0.0
11
759.300000000000
21
394.430000000000
31
0.0
0
LINE
5
69c
100
AcDbEntity
8
0-5_2_4
6
CONTINUOUS
62
7
100
AcDbLine
10
759.030000000000
20
390.300000000000
30
0.0
11
761.330000000000
21
393.740000000000
31
0.0
0
LINE
5
69d
100
AcDbEntity
8
0-5_2_4
6
CONTINUOUS
62
3
100
AcDbLine
10
716.670000000000
20
368.120000000000
30
0.0
11
722.730000000000
21
343.860000000000
31
0.0
0
LINE
5
69e
100
AcDbEntity
8
0-5_2_4
6
CONTINUOUS
62
7
100
AcDbLine
10
822.950000000000
20
395.740000000000
30
0.0
11
824.020000000000
21
391.740000000000
31
0.0
0
LINE
5
69f
100
AcDbEntity
8
0-5_2_4
6
CONTINUOUS
62
7
100
AcDbLine
10
822.950000000000
20
395.740000000000
30
0.0
11
825.880000000000
21
392.820000000000
31
0.0
0
LINE
5
6a0
100
AcDbEntity
8
0-5_2_4
6
CONTINUOUS
62
7
100
AcDbLine
10
822.950000000000
20
395.740000000000
30
0.0
11
856.150000000000
21
338.240000000000
31
0.0
0
LINE
5
6a1
100
AcDbEntity
8
0-5_2_4
6
CENTER2
62
4
100
AcDbLine
10
790.030000000000
20
390.640000000000
30
0.0
11
802.300000000000
21
341.560000000000
31
0.0
0
LINE
5
6a2
100
AcDbEntity
8
0-5_2_4
6
CONTINUOUS
62
4
100
AcDbLine
10
750.210000000000
20
378.250000000000
30
0.0
11
740.510000000000
21
375.830000000000
31
0.0
0
LINE
5
6a3
100
AcDbEntity
8
0-5_2_4
6
CONTINUOUS
62
4
100
AcDbLine
10
748.150000000000
20
378.250000000000
30
0.0
11
742.330000000000
21
376.800000000000
31
0.0
0
LINE
5
6a4
100
AcDbEntity
8
0-5_2_4
6
CONTINUOUS
62
4
100
AcDbLine
10
740.510000000000
20
375.830000000000
30
0.0
11
740.610000000000
21
375.440000000000
31
0.0
0
LINE
5
6a5
100
AcDbEntity
8
0-5_2_4
6
CONTINUOUS
62
4
100
AcDbLine
10
742.330000000000
20
376.800000000000
30
0.0
11
740.990000000000
21
375.950000000000
31
0.0
0
LINE
5
6a6
100
AcDbEntity
8
0-5_2_4
6
CONTINUOUS
62
4
100
AcDbLine
10
750.210000000000
20
378.250000000000
30
0.0
11
750.310000000000
21
377.870000000000
31
0.0
0
LINE
5
6a7
100
AcDbEntity
8
0-5_2_4
6
CONTINUOUS
62
4
100
AcDbLine
10
748.150000000000
20
378.250000000000
30
0.0
11
749.720000000000
21
378.130000000000
31
0.0
0
LINE
5
6a8
100
AcDbEntity
8
0-5_2_4
6
CONTINUOUS
62
4
100
AcDbLine
10
750.310000000000
20
377.870000000000
30
0.0
11
740.610000000000
21
375.440000000000
31
0.0
0
LINE
5
6a9
100
AcDbEntity
8
0-5_2_4
6
CONTINUOUS
62
7
100
AcDbLine
10
776.100000000000
20
259.020000000000
30
0.0
11
757.650000000000
21
227.070000000000
31
0.0
0
POLYLINE
5
6aa
100
AcDbEntity
8
0-5_2_4
6
CONTINUOUS
62
  4
100
AcDb2dPolyline
66
1
10
0.0
20
0.0
30
0.0
70
0
0
VERTEX
5
6ab
100
AcDbEntity
8
0-5_2_4
6
CONTINUOUS
62
  4
100
AcDbVertex
100
AcDb2dVertex
10
799.710000000000
20
348.620000000000
30
0.0
0
VERTEX
5
6ac
100
AcDbEntity
8
0-5_2_4
6
CONTINUOUS
62
  4
100
AcDbVertex
100
AcDb2dVertex
10
800.290000000000
20
349.590000000000
30
0.0
0
VERTEX
5
6ad
100
AcDbEntity
8
0-5_2_4
6
CONTINUOUS
62
  4
100
AcDbVertex
100
AcDb2dVertex
10
799.500000000000
20
350.520000000000
30
0.0
0
VERTEX
5
6ae
100
AcDbEntity
8
0-5_2_4
6
CONTINUOUS
62
  4
100
AcDbVertex
100
AcDb2dVertex
10
800.520000000000
20
351.490000000000
30
0.0
0
VERTEX
5
6af
100
AcDbEntity
8
0-5_2_4
6
CONTINUOUS
62
  4
100
AcDbVertex
100
AcDb2dVertex
10
802.230000000000
20
350.070000000000
30
0.0
0
SEQEND
5
6b0
100
AcDbEntity
8
0-5_2_4
0
LINE
5
6b1
100
AcDbEntity
8
0-5_2_4
6
CENTER2
62
4
100
AcDbLine
10
750.750000000000
20
355.480000000000
30
0.0
11
743.780000000000
21
383.380000000000
31
0.0
0
LINE
5
6b2
100
AcDbEntity
8
0-5_2_4
6
CONTINUOUS
62
4
100
AcDbLine
10
750.130000000000
20
365.190000000000
30
0.0
11
747.150000000000
21
377.080000000000
31
0.0
0
LINE
5
6b3
100
AcDbEntity
8
0-5_2_4
6
CONTINUOUS
62
4
100
AcDbLine
10
746.730000000000
20
364.340000000000
30
0.0
11
743.760000000000
21
376.230000000000
31
0.0
0
LINE
5
6b4
100
AcDbEntity
8
0-5_2_4
6
CONTINUOUS
62
4
100
AcDbLine
10
747.550000000000
20
362.320000000000
30
0.0
11
750.360000000000
21
363.540000000000
31
0.0
0
LINE
5
6b5
100
AcDbEntity
8
0-5_2_4
6
CONTINUOUS
62
4
100
AcDbLine
10
748.500000000000
20
360.580000000000
30
0.0
11
750.340000000000
21
361.380000000000
31
0.0
0
LINE
5
6b6
100
AcDbEntity
8
0-5_2_4
6
CONTINUOUS
62
4
100
AcDbLine
10
749.440000000000
20
358.840000000000
30
0.0
11
750.320000000000
21
359.230000000000
31
0.0
0
LINE
5
6b7
100
AcDbEntity
8
0-5_2_4
6
CONTINUOUS
62
4
100
AcDbLine
10
750.060000000000
20
358.220000000000
30
0.0
11
746.710000000000
21
364.400000000000
31
0.0
0
LINE
5
6b8
100
AcDbEntity
8
0-5_2_4
6
CONTINUOUS
62
4
100
AcDbLine
10
750.060000000000
20
358.220000000000
30
0.0
11
750.120000000000
21
365.250000000000
31
0.0
0
LINE
5
6b9
100
AcDbEntity
8
0-5_2_4
6
CONTINUOUS
62
4
100
AcDbLine
10
746.320000000000
20
363.940000000000
30
0.0
11
750.500000000000
21
365.760000000000
31
0.0
0
LINE
5
6ba
100
AcDbEntity
8
0-5_2_4
6
CONTINUOUS
62
4
100
AcDbLine
10
745.830000000000
20
365.880000000000
30
0.0
11
750.010000000000
21
367.700000000000
31
0.0
0
LINE
5
6bb
100
AcDbEntity
8
0-5_2_4
6
CONTINUOUS
62
4
100
AcDbLine
10
745.350000000000
20
367.820000000000
30
0.0
11
749.530000000000
21
369.640000000000
31
0.0
0
LINE
5
6bc
100
AcDbEntity
8
0-5_2_4
6
CONTINUOUS
62
4
100
AcDbLine
10
744.860000000000
20
369.760000000000
30
0.0
11
749.040000000000
21
371.580000000000
31
0.0
0
LINE
5
6bd
100
AcDbEntity
8
0-5_2_4
6
CONTINUOUS
62
4
100
AcDbLine
10
744.380000000000
20
371.700000000000
30
0.0
11
748.560000000000
21
373.520000000000
31
0.0
0
LINE
5
6be
100
AcDbEntity
8
0-5_2_4
6
CONTINUOUS
62
4
100
AcDbLine
10
743.890000000000
20
373.640000000000
30
0.0
11
748.070000000000
21
375.460000000000
31
0.0
0
LINE
5
6bf
100
AcDbEntity
8
0-5_2_4
6
CONTINUOUS
62
3
100
AcDbLine
10
692.990000000000
20
379.110000000000
30
0.0
11
693.670000000000
21
369.380000000000
31
0.0
0
LINE
5
6c0
100
AcDbEntity
8
0-5_2_4
6
CONTINUOUS
62
3
100
AcDbLine
10
708.550000000000
20
371.410000000000
30
0.0
11
712.650000000000
21
370.950000000000
31
0.0
0
LINE
5
6c1
100
AcDbEntity
8
0-5_2_4
6
CONTINUOUS
62
3
100
AcDbLine
10
708.630000000000
20
372.100000000000
30
0.0
11
712.730000000000
21
371.650000000000
31
0.0
0
LINE
5
6c2
100
AcDbEntity
8
0-5_2_4
6
CONTINUOUS
62
3
100
AcDbLine
10
708.550000000000
20
371.410000000000
30
0.0
11
708.630000000000
21
372.100000000000
31
0.0
0
LINE
5
6c3
100
AcDbEntity
8
0-5_2_4
6
CONTINUOUS
62
3
100
AcDbLine
10
702.860000000000
20
372.110000000000
30
0.0
11
712.470000000000
21
373.470000000000
31
0.0
0
LINE
5
6c4
100
AcDbEntity
8
0-5_2_4
6
CONTINUOUS
62
3
100
AcDbLine
10
700.740000000000
20
370.560000000000
30
0.0
11
699.680000000000
21
368.400000000000
31
0.0
0
LINE
5
6c5
100
AcDbEntity
8
0-5_2_4
6
CONTINUOUS
62
3
100
AcDbLine
10
702.960000000000
20
371.420000000000
30
0.0
11
712.570000000000
21
372.770000000000
31
0.0
0
LINE
5
6c6
100
AcDbEntity
8
0-5_2_4
6
CONTINUOUS
62
3
100
AcDbLine
10
701.360000000000
20
370.260000000000
30
0.0
11
700.310000000000
21
368.090000000000
31
0.0
0
LINE
5
6c7
100
AcDbEntity
8
0-5_2_4
6
CONTINUOUS
62
3
100
AcDbLine
10
693.680000000000
20
379.180000000000
30
0.0
11
694.370000000000
21
369.430000000000
31
0.0
0
LINE
5
6c8
100
AcDbEntity
8
0-5_2_4
6
CONTINUOUS
62
3
100
AcDbLine
10
756.410000000000
20
389.310000000000
30
0.0
11
696.150000000000
21
382.160000000000
31
0.0
0
LINE
5
6c9
100
AcDbEntity
8
0-5_2_4
6
CONTINUOUS
62
3
100
AcDbLine
10
756.330000000000
20
390.010000000000
30
0.0
11
696.060000000000
21
382.850000000000
31
0.0
0
LINE
5
6ca
100
AcDbEntity
8
0-5_2_4
6
CONTINUOUS
62
3
100
AcDbLine
10
824.960000000000
20
397.350000000000
30
0.0
11
756.340000000000
21
390.010000000000
31
0.0
0
LINE
5
6cb
100
AcDbEntity
8
0-5_2_4
6
CONTINUOUS
62
3
100
AcDbLine
10
825.080000000000
20
396.660000000000
30
0.0
11
756.410000000000
21
389.310000000000
31
0.0
0
LINE
5
6cc
100
AcDbEntity
8
0-5_2_4
6
CONTINUOUS
62
7
100
AcDbLine
10
723.260000000000
20
336.780000000000
30
0.0
11
725.510000000000
21
329.870000000000
31
0.0
0
POLYLINE
5
6cd
100
AcDbEntity
8
0-5_2_4
6
CONTINUOUS
62
  7
100
AcDb2dPolyline
66
1
10
0.0
20
0.0
30
0.0
70
0
0
VERTEX
5
6ce
100
AcDbEntity
8
0-5_2_4
6
CONTINUOUS
62
  7
100
AcDbVertex
100
AcDb2dVertex
10
723.260000000000
20
336.780000000000
30
0.0
0
VERTEX
5
6cf
100
AcDbEntity
8
0-5_2_4
6
CONTINUOUS
62
  7
100
AcDbVertex
100
AcDb2dVertex
10
723.740000000000
20
336.930000000000
30
0.0
0
VERTEX
5
6d0
100
AcDbEntity
8
0-5_2_4
6
CONTINUOUS
62
  7
100
AcDbVertex
100
AcDb2dVertex
10
725.980000000000
20
330.020000000000
30
0.0
0
SEQEND
5
6d1
100
AcDbEntity
8
0-5_2_4
0
LINE
5
6d2
100
AcDbEntity
8
0-5_2_4
6
CONTINUOUS
62
7
100
AcDbLine
10
765.830000000000
20
381.950000000000
30
0.0
11
758.920000000000
21
379.710000000000
31
0.0
0
POLYLINE
5
6d3
100
AcDbEntity
8
0-5_2_4
6
CONTINUOUS
62
  7
100
AcDb2dPolyline
66
1
10
0.0
20
0.0
30
0.0
70
0
0
VERTEX
5
6d4
100
AcDbEntity
8
0-5_2_4
6
CONTINUOUS
62
  7
100
AcDbVertex
100
AcDb2dVertex
10
765.670000000000
20
382.430000000000
30
0.0
0
VERTEX
5
6d5
100
AcDbEntity
8
0-5_2_4
6
CONTINUOUS
62
  7
100
AcDbVertex
100
AcDb2dVertex
10
758.760000000000
20
380.180000000000
30
0.0
0
VERTEX
5
6d6
100
AcDbEntity
8
0-5_2_4
6
CONTINUOUS
62
  7
100
AcDbVertex
100
AcDb2dVertex
10
758.920000000000
20
379.710000000000
30
0.0
0
SEQEND
5
6d7
100
AcDbEntity
8
0-5_2_4
0
LINE
5
6d8
100
AcDbEntity
8
0-5_2_4
6
CONTINUOUS
62
7
100
AcDbLine
10
696.790000000000
20
369.520000000000
30
0.0
11
709.740000000000
21
382.500000000000
31
0.0
0
LINE
5
6d9
100
AcDbEntity
8
0-5_2_4
6
CONTINUOUS
62
7
100
AcDbLine
10
710.800000000000
20
381.440000000000
30
0.0
11
697.850000000000
21
368.460000000000
31
0.0
0
LINE
5
6da
100
AcDbEntity
8
0-5_2_4
6
CONTINUOUS
62
7
100
AcDbLine
10
697.140000000000
20
369.170000000000
30
0.0
11
710.090000000000
21
382.140000000000
31
0.0
0
LINE
5
6db
100
AcDbEntity
8
0-5_2_4
6
CONTINUOUS
62
7
100
AcDbLine
10
697.500000000000
20
368.810000000000
30
0.0
11
710.450000000000
21
381.790000000000
31
0.0
0
LINE
5
6dc
100
AcDbEntity
8
0-5_2_4
6
CONTINUOUS
62
7
100
AcDbLine
10
716.110000000000
20
369.520000000000
30
0.0
11
713.100000000000
21
381.570000000000
31
0.0
0
LINE
5
6dd
100
AcDbEntity
8
0-5_2_4
6
CONTINUOUS
62
7
100
AcDbLine
10
715.620000000000
20
369.400000000000
30
0.0
11
712.610000000000
21
381.450000000000
31
0.0
0
LINE
5
6de
100
AcDbEntity
8
0-5_2_4
6
CONTINUOUS
62
7
100
AcDbLine
10
766.070000000000
20
380.980000000000
30
0.0
11
716.840000000000
21
368.670000000000
31
0.0
0
LINE
5
6df
100
AcDbEntity
8
0-5_2_4
6
CONTINUOUS
62
7
100
AcDbLine
10
716.710000000000
20
369.160000000000
30
0.0
11
765.950000000000
21
381.470000000000
31
0.0
0
LINE
5
6e0
100
AcDbEntity
8
0-5_2_4
6
CONTINUOUS
62
7
100
AcDbLine
10
725.020000000000
20
329.750000000000
30
0.0
11
712.130000000000
21
381.330000000000
31
0.0
0
LINE
5
6e1
100
AcDbEntity
8
0-5_2_4
6
CONTINUOUS
62
7
100
AcDbLine
10
711.640000000000
20
381.210000000000
30
0.0
11
724.540000000000
21
329.620000000000
31
0.0
0
LINE
5
6e2
100
AcDbEntity
8
0-5_2_4
6
DASHED
62
7
100
AcDbLine
10
765.520000000000
20
382.900000000000
30
0.0
11
771.030000000000
21
382.220000000000
31
0.0
0
LINE
5
6e3
100
AcDbEntity
8
0-5_2_4
6
CONTINUOUS
62
7
100
AcDbLine
10
722.390000000000
20
343.980000000000
30
0.0
11
716.380000000000
21
368.040000000000
31
0.0
0
LINE
5
6e4
100
AcDbEntity
8
0-5_2_4
6
CONTINUOUS
62
7
100
AcDbLine
10
723.120000000000
20
343.550000000000
30
0.0
11
750.960000000000
21
350.510000000000
31
0.0
0
LINE
5
6e5
100
AcDbEntity
8
0-5_2_4
6
CONTINUOUS
62
7
100
AcDbLine
10
723.270000000000
20
342.960000000000
30
0.0
11
751.110000000000
21
349.920000000000
31
0.0
0
LINE
5
6e6
100
AcDbEntity
8
0-5_2_4
6
CONTINUOUS
62
7
100
AcDbLine
10
721.810000000000
20
343.840000000000
30
0.0
11
715.800000000000
21
367.900000000000
31
0.0
0
LINE
5
6e7
100
AcDbEntity
8
0-5_2_4
6
DASHED
62
7
100
AcDbLine
10
741.800000000000
20
377.080000000000
30
0.0
11
737.190000000000
21
374.770000000000
31
0.0
0
LINE
5
6e8
100
AcDbEntity
8
0-5_2_4
6
DASHED
62
7
100
AcDbLine
10
716.590000000000
20
369.640000000000
30
0.0
11
737.280000000000
21
374.820000000000
31
0.0
0
LINE
5
6e9
100
AcDbEntity
8
0-5_2_4
6
DASHED
62
7
100
AcDbLine
10
748.490000000000
20
378.750000000000
30
0.0
11
752.860000000000
21
378.790000000000
31
0.0
0
LINE
5
6ea
100
AcDbEntity
8
0-5_2_4
6
DASHED
62
7
100
AcDbLine
10
765.520000000000
20
382.900000000000
30
0.0
11
752.860000000000
21
378.790000000000
31
0.0
0
LINE
5
6eb
100
AcDbEntity
8
0-5_2_4
6
CONTINUOUS
62
7
100
AcDbLine
10
759.030000000000
20
390.300000000000
30
0.0
11
775.710000000000
21
439.600000000000
31
0.0
0
LINE
5
6ec
100
AcDbEntity
8
0-5_2_4
6
CONTINUOUS
62
7
100
AcDbLine
10
758.090000000000
20
321.980000000000
30
0.0
11
757.020000000000
21
317.980000000000
31
0.0
0
LINE
5
6ed
100
AcDbEntity
8
0-5_2_4
6
CONTINUOUS
62
7
100
AcDbLine
10
758.090000000000
20
321.980000000000
30
0.0
11
755.160000000000
21
319.050000000000
31
0.0
0
LINE
5
6ee
100
AcDbEntity
8
0-5_2_4
6
CONTINUOUS
62
7
100
AcDbLine
10
720.860000000000
20
344.330000000000
30
0.0
11
704.650000000000
21
316.260000000000
31
0.0
0
LINE
5
6ef
100
AcDbEntity
8
0-5_2_4
6
CONTINUOUS
62
7
100
AcDbLine
10
758.090000000000
20
321.980000000000
30
0.0
11
736.590000000000
21
284.740000000000
31
0.0
0
LINE
5
6f0
100
AcDbEntity
8
0-5_2_4
6
CONTINUOUS
62
3
100
AcDbLine
10
993.980000000000
20
439.610000000000
30
0.0
11
824.960000000000
21
397.350000000000
31
0.0
0
LINE
5
6f1
100
AcDbEntity
8
0-5_2_4
6
CONTINUOUS
62
3
100
AcDbLine
10
994.150000000000
20
438.930000000000
30
0.0
11
825.080000000000
21
396.660000000000
31
0.0
0
LINE
5
6f2
100
AcDbEntity
8
0-5_2_4
6
CONTINUOUS
62
3
100
AcDbLine
10
994.490000000000
20
437.570000000000
30
0.0
11
716.670000000000
21
368.120000000000
31
0.0
0
POLYLINE
5
6f3
100
AcDbEntity
8
0-5_2_4
6
DASHED
62
  7
100
AcDb2dPolyline
66
1
10
0.0
20
0.0
30
0.0
70
0
0
VERTEX
5
6f4
100
AcDbEntity
8
0-5_2_4
6
DASHED
62
  7
100
AcDbVertex
100
AcDb2dVertex
10
771.030000000000
20
382.220000000000
30
0.0
0
VERTEX
5
6f5
100
AcDbEntity
8
0-5_2_4
6
DASHED
62
  7
100
AcDbVertex
100
AcDb2dVertex
10
782.460000000000
20
385.080000000000
30
0.0
0
VERTEX
5
6f6
100
AcDbEntity
8
0-5_2_4
6
DASHED
62
  7
100
AcDbVertex
100
AcDb2dVertex
10
790.870000000000
20
389.840000000000
30
0.0
0
VERTEX
5
6f7
100
AcDbEntity
8
0-5_2_4
6
DASHED
62
  7
100
AcDbVertex
100
AcDb2dVertex
10
798.480000000000
20
389.080000000000
30
0.0
0
VERTEX
5
6f8
100
AcDbEntity
8
0-5_2_4
6
DASHED
62
  7
100
AcDbVertex
100
AcDb2dVertex
10
994.360000000000
20
438.050000000000
30
0.0
0
SEQEND
5
6f9
100
AcDbEntity
8
0-5_2_4
0
LINE
5
6fa
100
AcDbEntity
8
0-5_2_4
6
CONTINUOUS
62
3
100
AcDbLine
10
1000.550000000000
20
413.320000000000
30
0.0
11
722.730000000000
21
343.860000000000
31
0.0
0
LINE
5
6fb
100
AcDbEntity
8
0-5_2_4
6
CONTINUOUS
62
4
100
AcDbLine
10
905.910000000000
20
389.660000000000
30
0.0
11
924.100000000000
21
419.970000000000
31
0.0
0
LINE
5
6fc
100
AcDbEntity
8
0-5_2_4
6
CONTINUOUS
62
4
100
AcDbLine
10
884.310000000000
20
410.030000000000
30
0.0
11
914.620000000000
21
391.840000000000
31
0.0
0
LINE
5
6fd
100
AcDbEntity
8
0-5_2_4
6
CONTINUOUS
62
4
100
AcDbLine
10
933.350000000000
20
396.520000000000
30
0.0
11
951.540000000000
21
426.830000000000
31
0.0
0
LINE
5
6fe
100
AcDbEntity
8
0-5_2_4
6
CONTINUOUS
62
4
100
AcDbLine
10
911.750000000000
20
416.890000000000
30
0.0
11
942.060000000000
21
398.700000000000
31
0.0
0
LINE
5
6ff
100
AcDbEntity
8
0-5_2_4
6
CONTINUOUS
62
4
100
AcDbLine
10
960.790000000000
20
403.380000000000
30
0.0
11
978.980000000000
21
433.690000000000
31
0.0
0
LINE
5
700
100
AcDbEntity
8
0-5_2_4
6
CONTINUOUS
62
4
100
AcDbLine
10
939.190000000000
20
423.750000000000
30
0.0
11
969.500000000000
21
405.550000000000
31
0.0
0
LINE
5
701
100
AcDbEntity
8
0-5_2_4
6
CONTINUOUS
62
4
100
AcDbLine
10
966.630000000000
20
430.610000000000
30
0.0
11
996.940000000000
21
412.410000000000
31
0.0
0
LINE
5
702
100
AcDbEntity
8
0-5_2_4
6
CONTINUOUS
62
4
100
AcDbLine
10
988.230000000000
20
410.240000000000
30
0.0
11
997.470000000000
21
425.640000000000
31
0.0
0
LINE
5
703
100
AcDbEntity
8
0-5_2_4
6
CONTINUOUS
62
7
100
AcDbLine
10
1005.470000000000
20
282.090000000000
30
0.0
11
804.540000000000
21
231.860000000000
31
0.0
0
LINE
5
704
100
AcDbEntity
8
0-5_2_4
6
CONTINUOUS
62
7
100
AcDbLine
10
1007.050000000000
20
275.790000000000
30
0.0
11
806.110000000000
21
225.550000000000
31
0.0
0
LINE
5
705
100
AcDbEntity
8
0-6_2_5
6
CONTINUOUS
62
7
100
AcDbLine
10
1346.220000000000
20
365.420000000000
30
0.0
11
1338.970000000000
21
364.920000000000
31
0.0
0
POLYLINE
5
706
100
AcDbEntity
8
0-6_2_5
6
CONTINUOUS
62
  7
100
AcDb2dPolyline
66
1
10
0.0
20
0.0
30
0.0
70
0
0
VERTEX
5
707
100
AcDbEntity
8
0-6_2_5
6
CONTINUOUS
62
  7
100
AcDbVertex
100
AcDb2dVertex
10
1346.180000000000
20
365.920000000000
30
0.0
0
VERTEX
5
708
100
AcDbEntity
8
0-6_2_5
6
CONTINUOUS
62
  7
100
AcDbVertex
100
AcDb2dVertex
10
1338.930000000000
20
365.420000000000
30
0.0
0
VERTEX
5
709
100
AcDbEntity
8
0-6_2_5
6
CONTINUOUS
62
  7
100
AcDbVertex
100
AcDb2dVertex
10
1338.970000000000
20
364.920000000000
30
0.0
0
SEQEND
5
70a
100
AcDbEntity
8
0-6_2_5
0
LINE
5
70b
100
AcDbEntity
8
0-6_2_5
6
CONTINUOUS
62
7
100
AcDbLine
10
1261.470000000000
20
362.920000000000
30
0.0
11
1261.470000000000
21
355.670000000000
31
0.0
0
LINE
5
70c
100
AcDbEntity
8
0-6_2_5
6
CONTINUOUS
62
7
100
AcDbLine
10
1260.970000000000
20
362.920000000000
30
0.0
11
1260.970000000000
21
355.670000000000
31
0.0
0
LINE
5
70d
100
AcDbEntity
8
0-6_2_5
6
CONTINUOUS
62
7
100
AcDbLine
10
1346.220000000000
20
364.420000000000
30
0.0
11
1261.970000000000
21
364.420000000000
31
0.0
0
LINE
5
70e
100
AcDbEntity
8
0-6_2_5
6
CONTINUOUS
62
7
100
AcDbLine
10
1260.470000000000
20
362.920000000000
30
0.0
11
1260.470000000000
21
355.670000000000
31
0.0
0
LINE
5
70f
100
AcDbEntity
8
0-6_2_5
6
CONTINUOUS
62
7
100
AcDbLine
10
1278.970000000000
20
363.420000000000
30
0.0
11
1261.970000000000
21
363.420000000000
31
0.0
0
LINE
5
710
100
AcDbEntity
8
0-6_2_5
6
CONTINUOUS
62
7
100
AcDbLine
10
1278.970000000000
20
363.920000000000
30
0.0
11
1261.970000000000
21
363.920000000000
31
0.0
0
LINE
5
711
100
AcDbEntity
8
0-6_2_5
6
CONTINUOUS
62
7
100
AcDbLine
10
1279.970000000000
20
330.920000000000
30
0.0
11
1280.470000000000
21
323.670000000000
31
0.0
0
POLYLINE
5
712
100
AcDbEntity
8
0-6_2_5
6
CONTINUOUS
62
  7
100
AcDb2dPolyline
66
1
10
0.0
20
0.0
30
0.0
70
0
0
VERTEX
5
713
100
AcDbEntity
8
0-6_2_5
6
CONTINUOUS
62
  7
100
AcDbVertex
100
AcDb2dVertex
10
1279.970000000000
20
330.920000000000
30
0.0
0
VERTEX
5
714
100
AcDbEntity
8
0-6_2_5
6
CONTINUOUS
62
  7
100
AcDbVertex
100
AcDb2dVertex
10
1280.470000000000
20
330.960000000000
30
0.0
0
VERTEX
5
715
100
AcDbEntity
8
0-6_2_5
6
CONTINUOUS
62
  7
100
AcDbVertex
100
AcDb2dVertex
10
1280.970000000000
20
323.710000000000
30
0.0
0
SEQEND
5
716
100
AcDbEntity
8
0-6_2_5
0
LINE
5
717
100
AcDbEntity
8
0-6_2_5
6
CONTINUOUS
62
7
100
AcDbLine
10
1279.970000000000
20
362.920000000000
30
0.0
11
1279.970000000000
21
323.670000000000
31
0.0
0
LINE
5
718
100
AcDbEntity
8
0-6_2_5
6
CONTINUOUS
62
7
100
AcDbLine
10
1279.470000000000
20
362.920000000000
30
0.0
11
1279.470000000000
21
323.670000000000
31
0.0
0
LINE
5
719
100
AcDbEntity
8
0-6_2_5
6
CONTINUOUS
62
7
100
AcDbLine
10
1261.970000000000
20
364.920000000000
30
0.0
11
1346.220000000000
21
364.920000000000
31
0.0
0
LINE
5
71a
100
AcDbEntity
8
0-6_2_5
6
CONTINUOUS
62
7
100
AcDbLine
10
1259.970000000000
20
362.920000000000
30
0.0
11
1259.970000000000
21
355.670000000000
31
0.0
0
LINE
5
71b
100
AcDbEntity
8
0-6_2_5
6
CONTINUOUS
62
7
100
AcDbLine
10
1281.790000000000
20
338.520000000000
30
0.0
11
1311.590000000000
21
338.520000000000
31
0.0
0
LINE
5
71c
100
AcDbEntity
8
0-6_2_5
6
CONTINUOUS
62
7
100
AcDbLine
10
1281.790000000000
20
337.920000000000
30
0.0
11
1311.590000000000
21
337.920000000000
31
0.0
0
LINE
5
71d
100
AcDbEntity
8
0-6_2_5
6
CONTINUOUS
62
7
100
AcDbLine
10
1281.190000000000
20
339.120000000000
30
0.0
11
1281.190000000000
21
363.220000000000
31
0.0
0
LINE
5
71e
100
AcDbEntity
8
0-6_2_5
6
CONTINUOUS
62
7
100
AcDbLine
10
1280.590000000000
20
363.220000000000
30
0.0
11
1281.190000000000
21
363.220000000000
31
0.0
0
LINE
5
71f
100
AcDbEntity
8
0-6_2_5
6
CONTINUOUS
62
7
100
AcDbLine
10
1280.590000000000
20
339.120000000000
30
0.0
11
1280.590000000000
21
363.220000000000
31
0.0
0
LINE
5
720
100
AcDbEntity
8
0-6_2_5
6
CONTINUOUS
62
7
100
AcDbLine
10
1261.910000000000
20
363.120000000000
30
0.0
11
1261.910000000000
21
355.340000000000
31
0.0
0
LINE
5
721
100
AcDbEntity
8
0-6_2_5
6
CONTINUOUS
62
7
100
AcDbLine
10
1262.510000000000
20
363.120000000000
30
0.0
11
1262.510000000000
21
355.340000000000
31
0.0
0
LINE
5
722
100
AcDbEntity
8
0-6_2_5
6
CONTINUOUS
62
7
100
AcDbLine
10
1526.660000000000
20
366.320000000000
30
0.0
11
1260.270000000000
21
366.320000000000
31
0.0
0
LINE
5
723
100
AcDbEntity
8
0-6_2_5
6
CONTINUOUS
62
7
100
AcDbLine
10
1526.660000000000
20
366.920000000000
30
0.0
11
1260.270000000000
21
366.920000000000
31
0.0
0
LINE
5
724
100
AcDbEntity
8
0-6_2_5
6
CONTINUOUS
62
7
100
AcDbLine
10
1260.270000000000
20
383.920000000000
30
0.0
11
1526.660000000000
21
383.920000000000
31
0.0
0
LINE
5
725
100
AcDbEntity
8
0-6_2_5
6
CONTINUOUS
62
7
100
AcDbLine
10
1259.070000000000
20
382.720000000000
30
0.0
11
1259.070000000000
21
355.340000000000
31
0.0
0
LINE
5
726
100
AcDbEntity
8
0-6_2_5
6
CONTINUOUS
62
7
100
AcDbLine
10
1259.670000000000
20
365.720000000000
30
0.0
11
1259.670000000000
21
355.340000000000
31
0.0
0
LINE
5
727
100
AcDbEntity
8
0-6_2_5
6
DASHED
62
7
100
AcDbLine
10
1361.590000000000
20
365.720000000000
30
0.0
11
1368.820000000000
21
364.920000000000
31
0.0
0
LINE
5
728
100
AcDbEntity
8
0-6_2_5
6
DASHED
62
7
100
AcDbLine
10
1361.590000000000
20
365.720000000000
30
0.0
11
1350.570000000000
21
365.720000000000
31
0.0
0
POLYLINE
5
729
100
AcDbEntity
8
0-6_2_5
6
DASHED
62
  7
100
AcDb2dPolyline
66
1
10
0.0
20
0.0
30
0.0
70
0
0
VERTEX
5
72a
100
AcDbEntity
8
0-6_2_5
6
DASHED
62
  7
100
AcDbVertex
100
AcDb2dVertex
10
1338.830000000000
20
365.870000000000
30
0.0
0
VERTEX
5
72b
100
AcDbEntity
8
0-6_2_5
6
DASHED
62
  7
100
AcDbVertex
100
AcDb2dVertex
10
1347.420000000000
20
366.100000000000
30
0.0
0
VERTEX
5
72c
100
AcDbEntity
8
0-6_2_5
6
DASHED
62
  7
100
AcDbVertex
100
AcDb2dVertex
10
1350.570000000000
20
365.720000000000
30
0.0
0
SEQEND
5
72d
100
AcDbEntity
8
0-6_2_5
0
LINE
5
72e
100
AcDbEntity
8
0-6_2_5
6
DASHED
62
7
100
AcDbLine
10
1338.830000000000
20
365.870000000000
30
0.0
11
1335.810000000000
21
365.720000000000
31
0.0
0
LINE
5
72f
100
AcDbEntity
8
0-6_2_5
6
CONTINUOUS
62
4
100
AcDbLine
10
1306.090000000000
20
365.320000000000
30
0.0
11
1296.090000000000
21
365.320000000000
31
0.0
0
LINE
5
730
100
AcDbEntity
8
0-6_2_5
6
CONTINUOUS
62
4
100
AcDbLine
10
1304.090000000000
20
365.820000000000
30
0.0
11
1298.090000000000
21
365.820000000000
31
0.0
0
LINE
5
731
100
AcDbEntity
8
0-6_2_5
6
CONTINUOUS
62
4
100
AcDbLine
10
1296.090000000000
20
365.320000000000
30
0.0
11
1296.090000000000
21
364.920000000000
31
0.0
0
LINE
5
732
100
AcDbEntity
8
0-6_2_5
6
CONTINUOUS
62
4
100
AcDbLine
10
1298.090000000000
20
365.820000000000
30
0.0
11
1296.590000000000
21
365.320000000000
31
0.0
0
LINE
5
733
100
AcDbEntity
8
0-6_2_5
6
CONTINUOUS
62
4
100
AcDbLine
10
1306.090000000000
20
365.320000000000
30
0.0
11
1306.090000000000
21
364.920000000000
31
0.0
0
LINE
5
734
100
AcDbEntity
8
0-6_2_5
6
CONTINUOUS
62
4
100
AcDbLine
10
1304.090000000000
20
365.820000000000
30
0.0
11
1305.590000000000
21
365.320000000000
31
0.0
0
LINE
5
735
100
AcDbEntity
8
0-6_2_5
6
CONTINUOUS
62
4
100
AcDbLine
10
1306.090000000000
20
364.920000000000
30
0.0
11
1296.090000000000
21
364.920000000000
31
0.0
0
LINE
5
736
100
AcDbEntity
8
0-6_2_5
6
CONTINUOUS
62
4
100
AcDbLine
10
1299.640000000000
20
344.510000000000
30
0.0
11
1302.660000000000
21
345.010000000000
31
0.0
0
LINE
5
737
100
AcDbEntity
8
0-6_2_5
6
CONTINUOUS
62
4
100
AcDbLine
10
1300.140000000000
20
342.590000000000
30
0.0
11
1302.120000000000
21
342.920000000000
31
0.0
0
LINE
5
738
100
AcDbEntity
8
0-6_2_5
6
CONTINUOUS
62
4
100
AcDbLine
10
1300.640000000000
20
340.670000000000
30
0.0
11
1301.580000000000
21
340.830000000000
31
0.0
0
LINE
5
739
100
AcDbEntity
8
0-6_2_5
6
CONTINUOUS
62
4
100
AcDbLine
10
1301.090000000000
20
339.920000000000
30
0.0
11
1299.330000000000
21
346.720000000000
31
0.0
0
LINE
5
73a
100
AcDbEntity
8
0-6_2_5
6
CONTINUOUS
62
4
100
AcDbLine
10
1301.090000000000
20
339.920000000000
30
0.0
11
1302.850000000000
21
346.720000000000
31
0.0
0
LINE
5
73b
100
AcDbEntity
8
0-6_2_5
6
CONTINUOUS
62
4
100
AcDbLine
10
1298.840000000000
20
346.370000000000
30
0.0
11
1303.340000000000
21
347.120000000000
31
0.0
0
LINE
5
73c
100
AcDbEntity
8
0-6_2_5
6
CONTINUOUS
62
4
100
AcDbLine
10
1298.840000000000
20
348.370000000000
30
0.0
11
1303.340000000000
21
349.120000000000
31
0.0
0
LINE
5
73d
100
AcDbEntity
8
0-6_2_5
6
CONTINUOUS
62
4
100
AcDbLine
10
1298.840000000000
20
350.370000000000
30
0.0
11
1303.340000000000
21
351.120000000000
31
0.0
0
LINE
5
73e
100
AcDbEntity
8
0-6_2_5
6
CONTINUOUS
62
4
100
AcDbLine
10
1298.840000000000
20
352.370000000000
30
0.0
11
1303.340000000000
21
353.120000000000
31
0.0
0
LINE
5
73f
100
AcDbEntity
8
0-6_2_5
6
CONTINUOUS
62
4
100
AcDbLine
10
1298.840000000000
20
354.370000000000
30
0.0
11
1303.340000000000
21
355.120000000000
31
0.0
0
LINE
5
740
100
AcDbEntity
8
0-6_2_5
6
CONTINUOUS
62
4
100
AcDbLine
10
1298.840000000000
20
356.370000000000
30
0.0
11
1303.340000000000
21
357.120000000000
31
0.0
0
LINE
5
741
100
AcDbEntity
8
0-6_2_5
6
CONTINUOUS
62
4
100
AcDbLine
10
1299.340000000000
20
346.660000000000
30
0.0
11
1299.340000000000
21
364.920000000000
31
0.0
0
LINE
5
742
100
AcDbEntity
8
0-6_2_5
6
CONTINUOUS
62
4
100
AcDbLine
10
1302.840000000000
20
346.660000000000
30
0.0
11
1302.840000000000
21
364.920000000000
31
0.0
0
LINE
5
743
100
AcDbEntity
8
0-6_2_5
6
CONTINUOUS
62
4
100
AcDbLine
10
1298.840000000000
20
358.370000000000
30
0.0
11
1303.340000000000
21
359.120000000000
31
0.0
0
LINE
5
744
100
AcDbEntity
8
0-6_2_5
6
CONTINUOUS
62
4
100
AcDbLine
10
1298.840000000000
20
360.370000000000
30
0.0
11
1303.340000000000
21
361.120000000000
31
0.0
0
LINE
5
745
100
AcDbEntity
8
0-6_2_5
6
CONTINUOUS
62
4
100
AcDbLine
10
1298.840000000000
20
362.370000000000
30
0.0
11
1303.340000000000
21
363.120000000000
31
0.0
0
POLYLINE
5
746
100
AcDbEntity
8
0-6_2_5
6
DASHED
62
  7
100
AcDb2dPolyline
66
1
10
0.0
20
0.0
30
0.0
70
0
0
VERTEX
5
747
100
AcDbEntity
8
0-6_2_5
6
DASHED
62
  7
100
AcDbVertex
100
AcDb2dVertex
10
1296.830000000000
20
366.070000000000
30
0.0
0
VERTEX
5
748
100
AcDbEntity
8
0-6_2_5
6
DASHED
62
  7
100
AcDbVertex
100
AcDb2dVertex
10
1305.780000000000
20
366.070000000000
30
0.0
0
VERTEX
5
749
100
AcDbEntity
8
0-6_2_5
6
DASHED
62
  7
100
AcDbVertex
100
AcDb2dVertex
10
1307.370000000000
20
365.720000000000
30
0.0
0
SEQEND
5
74a
100
AcDbEntity
8
0-6_2_5
0
LINE
5
74b
100
AcDbEntity
8
0-6_2_5
6
DASHED
62
7
100
AcDbLine
10
1296.830000000000
20
366.070000000000
30
0.0
11
1295.810000000000
21
365.720000000000
31
0.0
0
LINE
5
74c
100
AcDbEntity
8
0-6_2_5
6
CONTINUOUS
62
7
100
AcDbLine
10
1311.590000000000
20
321.350000000000
30
0.0
11
1310.520000000000
21
317.350000000000
31
0.0
0
LINE
5
74d
100
AcDbEntity
8
0-6_2_5
6
CONTINUOUS
62
7
100
AcDbLine
10
1311.590000000000
20
321.350000000000
30
0.0
11
1308.660000000000
21
318.420000000000
31
0.0
0
LINE
5
74e
100
AcDbEntity
8
0-6_2_5
6
CONTINUOUS
62
7
100
AcDbLine
10
1311.590000000000
20
321.350000000000
30
0.0
11
1290.080000000000
21
284.100000000000
31
0.0
0
LINE
5
74f
100
AcDbEntity
8
0-6_2_5
6
CONTINUOUS
62
7
100
AcDbLine
10
1279.470000000000
20
338.480000000000
30
0.0
11
1264.000000000000
21
311.680000000000
31
0.0
0
LINE
5
750
100
AcDbEntity
8
0-00
6
CONTINUOUS
62
4
100
AcDbLine
10
864.810000000000
20
885.510000000000
30
0.0
11
880.880000000000
21
912.280000000000
31
0.0
0
LINE
5
751
100
AcDbEntity
8
0-00
6
CONTINUOUS
62
4
100
AcDbLine
10
851.090000000000
20
882.080000000000
30
0.0
11
869.280000000000
21
912.390000000000
31
0.0
0
LINE
5
752
100
AcDbEntity
8
0-00
6
CONTINUOUS
62
4
100
AcDbLine
10
837.370000000000
20
878.650000000000
30
0.0
11
855.560000000000
21
908.960000000000
31
0.0
0
LINE
5
753
100
AcDbEntity
8
0-00
6
CONTINUOUS
62
4
100
AcDbLine
10
823.810000000000
20
875.250000000000
30
0.0
11
842.000000000000
21
905.570000000000
31
0.0
0
LINE
5
754
100
AcDbEntity
8
0-00
6
CONTINUOUS
62
4
100
AcDbLine
10
810.090000000000
20
871.820000000000
30
0.0
11
828.280000000000
21
902.140000000000
31
0.0
0
LINE
5
755
100
AcDbEntity
8
0-00
6
CONTINUOUS
62
4
100
AcDbLine
10
796.370000000000
20
868.390000000000
30
0.0
11
814.560000000000
21
898.710000000000
31
0.0
0
LINE
5
756
100
AcDbEntity
8
0-00
6
CONTINUOUS
62
4
100
AcDbLine
10
782.810000000000
20
865.000000000000
30
0.0
11
801.000000000000
21
895.320000000000
31
0.0
0
LINE
5
757
100
AcDbEntity
8
0-00
6
CONTINUOUS
62
4
100
AcDbLine
10
769.090000000000
20
861.570000000000
30
0.0
11
787.280000000000
21
891.890000000000
31
0.0
0
LINE
5
758
100
AcDbEntity
8
0-00
6
CONTINUOUS
62
4
100
AcDbLine
10
755.370000000000
20
858.140000000000
30
0.0
11
773.560000000000
21
888.460000000000
31
0.0
0
LINE
5
759
100
AcDbEntity
8
0-00
6
CONTINUOUS
62
4
100
AcDbLine
10
741.810000000000
20
854.750000000000
30
0.0
11
760.000000000000
21
885.070000000000
31
0.0
0
LINE
5
75a
100
AcDbEntity
8
0-00
6
CONTINUOUS
62
4
100
AcDbLine
10
728.090000000000
20
851.320000000000
30
0.0
11
746.280000000000
21
881.640000000000
31
0.0
0
LINE
5
75b
100
AcDbEntity
8
0-00
6
CONTINUOUS
62
4
100
AcDbLine
10
714.210000000000
20
847.850000000000
30
0.0
11
732.400000000000
21
878.170000000000
31
0.0
0
LINE
5
75c
100
AcDbEntity
8
0-00
6
CONTINUOUS
62
4
100
AcDbLine
10
700.490000000000
20
844.420000000000
30
0.0
11
718.680000000000
21
874.740000000000
31
0.0
0
LINE
5
75d
100
AcDbEntity
8
0-00
6
CONTINUOUS
62
4
100
AcDbLine
10
686.770000000000
20
840.990000000000
30
0.0
11
704.960000000000
21
871.310000000000
31
0.0
0
LINE
5
75e
100
AcDbEntity
8
0-00
6
CONTINUOUS
62
4
100
AcDbLine
10
673.050000000000
20
837.560000000000
30
0.0
11
691.240000000000
21
867.880000000000
31
0.0
0
LINE
5
75f
100
AcDbEntity
8
0-00
6
CONTINUOUS
62
4
100
AcDbLine
10
659.330000000000
20
834.130000000000
30
0.0
11
677.520000000000
21
864.450000000000
31
0.0
0
LINE
5
760
100
AcDbEntity
8
0-00
6
CONTINUOUS
62
4
100
AcDbLine
10
645.610000000000
20
830.700000000000
30
0.0
11
663.800000000000
21
861.020000000000
31
0.0
0
LINE
5
761
100
AcDbEntity
8
0-00
6
CONTINUOUS
62
4
100
AcDbLine
10
631.890000000000
20
827.270000000000
30
0.0
11
650.080000000000
21
857.590000000000
31
0.0
0
LINE
5
762
100
AcDbEntity
8
0-00
6
CONTINUOUS
62
4
100
AcDbLine
10
618.170000000000
20
823.840000000000
30
0.0
11
636.360000000000
21
854.160000000000
31
0.0
0
LINE
5
763
100
AcDbEntity
8
0-00
6
CONTINUOUS
62
7
100
AcDbLine
10
617.840000000000
20
835.510000000000
30
0.0
11
620.770000000000
21
832.580000000000
31
0.0
0
LINE
5
764
100
AcDbEntity
8
0-00
6
CONTINUOUS
62
4
100
AcDbLine
10
604.450000000000
20
820.410000000000
30
0.0
11
622.640000000000
21
850.730000000000
31
0.0
0
LINE
5
765
100
AcDbEntity
8
0-00
6
CONTINUOUS
62
4
100
AcDbLine
10
590.730000000000
20
816.980000000000
30
0.0
11
608.920000000000
21
847.300000000000
31
0.0
0
LINE
5
766
100
AcDbEntity
8
0-00
6
CONTINUOUS
62
4
100
AcDbLine
10
577.010000000000
20
813.550000000000
30
0.0
11
595.200000000000
21
843.870000000000
31
0.0
0
LINE
5
767
100
AcDbEntity
8
0-00
6
CONTINUOUS
62
4
100
AcDbLine
10
563.290000000000
20
810.120000000000
30
0.0
11
581.480000000000
21
840.440000000000
31
0.0
0
LINE
5
768
100
AcDbEntity
8
0-00
6
CONTINUOUS
62
4
100
AcDbLine
10
549.570000000000
20
806.690000000000
30
0.0
11
567.760000000000
21
837.010000000000
31
0.0
0
LINE
5
769
100
AcDbEntity
8
0-00
6
CONTINUOUS
62
4
100
AcDbLine
10
535.850000000000
20
803.260000000000
30
0.0
11
554.040000000000
21
833.580000000000
31
0.0
0
LINE
5
76a
100
AcDbEntity
8
0-00
6
CONTINUOUS
62
4
100
AcDbLine
10
522.130000000000
20
799.830000000000
30
0.0
11
540.320000000000
21
830.150000000000
31
0.0
0
LINE
5
76b
100
AcDbEntity
8
0-00
6
CONTINUOUS
62
4
100
AcDbLine
10
508.410000000000
20
796.410000000000
30
0.0
11
526.600000000000
21
826.720000000000
31
0.0
0
LINE
5
76c
100
AcDbEntity
8
0-00
6
CONTINUOUS
62
4
100
AcDbLine
10
494.690000000000
20
792.980000000000
30
0.0
11
512.880000000000
21
823.290000000000
31
0.0
0
LINE
5
76d
100
AcDbEntity
8
0-00
6
CONTINUOUS
62
4
100
AcDbLine
10
480.970000000000
20
789.550000000000
30
0.0
11
499.160000000000
21
819.860000000000
31
0.0
0
LINE
5
76e
100
AcDbEntity
8
0-00
6
CONTINUOUS
62
4
100
AcDbLine
10
467.250000000000
20
786.120000000000
30
0.0
11
485.440000000000
21
816.430000000000
31
0.0
0
LINE
5
76f
100
AcDbEntity
8
0-00
6
CONTINUOUS
62
4
100
AcDbLine
10
453.530000000000
20
782.690000000000
30
0.0
11
471.720000000000
21
813.000000000000
31
0.0
0
LINE
5
770
100
AcDbEntity
8
0-00
6
CONTINUOUS
62
4
100
AcDbLine
10
439.810000000000
20
779.260000000000
30
0.0
11
458.000000000000
21
809.570000000000
31
0.0
0
LINE
5
771
100
AcDbEntity
8
0-00
6
CONTINUOUS
62
4
100
AcDbLine
10
426.090000000000
20
775.830000000000
30
0.0
11
444.280000000000
21
806.140000000000
31
0.0
0
LINE
5
772
100
AcDbEntity
8
0-00
6
CONTINUOUS
62
4
100
AcDbLine
10
412.370000000000
20
772.400000000000
30
0.0
11
430.560000000000
21
802.710000000000
31
0.0
0
LINE
5
773
100
AcDbEntity
8
0-00
6
CONTINUOUS
62
4
100
AcDbLine
10
398.650000000000
20
768.970000000000
30
0.0
11
416.840000000000
21
799.280000000000
31
0.0
0
LINE
5
774
100
AcDbEntity
8
0-00
6
CONTINUOUS
62
4
100
AcDbLine
10
384.930000000000
20
765.540000000000
30
0.0
11
403.120000000000
21
795.850000000000
31
0.0
0
LINE
5
775
100
AcDbEntity
8
0-00
6
CONTINUOUS
62
4
100
AcDbLine
10
371.210000000000
20
762.110000000000
30
0.0
11
389.400000000000
21
792.420000000000
31
0.0
0
LINE
5
776
100
AcDbEntity
8
0-00
6
CONTINUOUS
62
4
100
AcDbLine
10
357.490000000000
20
758.680000000000
30
0.0
11
375.680000000000
21
788.990000000000
31
0.0
0
LINE
5
777
100
AcDbEntity
8
0-00
6
CONTINUOUS
62
4
100
AcDbLine
10
343.770000000000
20
755.250000000000
30
0.0
11
361.960000000000
21
785.560000000000
31
0.0
0
LINE
5
778
100
AcDbEntity
8
0-00
6
CONTINUOUS
62
4
100
AcDbLine
10
330.050000000000
20
751.820000000000
30
0.0
11
348.240000000000
21
782.130000000000
31
0.0
0
LINE
5
779
100
AcDbEntity
8
0-00
6
CONTINUOUS
62
4
100
AcDbLine
10
316.330000000000
20
748.390000000000
30
0.0
11
334.520000000000
21
778.700000000000
31
0.0
0
LINE
5
77a
100
AcDbEntity
8
0-00
6
CONTINUOUS
62
4
100
AcDbLine
10
302.610000000000
20
744.960000000000
30
0.0
11
320.800000000000
21
775.270000000000
31
0.0
0
LINE
5
77b
100
AcDbEntity
8
0-00
6
CONTINUOUS
62
4
100
AcDbLine
10
288.890000000000
20
741.530000000000
30
0.0
11
307.080000000000
21
771.840000000000
31
0.0
0
LINE
5
77c
100
AcDbEntity
8
0-00
6
CONTINUOUS
62
4
100
AcDbLine
10
275.170000000000
20
738.100000000000
30
0.0
11
293.360000000000
21
768.410000000000
31
0.0
0
LINE
5
77d
100
AcDbEntity
8
0-00
6
CONTINUOUS
62
4
100
AcDbLine
10
261.450000000000
20
734.670000000000
30
0.0
11
279.640000000000
21
764.980000000000
31
0.0
0
LINE
5
77e
100
AcDbEntity
8
1-4_2_19
6
CONTINUOUS
62
3
100
AcDbLine
10
372.780000000000
20
398.530000000000
30
0.0
11
373.930000000000
21
386.130000000000
31
0.0
0
LINE
5
77f
100
AcDbEntity
8
1-4_2_19
6
CONTINUOUS
62
3
100
AcDbLine
10
374.180000000000
20
398.660000000000
30
0.0
11
375.320000000000
21
386.260000000000
31
0.0
0
LINE
5
780
100
AcDbEntity
8
1-4_2_19
6
CONTINUOUS
62
3
100
AcDbLine
10
376.670000000000
20
403.110000000000
30
0.0
11
383.860000000000
21
403.620000000000
31
0.0
0
LINE
5
781
100
AcDbEntity
8
1-4_2_19
6
CONTINUOUS
62
3
100
AcDbLine
10
383.960000000000
20
402.220000000000
30
0.0
11
383.860000000000
21
403.620000000000
31
0.0
0
LINE
5
782
100
AcDbEntity
8
1-4_2_19
6
CONTINUOUS
62
3
100
AcDbLine
10
376.770000000000
20
401.710000000000
30
0.0
11
383.960000000000
21
402.220000000000
31
0.0
0
LINE
5
783
100
AcDbEntity
8
1-4_2_19
6
CONTINUOUS
62
3
100
AcDbLine
10
312.410000000000
20
395.070000000000
30
0.0
11
331.120000000000
21
374.380000000000
31
0.0
0
LINE
5
784
100
AcDbEntity
8
1-4_2_19
6
CONTINUOUS
62
3
100
AcDbLine
10
311.420000000000
20
394.080000000000
30
0.0
11
330.130000000000
21
373.390000000000
31
0.0
0
LINE
5
785
100
AcDbEntity
8
1-4_2_19
6
CONTINUOUS
62
3
100
AcDbLine
10
302.140000000000
20
389.460000000000
30
0.0
11
306.100000000000
21
394.650000000000
31
0.0
0
LINE
5
786
100
AcDbEntity
8
1-4_2_19
6
CONTINUOUS
62
3
100
AcDbLine
10
307.210000000000
20
393.800000000000
30
0.0
11
303.250000000000
21
388.610000000000
31
0.0
0
LINE
5
787
100
AcDbEntity
8
1-4_2_19
6
CONTINUOUS
62
3
100
AcDbLine
10
275.690000000000
20
380.770000000000
30
0.0
11
300.930000000000
21
387.080000000000
31
0.0
0
LINE
5
788
100
AcDbEntity
8
1-4_2_19
6
CONTINUOUS
62
3
100
AcDbLine
10
276.090000000000
20
376.360000000000
30
0.0
11
301.470000000000
21
378.210000000000
31
0.0
0
LINE
5
789
100
AcDbEntity
8
1-4_2_19
6
CONTINUOUS
62
3
100
AcDbLine
10
276.190000000000
20
374.960000000000
30
0.0
11
301.570000000000
21
376.810000000000
31
0.0
0
LINE
5
78a
100
AcDbEntity
8
1-4_2_19
6
CONTINUOUS
62
3
100
AcDbLine
10
275.350000000000
20
382.130000000000
30
0.0
11
300.590000000000
21
388.440000000000
31
0.0
0
LINE
5
78b
100
AcDbEntity
8
1-4_2_19
6
CONTINUOUS
62
3
100
AcDbLine
10
371.820000000000
20
383.150000000000
30
0.0
11
355.520000000000
21
379.080000000000
31
0.0
0
LINE
5
78c
100
AcDbEntity
8
1-4_2_19
6
CONTINUOUS
62
3
100
AcDbLine
10
353.190000000000
20
376.830000000000
30
0.0
11
355.520000000000
21
379.080000000000
31
0.0
0
LINE
5
78d
100
AcDbEntity
8
1-4_2_19
6
CONTINUOUS
62
3
100
AcDbLine
10
353.580000000000
20
375.260000000000
30
0.0
11
356.220000000000
21
377.810000000000
31
0.0
0
LINE
5
78e
100
AcDbEntity
8
1-4_2_19
6
CONTINUOUS
62
3
100
AcDbLine
10
372.160000000000
20
381.800000000000
30
0.0
11
356.220000000000
21
377.810000000000
31
0.0
0
LINE
5
78f
100
AcDbEntity
8
1-4_2_19
6
CONTINUOUS
62
3
100
AcDbLine
10
333.780000000000
20
373.640000000000
30
0.0
11
350.080000000000
21
377.720000000000
31
0.0
0
LINE
5
790
100
AcDbEntity
8
1-4_2_19
6
CONTINUOUS
62
3
100
AcDbLine
10
353.190000000000
20
376.830000000000
30
0.0
11
350.080000000000
21
377.720000000000
31
0.0
0
LINE
5
791
100
AcDbEntity
8
1-4_2_19
6
CONTINUOUS
62
3
100
AcDbLine
10
334.120000000000
20
372.290000000000
30
0.0
11
350.060000000000
21
376.270000000000
31
0.0
0
LINE
5
792
100
AcDbEntity
8
1-4_2_19
6
CONTINUOUS
62
3
100
AcDbLine
10
353.580000000000
20
375.260000000000
30
0.0
11
350.060000000000
21
376.270000000000
31
0.0
0
LINE
5
793
100
AcDbEntity
8
1-4_2_19
6
CONTINUOUS
62
3
100
AcDbLine
10
263.590000000000
20
385.590000000000
30
0.0
11
264.960000000000
21
366.130000000000
31
0.0
0
LINE
5
794
100
AcDbEntity
8
1-4_2_19
6
CONTINUOUS
62
3
100
AcDbLine
10
294.710000000000
20
370.190000000000
30
0.0
11
302.910000000000
21
369.280000000000
31
0.0
0
LINE
5
795
100
AcDbEntity
8
1-4_2_19
6
CONTINUOUS
62
3
100
AcDbLine
10
294.860000000000
20
371.580000000000
30
0.0
11
303.070000000000
21
370.670000000000
31
0.0
0
LINE
5
796
100
AcDbEntity
8
1-4_2_19
6
CONTINUOUS
62
3
100
AcDbLine
10
294.710000000000
20
370.190000000000
30
0.0
11
294.860000000000
21
371.580000000000
31
0.0
0
LINE
5
797
100
AcDbEntity
8
1-4_2_19
6
CONTINUOUS
62
3
100
AcDbLine
10
283.330000000000
20
371.590000000000
30
0.0
11
302.560000000000
21
374.310000000000
31
0.0
0
LINE
5
798
100
AcDbEntity
8
1-4_2_19
6
CONTINUOUS
62
3
100
AcDbLine
10
279.080000000000
20
368.500000000000
30
0.0
11
276.980000000000
21
364.180000000000
31
0.0
0
LINE
5
799
100
AcDbEntity
8
1-4_2_19
6
CONTINUOUS
62
3
100
AcDbLine
10
283.530000000000
20
370.210000000000
30
0.0
11
302.750000000000
21
372.920000000000
31
0.0
0
LINE
5
79a
100
AcDbEntity
8
1-4_2_19
6
CONTINUOUS
62
3
100
AcDbLine
10
280.340000000000
20
367.890000000000
30
0.0
11
278.230000000000
21
363.560000000000
31
0.0
0
LINE
5
79b
100
AcDbEntity
8
1-4_2_19
6
CONTINUOUS
62
3
100
AcDbLine
10
264.980000000000
20
385.730000000000
30
0.0
11
266.360000000000
21
366.230000000000
31
0.0
0
LINE
5
79c
100
AcDbEntity
8
1-4_2_19
6
CONTINUOUS
62
3
100
AcDbLine
10
390.440000000000
20
406.000000000000
30
0.0
11
269.900000000000
21
391.690000000000
31
0.0
0
LINE
5
79d
100
AcDbEntity
8
1-4_2_19
6
CONTINUOUS
62
3
100
AcDbLine
10
390.270000000000
20
407.390000000000
30
0.0
11
269.740000000000
21
393.080000000000
31
0.0
0
LINE
5
79e
100
AcDbEntity
8
1-4_2_19
6
CONTINUOUS
62
4
100
AcDbLine
10
362.290000000000
20
382.020000000000
30
0.0
11
342.890000000000
21
377.170000000000
31
0.0
0
LINE
5
79f
100
AcDbEntity
8
1-4_2_19
6
CONTINUOUS
62
4
100
AcDbLine
10
358.170000000000
20
382.030000000000
30
0.0
11
346.530000000000
21
379.120000000000
31
0.0
0
LINE
5
7a0
100
AcDbEntity
8
1-4_2_19
6
CONTINUOUS
62
4
100
AcDbLine
10
342.890000000000
20
377.170000000000
30
0.0
11
343.080000000000
21
376.400000000000
31
0.0
0
LINE
5
7a1
100
AcDbEntity
8
1-4_2_19
6
CONTINUOUS
62
4
100
AcDbLine
10
346.530000000000
20
379.120000000000
30
0.0
11
343.860000000000
21
377.420000000000
31
0.0
0
LINE
5
7a2
100
AcDbEntity
8
1-4_2_19
6
CONTINUOUS
62
4
100
AcDbLine
10
362.290000000000
20
382.020000000000
30
0.0
11
362.490000000000
21
381.250000000000
31
0.0
0
LINE
5
7a3
100
AcDbEntity
8
1-4_2_19
6
CONTINUOUS
62
4
100
AcDbLine
10
358.170000000000
20
382.030000000000
30
0.0
11
361.320000000000
21
381.780000000000
31
0.0
0
LINE
5
7a4
100
AcDbEntity
8
1-4_2_19
6
CONTINUOUS
62
4
100
AcDbLine
10
362.490000000000
20
381.250000000000
30
0.0
11
343.080000000000
21
376.400000000000
31
0.0
0
LINE
5
7a5
100
AcDbEntity
8
1-4_2_19
6
CONTINUOUS
62
4
100
AcDbLine
10
359.880000000000
20
338.520000000000
30
0.0
11
365.490000000000
21
340.960000000000
31
0.0
0
LINE
5
7a6
100
AcDbEntity
8
1-4_2_19
6
CONTINUOUS
62
4
100
AcDbLine
10
361.770000000000
20
335.040000000000
30
0.0
11
365.460000000000
21
336.650000000000
31
0.0
0
LINE
5
7a7
100
AcDbEntity
8
1-4_2_19
6
CONTINUOUS
62
4
100
AcDbLine
10
363.660000000000
20
331.560000000000
30
0.0
11
365.430000000000
21
332.330000000000
31
0.0
0
LINE
5
7a8
100
AcDbEntity
8
1-4_2_19
6
CONTINUOUS
62
4
100
AcDbLine
10
364.910000000000
20
330.320000000000
30
0.0
11
358.200000000000
21
342.670000000000
31
0.0
0
LINE
5
7a9
100
AcDbEntity
8
1-4_2_19
6
CONTINUOUS
62
4
100
AcDbLine
10
364.910000000000
20
330.320000000000
30
0.0
11
365.020000000000
21
344.380000000000
31
0.0
0
LINE
5
7aa
100
AcDbEntity
8
1-4_2_19
6
CONTINUOUS
62
4
100
AcDbLine
10
357.410000000000
20
341.750000000000
30
0.0
11
365.780000000000
21
345.390000000000
31
0.0
0
LINE
5
7ab
100
AcDbEntity
8
1-4_2_19
6
CONTINUOUS
62
4
100
AcDbLine
10
356.440000000000
20
345.630000000000
30
0.0
11
364.810000000000
21
349.270000000000
31
0.0
0
LINE
5
7ac
100
AcDbEntity
8
1-4_2_19
6
CONTINUOUS
62
4
100
AcDbLine
10
355.470000000000
20
349.510000000000
30
0.0
11
363.840000000000
21
353.150000000000
31
0.0
0
LINE
5
7ad
100
AcDbEntity
8
1-4_2_19
6
CONTINUOUS
62
4
100
AcDbLine
10
354.500000000000
20
353.390000000000
30
0.0
11
362.870000000000
21
357.030000000000
31
0.0
0
LINE
5
7ae
100
AcDbEntity
8
1-4_2_19
6
CONTINUOUS
62
4
100
AcDbLine
10
353.530000000000
20
357.270000000000
30
0.0
11
361.900000000000
21
360.910000000000
31
0.0
0
LINE
5
7af
100
AcDbEntity
8
1-4_2_19
6
CONTINUOUS
62
4
100
AcDbLine
10
352.560000000000
20
361.150000000000
30
0.0
11
360.930000000000
21
364.790000000000
31
0.0
0
LINE
5
7b0
100
AcDbEntity
8
1-4_2_19
6
CONTINUOUS
62
4
100
AcDbLine
10
358.240000000000
20
342.550000000000
30
0.0
11
349.390000000000
21
377.970000000000
31
0.0
0
LINE
5
7b1
100
AcDbEntity
8
1-4_2_19
6
CONTINUOUS
62
4
100
AcDbLine
10
365.030000000000
20
344.250000000000
30
0.0
11
356.180000000000
21
379.670000000000
31
0.0
0
LINE
5
7b2
100
AcDbEntity
8
1-4_2_19
6
CONTINUOUS
62
4
100
AcDbLine
10
351.590000000000
20
365.030000000000
30
0.0
11
359.960000000000
21
368.670000000000
31
0.0
0
LINE
5
7b3
100
AcDbEntity
8
1-4_2_19
6
CONTINUOUS
62
4
100
AcDbLine
10
350.620000000000
20
368.910000000000
30
0.0
11
358.990000000000
21
372.550000000000
31
0.0
0
LINE
5
7b4
100
AcDbEntity
8
1-4_2_19
6
CONTINUOUS
62
4
100
AcDbLine
10
349.650000000000
20
372.790000000000
30
0.0
11
358.020000000000
21
376.430000000000
31
0.0
0
LINE
5
7b5
100
AcDbEntity
8
1-4_2_19
6
CONTINUOUS
62
7
100
AcDbLine
10
242.550000000000
20
389.850000000000
30
0.0
11
212.750000000000
21
386.310000000000
31
0.0
0
LINE
5
7b6
100
AcDbEntity
8
1-4_2_19
6
CONTINUOUS
62
7
100
AcDbLine
10
246.550000000000
20
356.090000000000
30
0.0
11
216.760000000000
21
352.550000000000
31
0.0
0
LINE
5
7b7
100
AcDbEntity
8
1-4_2_19
6
CONTINUOUS
62
7
100
AcDbLine
10
212.750000000000
20
386.310000000000
30
0.0
11
216.760000000000
21
352.550000000000
31
0.0
0
LINE
5
7b8
100
AcDbEntity
8
1-4_2_19
6
CONTINUOUS
62
4
100
AcDbLine
10
467.450000000000
20
351.190000000000
30
0.0
11
503.830000000000
21
411.830000000000
31
0.0
0
LINE
5
7b9
100
AcDbEntity
8
1-4_2_19
6
CONTINUOUS
62
4
100
AcDbLine
10
440.010000000000
20
344.330000000000
30
0.0
11
476.390000000000
21
404.970000000000
31
0.0
0
LINE
5
7ba
100
AcDbEntity
8
1-4_2_19
6
CONTINUOUS
62
4
100
AcDbLine
10
412.570000000000
20
337.470000000000
30
0.0
11
448.950000000000
21
398.110000000000
31
0.0
0
LINE
5
7bb
100
AcDbEntity
8
1-4_2_19
6
CONTINUOUS
62
4
100
AcDbLine
10
385.130000000000
20
330.610000000000
30
0.0
11
421.510000000000
21
391.250000000000
31
0.0
0
LINE
5
7bc
100
AcDbEntity
8
1-4_2_19
6
CONTINUOUS
62
4
100
AcDbLine
10
357.690000000000
20
323.750000000000
30
0.0
11
394.070000000000
21
384.390000000000
31
0.0
0
LINE
5
7bd
100
AcDbEntity
8
1-4_2_19
6
CONTINUOUS
62
4
100
AcDbLine
10
330.250000000000
20
316.890000000000
30
0.0
11
366.630000000000
21
377.530000000000
31
0.0
0
LINE
5
7be
100
AcDbEntity
8
1-4_2_19
6
CONTINUOUS
62
4
100
AcDbLine
10
302.810000000000
20
310.030000000000
30
0.0
11
339.190000000000
21
370.670000000000
31
0.0
0
LINE
5
7bf
100
AcDbEntity
8
1-4_2_19
6
CONTINUOUS
62
4
100
AcDbLine
10
275.370000000000
20
303.170000000000
30
0.0
11
311.750000000000
21
363.810000000000
31
0.0
0
LINE
5
7c0
100
AcDbEntity
8
1-4_2_19
6
CONTINUOUS
62
4
100
AcDbLine
10
247.930000000000
20
296.310000000000
30
0.0
11
284.310000000000
21
356.950000000000
31
0.0
0
LINE
5
7c1
100
AcDbEntity
8
1-4_2_19
6
CONTINUOUS
62
4
100
AcDbLine
10
220.490000000000
20
289.450000000000
30
0.0
11
256.870000000000
21
350.090000000000
31
0.0
0
LINE
5
7c2
100
AcDbEntity
8
1-4_2_19
6
CONTINUOUS
62
4
100
AcDbLine
10
193.050000000000
20
282.590000000000
30
0.0
11
229.430000000000
21
343.230000000000
31
0.0
0
LINE
5
7c3
100
AcDbEntity
8
1-4_2_19
6
CONTINUOUS
62
4
100
AcDbLine
10
165.610000000000
20
275.730000000000
30
0.0
11
201.990000000000
21
336.370000000000
31
0.0
0
LINE
5
7c4
100
AcDbEntity
8
1-4_2_19
6
CONTINUOUS
62
3
100
AcDbLine
10
302.360000000000
20
365.790000000000
30
0.0
11
145.220000000000
21
326.500000000000
31
0.0
0
LINE
5
7c5
100
AcDbEntity
8
1-4_2_19
6
CONTINUOUS
62
3
100
AcDbLine
10
302.700000000000
20
364.430000000000
30
0.0
11
145.330000000000
21
325.090000000000
31
0.0
0
LINE
5
7c6
100
AcDbEntity
8
1-4_2_19
6
CONTINUOUS
62
4
100
AcDbLine
10
145.790000000000
20
320.440000000000
30
0.0
11
147.110000000000
21
322.650000000000
31
0.0
0
LINE
5
7c7
100
AcDbEntity
8
1-4_2_19
6
CONTINUOUS
62
4
100
AcDbLine
10
151.400000000000
20
290.910000000000
30
0.0
11
174.550000000000
21
329.510000000000
31
0.0
0
LINE
5
7c8
100
AcDbEntity
8
1-4_2_19
6
CONTINUOUS
62
3
100
AcDbLine
10
511.410000000000
20
420.360000000000
30
0.0
11
390.290000000000
21
407.390000000000
31
0.0
0
LINE
5
7c9
100
AcDbEntity
8
1-4_2_19
6
CONTINUOUS
62
3
100
AcDbLine
10
512.010000000000
20
419.010000000000
30
0.0
11
390.440000000000
21
406.000000000000
31
0.0
0
LINE
5
7ca
100
AcDbEntity
8
1-4_2_19
6
DASHED
62
7
100
AcDbLine
10
145.500000000000
20
323.270000000000
30
0.0
11
513.610000000000
21
415.300000000000
31
0.0
0
LINE
5
7cb
100
AcDbEntity
8
1-4_2_19
6
CONTINUOUS
62
3
100
AcDbLine
10
514.000000000000
20
414.370000000000
30
0.0
11
145.600000000000
21
322.270000000000
31
0.0
0
LINE
5
7cc
100
AcDbEntity
8
1-4_2_19
6
CONTINUOUS
62
4
100
AcDbLine
10
494.890000000000
20
358.050000000000
30
0.0
11
519.530000000000
21
399.120000000000
31
0.0
0
LINE
5
7cd
100
AcDbEntity
8
1-4_2_19
6
CONTINUOUS
62
3
100
AcDbLine
10
526.830000000000
20
366.040000000000
30
0.0
11
157.010000000000
21
273.580000000000
31
0.0
0
LINE
5
7ce
100
AcDbEntity
8
1-4_2_19
6
CONTINUOUS
62
4
100
AcDbLine
10
522.330000000000
20
364.910000000000
30
0.0
11
526.090000000000
21
371.190000000000
31
0.0
0
ARC
5
7cf
100
AcDbEntity
8
0-6_2_5
6
CONTINUOUS
62
3
100
AcDbCircle
10
1336.090000000000
20
336.620000000000
30
0.0
40
2.299999732846
100
AcDbArc
50
90.000000000000
51
180.000000000000
0
ARC
5
7d0
100
AcDbEntity
8
0-6_2_5
6
CONTINUOUS
62
3
100
AcDbCircle
10
1381.490000000000
20
336.620000000000
30
0.0
40
2.299999732846
100
AcDbArc
50
360.000000000000
51
450.000000000000
0
ARC
5
7d1
100
AcDbEntity
8
0-6_2_5
6
CONTINUOUS
62
3
100
AcDbCircle
10
1381.490000000000
20
241.220000000000
30
0.0
40
2.299999732846
100
AcDbArc
50
270.000000000000
51
360.000000000000
0
ARC
5
7d2
100
AcDbEntity
8
0-6_2_5
6
CONTINUOUS
62
3
100
AcDbCircle
10
1336.090000000000
20
241.220000000000
30
0.0
40
2.299999732846
100
AcDbArc
50
180.000000000000
51
-90.000000000000
0
ARC
5
7d3
100
AcDbEntity
8
0-6_2_5
6
CONTINUOUS
62
7
100
AcDbCircle
10
1311.590000000000
20
337.920000000000
30
0.0
40
0.600000010249
100
AcDbArc
50
360.000000000000
51
450.000000000000
0
ARC
5
7d4
100
AcDbEntity
8
0-6_2_5
6
CONTINUOUS
62
7
100
AcDbCircle
10
1312.490000000000
20
288.920000000000
30
0.0
40
0.300000126089
100
AcDbArc
50
179.990539550781
51
359.990539550781
0
ARC
5
7d5
100
AcDbEntity
8
0-6_2_5
6
CONTINUOUS
62
7
100
AcDbCircle
10
1312.490000000000
20
288.920000000000
30
0.0
40
0.900006644204
100
AcDbArc
50
180.000000000000
51
0.000000000000
0
ARC
5
7d6
100
AcDbEntity
8
0-6_2_5
6
CONTINUOUS
62
7
100
AcDbCircle
10
1260.270000000000
20
365.720000000000
30
0.0
40
0.600000010249
100
AcDbArc
50
90.000000000000
51
180.000000000000
0
ARC
5
7d7
100
AcDbEntity
8
0-6_2_5
6
CONTINUOUS
62
7
100
AcDbCircle
10
1260.270000000000
20
365.720000000000
30
0.0
40
1.200000020498
100
AcDbArc
50
90.000000000000
51
180.000000000000
0
ARC
5
7d8
100
AcDbEntity
8
0-6_2_5
6
CONTINUOUS
62
7
100
AcDbCircle
10
1260.270000000000
20
382.720000000000
30
0.0
40
1.200000020498
100
AcDbArc
50
90.000000000000
51
180.000000000000
0
CIRCLE
5
7d9
100
AcDbEntity
8
F-F
6
CONTINUOUS
62
3
100
AcDbCircle
10
79.720000000000
20
67.100000000000
30
0.0
40
11.313709759210
0
CIRCLE
5
7da
100
AcDbEntity
8
F-F
6
CONTINUOUS
62
3
100
AcDbCircle
10
79.720000000000
20
67.100000000000
30
0.0
40
12.913709270428
0
CIRCLE
5
7db
100
AcDbEntity
8
F-F
6
CONTINUOUS
62
4
100
AcDbCircle
10
79.720000000000
20
67.100000000000
30
0.0
40
11.473710561919
0
CIRCLE
5
7dc
100
AcDbEntity
8
F-F
6
CONTINUOUS
62
4
100
AcDbCircle
10
79.720000000000
20
67.100000000000
30
0.0
40
11.793707522317
0
CIRCLE
5
7dd
100
AcDbEntity
8
F-F
6
CONTINUOUS
62
4
100
AcDbCircle
10
79.720000000000
20
67.100000000000
30
0.0
40
12.113709127734
0
CIRCLE
5
7de
100
AcDbEntity
8
F-F
6
CONTINUOUS
62
4
100
AcDbCircle
10
79.720000000000
20
67.100000000000
30
0.0
40
12.433706862302
0
CIRCLE
5
7df
100
AcDbEntity
8
F-F
6
CONTINUOUS
62
4
100
AcDbCircle
10
79.720000000000
20
67.100000000000
30
0.0
40
12.753706145210
0
ARC
5
7e0
100
AcDbEntity
8
0-1_2_0
6
CONTINUOUS
62
3
100
AcDbCircle
10
1188.870000000000
20
804.390000000000
30
0.0
40
3.500000333972
100
AcDbArc
50
170.000244140625
51
319.999832153320
0
ARC
5
7e1
100
AcDbEntity
8
0-1_2_0
6
CONTINUOUS
62
3
100
AcDbCircle
10
1188.870000000000
20
804.390000000000
30
0.0
40
2.799999918801
100
AcDbArc
50
170.000213623047
51
319.999832153320
0
ARC
5
7e2
100
AcDbEntity
8
0-1_2_0
6
CONTINUOUS
62
3
100
AcDbCircle
10
1204.430000000000
20
803.160000000000
30
0.0
40
1.259987063854
100
AcDbArc
50
260.000732421875
51
80.000732421875
0
ARC
5
7e3
100
AcDbEntity
8
0-1_2_0
6
CONTINUOUS
62
3
100
AcDbCircle
10
1204.450000000000
20
803.160000000000
30
0.0
40
0.557972161670
100
AcDbArc
50
257.492202758789
51
77.492202758789
0
ARC
5
7e4
100
AcDbEntity
8
0-1_2_0
6
CONTINUOUS
62
3
100
AcDbCircle
10
1194.700000000000
20
802.630000000000
30
0.0
40
2.799999918801
100
AcDbArc
50
83.999816894531
51
139.999832153320
0
ARC
5
7e5
100
AcDbEntity
8
0-1_2_0
6
CONTINUOUS
62
3
100
AcDbCircle
10
1194.700000000000
20
802.630000000000
30
0.0
40
2.099999890715
100
AcDbArc
50
83.999816894531
51
139.999832153320
0
ARC
5
7e6
100
AcDbEntity
8
0-1_2_0
6
CONTINUOUS
62
3
100
AcDbCircle
10
1190.560000000000
20
814.020000000000
30
0.0
40
2.799999918801
100
AcDbArc
50
82.736206054688
51
170.000213623047
0
ARC
5
7e7
100
AcDbEntity
8
0-1_2_0
6
CONTINUOUS
62
3
100
AcDbCircle
10
1190.560000000000
20
814.020000000000
30
0.0
40
3.500000333972
100
AcDbArc
50
82.736206054688
51
170.000213623047
0
ARC
5
7e8
100
AcDbEntity
8
0-1_2_0
6
CONTINUOUS
62
3
100
AcDbCircle
10
1539.320000000000
20
801.700000000000
30
0.0
40
1.399999959401
100
AcDbArc
50
270.000000000000
51
351.253997802734
0
ARC
5
7e9
100
AcDbEntity
8
0-1_2_0
6
CONTINUOUS
62
3
100
AcDbCircle
10
1539.320000000000
20
801.700000000000
30
0.0
40
2.099999890715
100
AcDbArc
50
270.000000000000
51
351.253997802734
0
ARC
5
7ea
100
AcDbEntity
8
0-1_2_0
6
CONTINUOUS
62
3
100
AcDbCircle
10
1543.730000000000
20
807.320000000000
30
0.0
40
1.399999959401
100
AcDbArc
50
80.000030517578
51
171.254287719727
0
ARC
5
7eb
100
AcDbEntity
8
0-1_2_0
6
CONTINUOUS
62
3
100
AcDbCircle
10
1543.730000000000
20
807.320000000000
30
0.0
40
2.099999890715
100
AcDbArc
50
80.000030517578
51
171.254287719727
0
ARC
5
7ec
100
AcDbEntity
8
0-1_2_0
6
CONTINUOUS
62
3
100
AcDbCircle
10
1519.710000000000
20
801.700000000000
30
0.0
40
1.399999959401
100
AcDbArc
50
210.964096069336
51
270.000000000000
0
ARC
5
7ed
100
AcDbEntity
8
0-1_2_0
6
CONTINUOUS
62
3
100
AcDbCircle
10
1519.710000000000
20
801.700000000000
30
0.0
40
2.099999890715
100
AcDbArc
50
210.964096069336
51
270.000000000000
0
ARC
5
7ee
100
AcDbEntity
8
0-1_2_0
6
CONTINUOUS
62
3
100
AcDbCircle
10
1510.140000000000
20
812.200000000000
30
0.0
40
1.399999959401
100
AcDbArc
50
30.963073730469
51
128.660125732422
0
ARC
5
7ef
100
AcDbEntity
8
0-1_2_0
6
CONTINUOUS
62
3
100
AcDbCircle
10
1510.140000000000
20
812.200000000000
30
0.0
40
2.099999890715
100
AcDbArc
50
30.963073730469
51
128.660125732422
0
ARC
5
7f0
100
AcDbEntity
8
0-1_2_0
6
CONTINUOUS
62
3
100
AcDbCircle
10
1505.410000000000
20
812.900000000000
30
0.0
40
1.399999959401
100
AcDbArc
50
270.000000000000
51
308.660125732422
0
ARC
5
7f1
100
AcDbEntity
8
0-1_2_0
6
CONTINUOUS
62
3
100
AcDbCircle
10
1505.410000000000
20
812.900000000000
30
0.0
40
2.099999890715
100
AcDbArc
50
270.000000000000
51
308.660125732422
0
ARC
5
7f2
100
AcDbEntity
8
0-1_2_0
6
CONTINUOUS
62
3
100
AcDbCircle
10
1492.400000000000
20
809.680000000000
30
0.0
40
1.120000006229
100
AcDbArc
50
90.000000000000
51
252.163848876953
0
ARC
5
7f3
100
AcDbEntity
8
0-1_2_0
6
CONTINUOUS
62
3
100
AcDbCircle
10
1492.400000000000
20
809.680000000000
30
0.0
40
1.820000034315
100
AcDbArc
50
90.000000000000
51
252.163848876953
0
ARC
5
7f4
100
AcDbEntity
8
0-1_2_0
6
CONTINUOUS
62
3
100
AcDbCircle
10
1503.520000000000
20
803.100000000000
30
0.0
40
2.799999918801
100
AcDbArc
50
270.000000000000
51
72.164886474609
0
ARC
5
7f5
100
AcDbEntity
8
0-1_2_0
6
CONTINUOUS
62
3
100
AcDbCircle
10
1503.520000000000
20
803.100000000000
30
0.0
40
3.500000333972
100
AcDbArc
50
270.000000000000
51
72.164886474609
0
ARC
5
7f6
100
AcDbEntity
8
0-00
6
CONTINUOUS
62
3
100
AcDbCircle
10
446.540000000000
20
810.310000000000
30
0.0
40
1.399999959401
100
AcDbArc
50
284.036148071289
51
365.290145874023
0
ARC
5
7f7
100
AcDbEntity
8
0-00
6
CONTINUOUS
62
3
100
AcDbCircle
10
446.540000000000
20
810.310000000000
30
0.0
40
2.099999890715
100
AcDbArc
50
284.036148071289
51
365.290145874023
0
ARC
5
7f8
100
AcDbEntity
8
0-00
6
CONTINUOUS
62
3
100
AcDbCircle
10
449.450000000000
20
816.840000000000
30
0.0
40
1.399999959401
100
AcDbArc
50
94.036178588867
51
185.290435791016
0
ARC
5
7f9
100
AcDbEntity
8
0-00
6
CONTINUOUS
62
3
100
AcDbCircle
10
449.450000000000
20
816.840000000000
30
0.0
40
2.099999890715
100
AcDbArc
50
94.036178588867
51
185.290435791016
0
ARC
5
7fa
100
AcDbEntity
8
0-00
6
CONTINUOUS
62
3
100
AcDbCircle
10
427.520000000000
20
805.560000000000
30
0.0
40
1.399999959401
100
AcDbArc
50
225.000244140625
51
284.036148071289
0
ARC
5
7fb
100
AcDbEntity
8
0-00
6
CONTINUOUS
62
3
100
AcDbCircle
10
427.520000000000
20
805.560000000000
30
0.0
40
2.099999890715
100
AcDbArc
50
225.000244140625
51
284.036148071289
0
ARC
5
7fc
100
AcDbEntity
8
0-00
6
CONTINUOUS
62
3
100
AcDbCircle
10
415.690000000000
20
813.430000000000
30
0.0
40
1.399999959401
100
AcDbArc
50
44.999221801758
51
142.696273803711
0
ARC
5
7fd
100
AcDbEntity
8
0-00
6
CONTINUOUS
62
3
100
AcDbCircle
10
415.690000000000
20
813.430000000000
30
0.0
40
2.099999890715
100
AcDbArc
50
44.999221801758
51
142.696273803711
0
ARC
5
7fe
100
AcDbEntity
8
0-00
6
CONTINUOUS
62
3
100
AcDbCircle
10
410.920000000000
20
812.950000000000
30
0.0
40
1.399999959401
100
AcDbArc
50
284.036148071289
51
322.696273803711
0
ARC
5
7ff
100
AcDbEntity
8
0-00
6
CONTINUOUS
62
3
100
AcDbCircle
10
410.920000000000
20
812.950000000000
30
0.0
40
2.099999890715
100
AcDbArc
50
284.036148071289
51
322.696273803711
0
ARC
5
800
100
AcDbEntity
8
0-00
6
CONTINUOUS
62
3
100
AcDbCircle
10
399.090000000000
20
806.680000000000
30
0.0
40
1.120000006229
100
AcDbArc
50
104.036148071289
51
266.199996948242
0
ARC
5
801
100
AcDbEntity
8
0-00
6
CONTINUOUS
62
3
100
AcDbCircle
10
399.090000000000
20
806.680000000000
30
0.0
40
1.820000034315
100
AcDbArc
50
104.036148071289
51
266.199996948242
0
ARC
5
802
100
AcDbEntity
8
0-00
6
CONTINUOUS
62
3
100
AcDbCircle
10
411.470000000000
20
802.990000000000
30
0.0
40
2.799999918801
100
AcDbArc
50
284.036148071289
51
86.201034545898
0
ARC
5
803
100
AcDbEntity
8
0-00
6
CONTINUOUS
62
3
100
AcDbCircle
10
411.470000000000
20
802.990000000000
30
0.0
40
3.500000333972
100
AcDbArc
50
284.036148071289
51
86.201034545898
0
ARC
5
804
100
AcDbEntity
8
0-00
6
CONTINUOUS
62
3
100
AcDbCircle
10
396.940000000000
20
800.690000000000
30
0.0
40
3.500000333972
100
AcDbArc
50
184.036392211914
51
334.035980224609
0
ARC
5
805
100
AcDbEntity
8
0-00
6
CONTINUOUS
62
3
100
AcDbCircle
10
396.940000000000
20
800.690000000000
30
0.0
40
2.799999918801
100
AcDbArc
50
184.036361694336
51
334.035980224609
0
ARC
5
806
100
AcDbEntity
8
0-00
6
CONTINUOUS
62
3
100
AcDbCircle
10
412.330000000000
20
803.280000000000
30
0.0
40
1.259987063854
100
AcDbArc
50
274.036880493164
51
94.036880493164
0
ARC
5
807
100
AcDbEntity
8
0-00
6
CONTINUOUS
62
3
100
AcDbCircle
10
412.360000000000
20
803.280000000000
30
0.0
40
0.557972161670
100
AcDbArc
50
271.528350830078
51
91.528350830078
0
ARC
5
808
100
AcDbEntity
8
0-00
6
CONTINUOUS
62
3
100
AcDbCircle
10
403.030000000000
20
800.400000000000
30
0.0
40
2.799999918801
100
AcDbArc
50
98.035964965820
51
154.035980224609
0
ARC
5
809
100
AcDbEntity
8
0-00
6
CONTINUOUS
62
3
100
AcDbCircle
10
403.030000000000
20
800.400000000000
30
0.0
40
2.099999890715
100
AcDbArc
50
98.035964965820
51
154.035980224609
0
ARC
5
80a
100
AcDbEntity
8
0-00
6
CONTINUOUS
62
3
100
AcDbCircle
10
396.250000000000
20
810.440000000000
30
0.0
40
2.799999918801
100
AcDbArc
50
96.772354125977
51
184.036361694336
0
ARC
5
80b
100
AcDbEntity
8
0-00
6
CONTINUOUS
62
3
100
AcDbCircle
10
396.250000000000
20
810.440000000000
30
0.0
40
3.500000333972
100
AcDbArc
50
96.772354125977
51
184.036361694336
0
ARC
5
80c
100
AcDbEntity
8
0-00
6
CONTINUOUS
62
3
100
AcDbCircle
10
737.580000000000
20
883.070000000000
30
0.0
40
1.399999959401
100
AcDbArc
50
284.036148071289
51
365.290145874023
0
ARC
5
80d
100
AcDbEntity
8
0-00
6
CONTINUOUS
62
3
100
AcDbCircle
10
737.580000000000
20
883.070000000000
30
0.0
40
2.099999890715
100
AcDbArc
50
284.036148071289
51
365.290145874023
0
ARC
5
80e
100
AcDbEntity
8
0-00
6
CONTINUOUS
62
3
100
AcDbCircle
10
740.490000000000
20
889.600000000000
30
0.0
40
1.399999959401
100
AcDbArc
50
94.036178588867
51
185.290435791016
0
ARC
5
80f
100
AcDbEntity
8
0-00
6
CONTINUOUS
62
3
100
AcDbCircle
10
740.490000000000
20
889.600000000000
30
0.0
40
2.099999890715
100
AcDbArc
50
94.036178588867
51
185.290435791016
0
ARC
5
810
100
AcDbEntity
8
0-00
6
CONTINUOUS
62
3
100
AcDbCircle
10
718.560000000000
20
878.320000000000
30
0.0
40
1.399999959401
100
AcDbArc
50
225.000244140625
51
284.036148071289
0
ARC
5
811
100
AcDbEntity
8
0-00
6
CONTINUOUS
62
3
100
AcDbCircle
10
718.560000000000
20
878.320000000000
30
0.0
40
2.099999890715
100
AcDbArc
50
225.000244140625
51
284.036148071289
0
ARC
5
812
100
AcDbEntity
8
0-00
6
CONTINUOUS
62
3
100
AcDbCircle
10
706.730000000000
20
886.190000000000
30
0.0
40
1.399999959401
100
AcDbArc
50
44.999221801758
51
142.696273803711
0
ARC
5
813
100
AcDbEntity
8
0-00
6
CONTINUOUS
62
3
100
AcDbCircle
10
706.730000000000
20
886.190000000000
30
0.0
40
2.099999890715
100
AcDbArc
50
44.999221801758
51
142.696273803711
0
ARC
5
814
100
AcDbEntity
8
0-00
6
CONTINUOUS
62
3
100
AcDbCircle
10
701.970000000000
20
885.710000000000
30
0.0
40
1.399999959401
100
AcDbArc
50
284.036148071289
51
322.696273803711
0
ARC
5
815
100
AcDbEntity
8
0-00
6
CONTINUOUS
62
3
100
AcDbCircle
10
701.970000000000
20
885.710000000000
30
0.0
40
2.099999890715
100
AcDbArc
50
284.036148071289
51
322.696273803711
0
ARC
5
816
100
AcDbEntity
8
0-00
6
CONTINUOUS
62
3
100
AcDbCircle
10
690.130000000000
20
879.440000000000
30
0.0
40
1.120000006229
100
AcDbArc
50
104.036148071289
51
266.199996948242
0
ARC
5
817
100
AcDbEntity
8
0-00
6
CONTINUOUS
62
3
100
AcDbCircle
10
690.130000000000
20
879.440000000000
30
0.0
40
1.820000034315
100
AcDbArc
50
104.036148071289
51
266.199996948242
0
ARC
5
818
100
AcDbEntity
8
0-00
6
CONTINUOUS
62
3
100
AcDbCircle
10
702.510000000000
20
875.750000000000
30
0.0
40
2.799999918801
100
AcDbArc
50
284.036148071289
51
86.201034545898
0
ARC
5
819
100
AcDbEntity
8
0-00
6
CONTINUOUS
62
3
100
AcDbCircle
10
702.510000000000
20
875.750000000000
30
0.0
40
3.500000333972
100
AcDbArc
50
284.036148071289
51
86.201034545898
0
ARC
5
81a
100
AcDbEntity
8
0-00
6
CONTINUOUS
62
3
100
AcDbCircle
10
687.980000000000
20
873.450000000000
30
0.0
40
3.500000333972
100
AcDbArc
50
184.036392211914
51
334.035980224609
0
ARC
5
81b
100
AcDbEntity
8
0-00
6
CONTINUOUS
62
3
100
AcDbCircle
10
687.980000000000
20
873.450000000000
30
0.0
40
2.799999918801
100
AcDbArc
50
184.036361694336
51
334.035980224609
0
ARC
5
81c
100
AcDbEntity
8
0-00
6
CONTINUOUS
62
3
100
AcDbCircle
10
703.380000000000
20
876.040000000000
30
0.0
40
1.259987063854
100
AcDbArc
50
274.036880493164
51
94.036880493164
0
ARC
5
81d
100
AcDbEntity
8
0-00
6
CONTINUOUS
62
3
100
AcDbCircle
10
703.400000000000
20
876.040000000000
30
0.0
40
0.557972161670
100
AcDbArc
50
271.528350830078
51
91.528350830078
0
ARC
5
81e
100
AcDbEntity
8
0-00
6
CONTINUOUS
62
3
100
AcDbCircle
10
694.070000000000
20
873.160000000000
30
0.0
40
2.799999918801
100
AcDbArc
50
98.035964965820
51
154.035980224609
0
ARC
5
81f
100
AcDbEntity
8
0-00
6
CONTINUOUS
62
3
100
AcDbCircle
10
694.070000000000
20
873.160000000000
30
0.0
40
2.099999890715
100
AcDbArc
50
98.035964965820
51
154.035980224609
0
ARC
5
820
100
AcDbEntity
8
0-00
6
CONTINUOUS
62
3
100
AcDbCircle
10
687.290000000000
20
883.200000000000
30
0.0
40
2.799999918801
100
AcDbArc
50
96.772354125977
51
184.036361694336
0
ARC
5
821
100
AcDbEntity
8
0-00
6
CONTINUOUS
62
3
100
AcDbCircle
10
687.290000000000
20
883.200000000000
30
0.0
40
3.500000333972
100
AcDbArc
50
96.772354125977
51
184.036361694336
0
ARC
5
822
100
AcDbEntity
8
0-00
6
CONTINUOUS
62
4
100
AcDbCircle
10
437.790000000000
20
805.070000000000
30
0.0
40
4.017474503680
100
AcDbArc
50
55.732177734375
51
152.345916748047
0
ARC
5
823
100
AcDbEntity
8
0-00
6
CONTINUOUS
62
4
100
AcDbCircle
10
728.830000000000
20
877.830000000000
30
0.0
40
4.017474503680
100
AcDbArc
50
55.732177734375
51
152.345916748047
0
ARC
5
824
100
AcDbEntity
8
0-5_2_4
6
CONTINUOUS
62
3
100
AcDbCircle
10
775.190000000000
20
354.610000000000
30
0.0
40
2.299999732846
100
AcDbArc
50
104.036254882813
51
194.036254882813
0
ARC
5
825
100
AcDbEntity
8
0-5_2_4
6
CONTINUOUS
62
3
100
AcDbCircle
10
819.240000000000
20
365.620000000000
30
0.0
40
2.299999732846
100
AcDbArc
50
14.036254882813
51
104.036254882813
0
ARC
5
826
100
AcDbEntity
8
0-5_2_4
6
CONTINUOUS
62
3
100
AcDbCircle
10
842.370000000000
20
273.070000000000
30
0.0
40
2.299999732846
100
AcDbArc
50
284.036254882813
51
374.036254882813
0
ARC
5
827
100
AcDbEntity
8
0-5_2_4
6
CONTINUOUS
62
3
100
AcDbCircle
10
798.330000000000
20
262.050000000000
30
0.0
40
2.299999732846
100
AcDbArc
50
194.036254882813
51
-75.963745117188
0
ARC
5
828
100
AcDbEntity
8
0-5_2_4
6
CONTINUOUS
62
7
100
AcDbCircle
10
751.110000000000
20
349.920000000000
30
0.0
40
0.600000010249
100
AcDbArc
50
14.036254882813
51
104.036254882813
0
ARC
5
829
100
AcDbEntity
8
0-5_2_4
6
CONTINUOUS
62
7
100
AcDbCircle
10
763.860000000000
20
302.610000000000
30
0.0
40
0.300000126089
100
AcDbArc
50
194.026794433594
51
374.026794433594
0
ARC
5
82a
100
AcDbEntity
8
0-5_2_4
6
CONTINUOUS
62
7
100
AcDbCircle
10
763.860000000000
20
302.610000000000
30
0.0
40
0.900006644204
100
AcDbArc
50
194.036254882813
51
14.036254882813
0
ARC
5
82b
100
AcDbEntity
8
0-5_2_4
6
CONTINUOUS
62
4
100
AcDbCircle
10
791.410000000000
20
385.120000000000
30
0.0
40
4.017474503680
100
AcDbArc
50
55.732177734375
51
152.345916748047
0
ARC
5
82c
100
AcDbEntity
8
0-5_2_4
6
CONTINUOUS
62
4
100
AcDbCircle
10
745.890000000000
20
374.930000000000
30
0.0
40
4.017474503680
100
AcDbArc
50
55.732177734375
51
152.345916748047
0
ARC
5
82d
100
AcDbEntity
8
0-5_2_4
6
CONTINUOUS
62
3
100
AcDbCircle
10
697.170000000000
20
369.630000000000
30
0.0
40
3.500000333972
100
AcDbArc
50
184.036392211914
51
334.035980224609
0
ARC
5
82e
100
AcDbEntity
8
0-5_2_4
6
CONTINUOUS
62
3
100
AcDbCircle
10
697.170000000000
20
369.630000000000
30
0.0
40
2.799999918801
100
AcDbArc
50
184.036361694336
51
334.035980224609
0
ARC
5
82f
100
AcDbEntity
8
0-5_2_4
6
CONTINUOUS
62
3
100
AcDbCircle
10
712.560000000000
20
372.210000000000
30
0.0
40
1.259987063854
100
AcDbArc
50
274.036880493164
51
94.036880493164
0
ARC
5
830
100
AcDbEntity
8
0-5_2_4
6
CONTINUOUS
62
3
100
AcDbCircle
10
712.590000000000
20
372.210000000000
30
0.0
40
0.557972161670
100
AcDbArc
50
271.528350830078
51
91.528350830078
0
ARC
5
831
100
AcDbEntity
8
0-5_2_4
6
CONTINUOUS
62
3
100
AcDbCircle
10
703.250000000000
20
369.340000000000
30
0.0
40
2.799999918801
100
AcDbArc
50
98.035964965820
51
154.035980224609
0
ARC
5
832
100
AcDbEntity
8
0-5_2_4
6
CONTINUOUS
62
3
100
AcDbCircle
10
703.250000000000
20
369.340000000000
30
0.0
40
2.099999890715
100
AcDbArc
50
98.035964965820
51
154.035980224609
0
ARC
5
833
100
AcDbEntity
8
0-5_2_4
6
CONTINUOUS
62
3
100
AcDbCircle
10
696.480000000000
20
379.380000000000
30
0.0
40
2.799999918801
100
AcDbArc
50
96.772354125977
51
184.036361694336
0
ARC
5
834
100
AcDbEntity
8
0-5_2_4
6
CONTINUOUS
62
3
100
AcDbCircle
10
696.480000000000
20
379.380000000000
30
0.0
40
3.500000333972
100
AcDbArc
50
96.772354125977
51
184.036361694336
0
ARC
5
835
100
AcDbEntity
8
0-5_2_4
6
CONTINUOUS
62
7
100
AcDbCircle
10
711.160000000000
20
381.080000000000
30
0.0
40
0.499999992412
100
AcDbArc
50
14.036148071289
51
135.051513671875
0
ARC
5
836
100
AcDbEntity
8
0-5_2_4
6
CONTINUOUS
62
7
100
AcDbCircle
10
711.160000000000
20
381.080000000000
30
0.0
40
0.999999984825
100
AcDbArc
50
14.036148071289
51
135.051513671875
0
ARC
5
837
100
AcDbEntity
8
0-5_2_4
6
CONTINUOUS
62
7
100
AcDbCircle
10
711.160000000000
20
381.080000000000
30
0.0
40
1.499999977237
100
AcDbArc
50
14.036148071289
51
135.051513671875
0
ARC
5
838
100
AcDbEntity
8
0-5_2_4
6
CONTINUOUS
62
7
100
AcDbCircle
10
711.160000000000
20
381.080000000000
30
0.0
40
1.999999969650
100
AcDbArc
50
14.036148071289
51
135.051513671875
0
ARC
5
839
100
AcDbEntity
8
0-5_2_4
6
CONTINUOUS
62
7
100
AcDbCircle
10
697.320000000000
20
368.990000000000
30
0.0
40
0.249988311078
100
AcDbArc
50
135.054428100586
51
315.054428100586
0
ARC
5
83a
100
AcDbEntity
8
0-5_2_4
6
CONTINUOUS
62
7
100
AcDbCircle
10
697.320000000000
20
368.990000000000
30
0.0
40
0.749988230912
100
AcDbArc
50
135.054428100586
51
315.054428100586
0
ARC
5
83b
100
AcDbEntity
8
0-5_2_4
6
CONTINUOUS
62
7
100
AcDbCircle
10
716.590000000000
20
369.640000000000
30
0.0
40
0.499999992412
100
AcDbArc
50
194.036148071289
51
284.036148071289
0
ARC
5
83c
100
AcDbEntity
8
0-5_2_4
6
CONTINUOUS
62
7
100
AcDbCircle
10
716.590000000000
20
369.640000000000
30
0.0
40
0.999999984825
100
AcDbArc
50
194.036148071289
51
284.036148071289
0
ARC
5
83d
100
AcDbEntity
8
0-5_2_4
6
CONTINUOUS
62
7
100
AcDbCircle
10
725.260000000000
20
329.810000000000
30
0.0
40
0.250001157461
100
AcDbArc
50
194.036148071289
51
14.036148071289
0
ARC
5
83e
100
AcDbEntity
8
0-5_2_4
6
CONTINUOUS
62
7
100
AcDbCircle
10
725.260000000000
20
329.810000000000
30
0.0
40
0.750001053102
100
AcDbArc
50
194.036148071289
51
14.036148071289
0
ARC
5
83f
100
AcDbEntity
8
0-5_2_4
6
CONTINUOUS
62
7
100
AcDbCircle
10
765.890000000000
20
381.710000000000
30
0.0
40
0.249988770742
100
AcDbArc
50
284.036148071289
51
104.036148071289
0
ARC
5
840
100
AcDbEntity
8
0-5_2_4
6
CONTINUOUS
62
7
100
AcDbCircle
10
765.890000000000
20
381.710000000000
30
0.0
40
0.749988714769
100
AcDbArc
50
284.036148071289
51
104.036148071289
0
ARC
5
841
100
AcDbEntity
8
0-5_2_4
6
CONTINUOUS
62
7
100
AcDbCircle
10
722.970000000000
20
344.130000000000
30
0.0
40
0.600000010249
100
AcDbArc
50
194.022476196289
51
284.036239624023
0
ARC
5
842
100
AcDbEntity
8
0-5_2_4
6
CONTINUOUS
62
7
100
AcDbCircle
10
722.970000000000
20
344.130000000000
30
0.0
40
1.200000020498
100
AcDbArc
50
194.022476196289
51
284.036239624023
0
ARC
5
843
100
AcDbEntity
8
0-5_2_4
6
DASHED
62
7
100
AcDbCircle
10
745.890000000000
20
374.930000000000
30
0.0
40
4.617474417158
100
AcDbArc
50
55.732177734375
51
152.345916748047
0
ARC
5
844
100
AcDbEntity
8
0-6_2_5
6
CONTINUOUS
62
7
100
AcDbCircle
10
1346.220000000000
20
365.170000000000
30
0.0
40
0.249988770742
100
AcDbArc
50
270.000000000000
51
90.000000000000
0
ARC
5
845
100
AcDbEntity
8
0-6_2_5
6
CONTINUOUS
62
7
100
AcDbCircle
10
1346.220000000000
20
365.170000000000
30
0.0
40
0.749988714769
100
AcDbArc
50
270.000000000000
51
90.000000000000
0
ARC
5
846
100
AcDbEntity
8
0-6_2_5
6
CONTINUOUS
62
7
100
AcDbCircle
10
1260.720000000000
20
355.670000000000
30
0.0
40
0.249988770742
100
AcDbArc
50
180.000000000000
51
0.000000000000
0
ARC
5
847
100
AcDbEntity
8
0-6_2_5
6
CONTINUOUS
62
7
100
AcDbCircle
10
1260.720000000000
20
355.670000000000
30
0.0
40
0.749988714769
100
AcDbArc
50
180.000000000000
51
0.000000000000
0
ARC
5
848
100
AcDbEntity
8
0-6_2_5
6
CONTINUOUS
62
7
100
AcDbCircle
10
1261.970000000000
20
362.920000000000
30
0.0
40
0.499999992412
100
AcDbArc
50
90.000000000000
51
180.000000000000
0
ARC
5
849
100
AcDbEntity
8
0-6_2_5
6
CONTINUOUS
62
7
100
AcDbCircle
10
1261.970000000000
20
362.920000000000
30
0.0
40
0.999999984825
100
AcDbArc
50
90.000000000000
51
180.000000000000
0
ARC
5
84a
100
AcDbEntity
8
0-6_2_5
6
CONTINUOUS
62
7
100
AcDbCircle
10
1261.970000000000
20
362.920000000000
30
0.0
40
1.499999977237
100
AcDbArc
50
90.000000000000
51
180.000000000000
0
ARC
5
84b
100
AcDbEntity
8
0-6_2_5
6
CONTINUOUS
62
7
100
AcDbCircle
10
1261.970000000000
20
362.920000000000
30
0.0
40
1.999999969650
100
AcDbArc
50
90.000000000000
51
180.000000000000
0
ARC
5
84c
100
AcDbEntity
8
0-6_2_5
6
CONTINUOUS
62
7
100
AcDbCircle
10
1278.970000000000
20
362.920000000000
30
0.0
40
0.499999992412
100
AcDbArc
50
360.000000000000
51
450.000000000000
0
ARC
5
84d
100
AcDbEntity
8
0-6_2_5
6
CONTINUOUS
62
7
100
AcDbCircle
10
1278.970000000000
20
362.920000000000
30
0.0
40
0.999999984825
100
AcDbArc
50
360.000000000000
51
450.000000000000
0
ARC
5
84e
100
AcDbEntity
8
0-6_2_5
6
CONTINUOUS
62
7
100
AcDbCircle
10
1280.220000000000
20
323.670000000000
30
0.0
40
0.250001157461
100
AcDbArc
50
180.000000000000
51
0.000000000000
0
ARC
5
84f
100
AcDbEntity
8
0-6_2_5
6
CONTINUOUS
62
7
100
AcDbCircle
10
1280.220000000000
20
323.670000000000
30
0.0
40
0.750001053102
100
AcDbArc
50
180.000000000000
51
0.000000000000
0
ARC
5
850
100
AcDbEntity
8
0-6_2_5
6
CONTINUOUS
62
7
100
AcDbCircle
10
1281.790000000000
20
339.120000000000
30
0.0
40
0.600000010249
100
AcDbArc
50
180.000000000000
51
270.000000000000
0
ARC
5
851
100
AcDbEntity
8
0-6_2_5
6
CONTINUOUS
62
7
100
AcDbCircle
10
1281.790000000000
20
339.120000000000
30
0.0
40
1.200000020498
100
AcDbArc
50
180.000000000000
51
270.000000000000
0
ARC
5
852
100
AcDbEntity
8
0-6_2_5
6
CONTINUOUS
62
7
100
AcDbCircle
10
1260.790000000000
20
355.340000000000
30
0.0
40
1.117480276545
100
AcDbArc
50
180.000000000000
51
0.000000000000
0
ARC
5
853
100
AcDbEntity
8
0-6_2_5
6
CONTINUOUS
62
7
100
AcDbCircle
10
1260.790000000000
20
355.340000000000
30
0.0
40
1.717492963828
100
AcDbArc
50
180.000000000000
51
0.000000000000
0
ARC
5
854
100
AcDbEntity
8
1-4_2_19
6
CONTINUOUS
62
3
100
AcDbCircle
10
371.140000000000
20
385.870000000000
30
0.0
40
2.799999918801
100
AcDbArc
50
284.036148071289
51
365.290145874023
0
ARC
5
855
100
AcDbEntity
8
1-4_2_19
6
CONTINUOUS
62
3
100
AcDbCircle
10
371.140000000000
20
385.870000000000
30
0.0
40
4.199999781430
100
AcDbArc
50
284.036148071289
51
365.290145874023
0
ARC
5
856
100
AcDbEntity
8
1-4_2_19
6
CONTINUOUS
62
3
100
AcDbCircle
10
376.960000000000
20
398.920000000000
30
0.0
40
2.799999918801
100
AcDbArc
50
94.036178588867
51
185.290435791016
0
ARC
5
857
100
AcDbEntity
8
1-4_2_19
6
CONTINUOUS
62
3
100
AcDbCircle
10
376.960000000000
20
398.920000000000
30
0.0
40
4.199999781430
100
AcDbArc
50
94.036178588867
51
185.290435791016
0
ARC
5
858
100
AcDbEntity
8
1-4_2_19
6
CONTINUOUS
62
3
100
AcDbCircle
10
333.100000000000
20
376.360000000000
30
0.0
40
2.799999918801
100
AcDbArc
50
225.000244140625
51
284.036148071289
0
ARC
5
859
100
AcDbEntity
8
1-4_2_19
6
CONTINUOUS
62
3
100
AcDbCircle
10
333.100000000000
20
376.360000000000
30
0.0
40
4.199999781430
100
AcDbArc
50
225.000244140625
51
284.036148071289
0
ARC
5
85a
100
AcDbEntity
8
1-4_2_19
6
CONTINUOUS
62
3
100
AcDbCircle
10
309.440000000000
20
392.100000000000
30
0.0
40
2.799999918801
100
AcDbArc
50
44.999221801758
51
142.696273803711
0
ARC
5
85b
100
AcDbEntity
8
1-4_2_19
6
CONTINUOUS
62
3
100
AcDbCircle
10
309.440000000000
20
392.100000000000
30
0.0
40
4.199999781430
100
AcDbArc
50
44.999221801758
51
142.696273803711
0
ARC
5
85c
100
AcDbEntity
8
1-4_2_19
6
CONTINUOUS
62
3
100
AcDbCircle
10
299.910000000000
20
391.150000000000
30
0.0
40
2.799999918801
100
AcDbArc
50
284.036148071289
51
322.696273803711
0
ARC
5
85d
100
AcDbEntity
8
1-4_2_19
6
CONTINUOUS
62
3
100
AcDbCircle
10
299.910000000000
20
391.150000000000
30
0.0
40
4.199999781430
100
AcDbArc
50
284.036148071289
51
322.696273803711
0
ARC
5
85e
100
AcDbEntity
8
1-4_2_19
6
CONTINUOUS
62
3
100
AcDbCircle
10
276.240000000000
20
378.600000000000
30
0.0
40
2.240000012458
100
AcDbArc
50
104.036148071289
51
266.199996948242
0
ARC
5
85f
100
AcDbEntity
8
1-4_2_19
6
CONTINUOUS
62
3
100
AcDbCircle
10
276.240000000000
20
378.600000000000
30
0.0
40
3.640000068630
100
AcDbArc
50
104.036148071289
51
266.199996948242
0
ARC
5
860
100
AcDbEntity
8
1-4_2_19
6
CONTINUOUS
62
3
100
AcDbCircle
10
301.000000000000
20
371.220000000000
30
0.0
40
5.599999837602
100
AcDbArc
50
284.036148071289
51
86.201034545898
0
ARC
5
861
100
AcDbEntity
8
1-4_2_19
6
CONTINUOUS
62
3
100
AcDbCircle
10
301.000000000000
20
371.220000000000
30
0.0
40
7.000000667944
100
AcDbArc
50
284.036148071289
51
86.201034545898
0
ARC
5
862
100
AcDbEntity
8
1-4_2_19
6
CONTINUOUS
62
3
100
AcDbCircle
10
271.940000000000
20
366.630000000000
30
0.0
40
7.000000667944
100
AcDbArc
50
184.036392211914
51
334.035980224609
0
ARC
5
863
100
AcDbEntity
8
1-4_2_19
6
CONTINUOUS
62
3
100
AcDbCircle
10
271.940000000000
20
366.630000000000
30
0.0
40
5.599999837602
100
AcDbArc
50
184.036361694336
51
334.035980224609
0
ARC
5
864
100
AcDbEntity
8
1-4_2_19
6
CONTINUOUS
62
3
100
AcDbCircle
10
302.730000000000
20
371.790000000000
30
0.0
40
2.519974127707
100
AcDbArc
50
274.036880493164
51
94.036880493164
0
ARC
5
865
100
AcDbEntity
8
1-4_2_19
6
CONTINUOUS
62
3
100
AcDbCircle
10
302.780000000000
20
371.810000000000
30
0.0
40
1.115944323341
100
AcDbArc
50
271.528350830078
51
91.528350830078
0
ARC
5
866
100
AcDbEntity
8
1-4_2_19
6
CONTINUOUS
62
3
100
AcDbCircle
10
284.120000000000
20
366.050000000000
30
0.0
40
5.599999837602
100
AcDbArc
50
98.035964965820
51
154.035980224609
0
ARC
5
867
100
AcDbEntity
8
1-4_2_19
6
CONTINUOUS
62
3
100
AcDbCircle
10
284.120000000000
20
366.050000000000
30
0.0
40
4.199999781430
100
AcDbArc
50
98.035964965820
51
154.035980224609
0
ARC
5
868
100
AcDbEntity
8
1-4_2_19
6
CONTINUOUS
62
3
100
AcDbCircle
10
270.570000000000
20
386.130000000000
30
0.0
40
5.599999837602
100
AcDbArc
50
96.772354125977
51
184.036361694336
0
ARC
5
869
100
AcDbEntity
8
1-4_2_19
6
CONTINUOUS
62
3
100
AcDbCircle
10
270.570000000000
20
386.130000000000
30
0.0
40
7.000000667944
100
AcDbArc
50
96.772354125977
51
184.036361694336
0
ARC
5
86a
100
AcDbEntity
8
1-4_2_19
6
CONTINUOUS
62
4
100
AcDbCircle
10
353.640000000000
20
375.390000000000
30
0.0
40
8.034949007360
100
AcDbArc
50
55.732177734375
51
152.345916748047
0
CIRCLE
5
86b
100
AcDbEntity
8
1-4_2_19
6
DOT
62
7
100
AcDbCircle
10
336.530000000000
20
341.370000000000
30
0.0
40
191.890486100239
0
ARC
5
86c
100
AcDbEntity
8
0-00
6
DOT
62
7
100
AcDbCircle
10
429.230000000000
20
788.060000000000
30
0.0
40
95.945243050120
100
AcDbArc
50
64.276443481445
51
45.484802246094
0
TEXT
5
86d
100
AcDbEntity
8
F-F
62
3
370
-3
100
AcDbText
10
532.090
20
75.752
30
0.0
40
4.923
1
変　　　　　　更　　　　　　記　　　　　　事
41
0.999
50
0.000
100
AcDbText
0
TEXT
5
86e
100
AcDbEntity
8
F-F
62
3
370
-3
100
AcDbText
10
815.825
20
74.952
30
0.0
40
4.923
1
受領　　日附
41
0.999
50
0.000
100
AcDbText
0
TEXT
5
86f
100
AcDbEntity
8
F-F
62
3
370
-3
100
AcDbText
10
1014.042
20
45.520
30
0.0
40
4.923
1
施工者
41
0.999
50
0.000
100
AcDbText
0
TEXT
5
870
100
AcDbEntity
8
F-F
62
3
370
-3
100
AcDbText
10
1014.042
20
75.150
30
0.0
40
4.923
1
設計者
41
0.999
50
0.000
100
AcDbText
0
TEXT
5
871
100
AcDbEntity
8
F-F
62
3
370
-3
100
AcDbText
10
1219.525
20
44.977
30
0.0
40
4.923
1
作図
41
0.999
50
0.000
100
AcDbText
0
TEXT
5
872
100
AcDbEntity
8
F-F
62
3
370
-3
100
AcDbText
10
1291.352
20
45.508
30
0.0
40
4.923
1
図面名
41
0.999
50
0.000
100
AcDbText
0
TEXT
5
873
100
AcDbEntity
8
F-F
62
3
370
-3
100
AcDbText
10
1219.525
20
74.607
30
0.0
40
4.923
1
日附
41
0.999
50
0.000
100
AcDbText
0
TEXT
5
874
100
AcDbEntity
8
F-F
62
3
370
-3
100
AcDbText
10
1291.352
20
75.137
30
0.0
40
4.923
1
工事件名
41
0.999
50
0.000
100
AcDbText
0
TEXT
5
875
100
AcDbEntity
8
F-F
62
3
370
-3
100
AcDbText
10
1241.661
20
74.355
30
0.0
40
4.923
1
年　月　日
41
0.999
50
0.000
100
AcDbText
0
TEXT
5
876
100
AcDbEntity
8
F-F
62
3
370
-3
100
AcDbText
10
1241.661
20
44.725
30
0.0
40
4.923
1
年　月　日
41
0.999
50
0.000
100
AcDbText
0
TEXT
5
877
100
AcDbEntity
8
F-F
62
3
370
-3
100
AcDbText
10
1543.695
20
75.137
30
0.0
40
4.923
1
設計番号
41
0.999
50
0.000
100
AcDbText
0
TEXT
5
878
100
AcDbEntity
8
F-F
62
3
370
-3
100
AcDbText
10
1543.695
20
45.508
30
0.0
40
4.923
1
縮　尺
41
0.999
50
0.000
100
AcDbText
0
MTEXT
5
879
100
AcDbEntity
8
F-F
62
3
370
-3
100
AcDbMText
10
387.012
20
67.821
30
0.0
40
4.649
41
0.000
71
7
72
1
1
\W1.134;{\W0.817;. }　{\W0.817;.}　{\W0.817; }
7
STANDARD
11
1.00000
21
0.00000
31
0.0
0
MTEXT
5
87a
100
AcDbEntity
8
F-F
62
3
370
-3
100
AcDbMText
10
387.012
20
57.944
30
0.0
40
4.649
41
0.000
71
7
72
1
1
\W1.134;{\W0.817;. }　{\W0.817;.}　{\W0.817; }
7
STANDARD
11
1.00000
21
0.00000
31
0.0
0
MTEXT
5
87b
100
AcDbEntity
8
F-F
62
3
370
-3
100
AcDbMText
10
387.012
20
48.068
30
0.0
40
4.649
41
0.000
71
7
72
1
1
\W1.134;{\W0.817;. }　{\W0.817;.}　{\W0.817; }
7
STANDARD
11
1.00000
21
0.00000
31
0.0
0
MTEXT
5
87c
100
AcDbEntity
8
F-F
62
3
370
-3
100
AcDbMText
10
387.012
20
38.191
30
0.0
40
4.649
41
0.000
71
7
72
1
1
\W1.134;{\W0.817;. }　{\W0.817;.}　{\W0.817; }
7
STANDARD
11
1.00000
21
0.00000
31
0.0
0
MTEXT
5
87d
100
AcDbEntity
8
F-F
62
3
370
-3
100
AcDbMText
10
387.012
20
28.314
30
0.0
40
4.649
41
0.000
71
7
72
1
1
\W1.134;{\W0.817;. }　{\W0.817;.}　{\W0.817; }
7
STANDARD
11
1.00000
21
0.00000
31
0.0
0
TEXT
5
87e
100
AcDbEntity
8
F-F
62
3
370
-3
100
AcDbText
10
1034.383
20
62.373
30
0.0
40
6.564
1
　　　　　　　　　　
41
0.963
50
0.000
100
AcDbText
0
TEXT
5
87f
100
AcDbEntity
8
F-F
62
3
370
-3
100
AcDbText
10
1034.383
20
32.743
30
0.0
40
6.564
1
　　　　　　　　　　
41
0.963
50
0.000
100
AcDbText
0
TEXT
5
880
100
AcDbEntity
8
F-F
62
3
370
-3
100
AcDbText
10
1317.846
20
63.920
30
0.0
40
6.564
1
　　　　　　　　　　　　　
41
0.963
50
0.000
100
AcDbText
0
TEXT
5
881
100
AcDbEntity
8
F-F
62
3
370
-3
100
AcDbText
10
378.040
20
75.687
30
0.0
40
4.923
1
年　月　日
41
0.999
50
0.000
100
AcDbText
0
TEXT
5
882
100
AcDbEntity
8
F-F
62
3
370
-3
100
AcDbText
10
872.996
20
74.368
30
0.0
40
4.923
1
年　　月　　日
41
0.999
50
0.000
100
AcDbText
0
MTEXT
5
883
100
AcDbEntity
8
F-F
62
3
370
-3
100
AcDbMText
10
885.548
20
63.398
30
0.0
40
4.649
41
0.000
71
7
72
1
1
\W1.134;{\W0.817;.}　{\W0.817; }　{\W0.817;.}
7
STANDARD
11
1.00000
21
0.00000
31
0.0
0
TEXT
5
884
100
AcDbEntity
8
F-F
62
3
370
-3
100
AcDbText
10
815.825
20
45.322
30
0.0
40
4.923
1
受領　　日附
41
0.999
50
0.000
100
AcDbText
0
TEXT
5
885
100
AcDbEntity
8
F-F
62
3
370
-3
100
AcDbText
10
872.996
20
44.738
30
0.0
40
4.923
1
年　　月　　日
41
0.999
50
0.000
100
AcDbText
0
MTEXT
5
886
100
AcDbEntity
8
F-F
62
3
370
-3
100
AcDbMText
10
885.548
20
33.768
30
0.0
40
4.649
41
0.000
71
7
72
1
1
\W1.134;{\W0.817;.}　{\W0.817; }　{\W0.817;.}
7
STANDARD
11
1.00000
21
0.00000
31
0.0
0
MTEXT
5
887
100
AcDbEntity
8
F-F
62
3
370
-3
100
AcDbMText
10
1248.433
20
61.685
30
0.0
40
4.649
41
0.000
71
7
72
1
1
\W1.134;{\W0.817;.}　　{\W0.817;.}　
7
STANDARD
11
1.00000
21
0.00000
31
0.0
0
TEXT
5
888
100
AcDbEntity
8
F-F
62
3
370
-3
100
AcDbText
10
1567.012
20
41.647
30
0.0
40
6.564
1
Ａ１－１／２　
41
0.963
50
0.000
100
AcDbText
0
TEXT
5
889
100
AcDbEntity
8
F-F
62
3
370
-3
100
AcDbText
10
1567.012
20
26.832
30
0.0
40
6.564
1
Ａ３－１／４　
41
0.963
50
0.000
100
AcDbText
0
TEXT
5
88a
100
AcDbEntity
8
0-00
62
3
370
-3
100
AcDbText
10
409.888
20
982.183
30
0.0
40
9.846
41
0.999
50
0.000
1
１０
72
1
11
423.538
21
981.089
31
0.0
100
AcDbText
73
1
0
MTEXT
5
88b
100
AcDbEntity
8
0-00
62
3
370
-3
100
AcDbMText
10
474.689
20
1001.582
30
0.0
40
9.299
41
0.000
71
7
72
1
1
\W1.134;{\W0.817;2.5}以上
7
STANDARD
11
1.00000
21
0.00000
31
0.0
0
TEXT
5
88c
100
AcDbEntity
8
0-00
62
3
370
-3
100
AcDbText
10
632.424
20
812.889
30
0.0
40
8.205
1
野地板材
41
0.942
50
0.000
100
AcDbText
0
TEXT
5
88d
100
AcDbEntity
8
0-00
62
3
370
-3
100
AcDbText
10
540.549
20
789.393
30
0.0
40
8.205
1
アスファルトルーフィング９４０
41
0.942
50
0.000
100
AcDbText
0
TEXT
5
88e
100
AcDbEntity
8
0-6_2_5
62
3
370
-3
100
AcDbText
10
1455.831
20
325.648
30
0.0
40
8.205
1
野地板材
41
0.942
50
0.000
100
AcDbText
0
TEXT
5
88f
100
AcDbEntity
8
0-6_2_5
62
3
370
-3
100
AcDbText
10
1396.504
20
281.735
30
0.0
40
8.205
1
アスファルトルーフィング９４０
41
0.942
50
0.000
100
AcDbText
0
TEXT
5
890
100
AcDbEntity
8
0-6_2_5
62
3
370
-3
100
AcDbText
10
1269.575
20
214.095
30
0.0
40
8.205
1
鼻隠し
41
0.942
50
0.000
100
AcDbText
0
TEXT
5
891
100
AcDbEntity
8
0-6_2_5
62
3
370
-3
100
AcDbText
10
1395.007
20
174.148
30
0.0
40
8.205
1
軒天
41
0.942
50
0.000
100
AcDbText
0
TEXT
5
892
100
AcDbEntity
8
F-F
62
3
370
-3
100
AcDbText
10
166.668
20
28.767
30
0.0
40
6.564
1
電話（０５４）２６３－２２８０（代表）
41
0.963
50
0.000
100
AcDbText
0
TEXT
5
893
100
AcDbEntity
8
F-F
62
2
370
-3
100
AcDbText
10
122.770
20
61.158
30
0.0
40
13.127
1
小　池　弥　太　郎　商　店
41
0.963
50
0.000
100
AcDbText
0
TEXT
5
894
100
AcDbEntity
8
F-F
62
3
370
-3
100
AcDbText
10
166.664
20
43.600
30
0.0
40
6.564
1
静岡県静岡市葵区流通センター１６番
41
0.963
50
0.000
100
AcDbText
0
TEXT
5
895
100
AcDbEntity
8
F-F
62
3
370
-3
100
AcDbText
10
100.135
20
68.249
30
0.0
40
4.923
1
株
41
0.999
50
0.000
100
AcDbText
0
TEXT
5
896
100
AcDbEntity
8
F-F
62
3
370
-3
100
AcDbText
10
107.285
20
60.999
30
0.0
40
4.923
1
社
41
0.999
50
0.000
100
AcDbText
0
TEXT
5
897
100
AcDbEntity
8
F-F
62
3
370
-3
100
AcDbText
10
100.085
20
60.999
30
0.0
40
4.923
1
会
41
0.999
50
0.000
100
AcDbText
0
TEXT
5
898
100
AcDbEntity
8
F-F
62
3
370
-3
100
AcDbText
10
106.885
20
68.049
30
0.0
40
4.923
1
式
41
0.999
50
0.000
100
AcDbText
0
TEXT
5
899
100
AcDbEntity
8
0-1_2_0
62
3
370
-3
100
AcDbText
10
1345.788
20
769.016
30
0.0
40
9.846
41
0.682
50
0.000
1
300
72
1
11
1356.026
21
767.922
31
0.0
100
AcDbText
73
1
0
TEXT
5
89a
100
AcDbEntity
8
0-1_2_0
62
3
370
-3
100
AcDbText
10
1184.303
20
778.696
30
0.0
40
9.846
41
0.780
50
350.000
1
19
72
1
11
1190.834
21
776.434
31
0.0
100
AcDbText
73
1
0
TEXT
5
89b
100
AcDbEntity
8
0-1_2_0
62
3
370
-3
100
AcDbText
10
1146.332
20
808.865
30
0.0
40
9.846
41
0.776
50
352.736
1
17
72
1
11
1152.964
21
806.916
31
0.0
100
AcDbText
73
1
0
TEXT
5
89c
100
AcDbEntity
8
0-1_2_0
62
3
370
-3
100
AcDbText
10
1248.158
20
838.225
30
0.0
40
9.846
41
0.687
50
352.736
1
135
72
1
11
1258.175
21
835.845
31
0.0
100
AcDbText
73
1
0
TEXT
5
89d
100
AcDbEntity
8
0-1_2_0
62
3
370
-3
100
AcDbText
10
1402.911
20
784.016
30
0.0
40
9.846
41
0.675
50
0.000
1
185
72
1
11
1413.149
21
782.922
31
0.0
100
AcDbText
73
1
0
TEXT
5
89e
100
AcDbEntity
8
0-1_2_0
62
3
370
-3
100
AcDbText
10
1494.523
20
841.010
30
0.0
40
9.846
41
0.620
50
0.000
1
20
72
1
11
1501.348
21
839.917
31
0.0
100
AcDbText
73
1
0
TEXT
5
89f
100
AcDbEntity
8
0-1_2_0
62
3
370
-3
100
AcDbText
10
1523.023
20
841.010
30
0.0
40
9.846
41
0.617
50
0.000
1
37
72
1
11
1529.848
21
839.917
31
0.0
100
AcDbText
73
1
0
TEXT
5
8a0
100
AcDbEntity
8
0-1_2_0
62
3
370
-3
100
AcDbText
10
1574.023
20
802.010
30
0.0
40
9.846
41
0.739
50
0.000
1
15
72
1
11
1580.848
21
800.916
31
0.0
100
AcDbText
73
1
0
TEXT
5
8a1
100
AcDbEntity
8
0-00
62
3
370
-3
100
AcDbText
10
279.766
20
857.831
30
0.0
40
8.205
41
0.942
50
14.036
1
＠３００
72
1
11
300.797
21
862.149
31
0.0
100
AcDbText
73
1
0
TEXT
5
8a2
100
AcDbEntity
8
0-00
62
3
370
-3
100
AcDbText
10
509.610
20
914.955
30
0.0
40
9.846
41
0.999
50
14.036
1
３００
72
1
11
529.739
21
918.860
31
0.0
100
AcDbText
73
1
0
TEXT
5
8a3
100
AcDbEntity
8
0-00
62
3
370
-3
100
AcDbText
10
741.085
20
973.161
30
0.0
40
8.205
41
0.942
50
14.036
1
＠３００
72
1
11
762.115
21
977.479
31
0.0
100
AcDbText
73
1
0
TEXT
5
8a4
100
AcDbEntity
8
0-00
62
3
370
-3
100
AcDbText
10
354.589
20
794.715
30
0.0
40
9.846
41
0.776
50
6.772
1
17
72
1
11
361.495
21
794.434
31
0.0
100
AcDbText
73
1
0
TEXT
5
8a5
100
AcDbEntity
8
0-00
62
3
370
-3
100
AcDbText
10
645.632
20
867.476
30
0.0
40
9.846
41
0.776
50
6.772
1
17
72
1
11
652.538
21
867.194
31
0.0
100
AcDbText
73
1
0
TEXT
5
8a6
100
AcDbEntity
8
0-00
62
3
370
-3
100
AcDbText
10
737.296
20
920.655
30
0.0
40
9.846
41
0.687
50
6.772
1
135
72
1
11
747.591
21
920.776
31
0.0
100
AcDbText
73
1
0
TEXT
5
8a7
100
AcDbEntity
8
0-5_2_4
62
3
370
-3
100
AcDbText
10
863.045
20
354.552
30
0.0
40
8.205
1
野地板材
41
0.942
50
0.000
100
AcDbText
0
TEXT
5
8a8
100
AcDbEntity
8
0-5_2_4
62
3
370
-3
100
AcDbText
10
730.823
20
216.805
30
0.0
40
8.205
1
鼻隠し
41
0.942
50
0.000
100
AcDbText
0
TEXT
5
8a9
100
AcDbEntity
8
0-5_2_4
62
3
370
-3
100
AcDbText
10
856.531
20
213.256
30
0.0
40
8.205
1
軒天
41
0.942
50
0.000
100
AcDbText
0
TEXT
5
8aa
100
AcDbEntity
8
0-5_2_4
62
3
370
-3
100
AcDbText
10
802.520
20
321.938
30
0.0
40
8.205
1
アスファルトルーフィング９４０
41
0.942
50
0.000
100
AcDbText
0
MTEXT
5
8ab
100
AcDbEntity
8
0-5_2_4
62
3
370
-3
100
AcDbMText
10
621.668
20
306.655
30
0.0
40
7.749
41
0.000
71
7
72
1
1
\W1.069;軒先唐草{\W0.770; }ＥＲ{\W0.770;-}３３
7
STANDARD
11
1.00000
21
0.00000
31
0.0
0
TEXT
5
8ac
100
AcDbEntity
8
0-5_2_4
62
3
370
-3
100
AcDbText
10
707.833
20
273.896
30
0.0
40
8.205
1
軒先水切
41
0.942
50
0.000
100
AcDbText
0
TEXT
5
8ad
100
AcDbEntity
8
0-6_2_5
62
3
370
-3
100
AcDbText
10
1253.173
20
273.259
30
0.0
40
8.205
1
けらば水切
41
0.942
50
0.000
100
AcDbText
0
MTEXT
5
8ae
100
AcDbEntity
8
0-6_2_5
62
3
370
-3
100
AcDbMText
10
1177.417
20
300.092
30
0.0
40
7.749
41
0.000
71
7
72
1
1
\W1.069;けらば唐草{\W0.770; }ＥＲ{\W0.770;-}２３
7
STANDARD
11
1.00000
21
0.00000
31
0.0
0
TEXT
5
8af
100
AcDbEntity
8
1-4_2_19
62
6
370
-3
100
AcDbText
10
191.656
20
360.182
30
0.0
40
16.409
41
0.732
50
6.772
1
17
72
1
11
202.521
21
359.636
31
0.0
100
AcDbText
73
1
0
MTEXT
5
8b0
100
AcDbEntity
8
0-00
62
3
370
-3
100
AcDbMText
10
231.386
20
1118.542
30
0.0
40
7.749
41
0.000
71
7
72
1
1
\W1.069;ｅルーフ横葺{\fMS Gothic;Ⅱ}型　嵌合断面図
7
STANDARD
11
1.00000
21
0.00000
31
0.0
0
MTEXT
5
8b1
100
AcDbEntity
8
0-00
62
3
370
-3
100
AcDbMText
10
434.500
20
859.445
30
0.0
40
7.749
41
0.000
71
7
72
1
1
\W1.069;ｅルーフ横葺{\fMS Gothic;Ⅱ}型
7
STANDARD
11
1.00000
21
0.00000
31
0.0
0
MTEXT
5
8b2
100
AcDbEntity
8
0-1_2_0
62
3
370
-3
100
AcDbMText
10
1282.646
20
1118.542
30
0.0
40
7.749
41
0.000
71
7
72
1
1
\W1.069;ｅルーフ横葺{\fMS Gothic;Ⅱ}型　製品本体図
7
STANDARD
11
1.00000
21
0.00000
31
0.0
0
MTEXT
5
8b3
100
AcDbEntity
8
0-1_2_0
62
3
370
-3
100
AcDbMText
10
1193.024
20
877.924
30
0.0
40
7.749
41
0.000
71
7
72
1
1
\W1.069;ｅルーフ横葺{\fMS Gothic;Ⅱ}型　製品本体図　（ポリ裏貼はオプション：本体0.4mmのみ）
7
STANDARD
11
1.00000
21
0.00000
31
0.0
0
MTEXT
5
8b4
100
AcDbEntity
8
1-4_2_19
62
3
370
-3
100
AcDbMText
10
231.386
20
588.168
30
0.0
40
7.749
41
0.000
71
7
72
1
1
\W1.069;ｅルーフ横葺{\fMS Gothic;Ⅱ}型　嵌合断面拡大図
7
STANDARD
11
1.00000
21
0.00000
31
0.0
0
MTEXT
5
8b5
100
AcDbEntity
8
0-5_2_4
62
3
370
-3
100
AcDbMText
10
757.016
20
588.168
30
0.0
40
7.749
41
0.000
71
7
72
1
1
\W1.069;ｅルーフ横葺{\fMS Gothic;Ⅱ}型　軒先納め図
7
STANDARD
11
1.00000
21
0.00000
31
0.0
0
MTEXT
5
8b6
100
AcDbEntity
8
0-5_2_4
62
3
370
-3
100
AcDbMText
10
743.770
20
443.330
30
0.0
40
7.749
41
0.000
71
7
72
1
1
\W1.069;ｅルーフ横葺{\fMS Gothic;Ⅱ}型
7
STANDARD
11
1.00000
21
0.00000
31
0.0
0
MTEXT
5
8b7
100
AcDbEntity
8
0-6_2_5
62
3
370
-3
100
AcDbMText
10
1282.646
20
588.168
30
0.0
40
7.749
41
0.000
71
7
72
1
1
\W1.069;ｅルーフ横葺{\fMS Gothic;Ⅱ}型　けらば納め図
7
STANDARD
11
1.00000
21
0.00000
31
0.0
0
MTEXT
5
8b8
100
AcDbEntity
8
0-6_2_5
62
3
370
-3
100
AcDbMText
10
1357.043
20
438.934
30
0.0
40
7.749
41
0.000
71
7
72
1
1
\W1.069;ｅルーフ横葺{\fMS Gothic;Ⅱ}型
7
STANDARD
11
1.00000
21
0.00000
31
0.0
0
TEXT
5
8b9
100
AcDbEntity
8
F-F
62
3
370
-3
100
AcDbText
10
1222.716
20
31.565
30
0.0
40
4.923
1
MA 2015-06-12
41
0.671
50
0.000
100
AcDbText
0
MTEXT
5
8ba
100
AcDbEntity
8
F-F
62
3
370
-3
100
AcDbMText
10
1317.846
20
33.561
30
0.0
40
6.199
41
0.000
71
7
72
1
1
\W1.093;ｅルーフ横葺{\fMS Gothic;Ⅱ}型　参考納め図（１）
7
STANDARD
11
1.00000
21
0.00000
31
0.0
0
TEXT
5
8bb
100
AcDbEntity
8
F-F
62
3
370
-3
100
AcDbText
10
1550.894
20
62.052
30
0.0
40
6.564
1
ＥＲ３００－０１
41
0.963
50
0.000
100
AcDbText
0
POLYLINE
5
8bc
100
AcDbEntity
  8
0-00
6
CONTINUOUS
62
3
100
AcDb2dPolyline
66
1
10
0
20
0
70
1
40
0.800
41
0.800
0
VERTEX
5
8bd
100
AcDbEntity
  8
0-00
6
CONTINUOUS
62
3
100
AcDbVertex
100
AcDb2dVertex
10
373.614
20
878.174
30
0.0
42
1.000
0
VERTEX
5
8be
100
AcDbEntity
  8
0-00
6
CONTINUOUS
62
3
100
AcDbVertex
100
AcDb2dVertex
10
374.414
20
878.174
30
0.0
42
1.000
0
SEQEND
5
8bf
100
AcDbEntity
  8
0-00
0
POLYLINE
5
8c0
100
AcDbEntity
  8
0-00
6
CONTINUOUS
62
3
100
AcDb2dPolyline
66
1
10
0
20
0
70
1
40
0.800
41
0.800
0
VERTEX
5
8c1
100
AcDbEntity
  8
0-00
6
CONTINUOUS
62
3
100
AcDbVertex
100
AcDb2dVertex
10
664.657
20
950.935
30
0.0
42
1.000
0
VERTEX
5
8c2
100
AcDbEntity
  8
0-00
6
CONTINUOUS
62
3
100
AcDbVertex
100
AcDb2dVertex
10
665.457
20
950.935
30
0.0
42
1.000
0
SEQEND
5
8c3
100
AcDbEntity
  8
0-00
0
POLYLINE
5
8c4
100
AcDbEntity
  8
F-F
6
CONTINUOUS
62
3
100
AcDb2dPolyline
66
1
10
0
20
0
70
1
40
0.800
41
0.800
0
VERTEX
5
8c5
100
AcDbEntity
  8
F-F
6
CONTINUOUS
62
3
100
AcDbVertex
100
AcDb2dVertex
10
54.357
20
1143.641
30
0.0
42
1.000
0
VERTEX
5
8c6
100
AcDbEntity
  8
F-F
6
CONTINUOUS
62
3
100
AcDbVertex
100
AcDb2dVertex
10
55.157
20
1143.641
30
0.0
42
1.000
0
SEQEND
5
8c7
100
AcDbEntity
  8
F-F
0
POLYLINE
5
8c8
100
AcDbEntity
  8
0-1_2_0
6
CONTINUOUS
62
3
100
AcDb2dPolyline
66
1
10
0
20
0
70
1
40
0.800
41
0.800
0
VERTEX
5
8c9
100
AcDbEntity
  8
0-1_2_0
6
CONTINUOUS
62
3
100
AcDbVertex
100
AcDb2dVertex
10
1547.155
20
838.214
30
0.0
42
1.000
0
VERTEX
5
8ca
100
AcDbEntity
  8
0-1_2_0
6
CONTINUOUS
62
3
100
AcDbVertex
100
AcDb2dVertex
10
1547.955
20
838.214
30
0.0
42
1.000
0
SEQEND
5
8cb
100
AcDbEntity
  8
0-1_2_0
0
POLYLINE
5
8cc
100
AcDbEntity
  8
0-1_2_0
6
CONTINUOUS
62
3
100
AcDb2dPolyline
66
1
10
0
20
0
70
1
40
0.800
41
0.800
0
VERTEX
5
8cd
100
AcDbEntity
  8
0-1_2_0
6
CONTINUOUS
62
3
100
AcDbVertex
100
AcDb2dVertex
10
1504.920
20
766.220
30
0.0
42
1.000
0
VERTEX
5
8ce
100
AcDbEntity
  8
0-1_2_0
6
CONTINUOUS
62
3
100
AcDbVertex
100
AcDb2dVertex
10
1505.720
20
766.220
30
0.0
42
1.000
0
SEQEND
5
8cf
100
AcDbEntity
  8
0-1_2_0
0
POLYLINE
5
8d0
100
AcDbEntity
  8
0-1_2_0
6
CONTINUOUS
62
3
100
AcDb2dPolyline
66
1
10
0
20
0
70
1
40
0.800
41
0.800
0
VERTEX
5
8d1
100
AcDbEntity
  8
0-1_2_0
6
CONTINUOUS
62
3
100
AcDbVertex
100
AcDb2dVertex
10
1504.920
20
781.220
30
0.0
42
1.000
0
VERTEX
5
8d2
100
AcDbEntity
  8
0-1_2_0
6
CONTINUOUS
62
3
100
AcDbVertex
100
AcDb2dVertex
10
1505.720
20
781.220
30
0.0
42
1.000
0
SEQEND
5
8d3
100
AcDbEntity
  8
0-1_2_0
0
POLYLINE
5
8d4
100
AcDbEntity
  8
0-1_2_0
6
CONTINUOUS
62
3
100
AcDb2dPolyline
66
1
10
0
20
0
70
1
40
0.800
41
0.800
0
VERTEX
5
8d5
100
AcDbEntity
  8
0-1_2_0
6
CONTINUOUS
62
3
100
AcDbVertex
100
AcDb2dVertex
10
1319.167
20
781.220
30
0.0
42
1.000
0
VERTEX
5
8d6
100
AcDbEntity
  8
0-1_2_0
6
CONTINUOUS
62
3
100
AcDbVertex
100
AcDb2dVertex
10
1319.967
20
781.220
30
0.0
42
1.000
0
SEQEND
5
8d7
100
AcDbEntity
  8
0-1_2_0
0
POLYLINE
5
8d8
100
AcDbEntity
  8
0-1_2_0
6
CONTINUOUS
62
3
100
AcDb2dPolyline
66
1
10
0
20
0
70
1
40
0.800
41
0.800
0
VERTEX
5
8d9
100
AcDbEntity
  8
0-1_2_0
6
CONTINUOUS
62
3
100
AcDbVertex
100
AcDb2dVertex
10
1204.920
20
766.220
30
0.0
42
1.000
0
VERTEX
5
8da
100
AcDbEntity
  8
0-1_2_0
6
CONTINUOUS
62
3
100
AcDbVertex
100
AcDb2dVertex
10
1205.720
20
766.220
30
0.0
42
1.000
0
SEQEND
5
8db
100
AcDbEntity
  8
0-1_2_0
0
POLYLINE
5
8dc
100
AcDbEntity
  8
0-1_2_0
6
CONTINUOUS
62
3
100
AcDb2dPolyline
66
1
10
0
20
0
70
1
40
0.800
41
0.800
0
VERTEX
5
8dd
100
AcDbEntity
  8
0-1_2_0
6
CONTINUOUS
62
3
100
AcDbVertex
100
AcDb2dVertex
10
1162.143
20
821.117
30
0.0
42
1.000
0
VERTEX
5
8de
100
AcDbEntity
  8
0-1_2_0
6
CONTINUOUS
62
3
100
AcDbVertex
100
AcDb2dVertex
10
1162.943
20
821.117
30
0.0
42
1.000
0
SEQEND
5
8df
100
AcDbEntity
  8
0-1_2_0
0
POLYLINE
5
8e0
100
AcDbEntity
  8
0-1_2_0
6
CONTINUOUS
62
3
100
AcDb2dPolyline
66
1
10
0
20
0
70
1
40
0.800
41
0.800
0
VERTEX
5
8e1
100
AcDbEntity
  8
0-1_2_0
6
CONTINUOUS
62
3
100
AcDbVertex
100
AcDb2dVertex
10
1198.714
20
773.245
30
0.0
42
1.000
0
VERTEX
5
8e2
100
AcDbEntity
  8
0-1_2_0
6
CONTINUOUS
62
3
100
AcDbVertex
100
AcDb2dVertex
10
1199.514
20
773.245
30
0.0
42
1.000
0
SEQEND
5
8e3
100
AcDbEntity
  8
0-1_2_0
0
POLYLINE
5
8e4
100
AcDbEntity
  8
0-1_2_0
6
CONTINUOUS
62
3
100
AcDb2dPolyline
66
1
10
0
20
0
70
1
40
0.800
41
0.800
0
VERTEX
5
8e5
100
AcDbEntity
  8
0-1_2_0
6
CONTINUOUS
62
3
100
AcDbVertex
100
AcDb2dVertex
10
1191.290
20
842.604
30
0.0
42
1.000
0
VERTEX
5
8e6
100
AcDbEntity
  8
0-1_2_0
6
CONTINUOUS
62
3
100
AcDbVertex
100
AcDb2dVertex
10
1192.090
20
842.604
30
0.0
42
1.000
0
SEQEND
5
8e7
100
AcDbEntity
  8
0-1_2_0
0
POLYLINE
5
8e8
100
AcDbEntity
  8
0-1_2_0
6
CONTINUOUS
62
3
100
AcDb2dPolyline
66
1
10
0
20
0
70
1
40
0.800
41
0.800
0
VERTEX
5
8e9
100
AcDbEntity
  8
0-1_2_0
6
CONTINUOUS
62
3
100
AcDbVertex
100
AcDb2dVertex
10
1322.429
20
825.888
30
0.0
42
1.000
0
VERTEX
5
8ea
100
AcDbEntity
  8
0-1_2_0
6
CONTINUOUS
62
3
100
AcDbVertex
100
AcDb2dVertex
10
1323.229
20
825.888
30
0.0
42
1.000
0
SEQEND
5
8eb
100
AcDbEntity
  8
0-1_2_0
0
POLYLINE
5
8ec
100
AcDbEntity
  8
0-1_2_0
6
CONTINUOUS
62
3
100
AcDb2dPolyline
66
1
10
0
20
0
70
1
40
0.800
41
0.800
0
VERTEX
5
8ed
100
AcDbEntity
  8
0-1_2_0
6
CONTINUOUS
62
3
100
AcDbVertex
100
AcDb2dVertex
10
1510.155
20
838.214
30
0.0
42
1.000
0
VERTEX
5
8ee
100
AcDbEntity
  8
0-1_2_0
6
CONTINUOUS
62
3
100
AcDbVertex
100
AcDb2dVertex
10
1510.955
20
838.214
30
0.0
42
1.000
0
SEQEND
5
8ef
100
AcDbEntity
  8
0-1_2_0
0
POLYLINE
5
8f0
100
AcDbEntity
  8
0-1_2_0
6
CONTINUOUS
62
3
100
AcDb2dPolyline
66
1
10
0
20
0
70
1
40
0.800
41
0.800
0
VERTEX
5
8f1
100
AcDbEntity
  8
0-1_2_0
6
CONTINUOUS
62
3
100
AcDbVertex
100
AcDb2dVertex
10
1490.155
20
838.214
30
0.0
42
1.000
0
VERTEX
5
8f2
100
AcDbEntity
  8
0-1_2_0
6
CONTINUOUS
62
3
100
AcDbVertex
100
AcDb2dVertex
10
1490.955
20
838.214
30
0.0
42
1.000
0
SEQEND
5
8f3
100
AcDbEntity
  8
0-1_2_0
0
POLYLINE
5
8f4
100
AcDbEntity
  8
0-1_2_0
6
CONTINUOUS
62
3
100
AcDb2dPolyline
66
1
10
0
20
0
70
1
40
0.800
41
0.800
0
VERTEX
5
8f5
100
AcDbEntity
  8
0-1_2_0
6
CONTINUOUS
62
3
100
AcDbVertex
100
AcDb2dVertex
10
1159.994
20
804.254
30
0.0
42
1.000
0
VERTEX
5
8f6
100
AcDbEntity
  8
0-1_2_0
6
CONTINUOUS
62
3
100
AcDbVertex
100
AcDb2dVertex
10
1160.794
20
804.254
30
0.0
42
1.000
0
SEQEND
5
8f7
100
AcDbEntity
  8
0-1_2_0
0
POLYLINE
5
8f8
100
AcDbEntity
  8
0-1_2_0
6
CONTINUOUS
62
3
100
AcDb2dPolyline
66
1
10
0
20
0
70
1
40
0.800
41
0.800
0
VERTEX
5
8f9
100
AcDbEntity
  8
0-1_2_0
6
CONTINUOUS
62
3
100
AcDbVertex
100
AcDb2dVertex
10
1180.002
20
776.545
30
0.0
42
1.000
0
VERTEX
5
8fa
100
AcDbEntity
  8
0-1_2_0
6
CONTINUOUS
62
3
100
AcDbVertex
100
AcDb2dVertex
10
1180.802
20
776.545
30
0.0
42
1.000
0
SEQEND
5
8fb
100
AcDbEntity
  8
0-1_2_0
0
POLYLINE
5
8fc
100
AcDbEntity
  8
0-1_2_0
6
CONTINUOUS
62
3
100
AcDb2dPolyline
66
1
10
0
20
0
70
1
40
0.800
41
0.800
0
VERTEX
5
8fd
100
AcDbEntity
  8
0-1_2_0
6
CONTINUOUS
62
3
100
AcDbVertex
100
AcDb2dVertex
10
1572.155
20
814.214
30
0.0
42
1.000
0
VERTEX
5
8fe
100
AcDbEntity
  8
0-1_2_0
6
CONTINUOUS
62
3
100
AcDbVertex
100
AcDb2dVertex
10
1572.955
20
814.214
30
0.0
42
1.000
0
SEQEND
5
8ff
100
AcDbEntity
  8
0-1_2_0
0
POLYLINE
5
900
100
AcDbEntity
  8
0-1_2_0
6
CONTINUOUS
62
3
100
AcDb2dPolyline
66
1
10
0
20
0
70
1
40
0.800
41
0.800
0
VERTEX
5
901
100
AcDbEntity
  8
0-1_2_0
6
CONTINUOUS
62
3
100
AcDbVertex
100
AcDb2dVertex
10
1572.155
20
799.214
30
0.0
42
1.000
0
VERTEX
5
902
100
AcDbEntity
  8
0-1_2_0
6
CONTINUOUS
62
3
100
AcDbVertex
100
AcDb2dVertex
10
1572.955
20
799.214
30
0.0
42
1.000
0
SEQEND
5
903
100
AcDbEntity
  8
0-1_2_0
0
POLYLINE
5
904
100
AcDbEntity
  8
0-00
6
CONTINUOUS
62
4
100
AcDb2dPolyline
66
1
10
0
20
0
70
1
40
0.800
41
0.800
0
VERTEX
5
905
100
AcDbEntity
  8
0-00
6
CONTINUOUS
62
4
100
AcDbVertex
100
AcDb2dVertex
10
394.696
20
793.845
30
0.0
42
1.000
0
VERTEX
5
906
100
AcDbEntity
  8
0-00
6
CONTINUOUS
62
4
100
AcDbVertex
100
AcDb2dVertex
10
395.496
20
793.845
30
0.0
42
1.000
0
SEQEND
5
907
100
AcDbEntity
  8
0-00
0
POLYLINE
5
908
100
AcDbEntity
  8
0-00
6
CONTINUOUS
62
4
100
AcDb2dPolyline
66
1
10
0
20
0
70
1
40
0.800
41
0.800
0
VERTEX
5
909
100
AcDbEntity
  8
0-00
6
CONTINUOUS
62
4
100
AcDbVertex
100
AcDb2dVertex
10
394.696
20
793.845
30
0.0
42
1.000
0
VERTEX
5
90a
100
AcDbEntity
  8
0-00
6
CONTINUOUS
62
4
100
AcDbVertex
100
AcDb2dVertex
10
395.496
20
793.845
30
0.0
42
1.000
0
SEQEND
5
90b
100
AcDbEntity
  8
0-00
0
POLYLINE
5
90c
100
AcDbEntity
  8
0-00
6
CONTINUOUS
62
4
100
AcDb2dPolyline
66
1
10
0
20
0
70
1
40
0.800
41
0.800
0
VERTEX
5
90d
100
AcDbEntity
  8
0-00
6
CONTINUOUS
62
4
100
AcDbVertex
100
AcDb2dVertex
10
394.696
20
793.845
30
0.0
42
1.000
0
VERTEX
5
90e
100
AcDbEntity
  8
0-00
6
CONTINUOUS
62
4
100
AcDbVertex
100
AcDb2dVertex
10
395.496
20
793.845
30
0.0
42
1.000
0
SEQEND
5
90f
100
AcDbEntity
  8
0-00
0
POLYLINE
5
910
100
AcDbEntity
  8
0-00
6
CONTINUOUS
62
4
100
AcDb2dPolyline
66
1
10
0
20
0
70
1
40
0.800
41
0.800
0
VERTEX
5
911
100
AcDbEntity
  8
0-00
6
CONTINUOUS
62
4
100
AcDbVertex
100
AcDb2dVertex
10
685.739
20
866.606
30
0.0
42
1.000
0
VERTEX
5
912
100
AcDbEntity
  8
0-00
6
CONTINUOUS
62
4
100
AcDbVertex
100
AcDb2dVertex
10
686.539
20
866.606
30
0.0
42
1.000
0
SEQEND
5
913
100
AcDbEntity
  8
0-00
0
POLYLINE
5
914
100
AcDbEntity
  8
0-00
6
CONTINUOUS
62
4
100
AcDb2dPolyline
66
1
10
0
20
0
70
1
40
0.800
41
0.800
0
VERTEX
5
915
100
AcDbEntity
  8
0-00
6
CONTINUOUS
62
4
100
AcDbVertex
100
AcDb2dVertex
10
685.739
20
866.606
30
0.0
42
1.000
0
VERTEX
5
916
100
AcDbEntity
  8
0-00
6
CONTINUOUS
62
4
100
AcDbVertex
100
AcDb2dVertex
10
686.539
20
866.606
30
0.0
42
1.000
0
SEQEND
5
917
100
AcDbEntity
  8
0-00
0
POLYLINE
5
918
100
AcDbEntity
  8
0-00
6
CONTINUOUS
62
4
100
AcDb2dPolyline
66
1
10
0
20
0
70
1
40
0.800
41
0.800
0
VERTEX
5
919
100
AcDbEntity
  8
0-00
6
CONTINUOUS
62
4
100
AcDbVertex
100
AcDb2dVertex
10
685.739
20
866.606
30
0.0
42
1.000
0
VERTEX
5
91a
100
AcDbEntity
  8
0-00
6
CONTINUOUS
62
4
100
AcDbVertex
100
AcDb2dVertex
10
686.539
20
866.606
30
0.0
42
1.000
0
SEQEND
5
91b
100
AcDbEntity
  8
0-00
0
POLYLINE
5
91c
100
AcDbEntity
  8
0-00
6
CONTINUOUS
62
3
100
AcDb2dPolyline
66
1
10
0
20
0
70
1
40
0.800
41
0.800
0
VERTEX
5
91d
100
AcDbEntity
  8
0-00
6
CONTINUOUS
62
3
100
AcDbVertex
100
AcDb2dVertex
10
366.944
20
810.534
30
0.0
42
1.000
0
VERTEX
5
91e
100
AcDbEntity
  8
0-00
6
CONTINUOUS
62
3
100
AcDbVertex
100
AcDb2dVertex
10
367.744
20
810.534
30
0.0
42
1.000
0
SEQEND
5
91f
100
AcDbEntity
  8
0-00
0
POLYLINE
5
920
100
AcDbEntity
  8
0-00
6
CONTINUOUS
62
3
100
AcDb2dPolyline
66
1
10
0
20
0
70
1
40
0.800
41
0.800
0
VERTEX
5
921
100
AcDbEntity
  8
0-00
6
CONTINUOUS
62
3
100
AcDbVertex
100
AcDb2dVertex
10
368.949
20
793.652
30
0.0
42
1.000
0
VERTEX
5
922
100
AcDbEntity
  8
0-00
6
CONTINUOUS
62
3
100
AcDbVertex
100
AcDb2dVertex
10
369.749
20
793.652
30
0.0
42
1.000
0
SEQEND
5
923
100
AcDbEntity
  8
0-00
0
POLYLINE
5
924
100
AcDbEntity
  8
0-00
6
CONTINUOUS
62
3
100
AcDb2dPolyline
66
1
10
0
20
0
70
1
40
0.800
41
0.800
0
VERTEX
5
925
100
AcDbEntity
  8
0-00
6
CONTINUOUS
62
3
100
AcDbVertex
100
AcDb2dVertex
10
657.987
20
883.294
30
0.0
42
1.000
0
VERTEX
5
926
100
AcDbEntity
  8
0-00
6
CONTINUOUS
62
3
100
AcDbVertex
100
AcDb2dVertex
10
658.787
20
883.294
30
0.0
42
1.000
0
SEQEND
5
927
100
AcDbEntity
  8
0-00
0
POLYLINE
5
928
100
AcDbEntity
  8
0-00
6
CONTINUOUS
62
3
100
AcDb2dPolyline
66
1
10
0
20
0
70
1
40
0.800
41
0.800
0
VERTEX
5
929
100
AcDbEntity
  8
0-00
6
CONTINUOUS
62
3
100
AcDbVertex
100
AcDb2dVertex
10
659.992
20
866.413
30
0.0
42
1.000
0
VERTEX
5
92a
100
AcDbEntity
  8
0-00
6
CONTINUOUS
62
3
100
AcDbVertex
100
AcDb2dVertex
10
660.792
20
866.413
30
0.0
42
1.000
0
SEQEND
5
92b
100
AcDbEntity
  8
0-00
0
POLYLINE
5
92c
100
AcDbEntity
  8
0-00
6
CONTINUOUS
62
3
100
AcDb2dPolyline
66
1
10
0
20
0
70
1
40
0.800
41
0.800
0
VERTEX
5
92d
100
AcDbEntity
  8
0-00
6
CONTINUOUS
62
3
100
AcDbVertex
100
AcDb2dVertex
10
681.052
20
911.209
30
0.0
42
1.000
0
VERTEX
5
92e
100
AcDbEntity
  8
0-00
6
CONTINUOUS
62
3
100
AcDbVertex
100
AcDb2dVertex
10
681.852
20
911.209
30
0.0
42
1.000
0
SEQEND
5
92f
100
AcDbEntity
  8
0-00
0
POLYLINE
5
930
100
AcDbEntity
  8
0-00
6
CONTINUOUS
62
3
100
AcDb2dPolyline
66
1
10
0
20
0
70
1
40
0.800
41
0.800
0
VERTEX
5
931
100
AcDbEntity
  8
0-00
6
CONTINUOUS
62
3
100
AcDbVertex
100
AcDb2dVertex
10
812.330
20
926.797
30
0.0
42
1.000
0
VERTEX
5
932
100
AcDbEntity
  8
0-00
6
CONTINUOUS
62
3
100
AcDbVertex
100
AcDb2dVertex
10
813.130
20
926.797
30
0.0
42
1.000
0
SEQEND
5
933
100
AcDbEntity
  8
0-00
0
POLYLINE
5
934
100
AcDbEntity
  8
0-5_2_4
6
CONTINUOUS
62
4
100
AcDb2dPolyline
66
1
10
0
20
0
70
1
40
0.800
41
0.800
0
VERTEX
5
935
100
AcDbEntity
  8
0-5_2_4
6
CONTINUOUS
62
4
100
AcDbVertex
100
AcDb2dVertex
10
694.924
20
362.779
30
0.0
42
1.000
0
VERTEX
5
936
100
AcDbEntity
  8
0-5_2_4
6
CONTINUOUS
62
4
100
AcDbVertex
100
AcDb2dVertex
10
695.724
20
362.779
30
0.0
42
1.000
0
SEQEND
5
937
100
AcDbEntity
  8
0-5_2_4
0
POLYLINE
5
938
100
AcDbEntity
  8
1-4_2_19
6
CONTINUOUS
62
4
100
AcDb2dPolyline
66
1
10
0
20
0
70
1
40
0.800
41
0.800
0
VERTEX
5
939
100
AcDbEntity
  8
1-4_2_19
6
CONTINUOUS
62
4
100
AcDbVertex
100
AcDb2dVertex
10
267.859
20
352.934
30
0.0
42
1.000
0
VERTEX
5
93a
100
AcDbEntity
  8
1-4_2_19
6
CONTINUOUS
62
4
100
AcDbVertex
100
AcDb2dVertex
10
268.659
20
352.934
30
0.0
42
1.000
0
SEQEND
5
93b
100
AcDbEntity
  8
1-4_2_19
0
POLYLINE
5
93c
100
AcDbEntity
  8
1-4_2_19
6
CONTINUOUS
62
4
100
AcDb2dPolyline
66
1
10
0
20
0
70
1
40
0.800
41
0.800
0
VERTEX
5
93d
100
AcDbEntity
  8
1-4_2_19
6
CONTINUOUS
62
4
100
AcDbVertex
100
AcDb2dVertex
10
267.859
20
352.934
30
0.0
42
1.000
0
VERTEX
5
93e
100
AcDbEntity
  8
1-4_2_19
6
CONTINUOUS
62
4
100
AcDbVertex
100
AcDb2dVertex
10
268.659
20
352.934
30
0.0
42
1.000
0
SEQEND
5
93f
100
AcDbEntity
  8
1-4_2_19
0
POLYLINE
5
940
100
AcDbEntity
  8
1-4_2_19
6
CONTINUOUS
62
4
100
AcDb2dPolyline
66
1
10
0
20
0
70
1
40
0.800
41
0.800
0
VERTEX
5
941
100
AcDbEntity
  8
1-4_2_19
6
CONTINUOUS
62
4
100
AcDbVertex
100
AcDb2dVertex
10
267.859
20
352.934
30
0.0
42
1.000
0
VERTEX
5
942
100
AcDbEntity
  8
1-4_2_19
6
CONTINUOUS
62
4
100
AcDbVertex
100
AcDb2dVertex
10
268.659
20
352.934
30
0.0
42
1.000
0
SEQEND
5
943
100
AcDbEntity
  8
1-4_2_19
0
POLYLINE
5
944
100
AcDbEntity
  8
1-4_2_19
6
CONTINUOUS
62
3
100
AcDb2dPolyline
66
1
10
0
20
0
70
1
40
0.800
41
0.800
0
VERTEX
5
945
100
AcDbEntity
  8
1-4_2_19
6
CONTINUOUS
62
3
100
AcDbVertex
100
AcDb2dVertex
10
212.355
20
386.311
30
0.0
42
1.000
0
VERTEX
5
946
100
AcDbEntity
  8
1-4_2_19
6
CONTINUOUS
62
3
100
AcDbVertex
100
AcDb2dVertex
10
213.155
20
386.311
30
0.0
42
1.000
0
SEQEND
5
947
100
AcDbEntity
  8
1-4_2_19
0
POLYLINE
5
948
100
AcDbEntity
  8
1-4_2_19
6
CONTINUOUS
62
3
100
AcDb2dPolyline
66
1
10
0
20
0
70
1
40
0.800
41
0.800
0
VERTEX
5
949
100
AcDbEntity
  8
1-4_2_19
6
CONTINUOUS
62
3
100
AcDbVertex
100
AcDb2dVertex
10
216.364
20
352.548
30
0.0
42
1.000
0
VERTEX
5
94a
100
AcDbEntity
  8
1-4_2_19
6
CONTINUOUS
62
3
100
AcDbVertex
100
AcDb2dVertex
10
217.164
20
352.548
30
0.0
42
1.000
0
SEQEND
5
94b
100
AcDbEntity
  8
1-4_2_19
0
ENDSEC
 0
SECTION
  2
OBJECTS
 0
DICTIONARY
  5
C
100
AcDbDictionary
  3
ACAD_GROUP
350
D
  3
ACAD_MLINESTYLE
350
E
 0
DICTIONARY
  5
D
102
{ACAD_REACTORS
102
}
100
AcDbDictionary
 0
DICTIONARY
  5
E
102
{ACAD_REACTORS
102
}
100
AcDbDictionary
  3
STANDARD
350
13
0
MLINESTYLE
  5
13
102
{ACAD_REACTORS
102
}
100
AcDbMlineStyle
  2
STANDARD
 70
    0
3

62
256
51
90.0
52
90.0
71
0
0
ACDBPLACEHOLDER
  5
14
102
{ACAD_REACTORS
102
}
0
ENDSEC
0
EOF
