0
SECTION
2
HEADER
9
$ACADVER
1
AC1015
9
$ACADMAINTVER
 70
6
9
$DWGCODEPAGE
3
ANSI_932
9
$EXTMIN
10
0.000
20
0.000
30
0.0
9
$EXTMAX
10
1682.000
20
1188.000
30
0.0
9
$LIMMIN
10
0.000
20
0.000
9
$LIMMAX
10
1682.000
20
1188.000
9
$DIMSCALE
40
2.000000
9
$LTSCALE
40
2.000
9
$PDMODE
70
0
9
$PDSIZE
40
40.0
9
$HANDSEED
5
620a9
9
$UNITMODE
70
0
9
$VISRETAIN
70
0
9
$PLINEGEN
70
0
9
$PSLTSCALE
70
1
9
$TREEDEPTH
70
3020
9
$CMLSTYLE
2
STANDARD
9
$CMLJUST
70
0
9
$CMLSCALE
40
1.0
9
$PROXYGRAPHICS
70
1
9
$MEASUREMENT
70
0
9
$CELWEIGHT
370
-1
9
$ENDCAPS
280
0
9
$JOINSTYLE
280
0
9
$LWDISPLAY
290
0
9
$INSUNITS
70
0
9
$HYPERLINKBASE
1

9
$STYLESHEET
1

9
$XEDIT
290
1
9
$CEPSNTYPE
380
0
9
$PSTYLEMODE
290
1
9
$FINGERPRINTGUID
2
{5F082321-0195-11D3-BDFB-0060B0CD5109}
9
$VERSIONGUID
2
{12943756-294D-11D3-98C2-0060B087942D}
9
$EXTNAMES
290
1
9
$PSVPSCALE
40
0.0
9
$OLESTARTUP
290
0
0
ENDSEC
0
SECTION
  2
CLASSES
0
ENDSEC
0
SECTION
2
TABLES
0
TABLE
2
VPORT
5
190
100
AcDbSymbolTable
70
2
0
VPORT
5
191
100
AcDbSymbolTableRecord
100
AcDbViewportTableRecord
2
*ACTIVE
70
0
10
0.0
20
0.0
11
1.0
21
1.0
12
841.000
22
594.000
13
0.0
23
0.0
14
1.0
24
1.0
15
0.0
25
0.0
16
0.0
26
0.0
36
1.0
17
0.0
27
0.0
37
0.0
40
1218.841
41
2.0
42
50.0
43
0.0
44
0.0
50
0.0
51
0.0
71
0
72
1000
73
1
74
1
75
0
76
0
77
0
78
0
0
ENDTAB
0
TABLE
2
LTYPE
5
1f4
100
AcDbSymbolTable
70
9
0
LTYPE
5
1f5
100
AcDbSymbolTableRecord
100
AcDbLinetypeTableRecord
2
BYBLOCK
70
 64
3

72
 65
73
  0
40
0.0
0
LTYPE
5
1f6
100
AcDbSymbolTableRecord
100
AcDbLinetypeTableRecord
2
BYLAYER
70
 64
3

72
 65
73
  0
40
0.0
0
LTYPE
5
1f7
100
AcDbSymbolTableRecord
100
AcDbLinetypeTableRecord
2
CONTINUOUS
70
64
3
SolidLine
72
65
73
0
40
0.0
0
LTYPE
5
1f8
100
AcDbSymbolTableRecord
100
AcDbLinetypeTableRecord
2
DOT
70
64
3
--  --  --  --  --  --  --  --     
72
65
73
2
40
3.000
49
1.000
74
0
49
-2.000
74
0
0
LTYPE
5
1f9
100
AcDbSymbolTableRecord
100
AcDbLinetypeTableRecord
2
DASHED
70
64
3
----    ----    ----    ----    
72
65
73
2
40
5.000
49
2.000
74
0
49
-3.000
74
0
0
LTYPE
5
1fa
100
AcDbSymbolTableRecord
100
AcDbLinetypeTableRecord
2
DASHED2
70
64
3
------  ------  ------  ------ 
72
65
73
2
40
10.000
49
4.000
74
0
49
-6.000
74
0
0
LTYPE
5
1fb
100
AcDbSymbolTableRecord
100
AcDbLinetypeTableRecord
2
CENTER
70
64
3
----- - ----- - ----- - ----- - 
72
65
73
4
40
10.000
49
6.000
74
0
49
-3.000
74
0
49
1.000
74
0
49
-3.000
74
0
0
LTYPE
5
1fc
100
AcDbSymbolTableRecord
100
AcDbLinetypeTableRecord
2
CENTER2
70
64
3
----------  --  ----------  -- 
72
65
73
4
40
17.000
49
12.000
74
0
49
-5.000
74
0
49
2.000
74
0
49
-5.000
74
0
0
LTYPE
5
1fd
100
AcDbSymbolTableRecord
100
AcDbLinetypeTableRecord
2
PHANTOM
70
64
3
--- - - --- - - --- - - --- - -
72
65
73
6
40
13.000
49
5.000
74
0
49
-3.000
74
0
49
1.000
74
0
49
-3.000
74
0
49
1.000
74
0
49
-3.000
74
0
0
LTYPE
5
1fe
100
AcDbSymbolTableRecord
100
AcDbLinetypeTableRecord
2
PHANTOM2
70
64
3
--------  -  -  --------  -  -
72
65
73
6
40
20.000
49
6.000
74
0
49
-5.000
74
0
49
2.000
74
0
49
-5.000
74
0
49
2.000
74
0
49
-5.000
74
0
0
LTYPE
5
1ff
100
AcDbSymbolTableRecord
100
AcDbLinetypeTableRecord
2
HIDDEN
70
64
3
-   -   -   -   -   -   -   -   
72
65
73
2
40
3.000
49
0.500
74
0
49
-2.500
74
0
0
ENDTAB
0
TABLE
2
STYLE
5
200
100
AcDbSymbolTable
70
1
0
STYLE
5
201
100
AcDbSymbolTableRecord
100
AcDbTextStyleTableRecord
2
STANDARD
70
0
40
0.0
41
1.0
50
0.0
71
0
42
0.0
3
txt.shx
4
extfont.shx
0
STYLE
5
202
100
AcDbSymbolTableRecord
100
AcDbTextStyleTableRecord
2
TATEGAKI
70
4
40
0.0
41
1.0
50
0.0
71
0
42
0.0
3
txt.shx
4
extfont.shx
0
STYLE
5
203
100
AcDbSymbolTableRecord
100
AcDbTextStyleTableRecord
2
DIM
70
0
40
0.0
41
0.75
50
0.0
71
0
42
0.0
3
txt.shx
4
extfont.shx
0
STYLE
5
204
100
AcDbSymbolTableRecord
100
AcDbTextStyleTableRecord
2
_Gothic_
70
0
40
1.0
41
1.0
50
0.0
71
0
42
10.0
3

4

1001
ACAD
1000
MS Gothic
1071
32817
0
STYLE
5
205
100
AcDbSymbolTableRecord
100
AcDbTextStyleTableRecord
2
_TateGothic_
70
4
40
0.0
41
1.0
50
0.0
71
0
42
0.0
3
@MS Gothic
4

0
ENDTAB
0
TABLE
2
VIEW
5
206
100
AcDbSymbolTable
70
0
0
ENDTAB
0
TABLE
2
UCS
5
207
100
AcDbSymbolTable
70
0
0
ENDTAB
0
TABLE
2
APPID
5
208
100
AcDbSymbolTable
70
1
0
APPID
5
209
100
AcDbSymbolTableRecord
100
AcDbRegAppTableRecord
2
ACAD
70
0
0
ENDTAB
0
TABLE
2
DIMSTYLE
5
403
330
0
100
AcDbSymbolTable
70
1
100
AcDbDimStyleTable
71
0
0
DIMSTYLE
105
404
330
402
100
AcDbSymbolTableRecord
100
AcDbDimStyleTableRecord
2
JAC_DIM
70
0
41
4.000
42
0.000
44
0.0
73
0
74
0
77
1
78
8
79
2
140
0.000
170
0
171
2
172
0
173
0
174
0
175
0
176
0
177
0
178
0
270
2
271
0
272
0
273
2
274
2
340
201
275
0
280
0
281
0
282
0
283
0
284
0
285
0
286
0
287
3
288
0
0
ENDTAB
0
TABLE
2
BLOCK_RECORD
5
405
100
AcDbSymbolTable
70
0
0
BLOCK_RECORD
5
406
100
AcDbSymbolTableRecord
100
AcDbBlockTableRecord
2
*MODEL_SPACE
0
BLOCK_RECORD
5
407
100
AcDbSymbolTableRecord
100
AcDbBlockTableRecord
2
*PAPER_SPACE
0
BLOCK_RECORD
5
408
100
AcDbSymbolTableRecord
100
AcDbBlockTableRecord
2
_JACCONVERT_
0
ENDTAB
0
TABLE
2
LAYER
5
409
100
AcDbSymbolTable
70
10
0
LAYER
5
40a
100
AcDbSymbolTableRecord
100
AcDbLayerTableRecord
2
0
70
0
62
7
6
CONTINUOUS
370
-3
390
14
0
LAYER
5
40b
100
AcDbSymbolTableRecord
100
AcDbLayerTableRecord
2
0-0
70
0
62
7
6
CONTINUOUS
370
-3
390
14
0
LAYER
5
40c
100
AcDbSymbolTableRecord
100
AcDbLayerTableRecord
2
0-1
70
0
62
7
6
CONTINUOUS
370
-3
390
14
0
LAYER
5
40d
100
AcDbSymbolTableRecord
100
AcDbLayerTableRecord
2
0-2
70
0
62
7
6
CONTINUOUS
370
-3
390
14
0
LAYER
5
40e
100
AcDbSymbolTableRecord
100
AcDbLayerTableRecord
2
F-E_J_ADD
70
0
62
-7
6
CONTINUOUS
290
0
370
-3
390
14
0
LAYER
5
40f
100
AcDbSymbolTableRecord
100
AcDbLayerTableRecord
2
F-F
70
0
62
7
6
CONTINUOUS
370
-3
390
14
0
ENDTAB
0
ENDSEC
0
SECTION
2
BLOCKS
0
BLOCK
5
410
100
AcDbEntity
67
1
8
0
100
AcDbBlockBegin
2
*MODEL_SPACE
70
0
10
0.0
20
0.0
30
0.0
3
*MODEL_SPACE
1

0
ENDBLK
5
411
100
AcDbEntity
8
0
100
AcDbBlockEnd
0
BLOCK
5
412
100
AcDbEntity
67
1
8
0
100
AcDbBlockBegin
2
*PAPER_SPACE
70
0
10
0.0
20
0.0
30
0.0
3
*PAPER_SPACE
1

0
ENDBLK
5
413
100
AcDbEntity
67
1
8
0
100
AcDbBlockEnd
0
BLOCK
5
414
100
AcDbEntity
8
0
100
AcDbBlockBegin
2
_JACCONVERT_
70
2
10
0.0
20
0.0
30
0.0
3
_JACCONVERT_
1
_JACCONVERT_
0
ATTDEF
5
415
100
AcDbEntity
8
0
62
0
100
AcDbText
10
0.0
20
0.0
30
0.0
40
1.0
1
User:460950EB0890EC0964308A
100
AcDbAttributeDefinition
3

2
USER
70
8
0
ATTDEF
5
416
100
AcDbEntity
8
0
62
0
100
AcDbText
10
0.0
20
2.0
30
0.0
40
1.0
1
Date:15/05/28 07:56
100
AcDbAttributeDefinition
3

2
REVDATE
70
8
0
ATTDEF
5
417
100
AcDbEntity
8
0
62
0
100
AcDbText
10
0.0
20
4.0
30
0.0
40
1.0
1
File:Hﾙｰﾌ600W　断面図.dxf
100
AcDbAttributeDefinition
3

2
FNAME
70
8
0
ATTDEF
5
418
100
AcDbEntity
8
0
62
0
100
AcDbText
10
0.0
20
6.0
30
0.0
40
1.0
1
JacConvert Version3.09 copyright (c) 2001-2013 K.Nakahara
100
AcDbAttributeDefinition
3

2
VER
70
8
0
ENDBLK
5
419
100
AcDbEntity
67
1
8
0
100
AcDbBlockEnd
0
ENDSEC
0
SECTION
2
ENTITIES
0
LINE
5
41a
100
AcDbEntity
8
F-F
6
CONTINUOUS
62
2
100
AcDbLine
10
54.760000000000
20
23.630000000000
30
0.0
11
54.760000000000
21
1143.640000000000
31
0.0
0
LINE
5
41b
100
AcDbEntity
8
F-F
6
CONTINUOUS
62
2
100
AcDbLine
10
1284.760000000000
20
82.890000000000
30
0.0
11
1284.760000000000
21
23.630000000000
31
0.0
0
LINE
5
41c
100
AcDbEntity
8
F-F
6
CONTINUOUS
62
2
100
AcDbLine
10
1214.540000000000
20
82.890000000000
30
0.0
11
1214.540000000000
21
23.630000000000
31
0.0
0
LINE
5
41d
100
AcDbEntity
8
F-F
6
CONTINUOUS
62
2
100
AcDbLine
10
1537.120000000000
20
23.630000000000
30
0.0
11
1537.120000000000
21
82.890000000000
31
0.0
0
LINE
5
41e
100
AcDbEntity
8
F-F
6
CONTINUOUS
62
2
100
AcDbLine
10
806.890000000000
20
82.890000000000
30
0.0
11
806.890000000000
21
23.630000000000
31
0.0
0
LINE
5
41f
100
AcDbEntity
8
F-F
6
CONTINUOUS
62
2
100
AcDbLine
10
1009.740000000000
20
82.890000000000
30
0.0
11
1009.740000000000
21
23.630000000000
31
0.0
0
LINE
5
420
100
AcDbEntity
8
F-F
6
CONTINUOUS
62
2
100
AcDbLine
10
806.890000000000
20
63.140000000000
30
0.0
11
369.760000000000
21
63.140000000000
31
0.0
0
LINE
5
421
100
AcDbEntity
8
F-F
6
CONTINUOUS
62
2
100
AcDbLine
10
806.890000000000
20
43.390000000000
30
0.0
11
369.760000000000
21
43.390000000000
31
0.0
0
LINE
5
422
100
AcDbEntity
8
F-F
6
CONTINUOUS
62
2
100
AcDbLine
10
806.890000000000
20
33.510000000000
30
0.0
11
369.760000000000
21
33.510000000000
31
0.0
0
LINE
5
423
100
AcDbEntity
8
F-F
6
CONTINUOUS
62
2
100
AcDbLine
10
806.890000000000
20
73.020000000000
30
0.0
11
369.760000000000
21
73.020000000000
31
0.0
0
LINE
5
424
100
AcDbEntity
8
F-F
6
CONTINUOUS
62
2
100
AcDbLine
10
422.420000000000
20
82.890000000000
30
0.0
11
422.420000000000
21
23.630000000000
31
0.0
0
LINE
5
425
100
AcDbEntity
8
F-F
6
CONTINUOUS
62
2
100
AcDbLine
10
369.760000000000
20
82.890000000000
30
0.0
11
369.760000000000
21
23.630000000000
31
0.0
0
LINE
5
426
100
AcDbEntity
8
F-F
6
CONTINUOUS
62
2
100
AcDbLine
10
1631.650000000000
20
23.630000000000
30
0.0
11
1631.650000000000
21
1143.640000000000
31
0.0
0
LINE
5
427
100
AcDbEntity
8
F-F
6
CONTINUOUS
62
2
100
AcDbLine
10
54.760000000000
20
1143.640000000000
30
0.0
11
1631.650000000000
21
1143.640000000000
31
0.0
0
LINE
5
428
100
AcDbEntity
8
F-F
6
CONTINUOUS
62
2
100
AcDbLine
10
54.760000000000
20
23.630000000000
30
0.0
11
1631.650000000000
21
23.630000000000
31
0.0
0
LINE
5
429
100
AcDbEntity
8
F-F
6
CONTINUOUS
62
2
100
AcDbLine
10
1631.650000000000
20
82.890000000000
30
0.0
11
54.760000000000
21
82.890000000000
31
0.0
0
LINE
5
42a
100
AcDbEntity
8
F-F
6
CONTINUOUS
62
2
100
AcDbLine
10
369.760000000000
20
53.260000000000
30
0.0
11
1631.650000000000
21
53.260000000000
31
0.0
0
POLYLINE
5
42b
100
AcDbEntity
8
F-F
6
CONTINUOUS
62
  3
100
AcDb2dPolyline
66
1
10
0.0
20
0.0
30
0.0
70
0
0
VERTEX
5
42c
100
AcDbEntity
8
F-F
6
CONTINUOUS
62
  3
100
AcDbVertex
100
AcDb2dVertex
10
71.720000000000
20
59.100000000000
30
0.0
0
VERTEX
5
42d
100
AcDbEntity
8
F-F
6
CONTINUOUS
62
  3
100
AcDbVertex
100
AcDb2dVertex
10
71.720000000000
20
75.100000000000
30
0.0
0
VERTEX
5
42e
100
AcDbEntity
8
F-F
6
CONTINUOUS
62
  3
100
AcDbVertex
100
AcDb2dVertex
10
87.720000000000
20
75.100000000000
30
0.0
0
VERTEX
5
42f
100
AcDbEntity
8
F-F
6
CONTINUOUS
62
  3
100
AcDbVertex
100
AcDb2dVertex
10
87.720000000000
20
59.100000000000
30
0.0
0
VERTEX
5
430
100
AcDbEntity
8
F-F
6
CONTINUOUS
62
  3
100
AcDbVertex
100
AcDb2dVertex
10
71.720000000000
20
59.100000000000
30
0.0
0
SEQEND
5
431
100
AcDbEntity
8
F-F
0
LINE
5
432
100
AcDbEntity
8
F-F
6
CONTINUOUS
62
3
100
AcDbLine
10
73.320000000000
20
61.260000000000
30
0.0
11
73.320000000000
21
73.500000000000
31
0.0
0
LINE
5
433
100
AcDbEntity
8
F-F
6
CONTINUOUS
62
3
100
AcDbLine
10
86.120000000000
20
60.700000000000
30
0.0
11
73.880000000000
21
60.700000000000
31
0.0
0
POLYLINE
5
434
100
AcDbEntity
8
F-F
6
CONTINUOUS
62
  3
100
AcDb2dPolyline
66
1
10
0.0
20
0.0
30
0.0
70
0
0
VERTEX
5
435
100
AcDbEntity
8
F-F
6
CONTINUOUS
62
  3
100
AcDbVertex
100
AcDb2dVertex
10
73.320000000000
20
73.500000000000
30
0.0
0
VERTEX
5
436
100
AcDbEntity
8
F-F
6
CONTINUOUS
62
  3
100
AcDbVertex
100
AcDb2dVertex
10
85.550000000000
20
73.500000000000
30
0.0
0
VERTEX
5
437
100
AcDbEntity
8
F-F
6
CONTINUOUS
62
  3
100
AcDbVertex
100
AcDb2dVertex
10
73.320000000000
20
61.260000000000
30
0.0
0
SEQEND
5
438
100
AcDbEntity
8
F-F
0
LINE
5
439
100
AcDbEntity
8
F-F
6
CONTINUOUS
62
3
100
AcDbLine
10
86.120000000000
20
72.930000000000
30
0.0
11
73.880000000000
21
60.700000000000
31
0.0
0
LINE
5
43a
100
AcDbEntity
8
F-F
6
CONTINUOUS
62
3
100
AcDbLine
10
86.120000000000
20
72.930000000000
30
0.0
11
86.120000000000
21
60.700000000000
31
0.0
0
LINE
5
43b
100
AcDbEntity
8
F-F
6
CONTINUOUS
62
4
100
AcDbLine
10
71.720000000000
20
74.940000000000
30
0.0
11
87.720000000000
21
74.940000000000
31
0.0
0
LINE
5
43c
100
AcDbEntity
8
F-F
6
CONTINUOUS
62
4
100
AcDbLine
10
71.720000000000
20
74.620000000000
30
0.0
11
87.720000000000
21
74.620000000000
31
0.0
0
LINE
5
43d
100
AcDbEntity
8
F-F
6
CONTINUOUS
62
4
100
AcDbLine
10
71.720000000000
20
74.300000000000
30
0.0
11
87.720000000000
21
74.300000000000
31
0.0
0
LINE
5
43e
100
AcDbEntity
8
F-F
6
CONTINUOUS
62
4
100
AcDbLine
10
71.720000000000
20
73.980000000000
30
0.0
11
87.720000000000
21
73.980000000000
31
0.0
0
LINE
5
43f
100
AcDbEntity
8
F-F
6
CONTINUOUS
62
4
100
AcDbLine
10
71.720000000000
20
73.660000000000
30
0.0
11
87.720000000000
21
73.660000000000
31
0.0
0
LINE
5
440
100
AcDbEntity
8
F-F
6
CONTINUOUS
62
4
100
AcDbLine
10
71.720000000000
20
60.540000000000
30
0.0
11
87.720000000000
21
60.540000000000
31
0.0
0
LINE
5
441
100
AcDbEntity
8
F-F
6
CONTINUOUS
62
4
100
AcDbLine
10
71.720000000000
20
60.220000000000
30
0.0
11
87.720000000000
21
60.220000000000
31
0.0
0
LINE
5
442
100
AcDbEntity
8
F-F
6
CONTINUOUS
62
4
100
AcDbLine
10
71.720000000000
20
59.900000000000
30
0.0
11
87.720000000000
21
59.900000000000
31
0.0
0
LINE
5
443
100
AcDbEntity
8
F-F
6
CONTINUOUS
62
4
100
AcDbLine
10
71.720000000000
20
59.580000000000
30
0.0
11
87.720000000000
21
59.580000000000
31
0.0
0
LINE
5
444
100
AcDbEntity
8
F-F
6
CONTINUOUS
62
4
100
AcDbLine
10
71.720000000000
20
59.260000000000
30
0.0
11
87.720000000000
21
59.260000000000
31
0.0
0
LINE
5
445
100
AcDbEntity
8
F-F
6
CONTINUOUS
62
4
100
AcDbLine
10
71.720000000000
20
61.500000000000
30
0.0
11
73.320000000000
21
61.500000000000
31
0.0
0
LINE
5
446
100
AcDbEntity
8
F-F
6
CONTINUOUS
62
4
100
AcDbLine
10
71.720000000000
20
61.820000000000
30
0.0
11
73.320000000000
21
61.820000000000
31
0.0
0
LINE
5
447
100
AcDbEntity
8
F-F
6
CONTINUOUS
62
4
100
AcDbLine
10
71.720000000000
20
62.140000000000
30
0.0
11
73.320000000000
21
62.140000000000
31
0.0
0
LINE
5
448
100
AcDbEntity
8
F-F
6
CONTINUOUS
62
4
100
AcDbLine
10
71.720000000000
20
62.460000000000
30
0.0
11
73.320000000000
21
62.460000000000
31
0.0
0
LINE
5
449
100
AcDbEntity
8
F-F
6
CONTINUOUS
62
4
100
AcDbLine
10
71.720000000000
20
62.780000000000
30
0.0
11
73.320000000000
21
62.780000000000
31
0.0
0
LINE
5
44a
100
AcDbEntity
8
F-F
6
CONTINUOUS
62
4
100
AcDbLine
10
71.720000000000
20
63.100000000000
30
0.0
11
73.320000000000
21
63.100000000000
31
0.0
0
LINE
5
44b
100
AcDbEntity
8
F-F
6
CONTINUOUS
62
4
100
AcDbLine
10
71.720000000000
20
63.420000000000
30
0.0
11
73.320000000000
21
63.420000000000
31
0.0
0
LINE
5
44c
100
AcDbEntity
8
F-F
6
CONTINUOUS
62
4
100
AcDbLine
10
71.720000000000
20
63.740000000000
30
0.0
11
73.320000000000
21
63.740000000000
31
0.0
0
LINE
5
44d
100
AcDbEntity
8
F-F
6
CONTINUOUS
62
4
100
AcDbLine
10
71.720000000000
20
64.060000000000
30
0.0
11
73.320000000000
21
64.060000000000
31
0.0
0
LINE
5
44e
100
AcDbEntity
8
F-F
6
CONTINUOUS
62
4
100
AcDbLine
10
71.720000000000
20
64.380000000000
30
0.0
11
73.320000000000
21
64.380000000000
31
0.0
0
LINE
5
44f
100
AcDbEntity
8
F-F
6
CONTINUOUS
62
4
100
AcDbLine
10
71.720000000000
20
64.700000000000
30
0.0
11
73.320000000000
21
64.700000000000
31
0.0
0
LINE
5
450
100
AcDbEntity
8
F-F
6
CONTINUOUS
62
4
100
AcDbLine
10
71.720000000000
20
65.020000000000
30
0.0
11
73.320000000000
21
65.020000000000
31
0.0
0
LINE
5
451
100
AcDbEntity
8
F-F
6
CONTINUOUS
62
4
100
AcDbLine
10
71.720000000000
20
65.340000000000
30
0.0
11
73.320000000000
21
65.340000000000
31
0.0
0
LINE
5
452
100
AcDbEntity
8
F-F
6
CONTINUOUS
62
4
100
AcDbLine
10
71.720000000000
20
65.660000000000
30
0.0
11
73.320000000000
21
65.660000000000
31
0.0
0
LINE
5
453
100
AcDbEntity
8
F-F
6
CONTINUOUS
62
4
100
AcDbLine
10
71.720000000000
20
65.980000000000
30
0.0
11
73.320000000000
21
65.980000000000
31
0.0
0
LINE
5
454
100
AcDbEntity
8
F-F
6
CONTINUOUS
62
4
100
AcDbLine
10
71.720000000000
20
66.300000000000
30
0.0
11
73.320000000000
21
66.300000000000
31
0.0
0
LINE
5
455
100
AcDbEntity
8
F-F
6
CONTINUOUS
62
4
100
AcDbLine
10
71.720000000000
20
66.620000000000
30
0.0
11
73.320000000000
21
66.620000000000
31
0.0
0
LINE
5
456
100
AcDbEntity
8
F-F
6
CONTINUOUS
62
4
100
AcDbLine
10
71.720000000000
20
66.940000000000
30
0.0
11
73.320000000000
21
66.940000000000
31
0.0
0
LINE
5
457
100
AcDbEntity
8
F-F
6
CONTINUOUS
62
4
100
AcDbLine
10
71.720000000000
20
67.260000000000
30
0.0
11
73.320000000000
21
67.260000000000
31
0.0
0
LINE
5
458
100
AcDbEntity
8
F-F
6
CONTINUOUS
62
4
100
AcDbLine
10
71.720000000000
20
67.580000000000
30
0.0
11
73.320000000000
21
67.580000000000
31
0.0
0
LINE
5
459
100
AcDbEntity
8
F-F
6
CONTINUOUS
62
4
100
AcDbLine
10
71.720000000000
20
67.900000000000
30
0.0
11
73.320000000000
21
67.900000000000
31
0.0
0
LINE
5
45a
100
AcDbEntity
8
F-F
6
CONTINUOUS
62
4
100
AcDbLine
10
71.720000000000
20
68.220000000000
30
0.0
11
73.320000000000
21
68.220000000000
31
0.0
0
LINE
5
45b
100
AcDbEntity
8
F-F
6
CONTINUOUS
62
4
100
AcDbLine
10
71.720000000000
20
68.540000000000
30
0.0
11
73.320000000000
21
68.540000000000
31
0.0
0
LINE
5
45c
100
AcDbEntity
8
F-F
6
CONTINUOUS
62
4
100
AcDbLine
10
71.720000000000
20
68.860000000000
30
0.0
11
73.320000000000
21
68.860000000000
31
0.0
0
LINE
5
45d
100
AcDbEntity
8
F-F
6
CONTINUOUS
62
4
100
AcDbLine
10
71.720000000000
20
69.820000000000
30
0.0
11
73.320000000000
21
69.820000000000
31
0.0
0
LINE
5
45e
100
AcDbEntity
8
F-F
6
CONTINUOUS
62
4
100
AcDbLine
10
71.720000000000
20
70.780000000000
30
0.0
11
73.320000000000
21
70.780000000000
31
0.0
0
LINE
5
45f
100
AcDbEntity
8
F-F
6
CONTINUOUS
62
4
100
AcDbLine
10
71.720000000000
20
71.100000000000
30
0.0
11
73.320000000000
21
71.100000000000
31
0.0
0
LINE
5
460
100
AcDbEntity
8
F-F
6
CONTINUOUS
62
4
100
AcDbLine
10
71.720000000000
20
71.420000000000
30
0.0
11
73.320000000000
21
71.420000000000
31
0.0
0
LINE
5
461
100
AcDbEntity
8
F-F
6
CONTINUOUS
62
4
100
AcDbLine
10
71.720000000000
20
71.740000000000
30
0.0
11
73.320000000000
21
71.740000000000
31
0.0
0
LINE
5
462
100
AcDbEntity
8
F-F
6
CONTINUOUS
62
4
100
AcDbLine
10
71.720000000000
20
73.340000000000
30
0.0
11
73.320000000000
21
73.340000000000
31
0.0
0
LINE
5
463
100
AcDbEntity
8
F-F
6
CONTINUOUS
62
4
100
AcDbLine
10
71.720000000000
20
73.020000000000
30
0.0
11
73.320000000000
21
73.020000000000
31
0.0
0
LINE
5
464
100
AcDbEntity
8
F-F
6
CONTINUOUS
62
4
100
AcDbLine
10
71.720000000000
20
72.700000000000
30
0.0
11
73.320000000000
21
72.700000000000
31
0.0
0
LINE
5
465
100
AcDbEntity
8
F-F
6
CONTINUOUS
62
4
100
AcDbLine
10
71.720000000000
20
72.380000000000
30
0.0
11
73.320000000000
21
72.380000000000
31
0.0
0
LINE
5
466
100
AcDbEntity
8
F-F
6
CONTINUOUS
62
4
100
AcDbLine
10
71.720000000000
20
72.060000000000
30
0.0
11
73.320000000000
21
72.060000000000
31
0.0
0
LINE
5
467
100
AcDbEntity
8
F-F
6
CONTINUOUS
62
4
100
AcDbLine
10
71.720000000000
20
70.140000000000
30
0.0
11
73.320000000000
21
70.140000000000
31
0.0
0
LINE
5
468
100
AcDbEntity
8
F-F
6
CONTINUOUS
62
4
100
AcDbLine
10
71.720000000000
20
70.460000000000
30
0.0
11
73.320000000000
21
70.460000000000
31
0.0
0
LINE
5
469
100
AcDbEntity
8
F-F
6
CONTINUOUS
62
4
100
AcDbLine
10
71.720000000000
20
69.500000000000
30
0.0
11
73.320000000000
21
69.500000000000
31
0.0
0
LINE
5
46a
100
AcDbEntity
8
F-F
6
CONTINUOUS
62
4
100
AcDbLine
10
71.720000000000
20
69.180000000000
30
0.0
11
73.320000000000
21
69.180000000000
31
0.0
0
LINE
5
46b
100
AcDbEntity
8
F-F
6
CONTINUOUS
62
4
100
AcDbLine
10
73.870000000000
20
61.820000000000
30
0.0
11
75.000000000000
21
61.820000000000
31
0.0
0
LINE
5
46c
100
AcDbEntity
8
F-F
6
CONTINUOUS
62
4
100
AcDbLine
10
73.550000000000
20
61.500000000000
30
0.0
11
74.680000000000
21
61.500000000000
31
0.0
0
LINE
5
46d
100
AcDbEntity
8
F-F
6
CONTINUOUS
62
4
100
AcDbLine
10
71.720000000000
20
61.180000000000
30
0.0
11
74.360000000000
21
61.180000000000
31
0.0
0
LINE
5
46e
100
AcDbEntity
8
F-F
6
CONTINUOUS
62
4
100
AcDbLine
10
71.720000000000
20
60.860000000000
30
0.0
11
74.040000000000
21
60.860000000000
31
0.0
0
LINE
5
46f
100
AcDbEntity
8
F-F
6
CONTINUOUS
62
4
100
AcDbLine
10
75.790000000000
20
63.740000000000
30
0.0
11
76.920000000000
21
63.740000000000
31
0.0
0
LINE
5
470
100
AcDbEntity
8
F-F
6
CONTINUOUS
62
4
100
AcDbLine
10
75.470000000000
20
63.420000000000
30
0.0
11
76.600000000000
21
63.420000000000
31
0.0
0
LINE
5
471
100
AcDbEntity
8
F-F
6
CONTINUOUS
62
4
100
AcDbLine
10
75.150000000000
20
63.100000000000
30
0.0
11
76.280000000000
21
63.100000000000
31
0.0
0
LINE
5
472
100
AcDbEntity
8
F-F
6
CONTINUOUS
62
4
100
AcDbLine
10
74.830000000000
20
62.780000000000
30
0.0
11
75.960000000000
21
62.780000000000
31
0.0
0
LINE
5
473
100
AcDbEntity
8
F-F
6
CONTINUOUS
62
4
100
AcDbLine
10
74.510000000000
20
62.460000000000
30
0.0
11
75.640000000000
21
62.460000000000
31
0.0
0
LINE
5
474
100
AcDbEntity
8
F-F
6
CONTINUOUS
62
4
100
AcDbLine
10
74.190000000000
20
62.140000000000
30
0.0
11
75.320000000000
21
62.140000000000
31
0.0
0
LINE
5
475
100
AcDbEntity
8
F-F
6
CONTINUOUS
62
4
100
AcDbLine
10
73.320000000000
20
73.500000000000
30
0.0
11
73.320000000000
21
73.820000000000
31
0.0
0
LINE
5
476
100
AcDbEntity
8
F-F
6
CONTINUOUS
62
4
100
AcDbLine
10
86.120000000000
20
61.500000000000
30
0.0
11
87.720000000000
21
61.500000000000
31
0.0
0
LINE
5
477
100
AcDbEntity
8
F-F
6
CONTINUOUS
62
4
100
AcDbLine
10
86.120000000000
20
61.820000000000
30
0.0
11
87.720000000000
21
61.820000000000
31
0.0
0
LINE
5
478
100
AcDbEntity
8
F-F
6
CONTINUOUS
62
4
100
AcDbLine
10
86.120000000000
20
62.140000000000
30
0.0
11
87.720000000000
21
62.140000000000
31
0.0
0
LINE
5
479
100
AcDbEntity
8
F-F
6
CONTINUOUS
62
4
100
AcDbLine
10
86.120000000000
20
62.460000000000
30
0.0
11
87.720000000000
21
62.460000000000
31
0.0
0
LINE
5
47a
100
AcDbEntity
8
F-F
6
CONTINUOUS
62
4
100
AcDbLine
10
86.120000000000
20
62.780000000000
30
0.0
11
87.720000000000
21
62.780000000000
31
0.0
0
LINE
5
47b
100
AcDbEntity
8
F-F
6
CONTINUOUS
62
4
100
AcDbLine
10
86.120000000000
20
63.100000000000
30
0.0
11
87.720000000000
21
63.100000000000
31
0.0
0
LINE
5
47c
100
AcDbEntity
8
F-F
6
CONTINUOUS
62
4
100
AcDbLine
10
86.120000000000
20
63.420000000000
30
0.0
11
87.720000000000
21
63.420000000000
31
0.0
0
LINE
5
47d
100
AcDbEntity
8
F-F
6
CONTINUOUS
62
4
100
AcDbLine
10
86.120000000000
20
63.740000000000
30
0.0
11
87.720000000000
21
63.740000000000
31
0.0
0
LINE
5
47e
100
AcDbEntity
8
F-F
6
CONTINUOUS
62
4
100
AcDbLine
10
86.120000000000
20
64.060000000000
30
0.0
11
87.720000000000
21
64.060000000000
31
0.0
0
LINE
5
47f
100
AcDbEntity
8
F-F
6
CONTINUOUS
62
4
100
AcDbLine
10
86.120000000000
20
64.380000000000
30
0.0
11
87.720000000000
21
64.380000000000
31
0.0
0
LINE
5
480
100
AcDbEntity
8
F-F
6
CONTINUOUS
62
4
100
AcDbLine
10
86.120000000000
20
64.700000000000
30
0.0
11
87.720000000000
21
64.700000000000
31
0.0
0
LINE
5
481
100
AcDbEntity
8
F-F
6
CONTINUOUS
62
4
100
AcDbLine
10
86.120000000000
20
65.020000000000
30
0.0
11
87.720000000000
21
65.020000000000
31
0.0
0
LINE
5
482
100
AcDbEntity
8
F-F
6
CONTINUOUS
62
4
100
AcDbLine
10
86.120000000000
20
65.340000000000
30
0.0
11
87.720000000000
21
65.340000000000
31
0.0
0
LINE
5
483
100
AcDbEntity
8
F-F
6
CONTINUOUS
62
4
100
AcDbLine
10
86.120000000000
20
65.980000000000
30
0.0
11
87.720000000000
21
65.980000000000
31
0.0
0
LINE
5
484
100
AcDbEntity
8
F-F
6
CONTINUOUS
62
4
100
AcDbLine
10
86.120000000000
20
66.300000000000
30
0.0
11
87.720000000000
21
66.300000000000
31
0.0
0
LINE
5
485
100
AcDbEntity
8
F-F
6
CONTINUOUS
62
4
100
AcDbLine
10
86.120000000000
20
66.620000000000
30
0.0
11
87.720000000000
21
66.620000000000
31
0.0
0
LINE
5
486
100
AcDbEntity
8
F-F
6
CONTINUOUS
62
4
100
AcDbLine
10
86.120000000000
20
66.940000000000
30
0.0
11
87.720000000000
21
66.940000000000
31
0.0
0
LINE
5
487
100
AcDbEntity
8
F-F
6
CONTINUOUS
62
4
100
AcDbLine
10
86.120000000000
20
67.260000000000
30
0.0
11
87.720000000000
21
67.260000000000
31
0.0
0
LINE
5
488
100
AcDbEntity
8
F-F
6
CONTINUOUS
62
4
100
AcDbLine
10
86.120000000000
20
67.580000000000
30
0.0
11
87.720000000000
21
67.580000000000
31
0.0
0
LINE
5
489
100
AcDbEntity
8
F-F
6
CONTINUOUS
62
4
100
AcDbLine
10
86.120000000000
20
67.900000000000
30
0.0
11
87.720000000000
21
67.900000000000
31
0.0
0
LINE
5
48a
100
AcDbEntity
8
F-F
6
CONTINUOUS
62
4
100
AcDbLine
10
86.120000000000
20
68.220000000000
30
0.0
11
87.720000000000
21
68.220000000000
31
0.0
0
LINE
5
48b
100
AcDbEntity
8
F-F
6
CONTINUOUS
62
4
100
AcDbLine
10
86.120000000000
20
68.540000000000
30
0.0
11
87.720000000000
21
68.540000000000
31
0.0
0
LINE
5
48c
100
AcDbEntity
8
F-F
6
CONTINUOUS
62
4
100
AcDbLine
10
86.120000000000
20
68.860000000000
30
0.0
11
87.720000000000
21
68.860000000000
31
0.0
0
LINE
5
48d
100
AcDbEntity
8
F-F
6
CONTINUOUS
62
4
100
AcDbLine
10
86.120000000000
20
69.820000000000
30
0.0
11
87.720000000000
21
69.820000000000
31
0.0
0
LINE
5
48e
100
AcDbEntity
8
F-F
6
CONTINUOUS
62
4
100
AcDbLine
10
86.120000000000
20
70.780000000000
30
0.0
11
87.720000000000
21
70.780000000000
31
0.0
0
LINE
5
48f
100
AcDbEntity
8
F-F
6
CONTINUOUS
62
4
100
AcDbLine
10
86.120000000000
20
71.100000000000
30
0.0
11
87.720000000000
21
71.100000000000
31
0.0
0
LINE
5
490
100
AcDbEntity
8
F-F
6
CONTINUOUS
62
4
100
AcDbLine
10
86.120000000000
20
71.420000000000
30
0.0
11
87.720000000000
21
71.420000000000
31
0.0
0
LINE
5
491
100
AcDbEntity
8
F-F
6
CONTINUOUS
62
4
100
AcDbLine
10
86.120000000000
20
71.740000000000
30
0.0
11
87.720000000000
21
71.740000000000
31
0.0
0
LINE
5
492
100
AcDbEntity
8
F-F
6
CONTINUOUS
62
4
100
AcDbLine
10
86.120000000000
20
72.700000000000
30
0.0
11
87.720000000000
21
72.700000000000
31
0.0
0
LINE
5
493
100
AcDbEntity
8
F-F
6
CONTINUOUS
62
4
100
AcDbLine
10
86.120000000000
20
72.380000000000
30
0.0
11
87.720000000000
21
72.380000000000
31
0.0
0
LINE
5
494
100
AcDbEntity
8
F-F
6
CONTINUOUS
62
4
100
AcDbLine
10
86.120000000000
20
72.060000000000
30
0.0
11
87.720000000000
21
72.060000000000
31
0.0
0
LINE
5
495
100
AcDbEntity
8
F-F
6
CONTINUOUS
62
4
100
AcDbLine
10
86.120000000000
20
70.140000000000
30
0.0
11
87.720000000000
21
70.140000000000
31
0.0
0
LINE
5
496
100
AcDbEntity
8
F-F
6
CONTINUOUS
62
4
100
AcDbLine
10
86.120000000000
20
70.460000000000
30
0.0
11
87.720000000000
21
70.460000000000
31
0.0
0
LINE
5
497
100
AcDbEntity
8
F-F
6
CONTINUOUS
62
4
100
AcDbLine
10
86.120000000000
20
69.500000000000
30
0.0
11
87.720000000000
21
69.500000000000
31
0.0
0
LINE
5
498
100
AcDbEntity
8
F-F
6
CONTINUOUS
62
4
100
AcDbLine
10
86.120000000000
20
69.180000000000
30
0.0
11
87.720000000000
21
69.180000000000
31
0.0
0
LINE
5
499
100
AcDbEntity
8
F-F
6
CONTINUOUS
62
4
100
AcDbLine
10
86.120000000000
20
60.860000000000
30
0.0
11
87.720000000000
21
60.860000000000
31
0.0
0
LINE
5
49a
100
AcDbEntity
8
F-F
6
CONTINUOUS
62
4
100
AcDbLine
10
86.120000000000
20
61.180000000000
30
0.0
11
87.720000000000
21
61.180000000000
31
0.0
0
LINE
5
49b
100
AcDbEntity
8
F-F
6
CONTINUOUS
62
4
100
AcDbLine
10
85.390000000000
20
73.340000000000
30
0.0
11
87.720000000000
21
73.340000000000
31
0.0
0
LINE
5
49c
100
AcDbEntity
8
F-F
6
CONTINUOUS
62
4
100
AcDbLine
10
85.070000000000
20
73.020000000000
30
0.0
11
87.720000000000
21
73.020000000000
31
0.0
0
LINE
5
49d
100
AcDbEntity
8
F-F
6
CONTINUOUS
62
4
100
AcDbLine
10
77.070000000000
20
65.020000000000
30
0.0
11
78.200000000000
21
65.020000000000
31
0.0
0
LINE
5
49e
100
AcDbEntity
8
F-F
6
CONTINUOUS
62
4
100
AcDbLine
10
76.750000000000
20
64.700000000000
30
0.0
11
77.880000000000
21
64.700000000000
31
0.0
0
LINE
5
49f
100
AcDbEntity
8
F-F
6
CONTINUOUS
62
4
100
AcDbLine
10
76.430000000000
20
64.380000000000
30
0.0
11
77.560000000000
21
64.380000000000
31
0.0
0
LINE
5
4a0
100
AcDbEntity
8
F-F
6
CONTINUOUS
62
4
100
AcDbLine
10
76.110000000000
20
64.060000000000
30
0.0
11
77.240000000000
21
64.060000000000
31
0.0
0
LINE
5
4a1
100
AcDbEntity
8
F-F
6
CONTINUOUS
62
4
100
AcDbLine
10
78.350000000000
20
66.300000000000
30
0.0
11
79.480000000000
21
66.300000000000
31
0.0
0
LINE
5
4a2
100
AcDbEntity
8
F-F
6
CONTINUOUS
62
4
100
AcDbLine
10
78.030000000000
20
65.980000000000
30
0.0
11
79.160000000000
21
65.980000000000
31
0.0
0
LINE
5
4a3
100
AcDbEntity
8
F-F
6
CONTINUOUS
62
4
100
AcDbLine
10
77.710000000000
20
65.660000000000
30
0.0
11
78.840000000000
21
65.660000000000
31
0.0
0
LINE
5
4a4
100
AcDbEntity
8
F-F
6
CONTINUOUS
62
4
100
AcDbLine
10
77.390000000000
20
65.340000000000
30
0.0
11
78.520000000000
21
65.340000000000
31
0.0
0
LINE
5
4a5
100
AcDbEntity
8
F-F
6
CONTINUOUS
62
4
100
AcDbLine
10
79.630000000000
20
67.580000000000
30
0.0
11
80.760000000000
21
67.580000000000
31
0.0
0
LINE
5
4a6
100
AcDbEntity
8
F-F
6
CONTINUOUS
62
4
100
AcDbLine
10
79.310000000000
20
67.260000000000
30
0.0
11
80.440000000000
21
67.260000000000
31
0.0
0
LINE
5
4a7
100
AcDbEntity
8
F-F
6
CONTINUOUS
62
4
100
AcDbLine
10
78.990000000000
20
66.940000000000
30
0.0
11
80.120000000000
21
66.940000000000
31
0.0
0
LINE
5
4a8
100
AcDbEntity
8
F-F
6
CONTINUOUS
62
4
100
AcDbLine
10
78.670000000000
20
66.620000000000
30
0.0
11
79.800000000000
21
66.620000000000
31
0.0
0
LINE
5
4a9
100
AcDbEntity
8
F-F
6
CONTINUOUS
62
4
100
AcDbLine
10
80.910000000000
20
68.860000000000
30
0.0
11
82.040000000000
21
68.860000000000
31
0.0
0
LINE
5
4aa
100
AcDbEntity
8
F-F
6
CONTINUOUS
62
4
100
AcDbLine
10
80.590000000000
20
68.540000000000
30
0.0
11
81.720000000000
21
68.540000000000
31
0.0
0
LINE
5
4ab
100
AcDbEntity
8
F-F
6
CONTINUOUS
62
4
100
AcDbLine
10
80.270000000000
20
68.220000000000
30
0.0
11
81.400000000000
21
68.220000000000
31
0.0
0
LINE
5
4ac
100
AcDbEntity
8
F-F
6
CONTINUOUS
62
4
100
AcDbLine
10
79.950000000000
20
67.900000000000
30
0.0
11
81.080000000000
21
67.900000000000
31
0.0
0
LINE
5
4ad
100
AcDbEntity
8
F-F
6
CONTINUOUS
62
4
100
AcDbLine
10
82.190000000000
20
70.140000000000
30
0.0
11
83.320000000000
21
70.140000000000
31
0.0
0
LINE
5
4ae
100
AcDbEntity
8
F-F
6
CONTINUOUS
62
4
100
AcDbLine
10
81.870000000000
20
69.820000000000
30
0.0
11
83.000000000000
21
69.820000000000
31
0.0
0
LINE
5
4af
100
AcDbEntity
8
F-F
6
CONTINUOUS
62
4
100
AcDbLine
10
81.550000000000
20
69.500000000000
30
0.0
11
82.680000000000
21
69.500000000000
31
0.0
0
LINE
5
4b0
100
AcDbEntity
8
F-F
6
CONTINUOUS
62
4
100
AcDbLine
10
81.230000000000
20
69.180000000000
30
0.0
11
82.360000000000
21
69.180000000000
31
0.0
0
LINE
5
4b1
100
AcDbEntity
8
F-F
6
CONTINUOUS
62
4
100
AcDbLine
10
83.470000000000
20
71.420000000000
30
0.0
11
84.600000000000
21
71.420000000000
31
0.0
0
LINE
5
4b2
100
AcDbEntity
8
F-F
6
CONTINUOUS
62
4
100
AcDbLine
10
83.150000000000
20
71.100000000000
30
0.0
11
84.280000000000
21
71.100000000000
31
0.0
0
LINE
5
4b3
100
AcDbEntity
8
F-F
6
CONTINUOUS
62
4
100
AcDbLine
10
82.830000000000
20
70.780000000000
30
0.0
11
83.960000000000
21
70.780000000000
31
0.0
0
LINE
5
4b4
100
AcDbEntity
8
F-F
6
CONTINUOUS
62
4
100
AcDbLine
10
82.510000000000
20
70.460000000000
30
0.0
11
83.640000000000
21
70.460000000000
31
0.0
0
LINE
5
4b5
100
AcDbEntity
8
F-F
6
CONTINUOUS
62
4
100
AcDbLine
10
84.750000000000
20
72.700000000000
30
0.0
11
85.880000000000
21
72.700000000000
31
0.0
0
LINE
5
4b6
100
AcDbEntity
8
F-F
6
CONTINUOUS
62
4
100
AcDbLine
10
84.430000000000
20
72.380000000000
30
0.0
11
85.560000000000
21
72.380000000000
31
0.0
0
LINE
5
4b7
100
AcDbEntity
8
F-F
6
CONTINUOUS
62
4
100
AcDbLine
10
84.110000000000
20
72.060000000000
30
0.0
11
85.240000000000
21
72.060000000000
31
0.0
0
LINE
5
4b8
100
AcDbEntity
8
F-F
6
CONTINUOUS
62
4
100
AcDbLine
10
83.790000000000
20
71.740000000000
30
0.0
11
84.920000000000
21
71.740000000000
31
0.0
0
LINE
5
4b9
100
AcDbEntity
8
F-F
6
CONTINUOUS
62
4
100
AcDbLine
10
86.120000000000
20
65.660000000000
30
0.0
11
87.720000000000
21
65.660000000000
31
0.0
0
LINE
5
4ba
100
AcDbEntity
8
0-1
6
DOT
62
7
100
AcDbLine
10
402.770000000000
20
475.400000000000
30
0.0
11
357.770000000000
21
475.400000000000
31
0.0
0
LINE
5
4bb
100
AcDbEntity
8
0-1
6
CONTINUOUS
62
7
100
AcDbLine
10
398.380000000000
20
404.740000000000
30
0.0
11
398.380000000000
21
388.980000000000
31
0.0
0
LINE
5
4bc
100
AcDbEntity
8
0-1
6
DOT
62
7
100
AcDbLine
10
392.770000000000
20
497.310000000000
30
0.0
11
367.770000000000
21
497.310000000000
31
0.0
0
LINE
5
4bd
100
AcDbEntity
8
0-1
6
DOT
62
7
100
AcDbLine
10
402.770000000000
20
475.400000000000
30
0.0
11
402.770000000000
21
487.310000000000
31
0.0
0
LINE
5
4be
100
AcDbEntity
8
0-1
6
DOT
62
7
100
AcDbLine
10
357.770000000000
20
475.400000000000
30
0.0
11
357.770000000000
21
487.310000000000
31
0.0
0
LINE
5
4bf
100
AcDbEntity
8
0-1
6
DOT
62
7
100
AcDbLine
10
402.770000000000
20
475.910000000000
30
0.0
11
357.770000000000
21
475.910000000000
31
0.0
0
LINE
5
4c0
100
AcDbEntity
8
0-1
6
CONTINUOUS
62
7
100
AcDbLine
10
398.380000000000
20
388.980000000000
30
0.0
11
362.160000000000
21
388.980000000000
31
0.0
0
LINE
5
4c1
100
AcDbEntity
8
0-1
6
CONTINUOUS
62
7
100
AcDbLine
10
407.310000000000
20
442.710000000000
30
0.0
11
404.650000000000
21
441.860000000000
31
0.0
0
LINE
5
4c2
100
AcDbEntity
8
0-1
6
CONTINUOUS
62
7
100
AcDbLine
10
330.270000000000
20
372.310000000000
30
0.0
11
330.270000000000
21
361.900000000000
31
0.0
0
LINE
5
4c3
100
AcDbEntity
8
0-1
6
CONTINUOUS
62
7
100
AcDbLine
10
339.040000000000
20
389.200000000000
30
0.0
11
358.830000000000
21
451.050000000000
31
0.0
0
LINE
5
4c4
100
AcDbEntity
8
0-1
6
CONTINUOUS
62
7
100
AcDbLine
10
421.500000000000
20
389.200000000000
30
0.0
11
401.710000000000
21
451.050000000000
31
0.0
0
LINE
5
4c5
100
AcDbEntity
8
0-1
6
CONTINUOUS
62
7
100
AcDbLine
10
404.450000000000
20
451.670000000000
30
0.0
11
401.780000000000
21
450.810000000000
31
0.0
0
LINE
5
4c6
100
AcDbEntity
8
0-1
6
CONTINUOUS
62
7
100
AcDbLine
10
330.270000000000
20
372.310000000000
30
0.0
11
339.040000000000
21
389.200000000000
31
0.0
0
LINE
5
4c7
100
AcDbEntity
8
0-1
6
CONTINUOUS
62
7
100
AcDbLine
10
430.270000000000
20
372.310000000000
30
0.0
11
421.500000000000
21
389.200000000000
31
0.0
0
LINE
5
4c8
100
AcDbEntity
8
0-1
6
CONTINUOUS
62
7
100
AcDbLine
10
430.270000000000
20
372.310000000000
30
0.0
11
430.270000000000
21
361.900000000000
31
0.0
0
LINE
5
4c9
100
AcDbEntity
8
0-1
6
CONTINUOUS
62
7
100
AcDbLine
10
365.360000000000
20
404.740000000000
30
0.0
11
365.360000000000
21
388.980000000000
31
0.0
0
LINE
5
4ca
100
AcDbEntity
8
0-1
6
CONTINUOUS
62
7
100
AcDbLine
10
395.180000000000
20
404.740000000000
30
0.0
11
395.180000000000
21
388.980000000000
31
0.0
0
LINE
5
4cb
100
AcDbEntity
8
0-1
6
CONTINUOUS
62
7
100
AcDbLine
10
353.230000000000
20
442.710000000000
30
0.0
11
355.890000000000
21
441.860000000000
31
0.0
0
LINE
5
4cc
100
AcDbEntity
8
0-1
6
CONTINUOUS
62
7
100
AcDbLine
10
356.090000000000
20
451.670000000000
30
0.0
11
358.760000000000
21
450.810000000000
31
0.0
0
LINE
5
4cd
100
AcDbEntity
8
0-1
6
CONTINUOUS
62
7
100
AcDbLine
10
362.160000000000
20
404.740000000000
30
0.0
11
362.160000000000
21
388.980000000000
31
0.0
0
LINE
5
4ce
100
AcDbEntity
8
0-1
6
CENTER
62
7
100
AcDbLine
10
362.270000000000
20
406.810000000000
30
0.0
11
398.270000000000
21
406.810000000000
31
0.0
0
LINE
5
4cf
100
AcDbEntity
8
0-1
6
CONTINUOUS
62
7
100
AcDbLine
10
330.270000000000
20
361.810000000000
30
0.0
11
430.270000000000
21
361.810000000000
31
0.0
0
LINE
5
4d0
100
AcDbEntity
8
0-1
6
CONTINUOUS
62
7
100
AcDbLine
10
420.820000000000
20
391.340000000000
30
0.0
11
398.380000000000
21
391.340000000000
31
0.0
0
LINE
5
4d1
100
AcDbEntity
8
0-1
6
CONTINUOUS
62
7
100
AcDbLine
10
339.720000000000
20
391.340000000000
30
0.0
11
362.160000000000
21
391.340000000000
31
0.0
0
LINE
5
4d2
100
AcDbEntity
8
0-1
6
CONTINUOUS
62
7
100
AcDbLine
10
360.270000000000
20
465.280000000000
30
0.0
11
358.830000000000
21
451.050000000000
31
0.0
0
LINE
5
4d3
100
AcDbEntity
8
0-1
6
CONTINUOUS
62
7
100
AcDbLine
10
400.270000000000
20
465.280000000000
30
0.0
11
401.710000000000
21
451.050000000000
31
0.0
0
LINE
5
4d4
100
AcDbEntity
8
0-1
6
CONTINUOUS
62
7
100
AcDbLine
10
424.090000000000
20
390.310000000000
30
0.0
11
404.450000000000
21
451.670000000000
31
0.0
0
LINE
5
4d5
100
AcDbEntity
8
0-1
6
CONTINUOUS
62
7
100
AcDbLine
10
427.520000000000
20
383.680000000000
30
0.0
11
424.110000000000
21
390.250000000000
31
0.0
0
LINE
5
4d6
100
AcDbEntity
8
0-1
6
CONTINUOUS
62
7
100
AcDbLine
10
336.450000000000
20
390.310000000000
30
0.0
11
356.090000000000
21
451.670000000000
31
0.0
0
LINE
5
4d7
100
AcDbEntity
8
0-1
6
CONTINUOUS
62
7
100
AcDbLine
10
333.020000000000
20
383.680000000000
30
0.0
11
336.430000000000
21
390.250000000000
31
0.0
0
LINE
5
4d8
100
AcDbEntity
8
0-1
6
CONTINUOUS
62
7
100
AcDbLine
10
357.770000000000
20
468.340000000000
30
0.0
11
357.770000000000
21
466.510000000000
31
0.0
0
LINE
5
4d9
100
AcDbEntity
8
0-1
6
CONTINUOUS
62
7
100
AcDbLine
10
402.770000000000
20
466.510000000000
30
0.0
11
399.390000000000
21
466.510000000000
31
0.0
0
LINE
5
4da
100
AcDbEntity
8
0-1
6
CONTINUOUS
62
7
100
AcDbLine
10
357.770000000000
20
466.510000000000
30
0.0
11
361.140000000000
21
466.510000000000
31
0.0
0
LINE
5
4db
100
AcDbEntity
8
0-1
6
CONTINUOUS
62
7
100
AcDbLine
10
402.770000000000
20
468.340000000000
30
0.0
11
402.770000000000
21
466.510000000000
31
0.0
0
LINE
5
4dc
100
AcDbEntity
8
0-1
6
DOT
62
7
100
AcDbLine
10
330.270000000000
20
364.290000000000
30
0.0
11
430.270000000000
21
364.290000000000
31
0.0
0
LINE
5
4dd
100
AcDbEntity
8
0-1
6
DOT
62
4
100
AcDbLine
10
351.280000000000
20
338.070000000000
30
0.0
11
365.190000000000
21
411.390000000000
31
0.0
0
POLYLINE
5
4de
100
AcDbEntity
8
0-1
6
DOT
62
  4
100
AcDb2dPolyline
66
1
10
0.0
20
0.0
30
0.0
70
0
0
VERTEX
5
4df
100
AcDbEntity
8
0-1
6
DOT
62
  4
100
AcDbVertex
100
AcDb2dVertex
10
390.190000000000
20
411.890000000000
30
0.0
0
VERTEX
5
4e0
100
AcDbEntity
8
0-1
6
DOT
62
  4
100
AcDbVertex
100
AcDb2dVertex
10
401.270000000000
20
338.070000000000
30
0.0
0
VERTEX
5
4e1
100
AcDbEntity
8
0-1
6
DOT
62
  4
100
AcDbVertex
100
AcDb2dVertex
10
415.180000000000
20
411.390000000000
30
0.0
0
VERTEX
5
4e2
100
AcDbEntity
8
0-1
6
DOT
62
  4
100
AcDbVertex
100
AcDb2dVertex
10
426.260000000000
20
337.570000000000
30
0.0
0
VERTEX
5
4e3
100
AcDbEntity
8
0-1
6
DOT
62
  4
100
AcDbVertex
100
AcDb2dVertex
10
440.180000000000
20
411.890000000000
30
0.0
0
VERTEX
5
4e4
100
AcDbEntity
8
0-1
6
DOT
62
  4
100
AcDbVertex
100
AcDb2dVertex
10
451.260000000000
20
338.070000000000
30
0.0
0
VERTEX
5
4e5
100
AcDbEntity
8
0-1
6
DOT
62
  4
100
AcDbVertex
100
AcDb2dVertex
10
465.170000000000
20
411.390000000000
30
0.0
0
VERTEX
5
4e6
100
AcDbEntity
8
0-1
6
DOT
62
  4
100
AcDbVertex
100
AcDb2dVertex
10
476.250000000000
20
337.570000000000
30
0.0
0
VERTEX
5
4e7
100
AcDbEntity
8
0-1
6
DOT
62
  4
100
AcDbVertex
100
AcDb2dVertex
10
490.170000000000
20
411.890000000000
30
0.0
0
SEQEND
5
4e8
100
AcDbEntity
8
0-1
0
LINE
5
4e9
100
AcDbEntity
8
0-1
6
DOT
62
4
100
AcDbLine
10
265.040000000000
20
412.560000000000
30
0.0
11
266.610000000000
21
402.010000000000
31
0.0
0
LINE
5
4ea
100
AcDbEntity
8
0-1
6
DOT
62
4
100
AcDbLine
10
288.360000000000
20
402.010000000000
30
0.0
11
290.210000000000
21
411.890000000000
31
0.0
0
LINE
5
4eb
100
AcDbEntity
8
0-1
6
DOT
62
4
100
AcDbLine
10
290.210000000000
20
411.890000000000
30
0.0
11
291.690000000000
21
402.010000000000
31
0.0
0
LINE
5
4ec
100
AcDbEntity
8
0-1
6
DOT
62
4
100
AcDbLine
10
313.420000000000
20
402.010000000000
30
0.0
11
315.200000000000
21
411.390000000000
31
0.0
0
LINE
5
4ed
100
AcDbEntity
8
0-1
6
DOT
62
4
100
AcDbLine
10
315.200000000000
20
411.390000000000
30
0.0
11
316.610000000000
21
402.010000000000
31
0.0
0
POLYLINE
5
4ee
100
AcDbEntity
8
0-1
6
DOT
62
  4
100
AcDb2dPolyline
66
1
10
0.0
20
0.0
30
0.0
70
0
0
VERTEX
5
4ef
100
AcDbEntity
8
0-1
6
DOT
62
  4
100
AcDbVertex
100
AcDb2dVertex
10
338.350000000000
20
402.010000000000
30
0.0
0
VERTEX
5
4f0
100
AcDbEntity
8
0-1
6
DOT
62
  4
100
AcDbVertex
100
AcDb2dVertex
10
340.200000000000
20
411.890000000000
30
0.0
0
VERTEX
5
4f1
100
AcDbEntity
8
0-1
6
DOT
62
  4
100
AcDbVertex
100
AcDb2dVertex
10
341.680000000000
20
402.010000000000
30
0.0
0
SEQEND
5
4f2
100
AcDbEntity
8
0-1
0
LINE
5
4f3
100
AcDbEntity
8
0-1
6
DOT
62
4
100
AcDbLine
10
380.280000000000
20
358.960000000000
30
0.0
11
390.190000000000
21
411.890000000000
31
0.0
0
LINE
5
4f4
100
AcDbEntity
8
0-1
6
DOT
62
4
100
AcDbLine
10
365.190000000000
20
411.390000000000
30
0.0
11
373.060000000000
21
358.960000000000
31
0.0
0
LINE
5
4f5
100
AcDbEntity
8
0-2
6
CONTINUOUS
62
7
100
AcDbLine
10
980.790000000000
20
303.770000000000
30
0.0
11
796.880000000000
21
303.770000000000
31
0.0
0
LINE
5
4f6
100
AcDbEntity
8
0-2
6
CONTINUOUS
62
7
100
AcDbLine
10
974.150000000000
20
304.770000000000
30
0.0
11
803.530000000000
21
304.770000000000
31
0.0
0
LINE
5
4f7
100
AcDbEntity
8
0-2
6
CONTINUOUS
62
7
100
AcDbLine
10
1096.880000000000
20
303.770000000000
30
0.0
11
1280.790000000000
21
303.770000000000
31
0.0
0
LINE
5
4f8
100
AcDbEntity
8
0-2
6
CONTINUOUS
62
7
100
AcDbLine
10
1103.530000000000
20
304.770000000000
30
0.0
11
1274.150000000000
21
304.770000000000
31
0.0
0
LINE
5
4f9
100
AcDbEntity
8
0-2
6
CONTINUOUS
62
7
100
AcDbLine
10
682.650000000000
20
300.570000000000
30
0.0
11
712.250000000000
21
352.070000000000
31
0.0
0
LINE
5
4fa
100
AcDbEntity
8
0-2
6
CONTINUOUS
62
7
100
AcDbLine
10
708.560000000000
20
352.070000000000
30
0.0
11
680.790000000000
21
303.770000000000
31
0.0
0
LINE
5
4fb
100
AcDbEntity
8
0-2
6
CONTINUOUS
62
7
100
AcDbLine
10
724.110000000000
20
369.350000000000
30
0.0
11
721.850000000000
21
360.370000000000
31
0.0
0
LINE
5
4fc
100
AcDbEntity
8
0-2
6
CONTINUOUS
62
7
100
AcDbLine
10
712.250000000000
20
352.070000000000
30
0.0
11
721.850000000000
21
360.370000000000
31
0.0
0
LINE
5
4fd
100
AcDbEntity
8
0-2
6
CONTINUOUS
62
7
100
AcDbLine
10
708.560000000000
20
352.070000000000
30
0.0
11
719.460000000000
21
361.490000000000
31
0.0
0
LINE
5
4fe
100
AcDbEntity
8
0-2
6
CONTINUOUS
62
7
100
AcDbLine
10
721.380000000000
20
369.110000000000
30
0.0
11
719.460000000000
21
361.490000000000
31
0.0
0
LINE
5
4ff
100
AcDbEntity
8
0-2
6
CONTINUOUS
62
7
100
AcDbLine
10
674.150000000000
20
304.770000000000
30
0.0
11
699.730000000000
21
351.380000000000
31
0.0
0
LINE
5
500
100
AcDbEntity
8
0-2
6
CONTINUOUS
62
7
100
AcDbLine
10
795.030000000000
20
300.570000000000
30
0.0
11
765.430000000000
21
352.070000000000
31
0.0
0
LINE
5
501
100
AcDbEntity
8
0-2
6
CONTINUOUS
62
7
100
AcDbLine
10
769.120000000000
20
352.070000000000
30
0.0
11
796.880000000000
21
303.770000000000
31
0.0
0
LINE
5
502
100
AcDbEntity
8
0-2
6
CONTINUOUS
62
7
100
AcDbLine
10
753.560000000000
20
369.350000000000
30
0.0
11
755.830000000000
21
360.370000000000
31
0.0
0
LINE
5
503
100
AcDbEntity
8
0-2
6
CONTINUOUS
62
7
100
AcDbLine
10
765.430000000000
20
352.070000000000
30
0.0
11
755.830000000000
21
360.370000000000
31
0.0
0
LINE
5
504
100
AcDbEntity
8
0-2
6
CONTINUOUS
62
7
100
AcDbLine
10
769.120000000000
20
352.070000000000
30
0.0
11
758.220000000000
21
361.490000000000
31
0.0
0
LINE
5
505
100
AcDbEntity
8
0-2
6
CONTINUOUS
62
7
100
AcDbLine
10
756.300000000000
20
369.110000000000
30
0.0
11
758.220000000000
21
361.490000000000
31
0.0
0
LINE
5
506
100
AcDbEntity
8
0-2
6
CONTINUOUS
62
7
100
AcDbLine
10
803.530000000000
20
304.770000000000
30
0.0
11
777.940000000000
21
351.380000000000
31
0.0
0
LINE
5
507
100
AcDbEntity
8
0-2
6
CONTINUOUS
62
7
100
AcDbLine
10
627.200000000000
20
303.770000000000
30
0.0
11
680.790000000000
21
303.770000000000
31
0.0
0
LINE
5
508
100
AcDbEntity
8
0-2
6
CONTINUOUS
62
7
100
AcDbLine
10
627.200000000000
20
304.770000000000
30
0.0
11
674.150000000000
21
304.770000000000
31
0.0
0
POLYLINE
5
509
100
AcDbEntity
8
0-2
6
CONTINUOUS
62
  7
100
AcDb2dPolyline
66
1
10
0.0
20
0.0
30
0.0
70
0
0
VERTEX
5
50a
100
AcDbEntity
8
0-2
6
CONTINUOUS
62
  7
100
AcDbVertex
100
AcDb2dVertex
10
751.340000000000
20
368.460000000000
30
0.0
0
VERTEX
5
50b
100
AcDbEntity
8
0-2
6
CONTINUOUS
62
  7
100
AcDbVertex
100
AcDb2dVertex
10
751.340000000000
20
365.110000000000
30
0.0
0
VERTEX
5
50c
100
AcDbEntity
8
0-2
6
CONTINUOUS
62
  7
100
AcDbVertex
100
AcDb2dVertex
10
726.340000000000
20
365.110000000000
30
0.0
0
SEQEND
5
50d
100
AcDbEntity
8
0-2
0
LINE
5
50e
100
AcDbEntity
8
0-2
6
CONTINUOUS
62
7
100
AcDbLine
10
725.250000000000
20
369.450000000000
30
0.0
11
709.520000000000
21
368.080000000000
31
0.0
0
LINE
5
50f
100
AcDbEntity
8
0-2
6
CONTINUOUS
62
7
100
AcDbLine
10
726.340000000000
20
386.570000000000
30
0.0
11
725.220000000000
21
390.740000000000
31
0.0
0
LINE
5
510
100
AcDbEntity
8
0-2
6
CONTINUOUS
62
7
100
AcDbLine
10
751.340000000000
20
386.570000000000
30
0.0
11
752.460000000000
21
390.740000000000
31
0.0
0
LINE
5
511
100
AcDbEntity
8
0-2
6
CONTINUOUS
62
7
100
AcDbLine
10
751.340000000000
20
386.570000000000
30
0.0
11
726.340000000000
21
386.570000000000
31
0.0
0
LINE
5
512
100
AcDbEntity
8
0-2
6
CONTINUOUS
62
7
100
AcDbLine
10
726.340000000000
20
368.460000000000
30
0.0
11
726.340000000000
21
365.110000000000
31
0.0
0
LINE
5
513
100
AcDbEntity
8
0-2
6
CONTINUOUS
62
7
100
AcDbLine
10
752.430000000000
20
369.450000000000
30
0.0
11
768.160000000000
21
368.080000000000
31
0.0
0
LINE
5
514
100
AcDbEntity
8
0-2
6
CONTINUOUS
62
7
100
AcDbLine
10
719.460000000000
20
361.490000000000
30
0.0
11
699.730000000000
21
351.380000000000
31
0.0
0
LINE
5
515
100
AcDbEntity
8
0-2
6
CONTINUOUS
62
7
100
AcDbLine
10
758.220000000000
20
361.490000000000
30
0.0
11
777.940000000000
21
351.380000000000
31
0.0
0
LINE
5
516
100
AcDbEntity
8
0-2
6
CONTINUOUS
62
7
100
AcDbLine
10
982.650000000000
20
300.570000000000
30
0.0
11
1012.250000000000
21
352.070000000000
31
0.0
0
LINE
5
517
100
AcDbEntity
8
0-2
6
CONTINUOUS
62
7
100
AcDbLine
10
1008.560000000000
20
352.070000000000
30
0.0
11
980.790000000000
21
303.770000000000
31
0.0
0
LINE
5
518
100
AcDbEntity
8
0-2
6
CONTINUOUS
62
7
100
AcDbLine
10
1024.120000000000
20
369.350000000000
30
0.0
11
1021.850000000000
21
360.370000000000
31
0.0
0
LINE
5
519
100
AcDbEntity
8
0-2
6
CONTINUOUS
62
7
100
AcDbLine
10
1012.250000000000
20
352.070000000000
30
0.0
11
1021.850000000000
21
360.370000000000
31
0.0
0
LINE
5
51a
100
AcDbEntity
8
0-2
6
CONTINUOUS
62
7
100
AcDbLine
10
1008.560000000000
20
352.070000000000
30
0.0
11
1019.460000000000
21
361.490000000000
31
0.0
0
LINE
5
51b
100
AcDbEntity
8
0-2
6
CONTINUOUS
62
7
100
AcDbLine
10
1021.380000000000
20
369.110000000000
30
0.0
11
1019.460000000000
21
361.490000000000
31
0.0
0
LINE
5
51c
100
AcDbEntity
8
0-2
6
CONTINUOUS
62
7
100
AcDbLine
10
974.150000000000
20
304.770000000000
30
0.0
11
999.730000000000
21
351.380000000000
31
0.0
0
LINE
5
51d
100
AcDbEntity
8
0-2
6
CONTINUOUS
62
7
100
AcDbLine
10
1095.030000000000
20
300.570000000000
30
0.0
11
1065.430000000000
21
352.070000000000
31
0.0
0
LINE
5
51e
100
AcDbEntity
8
0-2
6
CONTINUOUS
62
7
100
AcDbLine
10
1069.120000000000
20
352.070000000000
30
0.0
11
1096.880000000000
21
303.770000000000
31
0.0
0
LINE
5
51f
100
AcDbEntity
8
0-2
6
CONTINUOUS
62
7
100
AcDbLine
10
1053.560000000000
20
369.350000000000
30
0.0
11
1055.830000000000
21
360.370000000000
31
0.0
0
LINE
5
520
100
AcDbEntity
8
0-2
6
CONTINUOUS
62
7
100
AcDbLine
10
1065.430000000000
20
352.070000000000
30
0.0
11
1055.830000000000
21
360.370000000000
31
0.0
0
LINE
5
521
100
AcDbEntity
8
0-2
6
CONTINUOUS
62
7
100
AcDbLine
10
1069.120000000000
20
352.070000000000
30
0.0
11
1058.220000000000
21
361.490000000000
31
0.0
0
LINE
5
522
100
AcDbEntity
8
0-2
6
CONTINUOUS
62
7
100
AcDbLine
10
1056.300000000000
20
369.110000000000
30
0.0
11
1058.220000000000
21
361.490000000000
31
0.0
0
LINE
5
523
100
AcDbEntity
8
0-2
6
CONTINUOUS
62
7
100
AcDbLine
10
1103.530000000000
20
304.770000000000
30
0.0
11
1077.940000000000
21
351.380000000000
31
0.0
0
LINE
5
524
100
AcDbEntity
8
0-2
6
CONTINUOUS
62
7
100
AcDbLine
10
1019.460000000000
20
361.490000000000
30
0.0
11
999.730000000000
21
351.380000000000
31
0.0
0
LINE
5
525
100
AcDbEntity
8
0-2
6
CONTINUOUS
62
7
100
AcDbLine
10
1058.220000000000
20
361.490000000000
30
0.0
11
1077.940000000000
21
351.380000000000
31
0.0
0
POLYLINE
5
526
100
AcDbEntity
8
0-2
6
CONTINUOUS
62
  7
100
AcDb2dPolyline
66
1
10
0.0
20
0.0
30
0.0
70
0
0
VERTEX
5
527
100
AcDbEntity
8
0-2
6
CONTINUOUS
62
  7
100
AcDbVertex
100
AcDb2dVertex
10
1051.340000000000
20
368.460000000000
30
0.0
0
VERTEX
5
528
100
AcDbEntity
8
0-2
6
CONTINUOUS
62
  7
100
AcDbVertex
100
AcDb2dVertex
10
1051.340000000000
20
365.110000000000
30
0.0
0
VERTEX
5
529
100
AcDbEntity
8
0-2
6
CONTINUOUS
62
  7
100
AcDbVertex
100
AcDb2dVertex
10
1026.340000000000
20
365.110000000000
30
0.0
0
SEQEND
5
52a
100
AcDbEntity
8
0-2
0
LINE
5
52b
100
AcDbEntity
8
0-2
6
CONTINUOUS
62
7
100
AcDbLine
10
1025.250000000000
20
369.450000000000
30
0.0
11
1009.520000000000
21
368.080000000000
31
0.0
0
LINE
5
52c
100
AcDbEntity
8
0-2
6
CONTINUOUS
62
7
100
AcDbLine
10
1026.340000000000
20
386.570000000000
30
0.0
11
1025.220000000000
21
390.740000000000
31
0.0
0
LINE
5
52d
100
AcDbEntity
8
0-2
6
CONTINUOUS
62
7
100
AcDbLine
10
1051.340000000000
20
386.570000000000
30
0.0
11
1052.460000000000
21
390.740000000000
31
0.0
0
LINE
5
52e
100
AcDbEntity
8
0-2
6
CONTINUOUS
62
7
100
AcDbLine
10
1051.340000000000
20
386.570000000000
30
0.0
11
1026.340000000000
21
386.570000000000
31
0.0
0
LINE
5
52f
100
AcDbEntity
8
0-2
6
CONTINUOUS
62
7
100
AcDbLine
10
1026.340000000000
20
368.460000000000
30
0.0
11
1026.340000000000
21
365.110000000000
31
0.0
0
LINE
5
530
100
AcDbEntity
8
0-2
6
CONTINUOUS
62
7
100
AcDbLine
10
1052.430000000000
20
369.450000000000
30
0.0
11
1068.160000000000
21
368.080000000000
31
0.0
0
LINE
5
531
100
AcDbEntity
8
0-2
6
CONTINUOUS
62
7
100
AcDbLine
10
1490.730000000000
20
303.770000000000
30
0.0
11
1396.880000000000
21
303.770000000000
31
0.0
0
LINE
5
532
100
AcDbEntity
8
0-2
6
CONTINUOUS
62
7
100
AcDbLine
10
1490.730000000000
20
304.770000000000
30
0.0
11
1403.530000000000
21
304.770000000000
31
0.0
0
LINE
5
533
100
AcDbEntity
8
0-2
6
CONTINUOUS
62
7
100
AcDbLine
10
1282.640000000000
20
300.570000000000
30
0.0
11
1312.250000000000
21
352.070000000000
31
0.0
0
LINE
5
534
100
AcDbEntity
8
0-2
6
CONTINUOUS
62
7
100
AcDbLine
10
1308.560000000000
20
352.070000000000
30
0.0
11
1280.790000000000
21
303.770000000000
31
0.0
0
LINE
5
535
100
AcDbEntity
8
0-2
6
CONTINUOUS
62
7
100
AcDbLine
10
1324.110000000000
20
369.350000000000
30
0.0
11
1321.850000000000
21
360.370000000000
31
0.0
0
LINE
5
536
100
AcDbEntity
8
0-2
6
CONTINUOUS
62
7
100
AcDbLine
10
1312.250000000000
20
352.070000000000
30
0.0
11
1321.850000000000
21
360.370000000000
31
0.0
0
LINE
5
537
100
AcDbEntity
8
0-2
6
CONTINUOUS
62
7
100
AcDbLine
10
1308.560000000000
20
352.070000000000
30
0.0
11
1319.460000000000
21
361.490000000000
31
0.0
0
LINE
5
538
100
AcDbEntity
8
0-2
6
CONTINUOUS
62
7
100
AcDbLine
10
1321.380000000000
20
369.110000000000
30
0.0
11
1319.460000000000
21
361.490000000000
31
0.0
0
LINE
5
539
100
AcDbEntity
8
0-2
6
CONTINUOUS
62
7
100
AcDbLine
10
1274.150000000000
20
304.770000000000
30
0.0
11
1299.730000000000
21
351.380000000000
31
0.0
0
LINE
5
53a
100
AcDbEntity
8
0-2
6
CONTINUOUS
62
7
100
AcDbLine
10
1395.030000000000
20
300.570000000000
30
0.0
11
1365.430000000000
21
352.070000000000
31
0.0
0
LINE
5
53b
100
AcDbEntity
8
0-2
6
CONTINUOUS
62
7
100
AcDbLine
10
1369.120000000000
20
352.070000000000
30
0.0
11
1396.880000000000
21
303.770000000000
31
0.0
0
LINE
5
53c
100
AcDbEntity
8
0-2
6
CONTINUOUS
62
7
100
AcDbLine
10
1353.560000000000
20
369.350000000000
30
0.0
11
1355.830000000000
21
360.370000000000
31
0.0
0
LINE
5
53d
100
AcDbEntity
8
0-2
6
CONTINUOUS
62
7
100
AcDbLine
10
1365.430000000000
20
352.070000000000
30
0.0
11
1355.830000000000
21
360.370000000000
31
0.0
0
LINE
5
53e
100
AcDbEntity
8
0-2
6
CONTINUOUS
62
7
100
AcDbLine
10
1369.120000000000
20
352.070000000000
30
0.0
11
1358.220000000000
21
361.490000000000
31
0.0
0
LINE
5
53f
100
AcDbEntity
8
0-2
6
CONTINUOUS
62
7
100
AcDbLine
10
1356.300000000000
20
369.110000000000
30
0.0
11
1358.220000000000
21
361.490000000000
31
0.0
0
LINE
5
540
100
AcDbEntity
8
0-2
6
CONTINUOUS
62
7
100
AcDbLine
10
1403.530000000000
20
304.770000000000
30
0.0
11
1377.940000000000
21
351.380000000000
31
0.0
0
POLYLINE
5
541
100
AcDbEntity
8
0-2
6
CONTINUOUS
62
  7
100
AcDb2dPolyline
66
1
10
0.0
20
0.0
30
0.0
70
0
0
VERTEX
5
542
100
AcDbEntity
8
0-2
6
CONTINUOUS
62
  7
100
AcDbVertex
100
AcDb2dVertex
10
1351.340000000000
20
368.460000000000
30
0.0
0
VERTEX
5
543
100
AcDbEntity
8
0-2
6
CONTINUOUS
62
  7
100
AcDbVertex
100
AcDb2dVertex
10
1351.340000000000
20
365.110000000000
30
0.0
0
VERTEX
5
544
100
AcDbEntity
8
0-2
6
CONTINUOUS
62
  7
100
AcDbVertex
100
AcDb2dVertex
10
1326.340000000000
20
365.110000000000
30
0.0
0
SEQEND
5
545
100
AcDbEntity
8
0-2
0
LINE
5
546
100
AcDbEntity
8
0-2
6
CONTINUOUS
62
7
100
AcDbLine
10
1325.250000000000
20
369.450000000000
30
0.0
11
1309.520000000000
21
368.080000000000
31
0.0
0
LINE
5
547
100
AcDbEntity
8
0-2
6
CONTINUOUS
62
7
100
AcDbLine
10
1326.340000000000
20
386.570000000000
30
0.0
11
1325.220000000000
21
390.740000000000
31
0.0
0
LINE
5
548
100
AcDbEntity
8
0-2
6
CONTINUOUS
62
7
100
AcDbLine
10
1351.340000000000
20
386.570000000000
30
0.0
11
1352.460000000000
21
390.740000000000
31
0.0
0
LINE
5
549
100
AcDbEntity
8
0-2
6
CONTINUOUS
62
7
100
AcDbLine
10
1351.340000000000
20
386.570000000000
30
0.0
11
1326.340000000000
21
386.570000000000
31
0.0
0
LINE
5
54a
100
AcDbEntity
8
0-2
6
CONTINUOUS
62
7
100
AcDbLine
10
1326.340000000000
20
368.460000000000
30
0.0
11
1326.340000000000
21
365.110000000000
31
0.0
0
LINE
5
54b
100
AcDbEntity
8
0-2
6
CONTINUOUS
62
7
100
AcDbLine
10
1352.430000000000
20
369.450000000000
30
0.0
11
1368.160000000000
21
368.080000000000
31
0.0
0
LINE
5
54c
100
AcDbEntity
8
0-2
6
CONTINUOUS
62
7
100
AcDbLine
10
1319.460000000000
20
361.490000000000
30
0.0
11
1299.730000000000
21
351.380000000000
31
0.0
0
LINE
5
54d
100
AcDbEntity
8
0-2
6
CONTINUOUS
62
7
100
AcDbLine
10
1358.220000000000
20
361.490000000000
30
0.0
11
1377.940000000000
21
351.380000000000
31
0.0
0
LINE
5
54e
100
AcDbEntity
8
0-2
6
CONTINUOUS
62
3
100
AcDbLine
10
913.840000000000
20
317.860000000000
30
0.0
11
863.840000000000
21
317.860000000000
31
0.0
0
LINE
5
54f
100
AcDbEntity
8
0-2
6
CONTINUOUS
62
3
100
AcDbLine
10
918.130000000000
20
313.570000000000
30
0.0
11
977.840000000000
21
313.570000000000
31
0.0
0
LINE
5
550
100
AcDbEntity
8
0-2
6
CONTINUOUS
62
3
100
AcDbLine
10
913.840000000000
20
317.860000000000
30
0.0
11
918.130000000000
21
313.570000000000
31
0.0
0
LINE
5
551
100
AcDbEntity
8
0-2
6
CONTINUOUS
62
3
100
AcDbLine
10
1163.840000000000
20
317.860000000000
30
0.0
11
1213.840000000000
21
317.860000000000
31
0.0
0
LINE
5
552
100
AcDbEntity
8
0-2
6
CONTINUOUS
62
3
100
AcDbLine
10
1159.550000000000
20
313.570000000000
30
0.0
11
1099.840000000000
21
313.570000000000
31
0.0
0
LINE
5
553
100
AcDbEntity
8
0-2
6
CONTINUOUS
62
3
100
AcDbLine
10
1163.840000000000
20
317.860000000000
30
0.0
11
1159.550000000000
21
313.570000000000
31
0.0
0
LINE
5
554
100
AcDbEntity
8
0-2
6
CONTINUOUS
62
3
100
AcDbLine
10
859.550000000000
20
313.570000000000
30
0.0
11
799.840000000000
21
313.570000000000
31
0.0
0
LINE
5
555
100
AcDbEntity
8
0-2
6
CONTINUOUS
62
3
100
AcDbLine
10
863.840000000000
20
317.860000000000
30
0.0
11
859.550000000000
21
313.570000000000
31
0.0
0
LINE
5
556
100
AcDbEntity
8
0-2
6
CONTINUOUS
62
3
100
AcDbLine
10
799.840000000000
20
313.570000000000
30
0.0
11
778.710000000000
21
352.070000000000
31
0.0
0
LINE
5
557
100
AcDbEntity
8
0-2
6
CONTINUOUS
62
3
100
AcDbLine
10
706.590000000000
20
365.440000000000
30
0.0
11
711.280000000000
21
365.120000000000
31
0.0
0
LINE
5
558
100
AcDbEntity
8
0-2
6
CONTINUOUS
62
3
100
AcDbLine
10
771.090000000000
20
365.440000000000
30
0.0
11
766.390000000000
21
365.120000000000
31
0.0
0
LINE
5
559
100
AcDbEntity
8
0-2
6
CONTINUOUS
62
3
100
AcDbLine
10
1218.130000000000
20
313.570000000000
30
0.0
11
1277.840000000000
21
313.570000000000
31
0.0
0
LINE
5
55a
100
AcDbEntity
8
0-2
6
CONTINUOUS
62
3
100
AcDbLine
10
1213.840000000000
20
317.860000000000
30
0.0
11
1218.130000000000
21
313.570000000000
31
0.0
0
LINE
5
55b
100
AcDbEntity
8
0-2
6
CONTINUOUS
62
3
100
AcDbLine
10
765.590000000000
20
361.330000000000
30
0.0
11
778.710000000000
21
352.070000000000
31
0.0
0
LINE
5
55c
100
AcDbEntity
8
0-2
6
CONTINUOUS
62
3
100
AcDbLine
10
1011.430000000000
20
365.100000000000
30
0.0
11
1007.730000000000
21
365.540000000000
31
0.0
0
LINE
5
55d
100
AcDbEntity
8
0-2
6
CONTINUOUS
62
3
100
AcDbLine
10
977.840000000000
20
313.570000000000
30
0.0
11
998.970000000000
21
352.070000000000
31
0.0
0
LINE
5
55e
100
AcDbEntity
8
0-2
6
CONTINUOUS
62
3
100
AcDbLine
10
1099.840000000000
20
313.570000000000
30
0.0
11
1078.710000000000
21
352.070000000000
31
0.0
0
LINE
5
55f
100
AcDbEntity
8
0-2
6
CONTINUOUS
62
3
100
AcDbLine
10
1065.590000000000
20
361.330000000000
30
0.0
11
1078.710000000000
21
352.070000000000
31
0.0
0
LINE
5
560
100
AcDbEntity
8
0-2
6
CONTINUOUS
62
3
100
AcDbLine
10
1012.090000000000
20
361.330000000000
30
0.0
11
998.970000000000
21
352.070000000000
31
0.0
0
LINE
5
561
100
AcDbEntity
8
0-2
6
CONTINUOUS
62
3
100
AcDbLine
10
1066.250000000000
20
365.100000000000
30
0.0
11
1069.950000000000
21
365.540000000000
31
0.0
0
LINE
5
562
100
AcDbEntity
8
0-2
6
CONTINUOUS
62
3
100
AcDbLine
10
1277.840000000000
20
313.570000000000
30
0.0
11
1298.970000000000
21
352.070000000000
31
0.0
0
LINE
5
563
100
AcDbEntity
8
0-2
6
CONTINUOUS
62
3
100
AcDbLine
10
1312.090000000000
20
361.330000000000
30
0.0
11
1298.970000000000
21
352.070000000000
31
0.0
0
LINE
5
564
100
AcDbEntity
8
0-2
6
CONTINUOUS
62
3
100
AcDbLine
10
1310.460000000000
20
367.180000000000
30
0.0
11
1307.750000000000
21
367.370000000000
31
0.0
0
LINE
5
565
100
AcDbEntity
8
0-2
6
CONTINUOUS
62
3
100
AcDbLine
10
711.340000000000
20
365.920000000000
30
0.0
11
706.660000000000
21
366.240000000000
31
0.0
0
LINE
5
566
100
AcDbEntity
8
0-2
6
CONTINUOUS
62
3
100
AcDbLine
10
771.010000000000
20
366.240000000000
30
0.0
11
766.340000000000
21
365.920000000000
31
0.0
0
POLYLINE
5
567
100
AcDbEntity
8
0-2
6
CONTINUOUS
62
  3
100
AcDb2dPolyline
66
1
10
0.0
20
0.0
30
0.0
70
0
0
VERTEX
5
568
100
AcDbEntity
8
0-2
6
CONTINUOUS
62
  3
100
AcDbVertex
100
AcDb2dVertex
10
765.170000000000
20
360.640000000000
30
0.0
0
VERTEX
5
569
100
AcDbEntity
8
0-2
6
CONTINUOUS
62
  3
100
AcDbVertex
100
AcDb2dVertex
10
778.100000000000
20
351.520000000000
30
0.0
0
VERTEX
5
56a
100
AcDbEntity
8
0-2
6
CONTINUOUS
62
  3
100
AcDbVertex
100
AcDb2dVertex
10
799.370000000000
20
312.770000000000
30
0.0
0
VERTEX
5
56b
100
AcDbEntity
8
0-2
6
CONTINUOUS
62
  3
100
AcDbVertex
100
AcDb2dVertex
10
859.880000000000
20
312.770000000000
30
0.0
0
VERTEX
5
56c
100
AcDbEntity
8
0-2
6
CONTINUOUS
62
  3
100
AcDbVertex
100
AcDb2dVertex
10
864.170000000000
20
317.060000000000
30
0.0
0
VERTEX
5
56d
100
AcDbEntity
8
0-2
6
CONTINUOUS
62
  3
100
AcDbVertex
100
AcDb2dVertex
10
913.510000000000
20
317.060000000000
30
0.0
0
VERTEX
5
56e
100
AcDbEntity
8
0-2
6
CONTINUOUS
62
  3
100
AcDbVertex
100
AcDb2dVertex
10
917.800000000000
20
312.770000000000
30
0.0
0
VERTEX
5
56f
100
AcDbEntity
8
0-2
6
CONTINUOUS
62
  3
100
AcDbVertex
100
AcDb2dVertex
10
978.310000000000
20
312.770000000000
30
0.0
0
VERTEX
5
570
100
AcDbEntity
8
0-2
6
CONTINUOUS
62
  3
100
AcDbVertex
100
AcDb2dVertex
10
999.580000000000
20
351.520000000000
30
0.0
0
VERTEX
5
571
100
AcDbEntity
8
0-2
6
CONTINUOUS
62
  3
100
AcDbVertex
100
AcDb2dVertex
10
1012.510000000000
20
360.640000000000
30
0.0
0
SEQEND
5
572
100
AcDbEntity
8
0-2
0
LINE
5
573
100
AcDbEntity
8
0-2
6
CONTINUOUS
62
3
100
AcDbLine
10
1011.520000000000
20
365.900000000000
30
0.0
11
1007.820000000000
21
366.340000000000
31
0.0
0
LINE
5
574
100
AcDbEntity
8
0-2
6
CONTINUOUS
62
3
100
AcDbLine
10
1069.850000000000
20
366.340000000000
30
0.0
11
1066.150000000000
21
365.900000000000
31
0.0
0
POLYLINE
5
575
100
AcDbEntity
8
0-2
6
CONTINUOUS
62
  3
100
AcDb2dPolyline
66
1
10
0.0
20
0.0
30
0.0
70
0
0
VERTEX
5
576
100
AcDbEntity
8
0-2
6
CONTINUOUS
62
  3
100
AcDbVertex
100
AcDb2dVertex
10
1065.170000000000
20
360.640000000000
30
0.0
0
VERTEX
5
577
100
AcDbEntity
8
0-2
6
CONTINUOUS
62
  3
100
AcDbVertex
100
AcDb2dVertex
10
1078.100000000000
20
351.520000000000
30
0.0
0
VERTEX
5
578
100
AcDbEntity
8
0-2
6
CONTINUOUS
62
  3
100
AcDbVertex
100
AcDb2dVertex
10
1099.370000000000
20
312.770000000000
30
0.0
0
VERTEX
5
579
100
AcDbEntity
8
0-2
6
CONTINUOUS
62
  3
100
AcDbVertex
100
AcDb2dVertex
10
1159.880000000000
20
312.770000000000
30
0.0
0
VERTEX
5
57a
100
AcDbEntity
8
0-2
6
CONTINUOUS
62
  3
100
AcDbVertex
100
AcDb2dVertex
10
1164.170000000000
20
317.060000000000
30
0.0
0
VERTEX
5
57b
100
AcDbEntity
8
0-2
6
CONTINUOUS
62
  3
100
AcDbVertex
100
AcDb2dVertex
10
1213.510000000000
20
317.060000000000
30
0.0
0
VERTEX
5
57c
100
AcDbEntity
8
0-2
6
CONTINUOUS
62
  3
100
AcDbVertex
100
AcDb2dVertex
10
1217.800000000000
20
312.770000000000
30
0.0
0
VERTEX
5
57d
100
AcDbEntity
8
0-2
6
CONTINUOUS
62
  3
100
AcDbVertex
100
AcDb2dVertex
10
1278.310000000000
20
312.770000000000
30
0.0
0
VERTEX
5
57e
100
AcDbEntity
8
0-2
6
CONTINUOUS
62
  3
100
AcDbVertex
100
AcDb2dVertex
10
1299.580000000000
20
351.520000000000
30
0.0
0
VERTEX
5
57f
100
AcDbEntity
8
0-2
6
CONTINUOUS
62
  3
100
AcDbVertex
100
AcDb2dVertex
10
1312.560000000000
20
360.680000000000
30
0.0
0
SEQEND
5
580
100
AcDbEntity
8
0-2
0
LINE
5
581
100
AcDbEntity
8
0-2
6
CONTINUOUS
62
3
100
AcDbLine
10
1310.520000000000
20
367.980000000000
30
0.0
11
1307.810000000000
21
368.160000000000
31
0.0
0
POLYLINE
5
582
100
AcDbEntity
8
0-2
6
CONTINUOUS
62
  3
100
AcDb2dPolyline
66
1
10
0.0
20
0.0
30
0.0
70
0
0
VERTEX
5
583
100
AcDbEntity
8
0-2
6
CONTINUOUS
62
  3
100
AcDbVertex
100
AcDb2dVertex
10
627.200000000000
20
313.570000000000
30
0.0
0
VERTEX
5
584
100
AcDbEntity
8
0-2
6
CONTINUOUS
62
  3
100
AcDbVertex
100
AcDb2dVertex
10
677.840000000000
20
313.570000000000
30
0.0
0
VERTEX
5
585
100
AcDbEntity
8
0-2
6
CONTINUOUS
62
  3
100
AcDbVertex
100
AcDb2dVertex
10
698.970000000000
20
352.070000000000
30
0.0
0
SEQEND
5
586
100
AcDbEntity
8
0-2
0
LINE
5
587
100
AcDbEntity
8
0-2
6
CONTINUOUS
62
3
100
AcDbLine
10
712.090000000000
20
361.330000000000
30
0.0
11
698.970000000000
21
352.070000000000
31
0.0
0
LINE
5
588
100
AcDbEntity
8
0-2
6
CONTINUOUS
62
3
100
AcDbLine
10
710.460000000000
20
367.180000000000
30
0.0
11
707.750000000000
21
367.370000000000
31
0.0
0
POLYLINE
5
589
100
AcDbEntity
8
0-2
6
CONTINUOUS
62
  3
100
AcDb2dPolyline
66
1
10
0.0
20
0.0
30
0.0
70
0
0
VERTEX
5
58a
100
AcDbEntity
8
0-2
6
CONTINUOUS
62
  3
100
AcDbVertex
100
AcDb2dVertex
10
627.200000000000
20
312.770000000000
30
0.0
0
VERTEX
5
58b
100
AcDbEntity
8
0-2
6
CONTINUOUS
62
  3
100
AcDbVertex
100
AcDb2dVertex
10
678.310000000000
20
312.770000000000
30
0.0
0
VERTEX
5
58c
100
AcDbEntity
8
0-2
6
CONTINUOUS
62
  3
100
AcDbVertex
100
AcDb2dVertex
10
699.580000000000
20
351.520000000000
30
0.0
0
VERTEX
5
58d
100
AcDbEntity
8
0-2
6
CONTINUOUS
62
  3
100
AcDbVertex
100
AcDb2dVertex
10
712.560000000000
20
360.680000000000
30
0.0
0
SEQEND
5
58e
100
AcDbEntity
8
0-2
0
LINE
5
58f
100
AcDbEntity
8
0-2
6
CONTINUOUS
62
3
100
AcDbLine
10
710.520000000000
20
367.980000000000
30
0.0
11
707.810000000000
21
368.160000000000
31
0.0
0
LINE
5
590
100
AcDbEntity
8
0-2
6
CONTINUOUS
62
3
100
AcDbLine
10
1490.730000000000
20
317.860000000000
30
0.0
11
1463.840000000000
21
317.860000000000
31
0.0
0
LINE
5
591
100
AcDbEntity
8
0-2
6
CONTINUOUS
62
3
100
AcDbLine
10
1459.550000000000
20
313.570000000000
30
0.0
11
1399.840000000000
21
313.570000000000
31
0.0
0
LINE
5
592
100
AcDbEntity
8
0-2
6
CONTINUOUS
62
3
100
AcDbLine
10
1463.840000000000
20
317.860000000000
30
0.0
11
1459.550000000000
21
313.570000000000
31
0.0
0
LINE
5
593
100
AcDbEntity
8
0-2
6
CONTINUOUS
62
3
100
AcDbLine
10
1399.840000000000
20
313.570000000000
30
0.0
11
1378.710000000000
21
352.070000000000
31
0.0
0
LINE
5
594
100
AcDbEntity
8
0-2
6
CONTINUOUS
62
3
100
AcDbLine
10
1306.590000000000
20
365.440000000000
30
0.0
11
1311.280000000000
21
365.120000000000
31
0.0
0
LINE
5
595
100
AcDbEntity
8
0-2
6
CONTINUOUS
62
3
100
AcDbLine
10
1371.090000000000
20
365.440000000000
30
0.0
11
1366.390000000000
21
365.120000000000
31
0.0
0
LINE
5
596
100
AcDbEntity
8
0-2
6
CONTINUOUS
62
3
100
AcDbLine
10
1365.590000000000
20
361.330000000000
30
0.0
11
1378.710000000000
21
352.070000000000
31
0.0
0
LINE
5
597
100
AcDbEntity
8
0-2
6
CONTINUOUS
62
3
100
AcDbLine
10
1311.340000000000
20
365.920000000000
30
0.0
11
1306.660000000000
21
366.240000000000
31
0.0
0
LINE
5
598
100
AcDbEntity
8
0-2
6
CONTINUOUS
62
3
100
AcDbLine
10
1371.010000000000
20
366.240000000000
30
0.0
11
1366.340000000000
21
365.920000000000
31
0.0
0
POLYLINE
5
599
100
AcDbEntity
8
0-2
6
CONTINUOUS
62
  3
100
AcDb2dPolyline
66
1
10
0.0
20
0.0
30
0.0
70
0
0
VERTEX
5
59a
100
AcDbEntity
8
0-2
6
CONTINUOUS
62
  3
100
AcDbVertex
100
AcDb2dVertex
10
1365.170000000000
20
360.640000000000
30
0.0
0
VERTEX
5
59b
100
AcDbEntity
8
0-2
6
CONTINUOUS
62
  3
100
AcDbVertex
100
AcDb2dVertex
10
1378.100000000000
20
351.520000000000
30
0.0
0
VERTEX
5
59c
100
AcDbEntity
8
0-2
6
CONTINUOUS
62
  3
100
AcDbVertex
100
AcDb2dVertex
10
1399.370000000000
20
312.770000000000
30
0.0
0
VERTEX
5
59d
100
AcDbEntity
8
0-2
6
CONTINUOUS
62
  3
100
AcDbVertex
100
AcDb2dVertex
10
1459.880000000000
20
312.770000000000
30
0.0
0
VERTEX
5
59e
100
AcDbEntity
8
0-2
6
CONTINUOUS
62
  3
100
AcDbVertex
100
AcDb2dVertex
10
1464.170000000000
20
317.060000000000
30
0.0
0
VERTEX
5
59f
100
AcDbEntity
8
0-2
6
CONTINUOUS
62
  3
100
AcDbVertex
100
AcDb2dVertex
10
1490.730000000000
20
317.060000000000
30
0.0
0
SEQEND
5
5a0
100
AcDbEntity
8
0-2
0
LINE
5
5a1
100
AcDbEntity
8
0-2
6
CONTINUOUS
62
3
100
AcDbLine
10
913.840000000000
20
424.860000000000
30
0.0
11
863.840000000000
21
424.860000000000
31
0.0
0
LINE
5
5a2
100
AcDbEntity
8
0-2
6
CONTINUOUS
62
3
100
AcDbLine
10
918.130000000000
20
420.570000000000
30
0.0
11
977.840000000000
21
420.570000000000
31
0.0
0
LINE
5
5a3
100
AcDbEntity
8
0-2
6
CONTINUOUS
62
3
100
AcDbLine
10
913.840000000000
20
424.860000000000
30
0.0
11
918.130000000000
21
420.570000000000
31
0.0
0
LINE
5
5a4
100
AcDbEntity
8
0-2
6
CONTINUOUS
62
3
100
AcDbLine
10
1163.840000000000
20
424.860000000000
30
0.0
11
1213.840000000000
21
424.860000000000
31
0.0
0
LINE
5
5a5
100
AcDbEntity
8
0-2
6
CONTINUOUS
62
3
100
AcDbLine
10
1159.550000000000
20
420.570000000000
30
0.0
11
1099.840000000000
21
420.570000000000
31
0.0
0
LINE
5
5a6
100
AcDbEntity
8
0-2
6
CONTINUOUS
62
3
100
AcDbLine
10
1163.840000000000
20
424.860000000000
30
0.0
11
1159.550000000000
21
420.570000000000
31
0.0
0
LINE
5
5a7
100
AcDbEntity
8
0-2
6
CONTINUOUS
62
3
100
AcDbLine
10
859.550000000000
20
420.570000000000
30
0.0
11
799.840000000000
21
420.570000000000
31
0.0
0
LINE
5
5a8
100
AcDbEntity
8
0-2
6
CONTINUOUS
62
3
100
AcDbLine
10
863.840000000000
20
424.860000000000
30
0.0
11
859.550000000000
21
420.570000000000
31
0.0
0
LINE
5
5a9
100
AcDbEntity
8
0-2
6
CONTINUOUS
62
3
100
AcDbLine
10
799.840000000000
20
420.570000000000
30
0.0
11
778.710000000000
21
459.070000000000
31
0.0
0
LINE
5
5aa
100
AcDbEntity
8
0-2
6
CONTINUOUS
62
3
100
AcDbLine
10
706.590000000000
20
472.440000000000
30
0.0
11
711.280000000000
21
472.120000000000
31
0.0
0
LINE
5
5ab
100
AcDbEntity
8
0-2
6
CONTINUOUS
62
3
100
AcDbLine
10
771.090000000000
20
472.440000000000
30
0.0
11
766.390000000000
21
472.120000000000
31
0.0
0
LINE
5
5ac
100
AcDbEntity
8
0-2
6
CONTINUOUS
62
3
100
AcDbLine
10
1218.130000000000
20
420.570000000000
30
0.0
11
1277.840000000000
21
420.570000000000
31
0.0
0
LINE
5
5ad
100
AcDbEntity
8
0-2
6
CONTINUOUS
62
3
100
AcDbLine
10
1213.840000000000
20
424.860000000000
30
0.0
11
1218.130000000000
21
420.570000000000
31
0.0
0
LINE
5
5ae
100
AcDbEntity
8
0-2
6
CONTINUOUS
62
3
100
AcDbLine
10
765.590000000000
20
468.330000000000
30
0.0
11
778.710000000000
21
459.070000000000
31
0.0
0
LINE
5
5af
100
AcDbEntity
8
0-2
6
CONTINUOUS
62
3
100
AcDbLine
10
1011.430000000000
20
472.100000000000
30
0.0
11
1007.730000000000
21
472.540000000000
31
0.0
0
LINE
5
5b0
100
AcDbEntity
8
0-2
6
CONTINUOUS
62
3
100
AcDbLine
10
977.840000000000
20
420.570000000000
30
0.0
11
998.970000000000
21
459.070000000000
31
0.0
0
LINE
5
5b1
100
AcDbEntity
8
0-2
6
CONTINUOUS
62
3
100
AcDbLine
10
1099.840000000000
20
420.570000000000
30
0.0
11
1078.710000000000
21
459.070000000000
31
0.0
0
LINE
5
5b2
100
AcDbEntity
8
0-2
6
CONTINUOUS
62
3
100
AcDbLine
10
1065.590000000000
20
468.330000000000
30
0.0
11
1078.710000000000
21
459.070000000000
31
0.0
0
LINE
5
5b3
100
AcDbEntity
8
0-2
6
CONTINUOUS
62
3
100
AcDbLine
10
1012.090000000000
20
468.330000000000
30
0.0
11
998.970000000000
21
459.070000000000
31
0.0
0
LINE
5
5b4
100
AcDbEntity
8
0-2
6
CONTINUOUS
62
3
100
AcDbLine
10
1066.250000000000
20
472.100000000000
30
0.0
11
1069.950000000000
21
472.540000000000
31
0.0
0
LINE
5
5b5
100
AcDbEntity
8
0-2
6
CONTINUOUS
62
3
100
AcDbLine
10
1277.840000000000
20
420.570000000000
30
0.0
11
1298.970000000000
21
459.070000000000
31
0.0
0
LINE
5
5b6
100
AcDbEntity
8
0-2
6
CONTINUOUS
62
3
100
AcDbLine
10
1312.090000000000
20
468.330000000000
30
0.0
11
1298.970000000000
21
459.070000000000
31
0.0
0
LINE
5
5b7
100
AcDbEntity
8
0-2
6
CONTINUOUS
62
3
100
AcDbLine
10
1310.460000000000
20
474.180000000000
30
0.0
11
1307.750000000000
21
474.370000000000
31
0.0
0
LINE
5
5b8
100
AcDbEntity
8
0-2
6
CONTINUOUS
62
3
100
AcDbLine
10
711.340000000000
20
472.920000000000
30
0.0
11
706.660000000000
21
473.240000000000
31
0.0
0
LINE
5
5b9
100
AcDbEntity
8
0-2
6
CONTINUOUS
62
3
100
AcDbLine
10
771.010000000000
20
473.240000000000
30
0.0
11
766.340000000000
21
472.920000000000
31
0.0
0
POLYLINE
5
5ba
100
AcDbEntity
8
0-2
6
CONTINUOUS
62
  3
100
AcDb2dPolyline
66
1
10
0.0
20
0.0
30
0.0
70
0
0
VERTEX
5
5bb
100
AcDbEntity
8
0-2
6
CONTINUOUS
62
  3
100
AcDbVertex
100
AcDb2dVertex
10
765.170000000000
20
467.640000000000
30
0.0
0
VERTEX
5
5bc
100
AcDbEntity
8
0-2
6
CONTINUOUS
62
  3
100
AcDbVertex
100
AcDb2dVertex
10
778.100000000000
20
458.520000000000
30
0.0
0
VERTEX
5
5bd
100
AcDbEntity
8
0-2
6
CONTINUOUS
62
  3
100
AcDbVertex
100
AcDb2dVertex
10
799.370000000000
20
419.770000000000
30
0.0
0
VERTEX
5
5be
100
AcDbEntity
8
0-2
6
CONTINUOUS
62
  3
100
AcDbVertex
100
AcDb2dVertex
10
859.880000000000
20
419.770000000000
30
0.0
0
VERTEX
5
5bf
100
AcDbEntity
8
0-2
6
CONTINUOUS
62
  3
100
AcDbVertex
100
AcDb2dVertex
10
864.170000000000
20
424.060000000000
30
0.0
0
VERTEX
5
5c0
100
AcDbEntity
8
0-2
6
CONTINUOUS
62
  3
100
AcDbVertex
100
AcDb2dVertex
10
913.510000000000
20
424.060000000000
30
0.0
0
VERTEX
5
5c1
100
AcDbEntity
8
0-2
6
CONTINUOUS
62
  3
100
AcDbVertex
100
AcDb2dVertex
10
917.800000000000
20
419.770000000000
30
0.0
0
VERTEX
5
5c2
100
AcDbEntity
8
0-2
6
CONTINUOUS
62
  3
100
AcDbVertex
100
AcDb2dVertex
10
978.310000000000
20
419.770000000000
30
0.0
0
VERTEX
5
5c3
100
AcDbEntity
8
0-2
6
CONTINUOUS
62
  3
100
AcDbVertex
100
AcDb2dVertex
10
999.580000000000
20
458.520000000000
30
0.0
0
VERTEX
5
5c4
100
AcDbEntity
8
0-2
6
CONTINUOUS
62
  3
100
AcDbVertex
100
AcDb2dVertex
10
1012.510000000000
20
467.640000000000
30
0.0
0
SEQEND
5
5c5
100
AcDbEntity
8
0-2
0
LINE
5
5c6
100
AcDbEntity
8
0-2
6
CONTINUOUS
62
3
100
AcDbLine
10
1011.520000000000
20
472.900000000000
30
0.0
11
1007.820000000000
21
473.340000000000
31
0.0
0
LINE
5
5c7
100
AcDbEntity
8
0-2
6
CONTINUOUS
62
3
100
AcDbLine
10
1069.850000000000
20
473.340000000000
30
0.0
11
1066.150000000000
21
472.900000000000
31
0.0
0
POLYLINE
5
5c8
100
AcDbEntity
8
0-2
6
CONTINUOUS
62
  3
100
AcDb2dPolyline
66
1
10
0.0
20
0.0
30
0.0
70
0
0
VERTEX
5
5c9
100
AcDbEntity
8
0-2
6
CONTINUOUS
62
  3
100
AcDbVertex
100
AcDb2dVertex
10
1065.170000000000
20
467.640000000000
30
0.0
0
VERTEX
5
5ca
100
AcDbEntity
8
0-2
6
CONTINUOUS
62
  3
100
AcDbVertex
100
AcDb2dVertex
10
1078.100000000000
20
458.520000000000
30
0.0
0
VERTEX
5
5cb
100
AcDbEntity
8
0-2
6
CONTINUOUS
62
  3
100
AcDbVertex
100
AcDb2dVertex
10
1099.370000000000
20
419.770000000000
30
0.0
0
VERTEX
5
5cc
100
AcDbEntity
8
0-2
6
CONTINUOUS
62
  3
100
AcDbVertex
100
AcDb2dVertex
10
1159.880000000000
20
419.770000000000
30
0.0
0
VERTEX
5
5cd
100
AcDbEntity
8
0-2
6
CONTINUOUS
62
  3
100
AcDbVertex
100
AcDb2dVertex
10
1164.170000000000
20
424.060000000000
30
0.0
0
VERTEX
5
5ce
100
AcDbEntity
8
0-2
6
CONTINUOUS
62
  3
100
AcDbVertex
100
AcDb2dVertex
10
1213.510000000000
20
424.060000000000
30
0.0
0
VERTEX
5
5cf
100
AcDbEntity
8
0-2
6
CONTINUOUS
62
  3
100
AcDbVertex
100
AcDb2dVertex
10
1217.800000000000
20
419.770000000000
30
0.0
0
VERTEX
5
5d0
100
AcDbEntity
8
0-2
6
CONTINUOUS
62
  3
100
AcDbVertex
100
AcDb2dVertex
10
1278.310000000000
20
419.770000000000
30
0.0
0
VERTEX
5
5d1
100
AcDbEntity
8
0-2
6
CONTINUOUS
62
  3
100
AcDbVertex
100
AcDb2dVertex
10
1299.580000000000
20
458.520000000000
30
0.0
0
VERTEX
5
5d2
100
AcDbEntity
8
0-2
6
CONTINUOUS
62
  3
100
AcDbVertex
100
AcDb2dVertex
10
1312.560000000000
20
467.680000000000
30
0.0
0
SEQEND
5
5d3
100
AcDbEntity
8
0-2
0
LINE
5
5d4
100
AcDbEntity
8
0-2
6
CONTINUOUS
62
3
100
AcDbLine
10
1310.520000000000
20
474.980000000000
30
0.0
11
1307.810000000000
21
475.160000000000
31
0.0
0
POLYLINE
5
5d5
100
AcDbEntity
8
0-2
6
CONTINUOUS
62
  3
100
AcDb2dPolyline
66
1
10
0.0
20
0.0
30
0.0
70
0
0
VERTEX
5
5d6
100
AcDbEntity
8
0-2
6
CONTINUOUS
62
  3
100
AcDbVertex
100
AcDb2dVertex
10
627.200000000000
20
420.570000000000
30
0.0
0
VERTEX
5
5d7
100
AcDbEntity
8
0-2
6
CONTINUOUS
62
  3
100
AcDbVertex
100
AcDb2dVertex
10
677.840000000000
20
420.570000000000
30
0.0
0
VERTEX
5
5d8
100
AcDbEntity
8
0-2
6
CONTINUOUS
62
  3
100
AcDbVertex
100
AcDb2dVertex
10
698.970000000000
20
459.070000000000
30
0.0
0
SEQEND
5
5d9
100
AcDbEntity
8
0-2
0
LINE
5
5da
100
AcDbEntity
8
0-2
6
CONTINUOUS
62
3
100
AcDbLine
10
712.090000000000
20
468.330000000000
30
0.0
11
698.970000000000
21
459.070000000000
31
0.0
0
LINE
5
5db
100
AcDbEntity
8
0-2
6
CONTINUOUS
62
3
100
AcDbLine
10
710.460000000000
20
474.180000000000
30
0.0
11
707.750000000000
21
474.370000000000
31
0.0
0
POLYLINE
5
5dc
100
AcDbEntity
8
0-2
6
CONTINUOUS
62
  3
100
AcDb2dPolyline
66
1
10
0.0
20
0.0
30
0.0
70
0
0
VERTEX
5
5dd
100
AcDbEntity
8
0-2
6
CONTINUOUS
62
  3
100
AcDbVertex
100
AcDb2dVertex
10
627.200000000000
20
419.770000000000
30
0.0
0
VERTEX
5
5de
100
AcDbEntity
8
0-2
6
CONTINUOUS
62
  3
100
AcDbVertex
100
AcDb2dVertex
10
678.310000000000
20
419.770000000000
30
0.0
0
VERTEX
5
5df
100
AcDbEntity
8
0-2
6
CONTINUOUS
62
  3
100
AcDbVertex
100
AcDb2dVertex
10
699.580000000000
20
458.520000000000
30
0.0
0
VERTEX
5
5e0
100
AcDbEntity
8
0-2
6
CONTINUOUS
62
  3
100
AcDbVertex
100
AcDb2dVertex
10
712.560000000000
20
467.680000000000
30
0.0
0
SEQEND
5
5e1
100
AcDbEntity
8
0-2
0
LINE
5
5e2
100
AcDbEntity
8
0-2
6
CONTINUOUS
62
3
100
AcDbLine
10
710.520000000000
20
474.980000000000
30
0.0
11
707.810000000000
21
475.160000000000
31
0.0
0
LINE
5
5e3
100
AcDbEntity
8
0-2
6
CONTINUOUS
62
3
100
AcDbLine
10
1490.730000000000
20
424.860000000000
30
0.0
11
1463.840000000000
21
424.860000000000
31
0.0
0
LINE
5
5e4
100
AcDbEntity
8
0-2
6
CONTINUOUS
62
3
100
AcDbLine
10
1459.550000000000
20
420.570000000000
30
0.0
11
1399.840000000000
21
420.570000000000
31
0.0
0
LINE
5
5e5
100
AcDbEntity
8
0-2
6
CONTINUOUS
62
3
100
AcDbLine
10
1463.840000000000
20
424.860000000000
30
0.0
11
1459.550000000000
21
420.570000000000
31
0.0
0
LINE
5
5e6
100
AcDbEntity
8
0-2
6
CONTINUOUS
62
3
100
AcDbLine
10
1399.840000000000
20
420.570000000000
30
0.0
11
1378.710000000000
21
459.070000000000
31
0.0
0
LINE
5
5e7
100
AcDbEntity
8
0-2
6
CONTINUOUS
62
3
100
AcDbLine
10
1306.590000000000
20
472.440000000000
30
0.0
11
1311.280000000000
21
472.120000000000
31
0.0
0
LINE
5
5e8
100
AcDbEntity
8
0-2
6
CONTINUOUS
62
3
100
AcDbLine
10
1371.090000000000
20
472.440000000000
30
0.0
11
1366.390000000000
21
472.120000000000
31
0.0
0
LINE
5
5e9
100
AcDbEntity
8
0-2
6
CONTINUOUS
62
3
100
AcDbLine
10
1365.590000000000
20
468.330000000000
30
0.0
11
1378.710000000000
21
459.070000000000
31
0.0
0
LINE
5
5ea
100
AcDbEntity
8
0-2
6
CONTINUOUS
62
3
100
AcDbLine
10
1311.340000000000
20
472.920000000000
30
0.0
11
1306.660000000000
21
473.240000000000
31
0.0
0
LINE
5
5eb
100
AcDbEntity
8
0-2
6
CONTINUOUS
62
3
100
AcDbLine
10
1371.010000000000
20
473.240000000000
30
0.0
11
1366.340000000000
21
472.920000000000
31
0.0
0
POLYLINE
5
5ec
100
AcDbEntity
8
0-2
6
CONTINUOUS
62
  3
100
AcDb2dPolyline
66
1
10
0.0
20
0.0
30
0.0
70
0
0
VERTEX
5
5ed
100
AcDbEntity
8
0-2
6
CONTINUOUS
62
  3
100
AcDbVertex
100
AcDb2dVertex
10
1365.170000000000
20
467.640000000000
30
0.0
0
VERTEX
5
5ee
100
AcDbEntity
8
0-2
6
CONTINUOUS
62
  3
100
AcDbVertex
100
AcDb2dVertex
10
1378.100000000000
20
458.520000000000
30
0.0
0
VERTEX
5
5ef
100
AcDbEntity
8
0-2
6
CONTINUOUS
62
  3
100
AcDbVertex
100
AcDb2dVertex
10
1399.370000000000
20
419.770000000000
30
0.0
0
VERTEX
5
5f0
100
AcDbEntity
8
0-2
6
CONTINUOUS
62
  3
100
AcDbVertex
100
AcDb2dVertex
10
1459.880000000000
20
419.770000000000
30
0.0
0
VERTEX
5
5f1
100
AcDbEntity
8
0-2
6
CONTINUOUS
62
  3
100
AcDbVertex
100
AcDb2dVertex
10
1464.170000000000
20
424.060000000000
30
0.0
0
VERTEX
5
5f2
100
AcDbEntity
8
0-2
6
CONTINUOUS
62
  3
100
AcDbVertex
100
AcDb2dVertex
10
1490.730000000000
20
424.060000000000
30
0.0
0
SEQEND
5
5f3
100
AcDbEntity
8
0-2
0
LINE
5
5f4
100
AcDbEntity
8
0-2
6
CONTINUOUS
62
7
100
AcDbLine
10
1300.350000000000
20
374.050000000000
30
0.0
11
1306.040000000000
21
392.080000000000
31
0.0
0
LINE
5
5f5
100
AcDbEntity
8
0-2
6
CONTINUOUS
62
7
100
AcDbLine
10
1356.280000000000
20
470.300000000000
30
0.0
11
1358.260000000000
21
452.130000000000
31
0.0
0
LINE
5
5f6
100
AcDbEntity
8
0-2
6
CONTINUOUS
62
7
100
AcDbLine
10
1311.560000000000
20
442.830000000000
30
0.0
11
1319.420000000000
21
452.130000000000
31
0.0
0
LINE
5
5f7
100
AcDbEntity
8
0-2
6
CONTINUOUS
62
7
100
AcDbLine
10
1306.040000000000
20
392.080000000000
30
0.0
11
1311.560000000000
21
442.830000000000
31
0.0
0
LINE
5
5f8
100
AcDbEntity
8
0-2
6
CONTINUOUS
62
7
100
AcDbLine
10
1368.860000000000
20
361.810000000000
30
0.0
11
1374.760000000000
21
362.130000000000
31
0.0
0
LINE
5
5f9
100
AcDbEntity
8
0-2
6
CONTINUOUS
62
7
100
AcDbLine
10
1368.690000000000
20
365.010000000000
30
0.0
11
1374.580000000000
21
365.330000000000
31
0.0
0
LINE
5
5fa
100
AcDbEntity
8
0-2
6
CONTINUOUS
62
7
100
AcDbLine
10
1377.330000000000
20
374.060000000000
30
0.0
11
1374.270000000000
21
373.120000000000
31
0.0
0
LINE
5
5fb
100
AcDbEntity
8
0-2
6
CONTINUOUS
62
7
100
AcDbLine
10
1298.590000000000
20
368.340000000000
30
0.0
11
1300.260000000000
21
373.760000000000
31
0.0
0
LINE
5
5fc
100
AcDbEntity
8
0-2
6
CONTINUOUS
62
7
100
AcDbLine
10
1355.080000000000
20
451.790000000000
30
0.0
11
1358.260000000000
21
452.130000000000
31
0.0
0
LINE
5
5fd
100
AcDbEntity
8
0-2
6
CONTINUOUS
62
7
100
AcDbLine
10
1301.650000000000
20
367.400000000000
30
0.0
11
1303.320000000000
21
372.820000000000
31
0.0
0
LINE
5
5fe
100
AcDbEntity
8
0-2
6
CONTINUOUS
62
7
100
AcDbLine
10
1376.030000000000
20
367.400000000000
30
0.0
11
1374.360000000000
21
372.820000000000
31
0.0
0
LINE
5
5ff
100
AcDbEntity
8
0-2
6
CONTINUOUS
62
7
100
AcDbLine
10
1322.600000000000
20
451.790000000000
30
0.0
11
1319.420000000000
21
452.130000000000
31
0.0
0
LINE
5
600
100
AcDbEntity
8
0-2
6
CONTINUOUS
62
7
100
AcDbLine
10
1379.080000000000
20
368.340000000000
30
0.0
11
1377.420000000000
21
373.760000000000
31
0.0
0
LINE
5
601
100
AcDbEntity
8
0-2
6
CONTINUOUS
62
7
100
AcDbLine
10
1323.570000000000
20
460.700000000000
30
0.0
11
1316.200000000000
21
393.050000000000
31
0.0
0
LINE
5
602
100
AcDbEntity
8
0-2
6
CONTINUOUS
62
7
100
AcDbLine
10
1300.350000000000
20
374.060000000000
30
0.0
11
1303.410000000000
21
373.120000000000
31
0.0
0
LINE
5
603
100
AcDbEntity
8
0-2
6
CONTINUOUS
62
7
100
AcDbLine
10
1308.990000000000
20
365.010000000000
30
0.0
11
1303.090000000000
21
365.330000000000
31
0.0
0
POLYLINE
5
604
100
AcDbEntity
8
0-2
6
CONTINUOUS
62
  7
100
AcDb2dPolyline
66
1
10
0.0
20
0.0
30
0.0
70
0
0
VERTEX
5
605
100
AcDbEntity
8
0-2
6
CONTINUOUS
62
  7
100
AcDbVertex
100
AcDb2dVertex
10
1371.640000000000
20
392.080000000000
30
0.0
0
VERTEX
5
606
100
AcDbEntity
8
0-2
6
CONTINUOUS
62
  7
100
AcDbVertex
100
AcDb2dVertex
10
1366.110000000000
20
442.830000000000
30
0.0
0
VERTEX
5
607
100
AcDbEntity
8
0-2
6
CONTINUOUS
62
  7
100
AcDbVertex
100
AcDb2dVertex
10
1358.260000000000
20
452.130000000000
30
0.0
0
SEQEND
5
608
100
AcDbEntity
8
0-2
0
LINE
5
609
100
AcDbEntity
8
0-2
6
CONTINUOUS
62
7
100
AcDbLine
10
1308.810000000000
20
361.810000000000
30
0.0
11
1302.920000000000
21
362.130000000000
31
0.0
0
LINE
5
60a
100
AcDbEntity
8
0-2
6
CONTINUOUS
62
7
100
AcDbLine
10
1321.390000000000
20
470.300000000000
30
0.0
11
1319.420000000000
21
452.130000000000
31
0.0
0
LINE
5
60b
100
AcDbEntity
8
0-2
6
CONTINUOUS
62
7
100
AcDbLine
10
1377.330000000000
20
374.050000000000
30
0.0
11
1371.640000000000
21
392.080000000000
31
0.0
0
LINE
5
60c
100
AcDbEntity
8
0-2
6
CONTINUOUS
62
7
100
AcDbLine
10
1368.860000000000
20
361.810000000000
30
0.0
11
1368.690000000000
21
365.010000000000
31
0.0
0
LINE
5
60d
100
AcDbEntity
8
0-2
6
CONTINUOUS
62
7
100
AcDbLine
10
1308.810000000000
20
361.810000000000
30
0.0
11
1308.990000000000
21
365.010000000000
31
0.0
0
LINE
5
60e
100
AcDbEntity
8
0-2
6
CONTINUOUS
62
7
100
AcDbLine
10
1333.840000000000
20
455.010000000000
30
0.0
11
1338.840000000000
21
450.010000000000
31
0.0
0
LINE
5
60f
100
AcDbEntity
8
0-2
6
CONTINUOUS
62
7
100
AcDbLine
10
1354.110000000000
20
460.700000000000
30
0.0
11
1361.630000000000
21
391.660000000000
31
0.0
0
LINE
5
610
100
AcDbEntity
8
0-2
6
CONTINUOUS
62
7
100
AcDbLine
10
1299.620000000000
20
411.810000000000
30
0.0
11
1297.620000000000
21
409.810000000000
31
0.0
0
LINE
5
611
100
AcDbEntity
8
0-2
6
CONTINUOUS
62
7
100
AcDbLine
10
1299.620000000000
20
401.810000000000
30
0.0
11
1297.620000000000
21
403.810000000000
31
0.0
0
LINE
5
612
100
AcDbEntity
8
0-2
6
CONTINUOUS
62
7
100
AcDbLine
10
1360.540000000000
20
402.690000000000
30
0.0
11
1317.250000000000
21
402.690000000000
31
0.0
0
LINE
5
613
100
AcDbEntity
8
0-2
6
CONTINUOUS
62
7
100
AcDbLine
10
1359.420000000000
20
410.940000000000
30
0.0
11
1318.260000000000
21
410.940000000000
31
0.0
0
LINE
5
614
100
AcDbEntity
8
0-2
6
CONTINUOUS
62
7
100
AcDbLine
10
1299.620000000000
20
401.810000000000
30
0.0
11
1299.620000000000
21
411.810000000000
31
0.0
0
LINE
5
615
100
AcDbEntity
8
0-2
6
CONTINUOUS
62
7
100
AcDbLine
10
1359.320000000000
20
411.810000000000
30
0.0
11
1318.350000000000
21
411.810000000000
31
0.0
0
LINE
5
616
100
AcDbEntity
8
0-2
6
CONTINUOUS
62
7
100
AcDbLine
10
1360.630000000000
20
401.810000000000
30
0.0
11
1317.050000000000
21
401.810000000000
31
0.0
0
LINE
5
617
100
AcDbEntity
8
0-2
6
CONTINUOUS
62
7
100
AcDbLine
10
1367.810000000000
20
475.270000000000
30
0.0
11
1355.550000000000
21
478.030000000000
31
0.0
0
LINE
5
618
100
AcDbEntity
8
0-2
6
CONTINUOUS
62
7
100
AcDbLine
10
1351.840000000000
20
473.610000000000
30
0.0
11
1351.840000000000
21
475.120000000000
31
0.0
0
LINE
5
619
100
AcDbEntity
8
0-2
6
CONTINUOUS
62
7
100
AcDbLine
10
1325.840000000000
20
475.120000000000
30
0.0
11
1325.840000000000
21
473.610000000000
31
0.0
0
LINE
5
61a
100
AcDbEntity
8
0-2
6
CONTINUOUS
62
7
100
AcDbLine
10
1307.870000000000
20
475.730000000000
30
0.0
11
1309.870000000000
21
475.270000000000
31
0.0
0
LINE
5
61b
100
AcDbEntity
8
0-2
6
CONTINUOUS
62
7
100
AcDbLine
10
1347.840000000000
20
491.980000000000
30
0.0
11
1347.840000000000
21
484.380000000000
31
0.0
0
LINE
5
61c
100
AcDbEntity
8
0-2
6
CONTINUOUS
62
7
100
AcDbLine
10
1309.870000000000
20
475.270000000000
30
0.0
11
1322.130000000000
21
478.030000000000
31
0.0
0
LINE
5
61d
100
AcDbEntity
8
0-2
6
CONTINUOUS
62
7
100
AcDbLine
10
1329.840000000000
20
491.980000000000
30
0.0
11
1329.840000000000
21
484.380000000000
31
0.0
0
LINE
5
61e
100
AcDbEntity
8
0-2
6
CONTINUOUS
62
7
100
AcDbLine
10
1331.170000000000
20
494.610000000000
30
0.0
11
1346.510000000000
21
494.610000000000
31
0.0
0
LINE
5
61f
100
AcDbEntity
8
0-2
6
CONTINUOUS
62
7
100
AcDbLine
10
1338.840000000000
20
465.280000000000
30
0.0
11
1353.670000000000
21
465.280000000000
31
0.0
0
LINE
5
620
100
AcDbEntity
8
0-2
6
CONTINUOUS
62
7
100
AcDbLine
10
1338.840000000000
20
463.550000000000
30
0.0
11
1350.980000000000
21
463.550000000000
31
0.0
0
LINE
5
621
100
AcDbEntity
8
0-2
6
CONTINUOUS
62
7
100
AcDbLine
10
1353.670000000000
20
474.920000000000
30
0.0
11
1353.670000000000
21
466.280000000000
31
0.0
0
LINE
5
622
100
AcDbEntity
8
0-2
6
CONTINUOUS
62
7
100
AcDbLine
10
1338.840000000000
20
473.610000000000
30
0.0
11
1351.840000000000
21
473.610000000000
31
0.0
0
LINE
5
623
100
AcDbEntity
8
0-2
6
CONTINUOUS
62
7
100
AcDbLine
10
1338.840000000000
20
473.610000000000
30
0.0
11
1325.840000000000
21
473.610000000000
31
0.0
0
LINE
5
624
100
AcDbEntity
8
0-2
6
CONTINUOUS
62
7
100
AcDbLine
10
1324.010000000000
20
474.920000000000
30
0.0
11
1324.010000000000
21
466.510000000000
31
0.0
0
LINE
5
625
100
AcDbEntity
8
0-2
6
CONTINUOUS
62
7
100
AcDbLine
10
1338.840000000000
20
463.550000000000
30
0.0
11
1326.700000000000
21
463.550000000000
31
0.0
0
LINE
5
626
100
AcDbEntity
8
0-2
6
CONTINUOUS
62
7
100
AcDbLine
10
1338.840000000000
20
465.280000000000
30
0.0
11
1326.520000000000
21
465.280000000000
31
0.0
0
LINE
5
627
100
AcDbEntity
8
0-2
6
CONTINUOUS
62
7
100
AcDbLine
10
1297.620000000000
20
409.810000000000
30
0.0
11
1297.620000000000
21
403.810000000000
31
0.0
0
LINE
5
628
100
AcDbEntity
8
0-2
6
CONTINUOUS
62
7
100
AcDbLine
10
1324.010000000000
20
467.760000000000
30
0.0
11
1338.840000000000
21
467.760000000000
31
0.0
0
LINE
5
629
100
AcDbEntity
8
0-2
6
CONTINUOUS
62
7
100
AcDbLine
10
1324.010000000000
20
466.510000000000
30
0.0
11
1338.840000000000
21
466.510000000000
31
0.0
0
LINE
5
62a
100
AcDbEntity
8
0-2
6
CONTINUOUS
62
7
100
AcDbLine
10
1353.670000000000
20
467.760000000000
30
0.0
11
1338.840000000000
21
467.760000000000
31
0.0
0
LINE
5
62b
100
AcDbEntity
8
0-2
6
CONTINUOUS
62
7
100
AcDbLine
10
1353.670000000000
20
466.510000000000
30
0.0
11
1338.840000000000
21
466.510000000000
31
0.0
0
LINE
5
62c
100
AcDbEntity
8
0-2
6
CONTINUOUS
62
7
100
AcDbLine
10
1308.810000000000
20
361.810000000000
30
0.0
11
1302.920000000000
21
362.130000000000
31
0.0
0
LINE
5
62d
100
AcDbEntity
8
0-2
6
CONTINUOUS
62
7
100
AcDbLine
10
1299.830000000000
20
415.060000000000
30
0.0
11
1300.740000000000
21
416.630000000000
31
0.0
0
LINE
5
62e
100
AcDbEntity
8
0-2
6
CONTINUOUS
62
7
100
AcDbLine
10
1307.830000000000
20
416.630000000000
30
0.0
11
1300.740000000000
21
416.630000000000
31
0.0
0
LINE
5
62f
100
AcDbEntity
8
0-2
6
CONTINUOUS
62
7
100
AcDbLine
10
1308.340000000000
20
413.240000000000
30
0.0
11
1308.340000000000
21
417.310000000000
31
0.0
0
LINE
5
630
100
AcDbEntity
8
0-2
6
CONTINUOUS
62
7
100
AcDbLine
10
1307.830000000000
20
411.720000000000
30
0.0
11
1300.740000000000
21
411.720000000000
31
0.0
0
LINE
5
631
100
AcDbEntity
8
0-2
6
CONTINUOUS
62
7
100
AcDbLine
10
1307.830000000000
20
408.570000000000
30
0.0
11
1307.830000000000
21
416.630000000000
31
0.0
0
LINE
5
632
100
AcDbEntity
8
0-2
6
CONTINUOUS
62
7
100
AcDbLine
10
1308.340000000000
20
417.310000000000
30
0.0
11
1307.840000000000
21
412.240000000000
31
0.0
0
LINE
5
633
100
AcDbEntity
8
0-2
6
CONTINUOUS
62
7
100
AcDbLine
10
1299.830000000000
20
406.810000000000
30
0.0
11
1299.830000000000
21
415.060000000000
31
0.0
0
LINE
5
634
100
AcDbEntity
8
0-2
6
CONTINUOUS
62
7
100
AcDbLine
10
1308.780000000000
20
417.270000000000
30
0.0
11
1308.340000000000
21
417.310000000000
31
0.0
0
LINE
5
635
100
AcDbEntity
8
0-2
6
CONTINUOUS
62
7
100
AcDbLine
10
1299.830000000000
20
398.560000000000
30
0.0
11
1300.740000000000
21
397.000000000000
31
0.0
0
LINE
5
636
100
AcDbEntity
8
0-2
6
CONTINUOUS
62
7
100
AcDbLine
10
1306.570000000000
20
397.000000000000
30
0.0
11
1300.740000000000
21
397.000000000000
31
0.0
0
LINE
5
637
100
AcDbEntity
8
0-2
6
CONTINUOUS
62
7
100
AcDbLine
10
1307.110000000000
20
401.910000000000
30
0.0
11
1300.740000000000
21
401.910000000000
31
0.0
0
LINE
5
638
100
AcDbEntity
8
0-2
6
CONTINUOUS
62
7
100
AcDbLine
10
1299.830000000000
20
406.810000000000
30
0.0
11
1299.830000000000
21
398.560000000000
31
0.0
0
LINE
5
639
100
AcDbEntity
8
0-2
6
CONTINUOUS
62
7
100
AcDbLine
10
1343.740000000000
20
454.910000000000
30
0.0
11
1338.840000000000
21
450.010000000000
31
0.0
0
LINE
5
63a
100
AcDbEntity
8
0-2
6
CONTINUOUS
62
7
100
AcDbLine
10
1330.590000000000
20
454.910000000000
30
0.0
11
1330.340000000000
21
455.160000000000
31
0.0
0
LINE
5
63b
100
AcDbEntity
8
0-2
6
CONTINUOUS
62
7
100
AcDbLine
10
1338.840000000000
20
454.910000000000
30
0.0
11
1347.090000000000
21
454.910000000000
31
0.0
0
LINE
5
63c
100
AcDbEntity
8
0-2
6
CONTINUOUS
62
7
100
AcDbLine
10
1338.840000000000
20
453.510000000000
30
0.0
11
1342.340000000000
21
453.510000000000
31
0.0
0
LINE
5
63d
100
AcDbEntity
8
0-2
6
CONTINUOUS
62
7
100
AcDbLine
10
1347.090000000000
20
454.910000000000
30
0.0
11
1347.340000000000
21
455.160000000000
31
0.0
0
LINE
5
63e
100
AcDbEntity
8
0-2
6
CONTINUOUS
62
7
100
AcDbLine
10
1343.090000000000
20
454.260000000000
30
0.0
11
1343.090000000000
21
454.910000000000
31
0.0
0
LINE
5
63f
100
AcDbEntity
8
0-2
6
CONTINUOUS
62
7
100
AcDbLine
10
1334.590000000000
20
454.260000000000
30
0.0
11
1334.590000000000
21
454.910000000000
31
0.0
0
LINE
5
640
100
AcDbEntity
8
0-2
6
CONTINUOUS
62
7
100
AcDbLine
10
1338.840000000000
20
453.510000000000
30
0.0
11
1335.340000000000
21
453.510000000000
31
0.0
0
LINE
5
641
100
AcDbEntity
8
0-2
6
CONTINUOUS
62
7
100
AcDbLine
10
1330.340000000000
20
462.910000000000
30
0.0
11
1330.340000000000
21
455.160000000000
31
0.0
0
LINE
5
642
100
AcDbEntity
8
0-2
6
CONTINUOUS
62
7
100
AcDbLine
10
1338.840000000000
20
454.910000000000
30
0.0
11
1330.590000000000
21
454.910000000000
31
0.0
0
LINE
5
643
100
AcDbEntity
8
0-2
6
CONTINUOUS
62
7
100
AcDbLine
10
1338.840000000000
20
462.910000000000
30
0.0
11
1338.840000000000
21
455.810000000000
31
0.0
0
LINE
5
644
100
AcDbEntity
8
0-2
6
CONTINUOUS
62
7
100
AcDbLine
10
1347.340000000000
20
462.910000000000
30
0.0
11
1347.340000000000
21
455.160000000000
31
0.0
0
LINE
5
645
100
AcDbEntity
8
0-2
6
CONTINUOUS
62
7
100
AcDbLine
10
1328.340000000000
20
463.420000000000
30
0.0
11
1333.410000000000
21
462.920000000000
31
0.0
0
LINE
5
646
100
AcDbEntity
8
0-2
6
CONTINUOUS
62
7
100
AcDbLine
10
1349.340000000000
20
463.420000000000
30
0.0
11
1344.270000000000
21
462.920000000000
31
0.0
0
LINE
5
647
100
AcDbEntity
8
0-2
6
CONTINUOUS
62
7
100
AcDbLine
10
1330.340000000000
20
462.910000000000
30
0.0
11
1347.340000000000
21
462.910000000000
31
0.0
0
LINE
5
648
100
AcDbEntity
8
0-2
6
CONTINUOUS
62
7
100
AcDbLine
10
1299.830000000000
20
411.810000000000
30
0.0
11
1299.620000000000
21
411.810000000000
31
0.0
0
LINE
5
649
100
AcDbEntity
8
0-2
6
CONTINUOUS
62
7
100
AcDbLine
10
1299.830000000000
20
410.940000000000
30
0.0
11
1298.750000000000
21
410.940000000000
31
0.0
0
LINE
5
64a
100
AcDbEntity
8
0-2
6
CONTINUOUS
62
7
100
AcDbLine
10
1299.830000000000
20
402.690000000000
30
0.0
11
1298.750000000000
21
402.690000000000
31
0.0
0
LINE
5
64b
100
AcDbEntity
8
0-2
6
CONTINUOUS
62
7
100
AcDbLine
10
1299.830000000000
20
401.810000000000
30
0.0
11
1299.620000000000
21
401.810000000000
31
0.0
0
LINE
5
64c
100
AcDbEntity
8
0-2
6
CONTINUOUS
62
7
100
AcDbLine
10
1368.960000000000
20
416.650000000000
30
0.0
11
1368.960000000000
21
417.810000000000
31
0.0
0
LINE
5
64d
100
AcDbEntity
8
0-2
6
CONTINUOUS
62
7
100
AcDbLine
10
1322.790000000000
20
473.800000000000
30
0.0
11
1320.880000000000
21
473.800000000000
31
0.0
0
LINE
5
64e
100
AcDbEntity
8
0-2
6
CONTINUOUS
62
7
100
AcDbLine
10
1354.890000000000
20
473.800000000000
30
0.0
11
1356.800000000000
21
473.800000000000
31
0.0
0
LINE
5
64f
100
AcDbEntity
8
0-2
6
CONTINUOUS
62
7
100
AcDbLine
10
1320.880000000000
20
475.410000000000
30
0.0
11
1320.880000000000
21
473.800000000000
31
0.0
0
LINE
5
650
100
AcDbEntity
8
0-2
6
CONTINUOUS
62
7
100
AcDbLine
10
1356.800000000000
20
475.410000000000
30
0.0
11
1356.800000000000
21
473.800000000000
31
0.0
0
LINE
5
651
100
AcDbEntity
8
0-2
6
CONTINUOUS
62
7
100
AcDbLine
10
1369.810000000000
20
475.730000000000
30
0.0
11
1367.810000000000
21
475.270000000000
31
0.0
0
LINE
5
652
100
AcDbEntity
8
0-2
6
CONTINUOUS
62
7
100
AcDbLine
10
1000.350000000000
20
374.050000000000
30
0.0
11
1006.040000000000
21
392.080000000000
31
0.0
0
LINE
5
653
100
AcDbEntity
8
0-2
6
CONTINUOUS
62
7
100
AcDbLine
10
1056.280000000000
20
470.300000000000
30
0.0
11
1058.260000000000
21
452.130000000000
31
0.0
0
LINE
5
654
100
AcDbEntity
8
0-2
6
CONTINUOUS
62
7
100
AcDbLine
10
1011.560000000000
20
442.830000000000
30
0.0
11
1019.420000000000
21
452.130000000000
31
0.0
0
LINE
5
655
100
AcDbEntity
8
0-2
6
CONTINUOUS
62
7
100
AcDbLine
10
1006.040000000000
20
392.080000000000
30
0.0
11
1011.560000000000
21
442.830000000000
31
0.0
0
LINE
5
656
100
AcDbEntity
8
0-2
6
CONTINUOUS
62
7
100
AcDbLine
10
1068.860000000000
20
361.810000000000
30
0.0
11
1074.760000000000
21
362.130000000000
31
0.0
0
LINE
5
657
100
AcDbEntity
8
0-2
6
CONTINUOUS
62
7
100
AcDbLine
10
1068.690000000000
20
365.010000000000
30
0.0
11
1074.580000000000
21
365.330000000000
31
0.0
0
LINE
5
658
100
AcDbEntity
8
0-2
6
CONTINUOUS
62
7
100
AcDbLine
10
1077.330000000000
20
374.060000000000
30
0.0
11
1074.270000000000
21
373.120000000000
31
0.0
0
LINE
5
659
100
AcDbEntity
8
0-2
6
CONTINUOUS
62
7
100
AcDbLine
10
998.590000000000
20
368.340000000000
30
0.0
11
1000.260000000000
21
373.760000000000
31
0.0
0
LINE
5
65a
100
AcDbEntity
8
0-2
6
CONTINUOUS
62
7
100
AcDbLine
10
1055.080000000000
20
451.790000000000
30
0.0
11
1058.260000000000
21
452.130000000000
31
0.0
0
LINE
5
65b
100
AcDbEntity
8
0-2
6
CONTINUOUS
62
7
100
AcDbLine
10
1001.650000000000
20
367.400000000000
30
0.0
11
1003.320000000000
21
372.820000000000
31
0.0
0
LINE
5
65c
100
AcDbEntity
8
0-2
6
CONTINUOUS
62
7
100
AcDbLine
10
1076.030000000000
20
367.400000000000
30
0.0
11
1074.360000000000
21
372.820000000000
31
0.0
0
LINE
5
65d
100
AcDbEntity
8
0-2
6
CONTINUOUS
62
7
100
AcDbLine
10
1022.600000000000
20
451.790000000000
30
0.0
11
1019.420000000000
21
452.130000000000
31
0.0
0
LINE
5
65e
100
AcDbEntity
8
0-2
6
CONTINUOUS
62
7
100
AcDbLine
10
1079.080000000000
20
368.340000000000
30
0.0
11
1077.420000000000
21
373.760000000000
31
0.0
0
LINE
5
65f
100
AcDbEntity
8
0-2
6
CONTINUOUS
62
7
100
AcDbLine
10
1023.570000000000
20
460.700000000000
30
0.0
11
1016.200000000000
21
393.050000000000
31
0.0
0
LINE
5
660
100
AcDbEntity
8
0-2
6
CONTINUOUS
62
7
100
AcDbLine
10
1000.350000000000
20
374.060000000000
30
0.0
11
1003.410000000000
21
373.120000000000
31
0.0
0
LINE
5
661
100
AcDbEntity
8
0-2
6
CONTINUOUS
62
7
100
AcDbLine
10
1008.990000000000
20
365.010000000000
30
0.0
11
1003.090000000000
21
365.330000000000
31
0.0
0
POLYLINE
5
662
100
AcDbEntity
8
0-2
6
CONTINUOUS
62
  7
100
AcDb2dPolyline
66
1
10
0.0
20
0.0
30
0.0
70
0
0
VERTEX
5
663
100
AcDbEntity
8
0-2
6
CONTINUOUS
62
  7
100
AcDbVertex
100
AcDb2dVertex
10
1071.640000000000
20
392.080000000000
30
0.0
0
VERTEX
5
664
100
AcDbEntity
8
0-2
6
CONTINUOUS
62
  7
100
AcDbVertex
100
AcDb2dVertex
10
1066.110000000000
20
442.830000000000
30
0.0
0
VERTEX
5
665
100
AcDbEntity
8
0-2
6
CONTINUOUS
62
  7
100
AcDbVertex
100
AcDb2dVertex
10
1058.260000000000
20
452.130000000000
30
0.0
0
SEQEND
5
666
100
AcDbEntity
8
0-2
0
LINE
5
667
100
AcDbEntity
8
0-2
6
CONTINUOUS
62
7
100
AcDbLine
10
1008.810000000000
20
361.810000000000
30
0.0
11
1002.920000000000
21
362.130000000000
31
0.0
0
LINE
5
668
100
AcDbEntity
8
0-2
6
CONTINUOUS
62
7
100
AcDbLine
10
1021.390000000000
20
470.300000000000
30
0.0
11
1019.420000000000
21
452.130000000000
31
0.0
0
LINE
5
669
100
AcDbEntity
8
0-2
6
CONTINUOUS
62
7
100
AcDbLine
10
1077.330000000000
20
374.050000000000
30
0.0
11
1071.640000000000
21
392.080000000000
31
0.0
0
LINE
5
66a
100
AcDbEntity
8
0-2
6
CONTINUOUS
62
7
100
AcDbLine
10
1068.860000000000
20
361.810000000000
30
0.0
11
1068.690000000000
21
365.010000000000
31
0.0
0
LINE
5
66b
100
AcDbEntity
8
0-2
6
CONTINUOUS
62
7
100
AcDbLine
10
1008.810000000000
20
361.810000000000
30
0.0
11
1008.990000000000
21
365.010000000000
31
0.0
0
LINE
5
66c
100
AcDbEntity
8
0-2
6
CONTINUOUS
62
7
100
AcDbLine
10
1033.840000000000
20
455.010000000000
30
0.0
11
1038.840000000000
21
450.010000000000
31
0.0
0
LINE
5
66d
100
AcDbEntity
8
0-2
6
CONTINUOUS
62
7
100
AcDbLine
10
1054.110000000000
20
460.700000000000
30
0.0
11
1061.630000000000
21
391.660000000000
31
0.0
0
LINE
5
66e
100
AcDbEntity
8
0-2
6
CONTINUOUS
62
7
100
AcDbLine
10
999.620000000000
20
411.810000000000
30
0.0
11
997.620000000000
21
409.810000000000
31
0.0
0
LINE
5
66f
100
AcDbEntity
8
0-2
6
CONTINUOUS
62
7
100
AcDbLine
10
999.620000000000
20
401.810000000000
30
0.0
11
997.620000000000
21
403.810000000000
31
0.0
0
LINE
5
670
100
AcDbEntity
8
0-2
6
CONTINUOUS
62
7
100
AcDbLine
10
1060.540000000000
20
402.690000000000
30
0.0
11
1017.250000000000
21
402.690000000000
31
0.0
0
LINE
5
671
100
AcDbEntity
8
0-2
6
CONTINUOUS
62
7
100
AcDbLine
10
1059.420000000000
20
410.940000000000
30
0.0
11
1018.260000000000
21
410.940000000000
31
0.0
0
LINE
5
672
100
AcDbEntity
8
0-2
6
CONTINUOUS
62
7
100
AcDbLine
10
999.620000000000
20
401.810000000000
30
0.0
11
999.620000000000
21
411.810000000000
31
0.0
0
LINE
5
673
100
AcDbEntity
8
0-2
6
CONTINUOUS
62
7
100
AcDbLine
10
1059.320000000000
20
411.810000000000
30
0.0
11
1018.350000000000
21
411.810000000000
31
0.0
0
LINE
5
674
100
AcDbEntity
8
0-2
6
CONTINUOUS
62
7
100
AcDbLine
10
1060.630000000000
20
401.810000000000
30
0.0
11
1017.050000000000
21
401.810000000000
31
0.0
0
LINE
5
675
100
AcDbEntity
8
0-2
6
CONTINUOUS
62
7
100
AcDbLine
10
1067.810000000000
20
475.270000000000
30
0.0
11
1055.550000000000
21
478.030000000000
31
0.0
0
LINE
5
676
100
AcDbEntity
8
0-2
6
CONTINUOUS
62
7
100
AcDbLine
10
1051.840000000000
20
473.610000000000
30
0.0
11
1051.840000000000
21
475.120000000000
31
0.0
0
LINE
5
677
100
AcDbEntity
8
0-2
6
CONTINUOUS
62
7
100
AcDbLine
10
1025.840000000000
20
475.120000000000
30
0.0
11
1025.840000000000
21
473.610000000000
31
0.0
0
LINE
5
678
100
AcDbEntity
8
0-2
6
CONTINUOUS
62
7
100
AcDbLine
10
1007.870000000000
20
475.730000000000
30
0.0
11
1009.870000000000
21
475.270000000000
31
0.0
0
LINE
5
679
100
AcDbEntity
8
0-2
6
CONTINUOUS
62
7
100
AcDbLine
10
1047.840000000000
20
491.980000000000
30
0.0
11
1047.840000000000
21
484.380000000000
31
0.0
0
LINE
5
67a
100
AcDbEntity
8
0-2
6
CONTINUOUS
62
7
100
AcDbLine
10
1009.870000000000
20
475.270000000000
30
0.0
11
1022.130000000000
21
478.030000000000
31
0.0
0
LINE
5
67b
100
AcDbEntity
8
0-2
6
CONTINUOUS
62
7
100
AcDbLine
10
1029.840000000000
20
491.980000000000
30
0.0
11
1029.840000000000
21
484.380000000000
31
0.0
0
LINE
5
67c
100
AcDbEntity
8
0-2
6
CONTINUOUS
62
7
100
AcDbLine
10
1031.170000000000
20
494.610000000000
30
0.0
11
1046.510000000000
21
494.610000000000
31
0.0
0
LINE
5
67d
100
AcDbEntity
8
0-2
6
CONTINUOUS
62
7
100
AcDbLine
10
1038.840000000000
20
465.280000000000
30
0.0
11
1053.670000000000
21
465.280000000000
31
0.0
0
LINE
5
67e
100
AcDbEntity
8
0-2
6
CONTINUOUS
62
7
100
AcDbLine
10
1038.840000000000
20
463.550000000000
30
0.0
11
1050.980000000000
21
463.550000000000
31
0.0
0
LINE
5
67f
100
AcDbEntity
8
0-2
6
CONTINUOUS
62
7
100
AcDbLine
10
1053.670000000000
20
474.920000000000
30
0.0
11
1053.670000000000
21
466.280000000000
31
0.0
0
LINE
5
680
100
AcDbEntity
8
0-2
6
CONTINUOUS
62
7
100
AcDbLine
10
1038.840000000000
20
473.610000000000
30
0.0
11
1051.840000000000
21
473.610000000000
31
0.0
0
LINE
5
681
100
AcDbEntity
8
0-2
6
CONTINUOUS
62
7
100
AcDbLine
10
1038.840000000000
20
473.610000000000
30
0.0
11
1025.840000000000
21
473.610000000000
31
0.0
0
LINE
5
682
100
AcDbEntity
8
0-2
6
CONTINUOUS
62
7
100
AcDbLine
10
1024.010000000000
20
474.920000000000
30
0.0
11
1024.010000000000
21
466.510000000000
31
0.0
0
LINE
5
683
100
AcDbEntity
8
0-2
6
CONTINUOUS
62
7
100
AcDbLine
10
1038.840000000000
20
463.550000000000
30
0.0
11
1026.700000000000
21
463.550000000000
31
0.0
0
LINE
5
684
100
AcDbEntity
8
0-2
6
CONTINUOUS
62
7
100
AcDbLine
10
1038.840000000000
20
465.280000000000
30
0.0
11
1026.520000000000
21
465.280000000000
31
0.0
0
LINE
5
685
100
AcDbEntity
8
0-2
6
CONTINUOUS
62
7
100
AcDbLine
10
997.620000000000
20
409.810000000000
30
0.0
11
997.620000000000
21
403.810000000000
31
0.0
0
LINE
5
686
100
AcDbEntity
8
0-2
6
CONTINUOUS
62
7
100
AcDbLine
10
1024.010000000000
20
467.760000000000
30
0.0
11
1038.840000000000
21
467.760000000000
31
0.0
0
LINE
5
687
100
AcDbEntity
8
0-2
6
CONTINUOUS
62
7
100
AcDbLine
10
1024.010000000000
20
466.510000000000
30
0.0
11
1038.840000000000
21
466.510000000000
31
0.0
0
LINE
5
688
100
AcDbEntity
8
0-2
6
CONTINUOUS
62
7
100
AcDbLine
10
1053.670000000000
20
467.760000000000
30
0.0
11
1038.840000000000
21
467.760000000000
31
0.0
0
LINE
5
689
100
AcDbEntity
8
0-2
6
CONTINUOUS
62
7
100
AcDbLine
10
1053.670000000000
20
466.510000000000
30
0.0
11
1038.840000000000
21
466.510000000000
31
0.0
0
LINE
5
68a
100
AcDbEntity
8
0-2
6
CONTINUOUS
62
7
100
AcDbLine
10
1008.810000000000
20
361.810000000000
30
0.0
11
1002.920000000000
21
362.130000000000
31
0.0
0
LINE
5
68b
100
AcDbEntity
8
0-2
6
CONTINUOUS
62
7
100
AcDbLine
10
999.830000000000
20
415.060000000000
30
0.0
11
1000.740000000000
21
416.630000000000
31
0.0
0
LINE
5
68c
100
AcDbEntity
8
0-2
6
CONTINUOUS
62
7
100
AcDbLine
10
1007.830000000000
20
416.630000000000
30
0.0
11
1000.740000000000
21
416.630000000000
31
0.0
0
LINE
5
68d
100
AcDbEntity
8
0-2
6
CONTINUOUS
62
7
100
AcDbLine
10
1008.340000000000
20
413.240000000000
30
0.0
11
1008.340000000000
21
417.310000000000
31
0.0
0
LINE
5
68e
100
AcDbEntity
8
0-2
6
CONTINUOUS
62
7
100
AcDbLine
10
1007.830000000000
20
411.720000000000
30
0.0
11
1000.740000000000
21
411.720000000000
31
0.0
0
LINE
5
68f
100
AcDbEntity
8
0-2
6
CONTINUOUS
62
7
100
AcDbLine
10
1007.830000000000
20
408.570000000000
30
0.0
11
1007.830000000000
21
416.630000000000
31
0.0
0
LINE
5
690
100
AcDbEntity
8
0-2
6
CONTINUOUS
62
7
100
AcDbLine
10
1008.340000000000
20
417.310000000000
30
0.0
11
1007.840000000000
21
412.240000000000
31
0.0
0
LINE
5
691
100
AcDbEntity
8
0-2
6
CONTINUOUS
62
7
100
AcDbLine
10
999.830000000000
20
406.810000000000
30
0.0
11
999.830000000000
21
415.060000000000
31
0.0
0
LINE
5
692
100
AcDbEntity
8
0-2
6
CONTINUOUS
62
7
100
AcDbLine
10
1008.780000000000
20
417.270000000000
30
0.0
11
1008.340000000000
21
417.310000000000
31
0.0
0
LINE
5
693
100
AcDbEntity
8
0-2
6
CONTINUOUS
62
7
100
AcDbLine
10
999.830000000000
20
398.560000000000
30
0.0
11
1000.740000000000
21
397.000000000000
31
0.0
0
LINE
5
694
100
AcDbEntity
8
0-2
6
CONTINUOUS
62
7
100
AcDbLine
10
1006.570000000000
20
397.000000000000
30
0.0
11
1000.740000000000
21
397.000000000000
31
0.0
0
LINE
5
695
100
AcDbEntity
8
0-2
6
CONTINUOUS
62
7
100
AcDbLine
10
1007.110000000000
20
401.910000000000
30
0.0
11
1000.740000000000
21
401.910000000000
31
0.0
0
LINE
5
696
100
AcDbEntity
8
0-2
6
CONTINUOUS
62
7
100
AcDbLine
10
999.830000000000
20
406.810000000000
30
0.0
11
999.830000000000
21
398.560000000000
31
0.0
0
LINE
5
697
100
AcDbEntity
8
0-2
6
CONTINUOUS
62
7
100
AcDbLine
10
1043.740000000000
20
454.910000000000
30
0.0
11
1038.840000000000
21
450.010000000000
31
0.0
0
LINE
5
698
100
AcDbEntity
8
0-2
6
CONTINUOUS
62
7
100
AcDbLine
10
1030.590000000000
20
454.910000000000
30
0.0
11
1030.340000000000
21
455.160000000000
31
0.0
0
LINE
5
699
100
AcDbEntity
8
0-2
6
CONTINUOUS
62
7
100
AcDbLine
10
1038.840000000000
20
454.910000000000
30
0.0
11
1047.090000000000
21
454.910000000000
31
0.0
0
LINE
5
69a
100
AcDbEntity
8
0-2
6
CONTINUOUS
62
7
100
AcDbLine
10
1038.840000000000
20
453.510000000000
30
0.0
11
1042.340000000000
21
453.510000000000
31
0.0
0
LINE
5
69b
100
AcDbEntity
8
0-2
6
CONTINUOUS
62
7
100
AcDbLine
10
1047.090000000000
20
454.910000000000
30
0.0
11
1047.340000000000
21
455.160000000000
31
0.0
0
LINE
5
69c
100
AcDbEntity
8
0-2
6
CONTINUOUS
62
7
100
AcDbLine
10
1043.090000000000
20
454.260000000000
30
0.0
11
1043.090000000000
21
454.910000000000
31
0.0
0
LINE
5
69d
100
AcDbEntity
8
0-2
6
CONTINUOUS
62
7
100
AcDbLine
10
1034.590000000000
20
454.260000000000
30
0.0
11
1034.590000000000
21
454.910000000000
31
0.0
0
LINE
5
69e
100
AcDbEntity
8
0-2
6
CONTINUOUS
62
7
100
AcDbLine
10
1038.840000000000
20
453.510000000000
30
0.0
11
1035.340000000000
21
453.510000000000
31
0.0
0
LINE
5
69f
100
AcDbEntity
8
0-2
6
CONTINUOUS
62
7
100
AcDbLine
10
1030.340000000000
20
462.910000000000
30
0.0
11
1030.340000000000
21
455.160000000000
31
0.0
0
LINE
5
6a0
100
AcDbEntity
8
0-2
6
CONTINUOUS
62
7
100
AcDbLine
10
1038.840000000000
20
454.910000000000
30
0.0
11
1030.590000000000
21
454.910000000000
31
0.0
0
LINE
5
6a1
100
AcDbEntity
8
0-2
6
CONTINUOUS
62
7
100
AcDbLine
10
1038.840000000000
20
462.910000000000
30
0.0
11
1038.840000000000
21
455.810000000000
31
0.0
0
LINE
5
6a2
100
AcDbEntity
8
0-2
6
CONTINUOUS
62
7
100
AcDbLine
10
1047.340000000000
20
462.910000000000
30
0.0
11
1047.340000000000
21
455.160000000000
31
0.0
0
LINE
5
6a3
100
AcDbEntity
8
0-2
6
CONTINUOUS
62
7
100
AcDbLine
10
1028.340000000000
20
463.420000000000
30
0.0
11
1033.410000000000
21
462.920000000000
31
0.0
0
LINE
5
6a4
100
AcDbEntity
8
0-2
6
CONTINUOUS
62
7
100
AcDbLine
10
1049.340000000000
20
463.420000000000
30
0.0
11
1044.270000000000
21
462.920000000000
31
0.0
0
LINE
5
6a5
100
AcDbEntity
8
0-2
6
CONTINUOUS
62
7
100
AcDbLine
10
1030.340000000000
20
462.910000000000
30
0.0
11
1047.340000000000
21
462.910000000000
31
0.0
0
LINE
5
6a6
100
AcDbEntity
8
0-2
6
CONTINUOUS
62
7
100
AcDbLine
10
999.830000000000
20
411.810000000000
30
0.0
11
999.620000000000
21
411.810000000000
31
0.0
0
LINE
5
6a7
100
AcDbEntity
8
0-2
6
CONTINUOUS
62
7
100
AcDbLine
10
999.830000000000
20
410.940000000000
30
0.0
11
998.750000000000
21
410.940000000000
31
0.0
0
LINE
5
6a8
100
AcDbEntity
8
0-2
6
CONTINUOUS
62
7
100
AcDbLine
10
999.830000000000
20
402.690000000000
30
0.0
11
998.750000000000
21
402.690000000000
31
0.0
0
LINE
5
6a9
100
AcDbEntity
8
0-2
6
CONTINUOUS
62
7
100
AcDbLine
10
999.830000000000
20
401.810000000000
30
0.0
11
999.620000000000
21
401.810000000000
31
0.0
0
LINE
5
6aa
100
AcDbEntity
8
0-2
6
CONTINUOUS
62
7
100
AcDbLine
10
1068.970000000000
20
416.650000000000
30
0.0
11
1068.970000000000
21
417.810000000000
31
0.0
0
LINE
5
6ab
100
AcDbEntity
8
0-2
6
CONTINUOUS
62
7
100
AcDbLine
10
1022.790000000000
20
473.800000000000
30
0.0
11
1020.880000000000
21
473.800000000000
31
0.0
0
LINE
5
6ac
100
AcDbEntity
8
0-2
6
CONTINUOUS
62
7
100
AcDbLine
10
1054.890000000000
20
473.800000000000
30
0.0
11
1056.800000000000
21
473.800000000000
31
0.0
0
LINE
5
6ad
100
AcDbEntity
8
0-2
6
CONTINUOUS
62
7
100
AcDbLine
10
1020.880000000000
20
475.410000000000
30
0.0
11
1020.880000000000
21
473.800000000000
31
0.0
0
LINE
5
6ae
100
AcDbEntity
8
0-2
6
CONTINUOUS
62
7
100
AcDbLine
10
1056.800000000000
20
475.410000000000
30
0.0
11
1056.800000000000
21
473.800000000000
31
0.0
0
LINE
5
6af
100
AcDbEntity
8
0-2
6
CONTINUOUS
62
7
100
AcDbLine
10
1069.810000000000
20
475.730000000000
30
0.0
11
1067.810000000000
21
475.270000000000
31
0.0
0
LINE
5
6b0
100
AcDbEntity
8
0-2
6
CONTINUOUS
62
7
100
AcDbLine
10
700.350000000000
20
374.050000000000
30
0.0
11
706.040000000000
21
392.080000000000
31
0.0
0
LINE
5
6b1
100
AcDbEntity
8
0-2
6
CONTINUOUS
62
7
100
AcDbLine
10
756.280000000000
20
470.300000000000
30
0.0
11
758.260000000000
21
452.130000000000
31
0.0
0
LINE
5
6b2
100
AcDbEntity
8
0-2
6
CONTINUOUS
62
7
100
AcDbLine
10
711.560000000000
20
442.830000000000
30
0.0
11
719.420000000000
21
452.130000000000
31
0.0
0
LINE
5
6b3
100
AcDbEntity
8
0-2
6
CONTINUOUS
62
7
100
AcDbLine
10
706.040000000000
20
392.080000000000
30
0.0
11
711.560000000000
21
442.830000000000
31
0.0
0
LINE
5
6b4
100
AcDbEntity
8
0-2
6
CONTINUOUS
62
7
100
AcDbLine
10
768.860000000000
20
361.810000000000
30
0.0
11
774.760000000000
21
362.130000000000
31
0.0
0
LINE
5
6b5
100
AcDbEntity
8
0-2
6
CONTINUOUS
62
7
100
AcDbLine
10
768.690000000000
20
365.010000000000
30
0.0
11
774.580000000000
21
365.330000000000
31
0.0
0
LINE
5
6b6
100
AcDbEntity
8
0-2
6
CONTINUOUS
62
7
100
AcDbLine
10
777.330000000000
20
374.060000000000
30
0.0
11
774.270000000000
21
373.120000000000
31
0.0
0
LINE
5
6b7
100
AcDbEntity
8
0-2
6
CONTINUOUS
62
7
100
AcDbLine
10
698.590000000000
20
368.340000000000
30
0.0
11
700.260000000000
21
373.760000000000
31
0.0
0
LINE
5
6b8
100
AcDbEntity
8
0-2
6
CONTINUOUS
62
7
100
AcDbLine
10
755.080000000000
20
451.790000000000
30
0.0
11
758.260000000000
21
452.130000000000
31
0.0
0
LINE
5
6b9
100
AcDbEntity
8
0-2
6
CONTINUOUS
62
7
100
AcDbLine
10
701.650000000000
20
367.400000000000
30
0.0
11
703.320000000000
21
372.820000000000
31
0.0
0
LINE
5
6ba
100
AcDbEntity
8
0-2
6
CONTINUOUS
62
7
100
AcDbLine
10
776.030000000000
20
367.400000000000
30
0.0
11
774.360000000000
21
372.820000000000
31
0.0
0
LINE
5
6bb
100
AcDbEntity
8
0-2
6
CONTINUOUS
62
7
100
AcDbLine
10
722.600000000000
20
451.790000000000
30
0.0
11
719.420000000000
21
452.130000000000
31
0.0
0
LINE
5
6bc
100
AcDbEntity
8
0-2
6
CONTINUOUS
62
7
100
AcDbLine
10
779.080000000000
20
368.340000000000
30
0.0
11
777.420000000000
21
373.760000000000
31
0.0
0
LINE
5
6bd
100
AcDbEntity
8
0-2
6
CONTINUOUS
62
7
100
AcDbLine
10
723.570000000000
20
460.700000000000
30
0.0
11
716.200000000000
21
393.050000000000
31
0.0
0
LINE
5
6be
100
AcDbEntity
8
0-2
6
CONTINUOUS
62
7
100
AcDbLine
10
700.350000000000
20
374.060000000000
30
0.0
11
703.410000000000
21
373.120000000000
31
0.0
0
LINE
5
6bf
100
AcDbEntity
8
0-2
6
CONTINUOUS
62
7
100
AcDbLine
10
708.990000000000
20
365.010000000000
30
0.0
11
703.090000000000
21
365.330000000000
31
0.0
0
POLYLINE
5
6c0
100
AcDbEntity
8
0-2
6
CONTINUOUS
62
  7
100
AcDb2dPolyline
66
1
10
0.0
20
0.0
30
0.0
70
0
0
VERTEX
5
6c1
100
AcDbEntity
8
0-2
6
CONTINUOUS
62
  7
100
AcDbVertex
100
AcDb2dVertex
10
771.640000000000
20
392.080000000000
30
0.0
0
VERTEX
5
6c2
100
AcDbEntity
8
0-2
6
CONTINUOUS
62
  7
100
AcDbVertex
100
AcDb2dVertex
10
766.110000000000
20
442.830000000000
30
0.0
0
VERTEX
5
6c3
100
AcDbEntity
8
0-2
6
CONTINUOUS
62
  7
100
AcDbVertex
100
AcDb2dVertex
10
758.260000000000
20
452.130000000000
30
0.0
0
SEQEND
5
6c4
100
AcDbEntity
8
0-2
0
LINE
5
6c5
100
AcDbEntity
8
0-2
6
CONTINUOUS
62
7
100
AcDbLine
10
708.810000000000
20
361.810000000000
30
0.0
11
702.920000000000
21
362.130000000000
31
0.0
0
LINE
5
6c6
100
AcDbEntity
8
0-2
6
CONTINUOUS
62
7
100
AcDbLine
10
721.390000000000
20
470.300000000000
30
0.0
11
719.420000000000
21
452.130000000000
31
0.0
0
LINE
5
6c7
100
AcDbEntity
8
0-2
6
CONTINUOUS
62
7
100
AcDbLine
10
777.330000000000
20
374.050000000000
30
0.0
11
771.640000000000
21
392.080000000000
31
0.0
0
LINE
5
6c8
100
AcDbEntity
8
0-2
6
CONTINUOUS
62
7
100
AcDbLine
10
768.860000000000
20
361.810000000000
30
0.0
11
768.690000000000
21
365.010000000000
31
0.0
0
LINE
5
6c9
100
AcDbEntity
8
0-2
6
CONTINUOUS
62
7
100
AcDbLine
10
708.810000000000
20
361.810000000000
30
0.0
11
708.990000000000
21
365.010000000000
31
0.0
0
LINE
5
6ca
100
AcDbEntity
8
0-2
6
CONTINUOUS
62
7
100
AcDbLine
10
733.840000000000
20
455.010000000000
30
0.0
11
738.840000000000
21
450.010000000000
31
0.0
0
LINE
5
6cb
100
AcDbEntity
8
0-2
6
CONTINUOUS
62
7
100
AcDbLine
10
754.110000000000
20
460.700000000000
30
0.0
11
761.630000000000
21
391.660000000000
31
0.0
0
LINE
5
6cc
100
AcDbEntity
8
0-2
6
CONTINUOUS
62
7
100
AcDbLine
10
699.620000000000
20
411.810000000000
30
0.0
11
697.620000000000
21
409.810000000000
31
0.0
0
LINE
5
6cd
100
AcDbEntity
8
0-2
6
CONTINUOUS
62
7
100
AcDbLine
10
699.620000000000
20
401.810000000000
30
0.0
11
697.620000000000
21
403.810000000000
31
0.0
0
LINE
5
6ce
100
AcDbEntity
8
0-2
6
CONTINUOUS
62
7
100
AcDbLine
10
760.540000000000
20
402.690000000000
30
0.0
11
717.250000000000
21
402.690000000000
31
0.0
0
LINE
5
6cf
100
AcDbEntity
8
0-2
6
CONTINUOUS
62
7
100
AcDbLine
10
759.420000000000
20
410.940000000000
30
0.0
11
718.260000000000
21
410.940000000000
31
0.0
0
LINE
5
6d0
100
AcDbEntity
8
0-2
6
CONTINUOUS
62
7
100
AcDbLine
10
699.620000000000
20
401.810000000000
30
0.0
11
699.620000000000
21
411.810000000000
31
0.0
0
LINE
5
6d1
100
AcDbEntity
8
0-2
6
CONTINUOUS
62
7
100
AcDbLine
10
759.320000000000
20
411.810000000000
30
0.0
11
718.350000000000
21
411.810000000000
31
0.0
0
LINE
5
6d2
100
AcDbEntity
8
0-2
6
CONTINUOUS
62
7
100
AcDbLine
10
760.630000000000
20
401.810000000000
30
0.0
11
717.050000000000
21
401.810000000000
31
0.0
0
LINE
5
6d3
100
AcDbEntity
8
0-2
6
CONTINUOUS
62
7
100
AcDbLine
10
767.810000000000
20
475.270000000000
30
0.0
11
755.550000000000
21
478.030000000000
31
0.0
0
LINE
5
6d4
100
AcDbEntity
8
0-2
6
CONTINUOUS
62
7
100
AcDbLine
10
751.840000000000
20
473.610000000000
30
0.0
11
751.840000000000
21
475.120000000000
31
0.0
0
LINE
5
6d5
100
AcDbEntity
8
0-2
6
CONTINUOUS
62
7
100
AcDbLine
10
725.840000000000
20
475.120000000000
30
0.0
11
725.840000000000
21
473.610000000000
31
0.0
0
LINE
5
6d6
100
AcDbEntity
8
0-2
6
CONTINUOUS
62
7
100
AcDbLine
10
707.870000000000
20
475.730000000000
30
0.0
11
709.870000000000
21
475.270000000000
31
0.0
0
LINE
5
6d7
100
AcDbEntity
8
0-2
6
CONTINUOUS
62
7
100
AcDbLine
10
747.840000000000
20
491.980000000000
30
0.0
11
747.840000000000
21
484.380000000000
31
0.0
0
LINE
5
6d8
100
AcDbEntity
8
0-2
6
CONTINUOUS
62
7
100
AcDbLine
10
709.870000000000
20
475.270000000000
30
0.0
11
722.130000000000
21
478.030000000000
31
0.0
0
LINE
5
6d9
100
AcDbEntity
8
0-2
6
CONTINUOUS
62
7
100
AcDbLine
10
729.840000000000
20
491.980000000000
30
0.0
11
729.840000000000
21
484.380000000000
31
0.0
0
LINE
5
6da
100
AcDbEntity
8
0-2
6
CONTINUOUS
62
7
100
AcDbLine
10
731.170000000000
20
494.610000000000
30
0.0
11
746.510000000000
21
494.610000000000
31
0.0
0
LINE
5
6db
100
AcDbEntity
8
0-2
6
CONTINUOUS
62
7
100
AcDbLine
10
738.840000000000
20
465.280000000000
30
0.0
11
753.670000000000
21
465.280000000000
31
0.0
0
LINE
5
6dc
100
AcDbEntity
8
0-2
6
CONTINUOUS
62
7
100
AcDbLine
10
738.840000000000
20
463.550000000000
30
0.0
11
750.980000000000
21
463.550000000000
31
0.0
0
LINE
5
6dd
100
AcDbEntity
8
0-2
6
CONTINUOUS
62
7
100
AcDbLine
10
753.670000000000
20
474.920000000000
30
0.0
11
753.670000000000
21
466.280000000000
31
0.0
0
LINE
5
6de
100
AcDbEntity
8
0-2
6
CONTINUOUS
62
7
100
AcDbLine
10
738.840000000000
20
473.610000000000
30
0.0
11
751.840000000000
21
473.610000000000
31
0.0
0
LINE
5
6df
100
AcDbEntity
8
0-2
6
CONTINUOUS
62
7
100
AcDbLine
10
738.840000000000
20
473.610000000000
30
0.0
11
725.840000000000
21
473.610000000000
31
0.0
0
LINE
5
6e0
100
AcDbEntity
8
0-2
6
CONTINUOUS
62
7
100
AcDbLine
10
724.010000000000
20
474.920000000000
30
0.0
11
724.010000000000
21
466.510000000000
31
0.0
0
LINE
5
6e1
100
AcDbEntity
8
0-2
6
CONTINUOUS
62
7
100
AcDbLine
10
738.840000000000
20
463.550000000000
30
0.0
11
726.700000000000
21
463.550000000000
31
0.0
0
LINE
5
6e2
100
AcDbEntity
8
0-2
6
CONTINUOUS
62
7
100
AcDbLine
10
738.840000000000
20
465.280000000000
30
0.0
11
726.520000000000
21
465.280000000000
31
0.0
0
LINE
5
6e3
100
AcDbEntity
8
0-2
6
CONTINUOUS
62
7
100
AcDbLine
10
697.620000000000
20
409.810000000000
30
0.0
11
697.620000000000
21
403.810000000000
31
0.0
0
LINE
5
6e4
100
AcDbEntity
8
0-2
6
CONTINUOUS
62
7
100
AcDbLine
10
724.010000000000
20
467.760000000000
30
0.0
11
738.840000000000
21
467.760000000000
31
0.0
0
LINE
5
6e5
100
AcDbEntity
8
0-2
6
CONTINUOUS
62
7
100
AcDbLine
10
724.010000000000
20
466.510000000000
30
0.0
11
738.840000000000
21
466.510000000000
31
0.0
0
LINE
5
6e6
100
AcDbEntity
8
0-2
6
CONTINUOUS
62
7
100
AcDbLine
10
753.670000000000
20
467.760000000000
30
0.0
11
738.840000000000
21
467.760000000000
31
0.0
0
LINE
5
6e7
100
AcDbEntity
8
0-2
6
CONTINUOUS
62
7
100
AcDbLine
10
753.670000000000
20
466.510000000000
30
0.0
11
738.840000000000
21
466.510000000000
31
0.0
0
LINE
5
6e8
100
AcDbEntity
8
0-2
6
CONTINUOUS
62
7
100
AcDbLine
10
708.810000000000
20
361.810000000000
30
0.0
11
702.920000000000
21
362.130000000000
31
0.0
0
LINE
5
6e9
100
AcDbEntity
8
0-2
6
CONTINUOUS
62
7
100
AcDbLine
10
699.830000000000
20
415.060000000000
30
0.0
11
700.740000000000
21
416.630000000000
31
0.0
0
LINE
5
6ea
100
AcDbEntity
8
0-2
6
CONTINUOUS
62
7
100
AcDbLine
10
707.830000000000
20
416.630000000000
30
0.0
11
700.740000000000
21
416.630000000000
31
0.0
0
LINE
5
6eb
100
AcDbEntity
8
0-2
6
CONTINUOUS
62
7
100
AcDbLine
10
708.340000000000
20
413.240000000000
30
0.0
11
708.340000000000
21
417.310000000000
31
0.0
0
LINE
5
6ec
100
AcDbEntity
8
0-2
6
CONTINUOUS
62
7
100
AcDbLine
10
707.830000000000
20
411.720000000000
30
0.0
11
700.740000000000
21
411.720000000000
31
0.0
0
LINE
5
6ed
100
AcDbEntity
8
0-2
6
CONTINUOUS
62
7
100
AcDbLine
10
707.830000000000
20
408.570000000000
30
0.0
11
707.830000000000
21
416.630000000000
31
0.0
0
LINE
5
6ee
100
AcDbEntity
8
0-2
6
CONTINUOUS
62
7
100
AcDbLine
10
708.340000000000
20
417.310000000000
30
0.0
11
707.840000000000
21
412.240000000000
31
0.0
0
LINE
5
6ef
100
AcDbEntity
8
0-2
6
CONTINUOUS
62
7
100
AcDbLine
10
699.830000000000
20
406.810000000000
30
0.0
11
699.830000000000
21
415.060000000000
31
0.0
0
LINE
5
6f0
100
AcDbEntity
8
0-2
6
CONTINUOUS
62
7
100
AcDbLine
10
708.780000000000
20
417.270000000000
30
0.0
11
708.340000000000
21
417.310000000000
31
0.0
0
LINE
5
6f1
100
AcDbEntity
8
0-2
6
CONTINUOUS
62
7
100
AcDbLine
10
699.830000000000
20
398.560000000000
30
0.0
11
700.740000000000
21
397.000000000000
31
0.0
0
LINE
5
6f2
100
AcDbEntity
8
0-2
6
CONTINUOUS
62
7
100
AcDbLine
10
706.570000000000
20
397.000000000000
30
0.0
11
700.740000000000
21
397.000000000000
31
0.0
0
LINE
5
6f3
100
AcDbEntity
8
0-2
6
CONTINUOUS
62
7
100
AcDbLine
10
707.110000000000
20
401.910000000000
30
0.0
11
700.740000000000
21
401.910000000000
31
0.0
0
LINE
5
6f4
100
AcDbEntity
8
0-2
6
CONTINUOUS
62
7
100
AcDbLine
10
699.830000000000
20
406.810000000000
30
0.0
11
699.830000000000
21
398.560000000000
31
0.0
0
LINE
5
6f5
100
AcDbEntity
8
0-2
6
CONTINUOUS
62
7
100
AcDbLine
10
743.740000000000
20
454.910000000000
30
0.0
11
738.840000000000
21
450.010000000000
31
0.0
0
LINE
5
6f6
100
AcDbEntity
8
0-2
6
CONTINUOUS
62
7
100
AcDbLine
10
730.590000000000
20
454.910000000000
30
0.0
11
730.340000000000
21
455.160000000000
31
0.0
0
LINE
5
6f7
100
AcDbEntity
8
0-2
6
CONTINUOUS
62
7
100
AcDbLine
10
738.840000000000
20
454.910000000000
30
0.0
11
747.090000000000
21
454.910000000000
31
0.0
0
LINE
5
6f8
100
AcDbEntity
8
0-2
6
CONTINUOUS
62
7
100
AcDbLine
10
738.840000000000
20
453.510000000000
30
0.0
11
742.340000000000
21
453.510000000000
31
0.0
0
LINE
5
6f9
100
AcDbEntity
8
0-2
6
CONTINUOUS
62
7
100
AcDbLine
10
747.090000000000
20
454.910000000000
30
0.0
11
747.340000000000
21
455.160000000000
31
0.0
0
LINE
5
6fa
100
AcDbEntity
8
0-2
6
CONTINUOUS
62
7
100
AcDbLine
10
743.090000000000
20
454.260000000000
30
0.0
11
743.090000000000
21
454.910000000000
31
0.0
0
LINE
5
6fb
100
AcDbEntity
8
0-2
6
CONTINUOUS
62
7
100
AcDbLine
10
734.590000000000
20
454.260000000000
30
0.0
11
734.590000000000
21
454.910000000000
31
0.0
0
LINE
5
6fc
100
AcDbEntity
8
0-2
6
CONTINUOUS
62
7
100
AcDbLine
10
738.840000000000
20
453.510000000000
30
0.0
11
735.340000000000
21
453.510000000000
31
0.0
0
LINE
5
6fd
100
AcDbEntity
8
0-2
6
CONTINUOUS
62
7
100
AcDbLine
10
730.340000000000
20
462.910000000000
30
0.0
11
730.340000000000
21
455.160000000000
31
0.0
0
LINE
5
6fe
100
AcDbEntity
8
0-2
6
CONTINUOUS
62
7
100
AcDbLine
10
738.840000000000
20
454.910000000000
30
0.0
11
730.590000000000
21
454.910000000000
31
0.0
0
LINE
5
6ff
100
AcDbEntity
8
0-2
6
CONTINUOUS
62
7
100
AcDbLine
10
738.840000000000
20
462.910000000000
30
0.0
11
738.840000000000
21
455.810000000000
31
0.0
0
LINE
5
700
100
AcDbEntity
8
0-2
6
CONTINUOUS
62
7
100
AcDbLine
10
747.340000000000
20
462.910000000000
30
0.0
11
747.340000000000
21
455.160000000000
31
0.0
0
LINE
5
701
100
AcDbEntity
8
0-2
6
CONTINUOUS
62
7
100
AcDbLine
10
728.340000000000
20
463.420000000000
30
0.0
11
733.410000000000
21
462.920000000000
31
0.0
0
LINE
5
702
100
AcDbEntity
8
0-2
6
CONTINUOUS
62
7
100
AcDbLine
10
749.340000000000
20
463.420000000000
30
0.0
11
744.270000000000
21
462.920000000000
31
0.0
0
LINE
5
703
100
AcDbEntity
8
0-2
6
CONTINUOUS
62
7
100
AcDbLine
10
730.340000000000
20
462.910000000000
30
0.0
11
747.340000000000
21
462.910000000000
31
0.0
0
LINE
5
704
100
AcDbEntity
8
0-2
6
CONTINUOUS
62
7
100
AcDbLine
10
699.830000000000
20
411.810000000000
30
0.0
11
699.620000000000
21
411.810000000000
31
0.0
0
LINE
5
705
100
AcDbEntity
8
0-2
6
CONTINUOUS
62
7
100
AcDbLine
10
699.830000000000
20
410.940000000000
30
0.0
11
698.750000000000
21
410.940000000000
31
0.0
0
LINE
5
706
100
AcDbEntity
8
0-2
6
CONTINUOUS
62
7
100
AcDbLine
10
699.830000000000
20
402.690000000000
30
0.0
11
698.750000000000
21
402.690000000000
31
0.0
0
LINE
5
707
100
AcDbEntity
8
0-2
6
CONTINUOUS
62
7
100
AcDbLine
10
699.830000000000
20
401.810000000000
30
0.0
11
699.620000000000
21
401.810000000000
31
0.0
0
LINE
5
708
100
AcDbEntity
8
0-2
6
CONTINUOUS
62
7
100
AcDbLine
10
768.960000000000
20
416.650000000000
30
0.0
11
768.960000000000
21
417.810000000000
31
0.0
0
LINE
5
709
100
AcDbEntity
8
0-2
6
CONTINUOUS
62
7
100
AcDbLine
10
722.790000000000
20
473.800000000000
30
0.0
11
720.880000000000
21
473.800000000000
31
0.0
0
LINE
5
70a
100
AcDbEntity
8
0-2
6
CONTINUOUS
62
7
100
AcDbLine
10
754.890000000000
20
473.800000000000
30
0.0
11
756.800000000000
21
473.800000000000
31
0.0
0
LINE
5
70b
100
AcDbEntity
8
0-2
6
CONTINUOUS
62
7
100
AcDbLine
10
720.880000000000
20
475.410000000000
30
0.0
11
720.880000000000
21
473.800000000000
31
0.0
0
LINE
5
70c
100
AcDbEntity
8
0-2
6
CONTINUOUS
62
7
100
AcDbLine
10
756.800000000000
20
475.410000000000
30
0.0
11
756.800000000000
21
473.800000000000
31
0.0
0
LINE
5
70d
100
AcDbEntity
8
0-2
6
CONTINUOUS
62
7
100
AcDbLine
10
769.810000000000
20
475.730000000000
30
0.0
11
767.810000000000
21
475.270000000000
31
0.0
0
LINE
5
70e
100
AcDbEntity
8
0-2
6
DOT
62
4
100
AcDbLine
10
1289.320000000000
20
430.450000000000
30
0.0
11
1299.680000000000
21
371.930000000000
31
0.0
0
LINE
5
70f
100
AcDbEntity
8
0-2
6
DOT
62
4
100
AcDbLine
10
1287.000000000000
20
404.400000000000
30
0.0
11
1282.490000000000
21
362.200000000000
31
0.0
0
LINE
5
710
100
AcDbEntity
8
0-2
6
DOT
62
4
100
AcDbLine
10
1274.500000000000
20
333.220000000000
30
0.0
11
1265.680000000000
21
404.400000000000
31
0.0
0
LINE
5
711
100
AcDbEntity
8
0-2
6
DOT
62
4
100
AcDbLine
10
1262.000000000000
20
404.400000000000
30
0.0
11
1253.180000000000
21
333.220000000000
31
0.0
0
LINE
5
712
100
AcDbEntity
8
0-2
6
DOT
62
4
100
AcDbLine
10
1224.500000000000
20
333.220000000000
30
0.0
11
1215.680000000000
21
404.400000000000
31
0.0
0
LINE
5
713
100
AcDbEntity
8
0-2
6
DOT
62
4
100
AcDbLine
10
1212.000000000000
20
404.400000000000
30
0.0
11
1203.180000000000
21
333.220000000000
31
0.0
0
LINE
5
714
100
AcDbEntity
8
0-2
6
DOT
62
4
100
AcDbLine
10
1199.500000000000
20
333.220000000000
30
0.0
11
1190.680000000000
21
404.400000000000
31
0.0
0
LINE
5
715
100
AcDbEntity
8
0-2
6
DOT
62
4
100
AcDbLine
10
1187.000000000000
20
404.400000000000
30
0.0
11
1178.180000000000
21
333.220000000000
31
0.0
0
LINE
5
716
100
AcDbEntity
8
0-2
6
DOT
62
4
100
AcDbLine
10
1174.500000000000
20
333.220000000000
30
0.0
11
1165.680000000000
21
404.400000000000
31
0.0
0
LINE
5
717
100
AcDbEntity
8
0-2
6
DOT
62
4
100
AcDbLine
10
1162.000000000000
20
404.400000000000
30
0.0
11
1153.180000000000
21
333.220000000000
31
0.0
0
LINE
5
718
100
AcDbEntity
8
0-2
6
DOT
62
4
100
AcDbLine
10
1149.500000000000
20
333.220000000000
30
0.0
11
1140.680000000000
21
404.400000000000
31
0.0
0
LINE
5
719
100
AcDbEntity
8
0-2
6
DOT
62
4
100
AcDbLine
10
1137.000000000000
20
404.400000000000
30
0.0
11
1128.180000000000
21
333.220000000000
31
0.0
0
LINE
5
71a
100
AcDbEntity
8
0-2
6
DOT
62
4
100
AcDbLine
10
1124.500000000000
20
333.220000000000
30
0.0
11
1115.680000000000
21
404.400000000000
31
0.0
0
LINE
5
71b
100
AcDbEntity
8
0-2
6
DOT
62
4
100
AcDbLine
10
1112.000000000000
20
404.400000000000
30
0.0
11
1103.180000000000
21
333.220000000000
31
0.0
0
LINE
5
71c
100
AcDbEntity
8
0-2
6
DOT
62
4
100
AcDbLine
10
1388.350000000000
20
430.450000000000
30
0.0
11
1377.990000000000
21
371.900000000000
31
0.0
0
LINE
5
71d
100
AcDbEntity
8
0-2
6
DOT
62
4
100
AcDbLine
10
1390.680000000000
20
404.400000000000
30
0.0
11
1395.180000000000
21
362.200000000000
31
0.0
0
LINE
5
71e
100
AcDbEntity
8
0-2
6
DOT
62
4
100
AcDbLine
10
1403.180000000000
20
333.220000000000
30
0.0
11
1412.000000000000
21
404.400000000000
31
0.0
0
LINE
5
71f
100
AcDbEntity
8
0-2
6
DOT
62
4
100
AcDbLine
10
1415.680000000000
20
404.400000000000
30
0.0
11
1424.500000000000
21
333.220000000000
31
0.0
0
LINE
5
720
100
AcDbEntity
8
0-2
6
DOT
62
4
100
AcDbLine
10
1428.180000000000
20
333.220000000000
30
0.0
11
1437.000000000000
21
404.400000000000
31
0.0
0
LINE
5
721
100
AcDbEntity
8
0-2
6
DOT
62
4
100
AcDbLine
10
1440.680000000000
20
404.400000000000
30
0.0
11
1449.500000000000
21
333.220000000000
31
0.0
0
LINE
5
722
100
AcDbEntity
8
0-2
6
DOT
62
4
100
AcDbLine
10
1453.180000000000
20
333.220000000000
30
0.0
11
1462.000000000000
21
404.400000000000
31
0.0
0
LINE
5
723
100
AcDbEntity
8
0-2
6
DOT
62
4
100
AcDbLine
10
1465.680000000000
20
404.400000000000
30
0.0
11
1474.500000000000
21
333.220000000000
31
0.0
0
LINE
5
724
100
AcDbEntity
8
0-2
6
DOT
62
4
100
AcDbLine
10
1478.180000000000
20
333.220000000000
30
0.0
11
1487.000000000000
21
404.400000000000
31
0.0
0
LINE
5
725
100
AcDbEntity
8
0-2
6
DOT
62
4
100
AcDbLine
10
1088.350000000000
20
430.450000000000
30
0.0
11
1077.990000000000
21
371.900000000000
31
0.0
0
LINE
5
726
100
AcDbEntity
8
0-2
6
DOT
62
4
100
AcDbLine
10
1090.680000000000
20
404.400000000000
30
0.0
11
1095.180000000000
21
362.200000000000
31
0.0
0
LINE
5
727
100
AcDbEntity
8
0-2
6
DOT
62
4
100
AcDbLine
10
788.350000000000
20
430.450000000000
30
0.0
11
777.990000000000
21
371.900000000000
31
0.0
0
LINE
5
728
100
AcDbEntity
8
0-2
6
DOT
62
4
100
AcDbLine
10
790.680000000000
20
404.400000000000
30
0.0
11
795.180000000000
21
362.200000000000
31
0.0
0
LINE
5
729
100
AcDbEntity
8
0-2
6
DOT
62
4
100
AcDbLine
10
803.180000000000
20
333.220000000000
30
0.0
11
812.000000000000
21
404.400000000000
31
0.0
0
LINE
5
72a
100
AcDbEntity
8
0-2
6
DOT
62
4
100
AcDbLine
10
815.680000000000
20
404.400000000000
30
0.0
11
824.500000000000
21
333.220000000000
31
0.0
0
LINE
5
72b
100
AcDbEntity
8
0-2
6
DOT
62
4
100
AcDbLine
10
828.180000000000
20
333.220000000000
30
0.0
11
837.000000000000
21
404.400000000000
31
0.0
0
LINE
5
72c
100
AcDbEntity
8
0-2
6
DOT
62
4
100
AcDbLine
10
840.680000000000
20
404.400000000000
30
0.0
11
849.500000000000
21
333.220000000000
31
0.0
0
LINE
5
72d
100
AcDbEntity
8
0-2
6
DOT
62
4
100
AcDbLine
10
853.180000000000
20
333.220000000000
30
0.0
11
862.000000000000
21
404.400000000000
31
0.0
0
LINE
5
72e
100
AcDbEntity
8
0-2
6
DOT
62
4
100
AcDbLine
10
865.680000000000
20
404.400000000000
30
0.0
11
874.500000000000
21
333.220000000000
31
0.0
0
LINE
5
72f
100
AcDbEntity
8
0-2
6
DOT
62
4
100
AcDbLine
10
878.180000000000
20
333.220000000000
30
0.0
11
887.000000000000
21
404.400000000000
31
0.0
0
LINE
5
730
100
AcDbEntity
8
0-2
6
DOT
62
4
100
AcDbLine
10
890.680000000000
20
404.400000000000
30
0.0
11
899.500000000000
21
333.220000000000
31
0.0
0
LINE
5
731
100
AcDbEntity
8
0-2
6
DOT
62
4
100
AcDbLine
10
903.180000000000
20
333.220000000000
30
0.0
11
912.000000000000
21
404.400000000000
31
0.0
0
LINE
5
732
100
AcDbEntity
8
0-2
6
DOT
62
4
100
AcDbLine
10
915.680000000000
20
404.400000000000
30
0.0
11
924.500000000000
21
333.220000000000
31
0.0
0
LINE
5
733
100
AcDbEntity
8
0-2
6
DOT
62
4
100
AcDbLine
10
928.180000000000
20
333.220000000000
30
0.0
11
937.000000000000
21
404.400000000000
31
0.0
0
LINE
5
734
100
AcDbEntity
8
0-2
6
DOT
62
4
100
AcDbLine
10
940.680000000000
20
404.400000000000
30
0.0
11
949.500000000000
21
333.220000000000
31
0.0
0
LINE
5
735
100
AcDbEntity
8
0-2
6
DOT
62
4
100
AcDbLine
10
953.180000000000
20
333.220000000000
30
0.0
11
962.000000000000
21
404.400000000000
31
0.0
0
LINE
5
736
100
AcDbEntity
8
0-2
6
DOT
62
4
100
AcDbLine
10
965.680000000000
20
404.400000000000
30
0.0
11
974.500000000000
21
333.220000000000
31
0.0
0
LINE
5
737
100
AcDbEntity
8
0-2
6
DOT
62
4
100
AcDbLine
10
689.320000000000
20
430.450000000000
30
0.0
11
699.680000000000
21
371.930000000000
31
0.0
0
LINE
5
738
100
AcDbEntity
8
0-2
6
DOT
62
4
100
AcDbLine
10
687.000000000000
20
404.400000000000
30
0.0
11
682.490000000000
21
362.200000000000
31
0.0
0
LINE
5
739
100
AcDbEntity
8
0-2
6
DOT
62
4
100
AcDbLine
10
674.500000000000
20
333.220000000000
30
0.0
11
665.680000000000
21
404.400000000000
31
0.0
0
LINE
5
73a
100
AcDbEntity
8
0-2
6
DOT
62
4
100
AcDbLine
10
662.000000000000
20
404.400000000000
30
0.0
11
653.180000000000
21
333.220000000000
31
0.0
0
LINE
5
73b
100
AcDbEntity
8
0-2
6
DOT
62
4
100
AcDbLine
10
649.500000000000
20
333.220000000000
30
0.0
11
640.680000000000
21
404.400000000000
31
0.0
0
LINE
5
73c
100
AcDbEntity
8
0-2
6
DOT
62
4
100
AcDbLine
10
637.000000000000
20
404.400000000000
30
0.0
11
628.180000000000
21
333.220000000000
31
0.0
0
LINE
5
73d
100
AcDbEntity
8
0-2
6
DOT
62
4
100
AcDbLine
10
989.320000000000
20
430.450000000000
30
0.0
11
999.680000000000
21
371.930000000000
31
0.0
0
LINE
5
73e
100
AcDbEntity
8
0-2
6
DOT
62
4
100
AcDbLine
10
987.000000000000
20
404.400000000000
30
0.0
11
982.490000000000
21
362.200000000000
31
0.0
0
LINE
5
73f
100
AcDbEntity
8
0-2
6
CONTINUOUS
62
7
100
AcDbLine
10
588.840000000000
20
553.570000000000
30
0.0
11
598.500000000000
21
556.160000000000
31
0.0
0
LINE
5
740
100
AcDbEntity
8
0-2
6
CONTINUOUS
62
7
100
AcDbLine
10
588.840000000000
20
553.570000000000
30
0.0
11
598.500000000000
21
550.980000000000
31
0.0
0
LINE
5
741
100
AcDbEntity
8
0-2
6
CONTINUOUS
62
7
100
AcDbLine
10
1488.840000000000
20
553.570000000000
30
0.0
11
1479.180000000000
21
556.160000000000
31
0.0
0
LINE
5
742
100
AcDbEntity
8
0-2
6
CONTINUOUS
62
7
100
AcDbLine
10
1488.840000000000
20
553.570000000000
30
0.0
11
1479.180000000000
21
550.980000000000
31
0.0
0
LINE
5
743
100
AcDbEntity
8
0-2
6
CENTER2
62
7
100
AcDbLine
10
738.840000000000
20
553.570000000000
30
0.0
11
738.840000000000
21
477.580000000000
31
0.0
0
LINE
5
744
100
AcDbEntity
8
0-2
6
CENTER2
62
7
100
AcDbLine
10
1338.840000000000
20
553.570000000000
30
0.0
11
1338.840000000000
21
477.580000000000
31
0.0
0
LINE
5
745
100
AcDbEntity
8
0-2
6
CONTINUOUS
62
7
100
AcDbLine
10
679.220000000000
20
518.190000000000
30
0.0
11
703.040000000000
21
518.190000000000
31
0.0
0
LINE
5
746
100
AcDbEntity
8
0-2
6
CONTINUOUS
62
7
100
AcDbLine
10
724.320000000000
20
481.340000000000
30
0.0
11
703.040000000000
21
518.190000000000
31
0.0
0
LINE
5
747
100
AcDbEntity
8
0-2
6
CONTINUOUS
62
7
100
AcDbLine
10
706.780000000000
20
480.000000000000
30
0.0
11
700.050000000000
21
491.650000000000
31
0.0
0
LINE
5
748
100
AcDbEntity
8
0-2
6
CONTINUOUS
62
7
100
AcDbLine
10
679.220000000000
20
491.650000000000
30
0.0
11
700.050000000000
21
491.650000000000
31
0.0
0
LINE
5
749
100
AcDbEntity
8
0-2
6
CONTINUOUS
62
7
100
AcDbLine
10
738.840000000000
20
553.570000000000
30
0.0
11
1338.840000000000
21
553.570000000000
31
0.0
0
POLYLINE
5
74a
100
AcDbEntity
8
0-2
6
CONTINUOUS
62
  7
100
AcDb2dPolyline
66
1
10
0.0
20
0.0
30
0.0
70
0
0
VERTEX
5
74b
100
AcDbEntity
8
0-2
6
CONTINUOUS
62
  7
100
AcDbVertex
100
AcDb2dVertex
10
738.840000000000
20
528.570000000000
30
0.0
0
VERTEX
5
74c
100
AcDbEntity
8
0-2
6
CONTINUOUS
62
  7
100
AcDbVertex
100
AcDb2dVertex
10
1038.840000000000
20
528.570000000000
30
0.0
0
VERTEX
5
74d
100
AcDbEntity
8
0-2
6
CONTINUOUS
62
  7
100
AcDbVertex
100
AcDb2dVertex
10
1338.840000000000
20
528.570000000000
30
0.0
0
SEQEND
5
74e
100
AcDbEntity
8
0-2
0
LINE
5
74f
100
AcDbEntity
8
0-2
6
CONTINUOUS
62
7
100
AcDbLine
10
1247.980000000000
20
504.020000000000
30
0.0
11
1287.980000000000
21
504.020000000000
31
0.0
0
LINE
5
750
100
AcDbEntity
8
0-2
6
CONTINUOUS
62
7
100
AcDbLine
10
1247.980000000000
20
420.570000000000
30
0.0
11
1247.980000000000
21
504.020000000000
31
0.0
0
LINE
5
751
100
AcDbEntity
8
0-2
6
CONTINUOUS
62
7
100
AcDbLine
10
1333.000000000000
20
394.590000000000
30
0.0
11
1308.550000000000
21
394.590000000000
31
0.0
0
LINE
5
752
100
AcDbEntity
8
0-2
6
CONTINUOUS
62
7
100
AcDbLine
10
1333.000000000000
20
394.590000000000
30
0.0
11
1333.000000000000
21
381.590000000000
31
0.0
0
LINE
5
753
100
AcDbEntity
8
0-2
6
CENTER2
62
7
100
AcDbLine
10
1038.840000000000
20
528.570000000000
30
0.0
11
1038.840000000000
21
477.580000000000
31
0.0
0
LINE
5
754
100
AcDbEntity
8
0-2
6
CONTINUOUS
62
7
100
AcDbLine
10
588.840000000000
20
553.570000000000
30
0.0
11
738.840000000000
21
553.570000000000
31
0.0
0
LINE
5
755
100
AcDbEntity
8
0-2
6
CONTINUOUS
62
7
100
AcDbLine
10
1488.840000000000
20
553.570000000000
30
0.0
11
1338.840000000000
21
553.570000000000
31
0.0
0
LINE
5
756
100
AcDbEntity
8
0-2
6
CONTINUOUS
62
3
100
AcDbLine
10
1354.570000000000
20
499.770000000000
30
0.0
11
1354.280000000000
21
499.030000000000
31
0.0
0
LINE
5
757
100
AcDbEntity
8
0-2
6
CONTINUOUS
62
3
100
AcDbLine
10
1311.340000000000
20
472.920000000000
30
0.0
11
1311.280000000000
21
472.120000000000
31
0.0
0
LINE
5
758
100
AcDbEntity
8
0-2
6
CONTINUOUS
62
3
100
AcDbLine
10
1370.060000000000
20
368.310000000000
30
0.0
11
1370.860000000000
21
368.300000000000
31
0.0
0
LINE
5
759
100
AcDbEntity
8
0-2
6
CONTINUOUS
62
3
100
AcDbLine
10
1311.340000000000
20
365.920000000000
30
0.0
11
1311.280000000000
21
365.120000000000
31
0.0
0
LINE
5
75a
100
AcDbEntity
8
0-2
6
CONTINUOUS
62
3
100
AcDbLine
10
770.060000000000
20
475.310000000000
30
0.0
11
770.860000000000
21
475.300000000000
31
0.0
0
LINE
5
75b
100
AcDbEntity
8
0-2
6
CONTINUOUS
62
3
100
AcDbLine
10
711.340000000000
20
472.920000000000
30
0.0
11
711.280000000000
21
472.120000000000
31
0.0
0
LINE
5
75c
100
AcDbEntity
8
0-2
6
CONTINUOUS
62
3
100
AcDbLine
10
711.340000000000
20
365.920000000000
30
0.0
11
711.280000000000
21
365.120000000000
31
0.0
0
LINE
5
75d
100
AcDbEntity
8
0-2
6
CONTINUOUS
62
3
100
AcDbLine
10
770.060000000000
20
368.310000000000
30
0.0
11
770.860000000000
21
368.300000000000
31
0.0
0
LINE
5
75e
100
AcDbEntity
8
0-2
6
CONTINUOUS
62
7
100
AcDbLine
10
798.670000000000
20
422.700000000000
30
0.0
11
830.200000000000
21
477.310000000000
31
0.0
0
LINE
5
75f
100
AcDbEntity
8
0-2
6
CONTINUOUS
62
3
100
AcDbLine
10
1490.730000000000
20
300.570000000000
30
0.0
11
627.200000000000
21
300.570000000000
31
0.0
0
LINE
5
760
100
AcDbEntity
8
0-2
6
CONTINUOUS
62
3
100
AcDbLine
10
1490.730000000000
20
292.570000000000
30
0.0
11
627.200000000000
21
292.570000000000
31
0.0
0
LINE
5
761
100
AcDbEntity
8
0-2
6
CONTINUOUS
62
7
100
AcDbLine
10
1079.740000000000
20
327.180000000000
30
0.0
11
1055.670000000000
21
285.500000000000
31
0.0
0
LINE
5
762
100
AcDbEntity
8
0-0
6
CONTINUOUS
62
3
100
AcDbLine
10
913.840000000000
20
767.460000000000
30
0.0
11
863.840000000000
21
767.460000000000
31
0.0
0
LINE
5
763
100
AcDbEntity
8
0-0
6
CONTINUOUS
62
3
100
AcDbLine
10
918.130000000000
20
763.170000000000
30
0.0
11
977.840000000000
21
763.170000000000
31
0.0
0
LINE
5
764
100
AcDbEntity
8
0-0
6
CONTINUOUS
62
3
100
AcDbLine
10
913.840000000000
20
767.460000000000
30
0.0
11
918.130000000000
21
763.170000000000
31
0.0
0
LINE
5
765
100
AcDbEntity
8
0-0
6
CONTINUOUS
62
3
100
AcDbLine
10
1163.840000000000
20
767.460000000000
30
0.0
11
1213.840000000000
21
767.460000000000
31
0.0
0
LINE
5
766
100
AcDbEntity
8
0-0
6
CONTINUOUS
62
3
100
AcDbLine
10
1159.550000000000
20
763.170000000000
30
0.0
11
1099.840000000000
21
763.170000000000
31
0.0
0
LINE
5
767
100
AcDbEntity
8
0-0
6
CONTINUOUS
62
3
100
AcDbLine
10
1163.840000000000
20
767.460000000000
30
0.0
11
1159.550000000000
21
763.170000000000
31
0.0
0
LINE
5
768
100
AcDbEntity
8
0-0
6
CONTINUOUS
62
3
100
AcDbLine
10
859.550000000000
20
763.170000000000
30
0.0
11
799.840000000000
21
763.170000000000
31
0.0
0
LINE
5
769
100
AcDbEntity
8
0-0
6
CONTINUOUS
62
3
100
AcDbLine
10
863.840000000000
20
767.460000000000
30
0.0
11
859.550000000000
21
763.170000000000
31
0.0
0
LINE
5
76a
100
AcDbEntity
8
0-0
6
CONTINUOUS
62
3
100
AcDbLine
10
799.840000000000
20
763.170000000000
30
0.0
11
778.710000000000
21
801.670000000000
31
0.0
0
LINE
5
76b
100
AcDbEntity
8
0-0
6
CONTINUOUS
62
3
100
AcDbLine
10
706.590000000000
20
815.040000000000
30
0.0
11
711.280000000000
21
814.720000000000
31
0.0
0
LINE
5
76c
100
AcDbEntity
8
0-0
6
CONTINUOUS
62
3
100
AcDbLine
10
771.090000000000
20
815.040000000000
30
0.0
11
766.390000000000
21
814.720000000000
31
0.0
0
LINE
5
76d
100
AcDbEntity
8
0-0
6
CONTINUOUS
62
3
100
AcDbLine
10
1218.130000000000
20
763.170000000000
30
0.0
11
1277.840000000000
21
763.170000000000
31
0.0
0
LINE
5
76e
100
AcDbEntity
8
0-0
6
CONTINUOUS
62
3
100
AcDbLine
10
1213.840000000000
20
767.460000000000
30
0.0
11
1218.130000000000
21
763.170000000000
31
0.0
0
LINE
5
76f
100
AcDbEntity
8
0-0
6
CONTINUOUS
62
3
100
AcDbLine
10
765.590000000000
20
810.930000000000
30
0.0
11
778.710000000000
21
801.670000000000
31
0.0
0
LINE
5
770
100
AcDbEntity
8
0-0
6
CONTINUOUS
62
3
100
AcDbLine
10
1011.430000000000
20
814.710000000000
30
0.0
11
1007.730000000000
21
815.140000000000
31
0.0
0
LINE
5
771
100
AcDbEntity
8
0-0
6
CONTINUOUS
62
3
100
AcDbLine
10
977.840000000000
20
763.170000000000
30
0.0
11
998.970000000000
21
801.670000000000
31
0.0
0
LINE
5
772
100
AcDbEntity
8
0-0
6
CONTINUOUS
62
3
100
AcDbLine
10
1099.840000000000
20
763.170000000000
30
0.0
11
1078.710000000000
21
801.670000000000
31
0.0
0
LINE
5
773
100
AcDbEntity
8
0-0
6
CONTINUOUS
62
3
100
AcDbLine
10
1065.590000000000
20
810.930000000000
30
0.0
11
1078.710000000000
21
801.670000000000
31
0.0
0
LINE
5
774
100
AcDbEntity
8
0-0
6
CONTINUOUS
62
3
100
AcDbLine
10
1012.090000000000
20
810.930000000000
30
0.0
11
998.970000000000
21
801.670000000000
31
0.0
0
LINE
5
775
100
AcDbEntity
8
0-0
6
CONTINUOUS
62
3
100
AcDbLine
10
1066.250000000000
20
814.710000000000
30
0.0
11
1069.950000000000
21
815.140000000000
31
0.0
0
LINE
5
776
100
AcDbEntity
8
0-0
6
CONTINUOUS
62
3
100
AcDbLine
10
1277.840000000000
20
763.170000000000
30
0.0
11
1298.970000000000
21
801.670000000000
31
0.0
0
LINE
5
777
100
AcDbEntity
8
0-0
6
CONTINUOUS
62
3
100
AcDbLine
10
1312.090000000000
20
810.930000000000
30
0.0
11
1298.970000000000
21
801.670000000000
31
0.0
0
LINE
5
778
100
AcDbEntity
8
0-0
6
CONTINUOUS
62
3
100
AcDbLine
10
1310.460000000000
20
816.790000000000
30
0.0
11
1307.750000000000
21
816.970000000000
31
0.0
0
LINE
5
779
100
AcDbEntity
8
0-0
6
CONTINUOUS
62
3
100
AcDbLine
10
711.340000000000
20
815.520000000000
30
0.0
11
706.660000000000
21
815.840000000000
31
0.0
0
LINE
5
77a
100
AcDbEntity
8
0-0
6
CONTINUOUS
62
3
100
AcDbLine
10
771.010000000000
20
815.840000000000
30
0.0
11
766.340000000000
21
815.520000000000
31
0.0
0
POLYLINE
5
77b
100
AcDbEntity
8
0-0
6
CONTINUOUS
62
  3
100
AcDb2dPolyline
66
1
10
0.0
20
0.0
30
0.0
70
0
0
VERTEX
5
77c
100
AcDbEntity
8
0-0
6
CONTINUOUS
62
  3
100
AcDbVertex
100
AcDb2dVertex
10
765.170000000000
20
810.250000000000
30
0.0
0
VERTEX
5
77d
100
AcDbEntity
8
0-0
6
CONTINUOUS
62
  3
100
AcDbVertex
100
AcDb2dVertex
10
778.100000000000
20
801.120000000000
30
0.0
0
VERTEX
5
77e
100
AcDbEntity
8
0-0
6
CONTINUOUS
62
  3
100
AcDbVertex
100
AcDb2dVertex
10
799.370000000000
20
762.370000000000
30
0.0
0
VERTEX
5
77f
100
AcDbEntity
8
0-0
6
CONTINUOUS
62
  3
100
AcDbVertex
100
AcDb2dVertex
10
859.880000000000
20
762.370000000000
30
0.0
0
VERTEX
5
780
100
AcDbEntity
8
0-0
6
CONTINUOUS
62
  3
100
AcDbVertex
100
AcDb2dVertex
10
864.170000000000
20
766.660000000000
30
0.0
0
VERTEX
5
781
100
AcDbEntity
8
0-0
6
CONTINUOUS
62
  3
100
AcDbVertex
100
AcDb2dVertex
10
913.510000000000
20
766.660000000000
30
0.0
0
VERTEX
5
782
100
AcDbEntity
8
0-0
6
CONTINUOUS
62
  3
100
AcDbVertex
100
AcDb2dVertex
10
917.800000000000
20
762.370000000000
30
0.0
0
VERTEX
5
783
100
AcDbEntity
8
0-0
6
CONTINUOUS
62
  3
100
AcDbVertex
100
AcDb2dVertex
10
978.310000000000
20
762.370000000000
30
0.0
0
VERTEX
5
784
100
AcDbEntity
8
0-0
6
CONTINUOUS
62
  3
100
AcDbVertex
100
AcDb2dVertex
10
999.580000000000
20
801.120000000000
30
0.0
0
VERTEX
5
785
100
AcDbEntity
8
0-0
6
CONTINUOUS
62
  3
100
AcDbVertex
100
AcDb2dVertex
10
1012.510000000000
20
810.250000000000
30
0.0
0
SEQEND
5
786
100
AcDbEntity
8
0-0
0
LINE
5
787
100
AcDbEntity
8
0-0
6
CONTINUOUS
62
3
100
AcDbLine
10
1011.520000000000
20
815.500000000000
30
0.0
11
1007.820000000000
21
815.940000000000
31
0.0
0
LINE
5
788
100
AcDbEntity
8
0-0
6
CONTINUOUS
62
3
100
AcDbLine
10
1069.850000000000
20
815.940000000000
30
0.0
11
1066.150000000000
21
815.500000000000
31
0.0
0
POLYLINE
5
789
100
AcDbEntity
8
0-0
6
CONTINUOUS
62
  3
100
AcDb2dPolyline
66
1
10
0.0
20
0.0
30
0.0
70
0
0
VERTEX
5
78a
100
AcDbEntity
8
0-0
6
CONTINUOUS
62
  3
100
AcDbVertex
100
AcDb2dVertex
10
1065.170000000000
20
810.250000000000
30
0.0
0
VERTEX
5
78b
100
AcDbEntity
8
0-0
6
CONTINUOUS
62
  3
100
AcDbVertex
100
AcDb2dVertex
10
1078.100000000000
20
801.120000000000
30
0.0
0
VERTEX
5
78c
100
AcDbEntity
8
0-0
6
CONTINUOUS
62
  3
100
AcDbVertex
100
AcDb2dVertex
10
1099.370000000000
20
762.370000000000
30
0.0
0
VERTEX
5
78d
100
AcDbEntity
8
0-0
6
CONTINUOUS
62
  3
100
AcDbVertex
100
AcDb2dVertex
10
1159.880000000000
20
762.370000000000
30
0.0
0
VERTEX
5
78e
100
AcDbEntity
8
0-0
6
CONTINUOUS
62
  3
100
AcDbVertex
100
AcDb2dVertex
10
1164.170000000000
20
766.660000000000
30
0.0
0
VERTEX
5
78f
100
AcDbEntity
8
0-0
6
CONTINUOUS
62
  3
100
AcDbVertex
100
AcDb2dVertex
10
1213.510000000000
20
766.660000000000
30
0.0
0
VERTEX
5
790
100
AcDbEntity
8
0-0
6
CONTINUOUS
62
  3
100
AcDbVertex
100
AcDb2dVertex
10
1217.800000000000
20
762.370000000000
30
0.0
0
VERTEX
5
791
100
AcDbEntity
8
0-0
6
CONTINUOUS
62
  3
100
AcDbVertex
100
AcDb2dVertex
10
1278.310000000000
20
762.370000000000
30
0.0
0
VERTEX
5
792
100
AcDbEntity
8
0-0
6
CONTINUOUS
62
  3
100
AcDbVertex
100
AcDb2dVertex
10
1299.580000000000
20
801.120000000000
30
0.0
0
VERTEX
5
793
100
AcDbEntity
8
0-0
6
CONTINUOUS
62
  3
100
AcDbVertex
100
AcDb2dVertex
10
1312.560000000000
20
810.290000000000
30
0.0
0
SEQEND
5
794
100
AcDbEntity
8
0-0
0
LINE
5
795
100
AcDbEntity
8
0-0
6
CONTINUOUS
62
3
100
AcDbLine
10
1310.520000000000
20
817.580000000000
30
0.0
11
1307.810000000000
21
817.770000000000
31
0.0
0
LINE
5
796
100
AcDbEntity
8
0-0
6
CONTINUOUS
62
4
100
AcDbLine
10
1278.310000000000
20
723.170000000000
30
0.0
11
1099.370000000000
21
723.170000000000
31
0.0
0
LINE
5
797
100
AcDbEntity
8
0-0
6
CONTINUOUS
62
4
100
AcDbLine
10
1278.310000000000
20
747.170000000000
30
0.0
11
1278.310000000000
21
723.170000000000
31
0.0
0
LINE
5
798
100
AcDbEntity
8
0-0
6
CONTINUOUS
62
4
100
AcDbLine
10
1099.370000000000
20
747.170000000000
30
0.0
11
1099.370000000000
21
723.170000000000
31
0.0
0
POLYLINE
5
799
100
AcDbEntity
8
0-0
6
CONTINUOUS
62
  4
100
AcDb2dPolyline
66
1
10
0.0
20
0.0
30
0.0
70
0
0
VERTEX
5
79a
100
AcDbEntity
8
0-0
6
CONTINUOUS
62
  4
100
AcDbVertex
100
AcDb2dVertex
10
978.310000000000
20
747.170000000000
30
0.0
0
VERTEX
5
79b
100
AcDbEntity
8
0-0
6
CONTINUOUS
62
  4
100
AcDbVertex
100
AcDb2dVertex
10
978.310000000000
20
723.170000000000
30
0.0
0
VERTEX
5
79c
100
AcDbEntity
8
0-0
6
CONTINUOUS
62
  4
100
AcDbVertex
100
AcDb2dVertex
10
799.370000000000
20
723.170000000000
30
0.0
0
SEQEND
5
79d
100
AcDbEntity
8
0-0
0
LINE
5
79e
100
AcDbEntity
8
0-0
6
CONTINUOUS
62
4
100
AcDbLine
10
799.370000000000
20
747.170000000000
30
0.0
11
799.370000000000
21
723.170000000000
31
0.0
0
LINE
5
79f
100
AcDbEntity
8
0-0
6
CONTINUOUS
62
3
100
AcDbLine
10
711.340000000000
20
815.520000000000
30
0.0
11
711.280000000000
21
814.720000000000
31
0.0
0
LINE
5
7a0
100
AcDbEntity
8
0-0
6
CONTINUOUS
62
3
100
AcDbLine
10
1354.000000000000
20
842.590000000000
30
0.0
11
1353.720000000000
21
841.840000000000
31
0.0
0
LINE
5
7a1
100
AcDbEntity
8
0-0
6
CONTINUOUS
62
4
100
AcDbLine
10
738.840000000000
20
937.170000000000
30
0.0
11
1338.840000000000
21
937.170000000000
31
0.0
0
POLYLINE
5
7a2
100
AcDbEntity
8
0-0
6
CONTINUOUS
62
  4
100
AcDb2dPolyline
66
1
10
0.0
20
0.0
30
0.0
70
0
0
VERTEX
5
7a3
100
AcDbEntity
8
0-0
6
CONTINUOUS
62
  4
100
AcDbVertex
100
AcDb2dVertex
10
738.840000000000
20
917.170000000000
30
0.0
0
VERTEX
5
7a4
100
AcDbEntity
8
0-0
6
CONTINUOUS
62
  4
100
AcDbVertex
100
AcDb2dVertex
10
1038.840000000000
20
917.170000000000
30
0.0
0
VERTEX
5
7a5
100
AcDbEntity
8
0-0
6
CONTINUOUS
62
  4
100
AcDbVertex
100
AcDb2dVertex
10
1338.840000000000
20
917.170000000000
30
0.0
0
SEQEND
5
7a6
100
AcDbEntity
8
0-0
0
LINE
5
7a7
100
AcDbEntity
8
0-0
6
CONTINUOUS
62
4
100
AcDbLine
10
1338.840000000000
20
897.170000000000
30
0.0
11
1338.840000000000
21
937.170000000000
31
0.0
0
LINE
5
7a8
100
AcDbEntity
8
0-0
6
CONTINUOUS
62
4
100
AcDbLine
10
738.840000000000
20
897.170000000000
30
0.0
11
738.840000000000
21
937.170000000000
31
0.0
0
LINE
5
7a9
100
AcDbEntity
8
0-0
6
CONTINUOUS
62
4
100
AcDbLine
10
1071.840000000000
20
877.170000000000
30
0.0
11
1005.840000000000
21
877.170000000000
31
0.0
0
LINE
5
7aa
100
AcDbEntity
8
0-0
6
CONTINUOUS
62
4
100
AcDbLine
10
1071.840000000000
20
857.170000000000
30
0.0
11
1071.840000000000
21
877.170000000000
31
0.0
0
LINE
5
7ab
100
AcDbEntity
8
0-0
6
CONTINUOUS
62
4
100
AcDbLine
10
1005.840000000000
20
857.170000000000
30
0.0
11
1005.840000000000
21
877.170000000000
31
0.0
0
POLYLINE
5
7ac
100
AcDbEntity
8
0-0
6
CONTINUOUS
62
  4
100
AcDb2dPolyline
66
1
10
0.0
20
0.0
30
0.0
70
0
0
VERTEX
5
7ad
100
AcDbEntity
8
0-0
6
CONTINUOUS
62
  4
100
AcDbVertex
100
AcDb2dVertex
10
772.860000000000
20
857.170000000000
30
0.0
0
VERTEX
5
7ae
100
AcDbEntity
8
0-0
6
CONTINUOUS
62
  4
100
AcDbVertex
100
AcDb2dVertex
10
772.860000000000
20
877.170000000000
30
0.0
0
VERTEX
5
7af
100
AcDbEntity
8
0-0
6
CONTINUOUS
62
  4
100
AcDbVertex
100
AcDb2dVertex
10
704.840000000000
20
877.170000000000
30
0.0
0
SEQEND
5
7b0
100
AcDbEntity
8
0-0
0
LINE
5
7b1
100
AcDbEntity
8
0-0
6
CONTINUOUS
62
4
100
AcDbLine
10
704.840000000000
20
857.170000000000
30
0.0
11
704.840000000000
21
877.170000000000
31
0.0
0
POLYLINE
5
7b2
100
AcDbEntity
8
0-0
6
CONTINUOUS
62
  4
100
AcDb2dPolyline
66
1
10
0.0
20
0.0
30
0.0
70
0
0
VERTEX
5
7b3
100
AcDbEntity
8
0-0
6
CONTINUOUS
62
  4
100
AcDbVertex
100
AcDb2dVertex
10
829.690000000000
20
763.170000000000
30
0.0
0
VERTEX
5
7b4
100
AcDbEntity
8
0-0
6
CONTINUOUS
62
  4
100
AcDbVertex
100
AcDb2dVertex
10
829.690000000000
20
846.170000000000
30
0.0
0
VERTEX
5
7b5
100
AcDbEntity
8
0-0
6
CONTINUOUS
62
  4
100
AcDbVertex
100
AcDb2dVertex
10
789.690000000000
20
846.170000000000
30
0.0
0
SEQEND
5
7b6
100
AcDbEntity
8
0-0
0
LINE
5
7b7
100
AcDbEntity
8
0-0
6
CONTINUOUS
62
4
100
AcDbLine
10
1038.840000000000
20
897.170000000000
30
0.0
11
1038.840000000000
21
917.170000000000
31
0.0
0
LINE
5
7b8
100
AcDbEntity
8
0-2
6
CONTINUOUS
62
7
100
AcDbLine
10
1247.980000000000
20
313.570000000000
30
0.0
11
1247.980000000000
21
420.570000000000
31
0.0
0
LINE
5
7b9
100
AcDbEntity
8
0-2
6
DOT
62
4
100
AcDbLine
10
1249.500000000000
20
333.220000000000
30
0.0
11
1247.040000000000
21
353.060000000000
31
0.0
0
LINE
5
7ba
100
AcDbEntity
8
0-2
6
DOT
62
4
100
AcDbLine
10
1243.580000000000
20
380.950000000000
30
0.0
11
1240.680000000000
21
404.400000000000
31
0.0
0
LINE
5
7bb
100
AcDbEntity
8
0-2
6
DOT
62
4
100
AcDbLine
10
1237.000000000000
20
404.400000000000
30
0.0
11
1234.210000000000
21
381.890000000000
31
0.0
0
LINE
5
7bc
100
AcDbEntity
8
0-2
6
DOT
62
4
100
AcDbLine
10
1230.840000000000
20
354.690000000000
30
0.0
11
1228.180000000000
21
333.220000000000
31
0.0
0
LINE
5
7bd
100
AcDbEntity
8
0-2
6
CONTINUOUS
62
7
100
AcDbLine
10
1333.000000000000
20
313.570000000000
30
0.0
11
1308.550000000000
21
313.570000000000
31
0.0
0
LINE
5
7be
100
AcDbEntity
8
0-2
6
CONTINUOUS
62
7
100
AcDbLine
10
1333.000000000000
20
313.570000000000
30
0.0
11
1333.000000000000
21
300.570000000000
31
0.0
0
LINE
5
7bf
100
AcDbEntity
8
0-2
6
CONTINUOUS
62
7
100
AcDbLine
10
822.090000000000
20
390.540000000000
30
0.0
11
851.580000000000
21
441.620000000000
31
0.0
0
LINE
5
7c0
100
AcDbEntity
8
0-2
6
CONTINUOUS
62
7
100
AcDbLine
10
1098.940000000000
20
470.250000000000
30
0.0
11
1081.950000000000
21
470.250000000000
31
0.0
0
LINE
5
7c1
100
AcDbEntity
8
0-2
6
CONTINUOUS
62
7
100
AcDbLine
10
1066.110000000000
20
442.830000000000
30
0.0
11
1081.950000000000
21
470.250000000000
31
0.0
0
LINE
5
7c2
100
AcDbEntity
8
0-1
6
CONTINUOUS
62
7
100
AcDbLine
10
230.270000000000
20
300.570000000000
30
0.0
11
215.270000000000
21
300.570000000000
31
0.0
0
LINE
5
7c3
100
AcDbEntity
8
0-1
6
CONTINUOUS
62
3
100
AcDbLine
10
335.270000000000
20
292.570000000000
30
0.0
11
369.520000000000
21
292.570000000000
31
0.0
0
LINE
5
7c4
100
AcDbEntity
8
0-1
6
CONTINUOUS
62
3
100
AcDbLine
10
377.520000000000
20
213.070000000000
30
0.0
11
377.520000000000
21
284.570000000000
31
0.0
0
POLYLINE
5
7c5
100
AcDbEntity
8
0-1
6
CONTINUOUS
62
  3
100
AcDb2dPolyline
66
1
10
0.0
20
0.0
30
0.0
70
0
0
VERTEX
5
7c6
100
AcDbEntity
8
0-1
6
CONTINUOUS
62
  3
100
AcDbVertex
100
AcDb2dVertex
10
425.270000000000
20
300.570000000000
30
0.0
0
VERTEX
5
7c7
100
AcDbEntity
8
0-1
6
CONTINUOUS
62
  3
100
AcDbVertex
100
AcDb2dVertex
10
425.270000000000
20
292.570000000000
30
0.0
0
VERTEX
5
7c8
100
AcDbEntity
8
0-1
6
CONTINUOUS
62
  3
100
AcDbVertex
100
AcDb2dVertex
10
391.020000000000
20
292.570000000000
30
0.0
0
SEQEND
5
7c9
100
AcDbEntity
8
0-1
0
LINE
5
7ca
100
AcDbEntity
8
0-1
6
CONTINUOUS
62
3
100
AcDbLine
10
383.020000000000
20
213.070000000000
30
0.0
11
383.020000000000
21
284.570000000000
31
0.0
0
LINE
5
7cb
100
AcDbEntity
8
0-1
6
CONTINUOUS
62
7
100
AcDbLine
10
230.270000000000
20
419.770000000000
30
0.0
11
215.270000000000
21
419.770000000000
31
0.0
0
LINE
5
7cc
100
AcDbEntity
8
0-1
6
CONTINUOUS
62
3
100
AcDbLine
10
494.870000000000
20
312.770000000000
30
0.0
11
265.270000000000
21
312.770000000000
31
0.0
0
LINE
5
7cd
100
AcDbEntity
8
0-1
6
CONTINUOUS
62
3
100
AcDbLine
10
494.870000000000
20
395.570000000000
30
0.0
11
265.270000000000
21
395.570000000000
31
0.0
0
LINE
5
7ce
100
AcDbEntity
8
0-1
6
CONTINUOUS
62
3
100
AcDbLine
10
494.870000000000
20
361.570000000000
30
0.0
11
265.270000000000
21
361.570000000000
31
0.0
0
LINE
5
7cf
100
AcDbEntity
8
0-1
6
CONTINUOUS
62
7
100
AcDbLine
10
235.270000000000
20
502.770000000000
30
0.0
11
220.270000000000
21
502.770000000000
31
0.0
0
LINE
5
7d0
100
AcDbEntity
8
0-1
6
CONTINUOUS
62
7
100
AcDbLine
10
215.270000000000
20
300.570000000000
30
0.0
11
200.270000000000
21
300.570000000000
31
0.0
0
LINE
5
7d1
100
AcDbEntity
8
0-1
6
CONTINUOUS
62
7
100
AcDbLine
10
215.270000000000
20
419.770000000000
30
0.0
11
200.270000000000
21
419.770000000000
31
0.0
0
LINE
5
7d2
100
AcDbEntity
8
0-1
6
CONTINUOUS
62
7
100
AcDbLine
10
200.270000000000
20
320.570000000000
30
0.0
11
200.270000000000
21
300.570000000000
31
0.0
0
LINE
5
7d3
100
AcDbEntity
8
0-1
6
CONTINUOUS
62
7
100
AcDbLine
10
220.270000000000
20
468.770000000000
30
0.0
11
220.270000000000
21
502.770000000000
31
0.0
0
LINE
5
7d4
100
AcDbEntity
8
0-1
6
CONTINUOUS
62
7
100
AcDbLine
10
235.270000000000
20
468.770000000000
30
0.0
11
220.270000000000
21
468.770000000000
31
0.0
0
LINE
5
7d5
100
AcDbEntity
8
0-1
6
DOT
62
7
100
AcDbLine
10
361.520000000000
20
355.770000000000
30
0.0
11
369.600000000000
21
355.770000000000
31
0.0
0
LINE
5
7d6
100
AcDbEntity
8
0-1
6
DOT
62
7
100
AcDbLine
10
361.520000000000
20
345.770000000000
30
0.0
11
368.500000000000
21
345.770000000000
31
0.0
0
LINE
5
7d7
100
AcDbEntity
8
0-1
6
DOT
62
7
100
AcDbLine
10
399.020000000000
20
345.770000000000
30
0.0
11
392.040000000000
21
345.770000000000
31
0.0
0
LINE
5
7d8
100
AcDbEntity
8
0-1
6
DOT
62
7
100
AcDbLine
10
399.020000000000
20
355.770000000000
30
0.0
11
390.940000000000
21
355.770000000000
31
0.0
0
LINE
5
7d9
100
AcDbEntity
8
0-1
6
CONTINUOUS
62
7
100
AcDbLine
10
360.270000000000
20
303.770000000000
30
0.0
11
360.270000000000
21
300.570000000000
31
0.0
0
LINE
5
7da
100
AcDbEntity
8
0-1
6
CONTINUOUS
62
7
100
AcDbLine
10
400.270000000000
20
303.770000000000
30
0.0
11
400.270000000000
21
300.570000000000
31
0.0
0
LINE
5
7db
100
AcDbEntity
8
0-1
6
DOT
62
7
100
AcDbLine
10
376.050000000000
20
341.580000000000
30
0.0
11
384.490000000000
21
341.580000000000
31
0.0
0
LINE
5
7dc
100
AcDbEntity
8
0-1
6
DOT
62
7
100
AcDbLine
10
372.360000000000
20
344.370000000000
30
0.0
11
375.410000000000
21
341.810000000000
31
0.0
0
LINE
5
7dd
100
AcDbEntity
8
0-1
6
DOT
62
7
100
AcDbLine
10
371.700000000000
20
355.390000000000
30
0.0
11
375.510000000000
21
353.960000000000
31
0.0
0
LINE
5
7de
100
AcDbEntity
8
0-1
6
DOT
62
7
100
AcDbLine
10
385.020000000000
20
353.960000000000
30
0.0
11
388.830000000000
21
355.390000000000
31
0.0
0
LINE
5
7df
100
AcDbEntity
8
0-1
6
DOT
62
7
100
AcDbLine
10
385.130000000000
20
341.810000000000
30
0.0
11
388.180000000000
21
344.370000000000
31
0.0
0
LINE
5
7e0
100
AcDbEntity
8
0-1
6
DOT
62
7
100
AcDbLine
10
375.870000000000
20
353.890000000000
30
0.0
11
384.670000000000
21
353.890000000000
31
0.0
0
LINE
5
7e1
100
AcDbEntity
8
0-1
6
DOT
62
7
100
AcDbLine
10
357.770000000000
20
364.850000000000
30
0.0
11
357.770000000000
21
376.770000000000
31
0.0
0
LINE
5
7e2
100
AcDbEntity
8
0-1
6
DOT
62
7
100
AcDbLine
10
402.770000000000
20
364.850000000000
30
0.0
11
357.770000000000
21
364.850000000000
31
0.0
0
LINE
5
7e3
100
AcDbEntity
8
0-1
6
DOT
62
7
100
AcDbLine
10
392.770000000000
20
386.770000000000
30
0.0
11
367.770000000000
21
386.770000000000
31
0.0
0
LINE
5
7e4
100
AcDbEntity
8
0-1
6
DOT
62
7
100
AcDbLine
10
402.770000000000
20
364.850000000000
30
0.0
11
402.770000000000
21
376.770000000000
31
0.0
0
LINE
5
7e5
100
AcDbEntity
8
0-1
6
DOT
62
7
100
AcDbLine
10
402.770000000000
20
365.370000000000
30
0.0
11
357.770000000000
21
365.370000000000
31
0.0
0
LINE
5
7e6
100
AcDbEntity
8
0-1
6
CONTINUOUS
62
7
100
AcDbLine
10
360.270000000000
20
300.570000000000
30
0.0
11
367.770000000000
21
300.570000000000
31
0.0
0
LINE
5
7e7
100
AcDbEntity
8
0-1
6
CONTINUOUS
62
7
100
AcDbLine
10
390.120000000000
20
301.570000000000
30
0.0
11
380.270000000000
21
301.570000000000
31
0.0
0
LINE
5
7e8
100
AcDbEntity
8
0-1
6
CONTINUOUS
62
7
100
AcDbLine
10
390.120000000000
20
304.770000000000
30
0.0
11
380.270000000000
21
304.770000000000
31
0.0
0
LINE
5
7e9
100
AcDbEntity
8
0-1
6
CONTINUOUS
62
7
100
AcDbLine
10
370.420000000000
20
301.570000000000
30
0.0
11
380.270000000000
21
301.570000000000
31
0.0
0
LINE
5
7ea
100
AcDbEntity
8
0-1
6
CONTINUOUS
62
7
100
AcDbLine
10
370.420000000000
20
304.770000000000
30
0.0
11
380.270000000000
21
304.770000000000
31
0.0
0
LINE
5
7eb
100
AcDbEntity
8
0-1
6
CONTINUOUS
62
7
100
AcDbLine
10
392.770000000000
20
303.770000000000
30
0.0
11
400.270000000000
21
303.770000000000
31
0.0
0
LINE
5
7ec
100
AcDbEntity
8
0-1
6
CONTINUOUS
62
7
100
AcDbLine
10
392.770000000000
20
300.570000000000
30
0.0
11
400.270000000000
21
300.570000000000
31
0.0
0
LINE
5
7ed
100
AcDbEntity
8
0-1
6
CONTINUOUS
62
7
100
AcDbLine
10
360.270000000000
20
303.770000000000
30
0.0
11
367.770000000000
21
303.770000000000
31
0.0
0
LINE
5
7ee
100
AcDbEntity
8
0-1
6
CONTINUOUS
62
4
100
AcDbLine
10
360.270000000000
20
300.570000000000
30
0.0
11
400.270000000000
21
300.570000000000
31
0.0
0
LINE
5
7ef
100
AcDbEntity
8
0-1
6
DOT
62
3
100
AcDbLine
10
494.870000000000
20
386.510000000000
30
0.0
11
265.270000000000
21
386.510000000000
31
0.0
0
LINE
5
7f0
100
AcDbEntity
8
0-1
6
CONTINUOUS
62
3
100
AcDbLine
10
335.270000000000
20
300.570000000000
30
0.0
11
335.270000000000
21
292.570000000000
31
0.0
0
LINE
5
7f1
100
AcDbEntity
8
0-1
6
CONTINUOUS
62
3
100
AcDbLine
10
425.270000000000
20
300.570000000000
30
0.0
11
335.270000000000
21
300.570000000000
31
0.0
0
LINE
5
7f2
100
AcDbEntity
8
0-1
6
CONTINUOUS
62
7
100
AcDbLine
10
361.520000000000
20
320.570000000000
30
0.0
11
361.520000000000
21
305.020000000000
31
0.0
0
LINE
5
7f3
100
AcDbEntity
8
0-1
6
CONTINUOUS
62
7
100
AcDbLine
10
370.690000000000
20
320.570000000000
30
0.0
11
370.690000000000
21
304.770000000000
31
0.0
0
LINE
5
7f4
100
AcDbEntity
8
0-1
6
CONTINUOUS
62
7
100
AcDbLine
10
375.690000000000
20
320.570000000000
30
0.0
11
375.690000000000
21
304.770000000000
31
0.0
0
LINE
5
7f5
100
AcDbEntity
8
0-1
6
CONTINUOUS
62
7
100
AcDbLine
10
384.850000000000
20
320.570000000000
30
0.0
11
384.850000000000
21
304.770000000000
31
0.0
0
LINE
5
7f6
100
AcDbEntity
8
0-1
6
CONTINUOUS
62
7
100
AcDbLine
10
389.850000000000
20
320.570000000000
30
0.0
11
389.850000000000
21
304.770000000000
31
0.0
0
LINE
5
7f7
100
AcDbEntity
8
0-1
6
CONTINUOUS
62
7
100
AcDbLine
10
399.020000000000
20
320.570000000000
30
0.0
11
399.020000000000
21
305.020000000000
31
0.0
0
LINE
5
7f8
100
AcDbEntity
8
0-1
6
CONTINUOUS
62
3
100
AcDbLine
10
494.870000000000
20
357.920000000000
30
0.0
11
265.270000000000
21
357.920000000000
31
0.0
0
LINE
5
7f9
100
AcDbEntity
8
0-1
6
CONTINUOUS
62
7
100
AcDbLine
10
361.520000000000
20
323.490000000000
30
0.0
11
399.020000000000
21
323.490000000000
31
0.0
0
LINE
5
7fa
100
AcDbEntity
8
0-1
6
DOT
62
7
100
AcDbLine
10
399.020000000000
20
363.430000000000
30
0.0
11
399.020000000000
21
320.570000000000
31
0.0
0
LINE
5
7fb
100
AcDbEntity
8
0-1
6
DOT
62
7
100
AcDbLine
10
361.520000000000
20
363.430000000000
30
0.0
11
361.520000000000
21
320.570000000000
31
0.0
0
LINE
5
7fc
100
AcDbEntity
8
0-1
6
CONTINUOUS
62
7
100
AcDbLine
10
215.270000000000
20
502.770000000000
30
0.0
11
200.270000000000
21
502.770000000000
31
0.0
0
LINE
5
7fd
100
AcDbEntity
8
0-1
6
DOT
62
7
100
AcDbLine
10
375.690000000000
20
326.320000000000
30
0.0
11
375.690000000000
21
320.570000000000
31
0.0
0
LINE
5
7fe
100
AcDbEntity
8
0-1
6
DOT
62
7
100
AcDbLine
10
384.850000000000
20
326.320000000000
30
0.0
11
384.850000000000
21
320.570000000000
31
0.0
0
LINE
5
7ff
100
AcDbEntity
8
0-1
6
DOT
62
7
100
AcDbLine
10
370.690000000000
20
345.360000000000
30
0.0
11
370.690000000000
21
320.570000000000
31
0.0
0
LINE
5
800
100
AcDbEntity
8
0-1
6
DOT
62
7
100
AcDbLine
10
389.850000000000
20
345.360000000000
30
0.0
11
389.850000000000
21
320.570000000000
31
0.0
0
LINE
5
801
100
AcDbEntity
8
0-1
6
DOT
62
7
100
AcDbLine
10
375.690000000000
20
341.640000000000
30
0.0
11
375.690000000000
21
340.060000000000
31
0.0
0
LINE
5
802
100
AcDbEntity
8
0-1
6
DOT
62
7
100
AcDbLine
10
384.850000000000
20
341.650000000000
30
0.0
11
384.850000000000
21
340.060000000000
31
0.0
0
LINE
5
803
100
AcDbEntity
8
0-1
6
CONTINUOUS
62
3
100
AcDbLine
10
494.870000000000
20
419.770000000000
30
0.0
11
265.270000000000
21
419.770000000000
31
0.0
0
LINE
5
804
100
AcDbEntity
8
0-1
6
CONTINUOUS
62
3
100
AcDbLine
10
494.870000000000
20
502.570000000000
30
0.0
11
265.270000000000
21
502.570000000000
31
0.0
0
LINE
5
805
100
AcDbEntity
8
0-1
6
CONTINUOUS
62
3
100
AcDbLine
10
494.870000000000
20
468.570000000000
30
0.0
11
265.270000000000
21
468.570000000000
31
0.0
0
LINE
5
806
100
AcDbEntity
8
0-1
6
DOT
62
3
100
AcDbLine
10
494.870000000000
20
493.510000000000
30
0.0
11
265.270000000000
21
493.510000000000
31
0.0
0
LINE
5
807
100
AcDbEntity
8
0-1
6
CONTINUOUS
62
3
100
AcDbLine
10
494.870000000000
20
464.920000000000
30
0.0
11
265.270000000000
21
464.920000000000
31
0.0
0
LINE
5
808
100
AcDbEntity
8
0-1
6
CONTINUOUS
62
7
100
AcDbLine
10
200.270000000000
20
320.570000000000
30
0.0
11
200.270000000000
21
502.770000000000
31
0.0
0
POLYLINE
5
809
100
AcDbEntity
8
0-1
6
CONTINUOUS
62
  7
100
AcDb2dPolyline
66
1
10
0.0
20
0.0
30
0.0
70
0
0
VERTEX
5
80a
100
AcDbEntity
8
0-1
6
CONTINUOUS
62
  7
100
AcDbVertex
100
AcDb2dVertex
10
230.270000000000
20
312.770000000000
30
0.0
0
VERTEX
5
80b
100
AcDbEntity
8
0-1
6
CONTINUOUS
62
  7
100
AcDbVertex
100
AcDb2dVertex
10
215.270000000000
20
312.770000000000
30
0.0
0
VERTEX
5
80c
100
AcDbEntity
8
0-1
6
CONTINUOUS
62
  7
100
AcDbVertex
100
AcDb2dVertex
10
200.270000000000
20
312.770000000000
30
0.0
0
SEQEND
5
80d
100
AcDbEntity
8
0-1
0
LINE
5
80e
100
AcDbEntity
8
0-1
6
CONTINUOUS
62
7
100
AcDbLine
10
361.520000000000
20
355.150000000000
30
0.0
11
323.170000000000
21
288.740000000000
31
0.0
0
LINE
5
80f
100
AcDbEntity
8
0-1
6
CONTINUOUS
62
7
100
AcDbLine
10
393.940000000000
20
488.170000000000
30
0.0
11
409.770000000000
21
515.590000000000
31
0.0
0
POLYLINE
5
810
100
AcDbEntity
8
0-1
6
DOT
62
  4
100
AcDb2dPolyline
66
1
10
0.0
20
0.0
30
0.0
70
0
0
VERTEX
5
811
100
AcDbEntity
8
0-1
6
DOT
62
  4
100
AcDbVertex
100
AcDb2dVertex
10
266.610000000000
20
402.010000000000
30
0.0
0
VERTEX
5
812
100
AcDbEntity
8
0-1
6
DOT
62
  4
100
AcDbVertex
100
AcDb2dVertex
10
276.270000000000
20
337.270000000000
30
0.0
0
VERTEX
5
813
100
AcDbEntity
8
0-1
6
DOT
62
  4
100
AcDbVertex
100
AcDb2dVertex
10
288.360000000000
20
402.010000000000
30
0.0
0
SEQEND
5
814
100
AcDbEntity
8
0-1
0
LINE
5
815
100
AcDbEntity
8
0-1
6
DOT
62
4
100
AcDbLine
10
291.690000000000
20
402.010000000000
30
0.0
11
302.130000000000
21
332.460000000000
31
0.0
0
LINE
5
816
100
AcDbEntity
8
0-1
6
DOT
62
4
100
AcDbLine
10
300.240000000000
20
332.550000000000
30
0.0
11
313.420000000000
21
402.010000000000
31
0.0
0
POLYLINE
5
817
100
AcDbEntity
8
0-1
6
DOT
62
  4
100
AcDb2dPolyline
66
1
10
0.0
20
0.0
30
0.0
70
0
0
VERTEX
5
818
100
AcDbEntity
8
0-1
6
DOT
62
  4
100
AcDbVertex
100
AcDb2dVertex
10
316.610000000000
20
402.010000000000
30
0.0
0
VERTEX
5
819
100
AcDbEntity
8
0-1
6
DOT
62
  4
100
AcDbVertex
100
AcDb2dVertex
10
326.280000000000
20
337.570000000000
30
0.0
0
VERTEX
5
81a
100
AcDbEntity
8
0-1
6
DOT
62
  4
100
AcDbVertex
100
AcDb2dVertex
10
338.350000000000
20
402.010000000000
30
0.0
0
SEQEND
5
81b
100
AcDbEntity
8
0-1
0
LINE
5
81c
100
AcDbEntity
8
0-1
6
DOT
62
4
100
AcDbLine
10
341.680000000000
20
402.010000000000
30
0.0
11
351.280000000000
21
338.070000000000
31
0.0
0
CIRCLE
5
81d
100
AcDbEntity
8
F-F
6
CONTINUOUS
62
3
100
AcDbCircle
10
79.720000000000
20
67.100000000000
30
0.0
40
11.313709759210
0
CIRCLE
5
81e
100
AcDbEntity
8
F-F
6
CONTINUOUS
62
3
100
AcDbCircle
10
79.720000000000
20
67.100000000000
30
0.0
40
12.913709270428
0
CIRCLE
5
81f
100
AcDbEntity
8
F-F
6
CONTINUOUS
62
4
100
AcDbCircle
10
79.720000000000
20
67.100000000000
30
0.0
40
11.473710561919
0
CIRCLE
5
820
100
AcDbEntity
8
F-F
6
CONTINUOUS
62
4
100
AcDbCircle
10
79.720000000000
20
67.100000000000
30
0.0
40
11.793707522317
0
CIRCLE
5
821
100
AcDbEntity
8
F-F
6
CONTINUOUS
62
4
100
AcDbCircle
10
79.720000000000
20
67.100000000000
30
0.0
40
12.113709127734
0
CIRCLE
5
822
100
AcDbEntity
8
F-F
6
CONTINUOUS
62
4
100
AcDbCircle
10
79.720000000000
20
67.100000000000
30
0.0
40
12.433706862302
0
CIRCLE
5
823
100
AcDbEntity
8
F-F
6
CONTINUOUS
62
4
100
AcDbCircle
10
79.720000000000
20
67.100000000000
30
0.0
40
12.753706145210
0
ARC
5
824
100
AcDbEntity
8
0-1
6
DOT
62
7
100
AcDbCircle
10
392.770000000000
20
487.310000000000
30
0.0
40
9.999999848249
100
AcDbArc
50
360.000000000000
51
450.000000000000
0
ARC
5
825
100
AcDbEntity
8
0-1
6
DOT
62
7
100
AcDbCircle
10
367.770000000000
20
487.310000000000
30
0.0
40
9.999999848249
100
AcDbArc
50
90.000000000000
51
180.000000000000
0
ARC
5
826
100
AcDbEntity
8
0-1
6
CONTINUOUS
62
7
100
AcDbCircle
10
380.270000000000
20
404.740000000000
30
0.0
40
14.906899641093
100
AcDbArc
50
360.000000000000
51
450.000000000000
0
ARC
5
827
100
AcDbEntity
8
0-1
6
CONTINUOUS
62
7
100
AcDbCircle
10
380.270000000000
20
404.740000000000
30
0.0
40
14.906899641093
100
AcDbArc
50
90.000000000000
51
179.999984741211
0
ARC
5
828
100
AcDbEntity
8
0-1
6
CONTINUOUS
62
7
100
AcDbCircle
10
380.270000000000
20
404.740000000000
30
0.0
40
18.106898663528
100
AcDbArc
50
360.000000000000
51
539.999984741211
0
ARC
5
829
100
AcDbEntity
8
0-1
6
CONTINUOUS
62
7
100
AcDbCircle
10
408.980000000000
20
374.060000000000
30
0.0
40
20.889460597480
100
AcDbArc
50
357.420242309570
51
27.427597045898
0
ARC
5
82a
100
AcDbEntity
8
0-1
6
CONTINUOUS
62
7
100
AcDbCircle
10
351.560000000000
20
374.060000000000
30
0.0
40
20.889460597480
100
AcDbArc
50
152.572387695313
51
182.579742431641
0
CIRCLE
5
82b
100
AcDbEntity
8
0-1
6
CONTINUOUS
62
7
100
AcDbCircle
10
380.270000000000
20
406.810000000000
30
0.0
40
10.999999833073
0
ARC
5
82c
100
AcDbEntity
8
0-1
6
DOT
62
7
100
AcDbCircle
10
398.070000000000
20
479.200000000000
30
0.0
40
4.699999773843
100
AcDbArc
50
234.044281005859
51
305.955703735352
0
ARC
5
82d
100
AcDbEntity
8
0-1
6
DOT
62
7
100
AcDbCircle
10
362.470000000000
20
479.200000000000
30
0.0
40
4.699999773843
100
AcDbArc
50
234.044281005859
51
305.955703735352
0
ARC
5
82e
100
AcDbEntity
8
0-1
6
DOT
62
7
100
AcDbCircle
10
381.240000000000
20
488.520000000000
30
0.0
40
2.632683984122
100
AcDbArc
50
27.204330444336
51
36.104293823242
0
ARC
5
82f
100
AcDbEntity
8
0-1
6
DOT
62
7
100
AcDbCircle
10
381.170000000000
20
488.380000000000
30
0.0
40
2.780902307096
100
AcDbArc
50
37.597259521484
51
46.497222900391
0
ARC
5
830
100
AcDbEntity
8
0-1
6
DOT
62
7
100
AcDbCircle
10
381.070000000000
20
488.240000000000
30
0.0
40
2.943910760106
100
AcDbArc
50
46.881134033203
51
55.781112670898
0
ARC
5
831
100
AcDbEntity
8
0-1
6
DOT
62
7
100
AcDbCircle
10
380.950000000000
20
488.130000000000
30
0.0
40
3.105037593025
100
AcDbArc
50
55.188629150391
51
64.088592529297
0
ARC
5
832
100
AcDbEntity
8
0-1
6
DOT
62
7
100
AcDbCircle
10
380.820000000000
20
488.030000000000
30
0.0
40
3.250238007944
100
AcDbArc
50
62.708374023438
51
71.608352661133
0
ARC
5
833
100
AcDbEntity
8
0-1
6
DOT
62
7
100
AcDbCircle
10
380.670000000000
20
487.960000000000
30
0.0
40
3.368475824972
100
AcDbArc
50
69.637023925781
51
78.537002563477
0
ARC
5
834
100
AcDbEntity
8
0-1
6
DOT
62
7
100
AcDbCircle
10
380.510000000000
20
487.910000000000
30
0.0
40
3.451677806204
100
AcDbArc
50
76.159515380859
51
85.059478759766
0
ARC
5
835
100
AcDbEntity
8
0-1
6
DOT
62
7
100
AcDbCircle
10
380.350000000000
20
487.880000000000
30
0.0
40
3.494576886304
100
AcDbArc
50
82.445663452148
51
91.345642089844
0
ARC
5
836
100
AcDbEntity
8
0-1
6
DOT
62
7
100
AcDbCircle
10
380.190000000000
20
487.880000000000
30
0.0
40
3.494576886304
100
AcDbArc
50
88.654342651367
51
97.554321289063
0
ARC
5
837
100
AcDbEntity
8
0-1
6
DOT
62
7
100
AcDbCircle
10
380.030000000000
20
487.910000000000
30
0.0
40
3.451677806204
100
AcDbArc
50
94.940505981445
51
103.840469360352
0
ARC
5
838
100
AcDbEntity
8
0-1
6
DOT
62
7
100
AcDbCircle
10
379.870000000000
20
487.960000000000
30
0.0
40
3.368475824972
100
AcDbArc
50
101.462982177734
51
110.362960815430
0
ARC
5
839
100
AcDbEntity
8
0-1
6
DOT
62
7
100
AcDbCircle
10
379.720000000000
20
488.030000000000
30
0.0
40
3.250238007944
100
AcDbArc
50
108.391632080078
51
117.291610717773
0
ARC
5
83a
100
AcDbEntity
8
0-1
6
DOT
62
7
100
AcDbCircle
10
379.590000000000
20
488.130000000000
30
0.0
40
3.105037593025
100
AcDbArc
50
115.911392211914
51
124.811355590820
0
ARC
5
83b
100
AcDbEntity
8
0-1
6
DOT
62
7
100
AcDbCircle
10
379.470000000000
20
488.240000000000
30
0.0
40
2.943910760106
100
AcDbArc
50
124.218872070313
51
133.118850708008
0
ARC
5
83c
100
AcDbEntity
8
0-1
6
DOT
62
7
100
AcDbCircle
10
379.370000000000
20
488.380000000000
30
0.0
40
2.780902307096
100
AcDbArc
50
133.502761840820
51
142.402725219727
0
ARC
5
83d
100
AcDbEntity
8
0-1
6
DOT
62
7
100
AcDbCircle
10
379.300000000000
20
488.520000000000
30
0.0
40
2.632683984122
100
AcDbArc
50
143.895690917969
51
152.795654296875
0
ARC
5
83e
100
AcDbEntity
8
0-1
6
DOT
62
7
100
AcDbCircle
10
381.290000000000
20
490.310000000000
30
0.0
40
2.487772141056
100
AcDbArc
50
4.680358886719
51
27.180358886719
0
ARC
5
83f
100
AcDbEntity
8
0-1
6
DOT
62
7
100
AcDbCircle
10
381.130000000000
20
489.930000000000
30
0.0
40
2.809625367480
100
AcDbArc
50
32.545272827148
51
55.045272827148
0
ARC
5
840
100
AcDbEntity
8
0-1
6
DOT
62
7
100
AcDbCircle
10
380.850000000000
20
489.650000000000
30
0.0
40
3.210172196363
100
AcDbArc
50
53.781234741211
51
76.281234741211
0
ARC
5
841
100
AcDbEntity
8
0-1
6
DOT
62
7
100
AcDbCircle
10
380.470000000000
20
489.490000000000
30
0.0
40
3.465572221596
100
AcDbArc
50
70.858001708984
51
93.358001708984
0
ARC
5
842
100
AcDbEntity
8
0-1
6
DOT
62
7
100
AcDbCircle
10
380.070000000000
20
489.490000000000
30
0.0
40
3.465572221596
100
AcDbArc
50
86.641983032227
51
109.141983032227
0
ARC
5
843
100
AcDbEntity
8
0-1
6
DOT
62
7
100
AcDbCircle
10
379.690000000000
20
489.650000000000
30
0.0
40
3.210172196363
100
AcDbArc
50
103.718750000000
51
126.218750000000
0
ARC
5
844
100
AcDbEntity
8
0-1
6
DOT
62
7
100
AcDbCircle
10
379.400000000000
20
489.930000000000
30
0.0
40
2.809625367480
100
AcDbArc
50
124.954711914063
51
147.454711914063
0
ARC
5
845
100
AcDbEntity
8
0-1
6
DOT
62
7
100
AcDbCircle
10
379.250000000000
20
490.310000000000
30
0.0
40
2.487772141056
100
AcDbArc
50
152.819625854492
51
175.319625854492
0
ARC
5
846
100
AcDbEntity
8
0-1
6
DOT
62
7
100
AcDbCircle
10
379.250000000000
20
490.710000000000
30
0.0
40
2.487772141056
100
AcDbArc
50
184.680358886719
51
207.180358886719
0
ARC
5
847
100
AcDbEntity
8
0-1
6
DOT
62
7
100
AcDbCircle
10
379.400000000000
20
491.090000000000
30
0.0
40
2.809625367480
100
AcDbArc
50
212.545272827148
51
235.045272827148
0
ARC
5
848
100
AcDbEntity
8
0-1
6
DOT
62
7
100
AcDbCircle
10
379.690000000000
20
491.380000000000
30
0.0
40
3.210172196363
100
AcDbArc
50
233.781234741211
51
256.281234741211
0
ARC
5
849
100
AcDbEntity
8
0-1
6
DOT
62
7
100
AcDbCircle
10
380.070000000000
20
491.530000000000
30
0.0
40
3.465572221596
100
AcDbArc
50
250.858001708984
51
273.358001708984
0
ARC
5
84a
100
AcDbEntity
8
0-1
6
DOT
62
7
100
AcDbCircle
10
380.470000000000
20
491.530000000000
30
0.0
40
3.465572221596
100
AcDbArc
50
266.641983032227
51
289.141983032227
0
ARC
5
84b
100
AcDbEntity
8
0-1
6
DOT
62
7
100
AcDbCircle
10
380.850000000000
20
491.380000000000
30
0.0
40
3.210172196363
100
AcDbArc
50
283.718750000000
51
306.218750000000
0
ARC
5
84c
100
AcDbEntity
8
0-1
6
DOT
62
7
100
AcDbCircle
10
381.130000000000
20
491.090000000000
30
0.0
40
2.809625367480
100
AcDbArc
50
304.954711914063
51
327.454711914063
0
ARC
5
84d
100
AcDbEntity
8
0-1
6
DOT
62
7
100
AcDbCircle
10
381.290000000000
20
490.710000000000
30
0.0
40
2.487772141056
100
AcDbArc
50
332.819625854492
51
355.319625854492
0
ARC
5
84e
100
AcDbEntity
8
0-1
6
CONTINUOUS
62
7
100
AcDbCircle
10
380.270000000000
20
452.010000000000
30
0.0
40
23.999999635796
100
AcDbArc
50
136.636291503906
51
146.442993164063
0
ARC
5
84f
100
AcDbEntity
8
0-1
6
CONTINUOUS
62
7
100
AcDbCircle
10
380.270000000000
20
452.010000000000
30
0.0
40
23.999999635796
100
AcDbArc
50
33.557296752930
51
43.267135620117
0
ARC
5
850
100
AcDbEntity
8
0-1
6
DOT
62
7
100
AcDbCircle
10
380.270000000000
20
452.010000000000
30
0.0
40
27.800000507135
100
AcDbArc
50
35.967269897461
51
36.278411865234
0
ARC
5
851
100
AcDbEntity
8
0-1
6
DOT
62
7
100
AcDbCircle
10
380.270000000000
20
452.010000000000
30
0.0
40
23.999999635796
100
AcDbArc
50
43.267135620117
51
76.992980957031
0
ARC
5
852
100
AcDbEntity
8
0-1
6
DOT
62
7
100
AcDbCircle
10
380.270000000000
20
452.010000000000
30
0.0
40
27.800000507135
100
AcDbArc
50
36.278411865234
51
57.262283325195
0
ARC
5
853
100
AcDbEntity
8
0-1
6
DOT
62
7
100
AcDbCircle
10
380.270000000000
20
452.010000000000
30
0.0
40
27.800000507135
100
AcDbArc
50
122.737701416016
51
143.721618652344
0
ARC
5
854
100
AcDbEntity
8
0-1
6
DOT
62
7
100
AcDbCircle
10
380.270000000000
20
452.010000000000
30
0.0
40
23.999999635796
100
AcDbArc
50
103.008148193359
51
136.733200073242
0
ARC
5
855
100
AcDbEntity
8
0-1
6
DOT
62
4
100
AcDbCircle
10
277.710000000000
20
411.640000000000
30
0.0
40
12.499999036141
100
AcDbArc
50
1.145736694336
51
175.723693847656
0
ARC
5
856
100
AcDbEntity
8
0-1
6
DOT
62
4
100
AcDbCircle
10
302.710000000000
20
411.640000000000
30
0.0
40
12.499999036141
100
AcDbArc
50
358.854217529297
51
538.854217529297
0
ARC
5
857
100
AcDbEntity
8
0-1
6
DOT
62
4
100
AcDbCircle
10
327.700000000000
20
411.640000000000
30
0.0
40
12.499999036141
100
AcDbArc
50
1.145736694336
51
181.145736694336
0
ARC
5
858
100
AcDbEntity
8
0-1
6
DOT
62
4
100
AcDbCircle
10
352.700000000000
20
411.640000000000
30
0.0
40
12.499999036141
100
AcDbArc
50
358.854217529297
51
538.854217529297
0
ARC
5
859
100
AcDbEntity
8
0-1
6
DOT
62
4
100
AcDbCircle
10
377.690000000000
20
411.640000000000
30
0.0
40
12.499999036141
100
AcDbArc
50
1.145736694336
51
181.145736694336
0
ARC
5
85a
100
AcDbEntity
8
0-1
6
DOT
62
4
100
AcDbCircle
10
288.760000000000
20
337.020000000000
30
0.0
40
12.499999036141
100
AcDbArc
50
201.131591796875
51
338.868362426758
0
ARC
5
85b
100
AcDbEntity
8
0-1
6
DOT
62
4
100
AcDbCircle
10
313.780000000000
20
337.820000000000
30
0.0
40
12.499999036141
100
AcDbArc
50
205.151397705078
51
-1.145782470703
0
ARC
5
85c
100
AcDbEntity
8
0-1
6
DOT
62
4
100
AcDbCircle
10
338.780000000000
20
337.820000000000
30
0.0
40
12.499999036141
100
AcDbArc
50
181.145736694336
51
1.145736694336
0
ARC
5
85d
100
AcDbEntity
8
0-1
6
DOT
62
4
100
AcDbCircle
10
363.770000000000
20
337.820000000000
30
0.0
40
12.499999036141
100
AcDbArc
50
178.854217529297
51
-1.145782470703
0
ARC
5
85e
100
AcDbEntity
8
0-1
6
DOT
62
4
100
AcDbCircle
10
388.770000000000
20
337.820000000000
30
0.0
40
12.499999036141
100
AcDbArc
50
181.145736694336
51
1.145736694336
0
ARC
5
85f
100
AcDbEntity
8
0-1
6
DOT
62
4
100
AcDbCircle
10
413.760000000000
20
337.820000000000
30
0.0
40
12.499999036141
100
AcDbArc
50
178.854217529297
51
-1.145782470703
0
ARC
5
860
100
AcDbEntity
8
0-1
6
DOT
62
4
100
AcDbCircle
10
438.760000000000
20
337.820000000000
30
0.0
40
12.499999036141
100
AcDbArc
50
181.145736694336
51
1.145736694336
0
ARC
5
861
100
AcDbEntity
8
0-1
6
DOT
62
4
100
AcDbCircle
10
402.690000000000
20
411.640000000000
30
0.0
40
12.499999036141
100
AcDbArc
50
358.854217529297
51
538.854217529297
0
ARC
5
862
100
AcDbEntity
8
0-1
6
DOT
62
4
100
AcDbCircle
10
427.680000000000
20
411.640000000000
30
0.0
40
12.499999036141
100
AcDbArc
50
1.145736694336
51
181.145736694336
0
ARC
5
863
100
AcDbEntity
8
0-1
6
DOT
62
4
100
AcDbCircle
10
452.680000000000
20
411.640000000000
30
0.0
40
12.499999036141
100
AcDbArc
50
358.854217529297
51
538.854217529297
0
ARC
5
864
100
AcDbEntity
8
0-1
6
DOT
62
4
100
AcDbCircle
10
477.670000000000
20
411.640000000000
30
0.0
40
12.499999036141
100
AcDbArc
50
1.145736694336
51
181.145736694336
0
ARC
5
865
100
AcDbEntity
8
0-1
6
DOT
62
4
100
AcDbCircle
10
463.750000000000
20
337.820000000000
30
0.0
40
12.499999036141
100
AcDbArc
50
178.854217529297
51
-1.145782470703
0
ARC
5
866
100
AcDbEntity
8
0-2
6
CONTINUOUS
62
7
100
AcDbCircle
10
738.840000000000
20
364.570000000000
30
0.0
40
31.999999514395
100
AcDbArc
50
10.564987182617
51
58.778991699219
0
ARC
5
867
100
AcDbEntity
8
0-2
6
CONTINUOUS
62
7
100
AcDbCircle
10
738.840000000000
20
364.570000000000
30
0.0
40
31.999999514395
100
AcDbArc
50
121.220993041992
51
169.434997558594
0
ARC
5
868
100
AcDbEntity
8
0-2
6
CONTINUOUS
62
7
100
AcDbCircle
10
754.390000000000
20
390.220000000000
30
0.0
40
1.999999969650
100
AcDbArc
50
58.778991699219
51
165.000000000000
0
ARC
5
869
100
AcDbEntity
8
0-2
6
CONTINUOUS
62
7
100
AcDbCircle
10
723.290000000000
20
390.220000000000
30
0.0
40
1.999999969650
100
AcDbArc
50
15.000000000000
51
121.220993041992
0
ARC
5
86a
100
AcDbEntity
8
0-2
6
CONTINUOUS
62
7
100
AcDbCircle
10
725.340000000000
20
368.460000000000
30
0.0
40
0.999999984825
100
AcDbArc
50
360.000000000000
51
455.000000000000
0
ARC
5
86b
100
AcDbEntity
8
0-2
6
CONTINUOUS
62
7
100
AcDbCircle
10
709.350000000000
20
370.070000000000
30
0.0
40
1.999999969650
100
AcDbArc
50
169.434997558594
51
275.000000000000
0
ARC
5
86c
100
AcDbEntity
8
0-2
6
CONTINUOUS
62
7
100
AcDbCircle
10
752.340000000000
20
368.460000000000
30
0.0
40
0.999999984825
100
AcDbArc
50
85.000000000000
51
180.000000000000
0
ARC
5
86d
100
AcDbEntity
8
0-2
6
CONTINUOUS
62
7
100
AcDbCircle
10
768.330000000000
20
370.070000000000
30
0.0
40
1.999999969650
100
AcDbArc
50
265.000000000000
51
370.564987182617
0
ARC
5
86e
100
AcDbEntity
8
0-2
6
CONTINUOUS
62
7
100
AcDbCircle
10
1038.840000000000
20
364.570000000000
30
0.0
40
31.999999514395
100
AcDbArc
50
10.564987182617
51
58.778991699219
0
ARC
5
86f
100
AcDbEntity
8
0-2
6
CONTINUOUS
62
7
100
AcDbCircle
10
1038.840000000000
20
364.570000000000
30
0.0
40
31.999999514395
100
AcDbArc
50
121.220993041992
51
169.434997558594
0
ARC
5
870
100
AcDbEntity
8
0-2
6
CONTINUOUS
62
7
100
AcDbCircle
10
1054.390000000000
20
390.220000000000
30
0.0
40
1.999999969650
100
AcDbArc
50
58.778991699219
51
165.000000000000
0
ARC
5
871
100
AcDbEntity
8
0-2
6
CONTINUOUS
62
7
100
AcDbCircle
10
1023.290000000000
20
390.220000000000
30
0.0
40
1.999999969650
100
AcDbArc
50
15.000000000000
51
121.220993041992
0
ARC
5
872
100
AcDbEntity
8
0-2
6
CONTINUOUS
62
7
100
AcDbCircle
10
1025.340000000000
20
368.460000000000
30
0.0
40
0.999999984825
100
AcDbArc
50
360.000000000000
51
455.000000000000
0
ARC
5
873
100
AcDbEntity
8
0-2
6
CONTINUOUS
62
7
100
AcDbCircle
10
1009.350000000000
20
370.070000000000
30
0.0
40
1.999999969650
100
AcDbArc
50
169.434997558594
51
275.000000000000
0
ARC
5
874
100
AcDbEntity
8
0-2
6
CONTINUOUS
62
7
100
AcDbCircle
10
1052.340000000000
20
368.460000000000
30
0.0
40
0.999999984825
100
AcDbArc
50
85.000000000000
51
180.000000000000
0
ARC
5
875
100
AcDbEntity
8
0-2
6
CONTINUOUS
62
7
100
AcDbCircle
10
1068.330000000000
20
370.070000000000
30
0.0
40
1.999999969650
100
AcDbArc
50
265.000000000000
51
370.564987182617
0
ARC
5
876
100
AcDbEntity
8
0-2
6
CONTINUOUS
62
7
100
AcDbCircle
10
1338.840000000000
20
364.570000000000
30
0.0
40
31.999999514395
100
AcDbArc
50
10.564987182617
51
58.778991699219
0
ARC
5
877
100
AcDbEntity
8
0-2
6
CONTINUOUS
62
7
100
AcDbCircle
10
1338.840000000000
20
364.570000000000
30
0.0
40
31.999999514395
100
AcDbArc
50
121.220993041992
51
169.434997558594
0
ARC
5
878
100
AcDbEntity
8
0-2
6
CONTINUOUS
62
7
100
AcDbCircle
10
1354.390000000000
20
390.220000000000
30
0.0
40
1.999999969650
100
AcDbArc
50
58.778991699219
51
165.000000000000
0
ARC
5
879
100
AcDbEntity
8
0-2
6
CONTINUOUS
62
7
100
AcDbCircle
10
1323.290000000000
20
390.220000000000
30
0.0
40
1.999999969650
100
AcDbArc
50
15.000000000000
51
121.220993041992
0
ARC
5
87a
100
AcDbEntity
8
0-2
6
CONTINUOUS
62
7
100
AcDbCircle
10
1325.340000000000
20
368.460000000000
30
0.0
40
0.999999984825
100
AcDbArc
50
360.000000000000
51
455.000000000000
0
ARC
5
87b
100
AcDbEntity
8
0-2
6
CONTINUOUS
62
7
100
AcDbCircle
10
1309.350000000000
20
370.070000000000
30
0.0
40
1.999999969650
100
AcDbArc
50
169.434997558594
51
275.000000000000
0
ARC
5
87c
100
AcDbEntity
8
0-2
6
CONTINUOUS
62
7
100
AcDbCircle
10
1352.340000000000
20
368.460000000000
30
0.0
40
0.999999984825
100
AcDbArc
50
85.000000000000
51
180.000000000000
0
ARC
5
87d
100
AcDbEntity
8
0-2
6
CONTINUOUS
62
7
100
AcDbCircle
10
1368.330000000000
20
370.070000000000
30
0.0
40
1.999999969650
100
AcDbArc
50
265.000000000000
51
370.564987182617
0
ARC
5
87e
100
AcDbEntity
8
0-2
6
CONTINUOUS
62
3
100
AcDbCircle
10
706.820000000000
20
367.430000000000
30
0.0
40
1.999999969650
100
AcDbArc
50
172.724990844727
51
263.257995605469
0
ARC
5
87f
100
AcDbEntity
8
0-2
6
CONTINUOUS
62
3
100
AcDbCircle
10
766.480000000000
20
363.120000000000
30
0.0
40
1.999999969650
100
AcDbArc
50
92.479995727539
51
243.434997558594
0
ARC
5
880
100
AcDbEntity
8
0-2
6
CONTINUOUS
62
3
100
AcDbCircle
10
732.580000000000
20
368.810000000000
30
0.0
40
27.766804099168
100
AcDbArc
50
94.125991821289
51
182.331985473633
0
ARC
5
881
100
AcDbEntity
8
0-2
6
CONTINUOUS
62
3
100
AcDbCircle
10
770.850000000000
20
367.430000000000
30
0.0
40
1.999999969650
100
AcDbArc
50
276.741989135742
51
367.274993896484
0
ARC
5
882
100
AcDbEntity
8
0-2
6
CONTINUOUS
62
3
100
AcDbCircle
10
745.090000000000
20
368.810000000000
30
0.0
40
27.766804099168
100
AcDbArc
50
357.667999267578
51
445.873992919922
0
ARC
5
883
100
AcDbEntity
8
0-2
6
CONTINUOUS
62
3
100
AcDbCircle
10
1011.200000000000
20
363.120000000000
30
0.0
40
1.999999969650
100
AcDbArc
50
296.564987182617
51
443.257995605469
0
ARC
5
884
100
AcDbEntity
8
0-2
6
CONTINUOUS
62
3
100
AcDbCircle
10
1035.170000000000
20
367.420000000000
30
0.0
40
29.334869873627
100
AcDbArc
50
96.732986450195
51
179.487991333008
0
ARC
5
885
100
AcDbEntity
8
0-2
6
CONTINUOUS
62
3
100
AcDbCircle
10
1066.480000000000
20
363.120000000000
30
0.0
40
1.999999969650
100
AcDbArc
50
96.741989135742
51
243.434997558594
0
ARC
5
886
100
AcDbEntity
8
0-2
6
CONTINUOUS
62
3
100
AcDbCircle
10
1007.980000000000
20
367.670000000000
30
0.0
40
2.143100061462
100
AcDbArc
50
179.467987060547
51
263.257995605469
0
ARC
5
887
100
AcDbEntity
8
0-2
6
CONTINUOUS
62
3
100
AcDbCircle
10
1042.500000000000
20
367.420000000000
30
0.0
40
29.334869873627
100
AcDbArc
50
0.511993408203
51
83.266998291016
0
ARC
5
888
100
AcDbEntity
8
0-2
6
CONTINUOUS
62
3
100
AcDbCircle
10
1069.700000000000
20
367.670000000000
30
0.0
40
2.143100061462
100
AcDbArc
50
276.741989135742
51
360.531997680664
0
ARC
5
889
100
AcDbEntity
8
0-2
6
CONTINUOUS
62
3
100
AcDbCircle
10
1332.580000000000
20
368.810000000000
30
0.0
40
25.766802581178
100
AcDbArc
50
92.064987182617
51
181.030990600586
0
ARC
5
88a
100
AcDbEntity
8
0-2
6
CONTINUOUS
62
3
100
AcDbCircle
10
1345.090000000000
20
368.810000000000
30
0.0
40
25.766802581178
100
AcDbArc
50
358.861999511719
51
447.934997558594
0
ARC
5
88b
100
AcDbEntity
8
0-2
6
CONTINUOUS
62
3
100
AcDbCircle
10
1310.250000000000
20
363.970000000000
30
0.0
40
3.220483753170
100
AcDbArc
50
305.215988159180
51
446.117996215820
0
ARC
5
88c
100
AcDbEntity
8
0-2
6
CONTINUOUS
62
3
100
AcDbCircle
10
1307.820000000000
20
368.360000000000
30
0.0
40
0.999999984825
100
AcDbArc
50
181.030990600586
51
266.117996215820
0
ARC
5
88d
100
AcDbEntity
8
0-2
6
CONTINUOUS
62
3
100
AcDbCircle
10
706.820000000000
20
367.430000000000
30
0.0
40
1.200000020498
100
AcDbArc
50
169.895996093750
51
262.424987792969
0
ARC
5
88e
100
AcDbEntity
8
0-2
6
CONTINUOUS
62
3
100
AcDbCircle
10
732.580000000000
20
368.810000000000
30
0.0
40
26.966801633964
100
AcDbArc
50
94.040985107422
51
182.491989135742
0
ARC
5
88f
100
AcDbEntity
8
0-2
6
CONTINUOUS
62
3
100
AcDbCircle
10
745.090000000000
20
368.810000000000
30
0.0
40
26.966801633964
100
AcDbArc
50
357.507995605469
51
445.958999633789
0
ARC
5
890
100
AcDbEntity
8
0-2
6
CONTINUOUS
62
3
100
AcDbCircle
10
770.850000000000
20
367.430000000000
30
0.0
40
1.200000020498
100
AcDbArc
50
277.574996948242
51
370.103988647461
0
ARC
5
891
100
AcDbEntity
8
0-2
6
CONTINUOUS
62
3
100
AcDbCircle
10
766.480000000000
20
363.120000000000
30
0.0
40
2.799999918801
100
AcDbArc
50
92.479995727539
51
242.092987060547
0
ARC
5
892
100
AcDbEntity
8
0-2
6
CONTINUOUS
62
3
100
AcDbCircle
10
1011.200000000000
20
363.120000000000
30
0.0
40
2.799999918801
100
AcDbArc
50
297.906997680664
51
443.257995605469
0
ARC
5
893
100
AcDbEntity
8
0-2
6
CONTINUOUS
62
3
100
AcDbCircle
10
1007.980000000000
20
367.670000000000
30
0.0
40
1.343100015540
100
AcDbArc
50
179.467987060547
51
263.257995605469
0
ARC
5
894
100
AcDbEntity
8
0-2
6
CONTINUOUS
62
3
100
AcDbCircle
10
1035.170000000000
20
367.420000000000
30
0.0
40
28.534870505103
100
AcDbArc
50
96.905990600586
51
179.467987060547
0
ARC
5
895
100
AcDbEntity
8
0-2
6
CONTINUOUS
62
3
100
AcDbCircle
10
1042.500000000000
20
367.420000000000
30
0.0
40
28.534870505103
100
AcDbArc
50
0.531997680664
51
83.093994140625
0
ARC
5
896
100
AcDbEntity
8
0-2
6
CONTINUOUS
62
3
100
AcDbCircle
10
1069.700000000000
20
367.670000000000
30
0.0
40
1.343100015540
100
AcDbArc
50
276.741989135742
51
360.531997680664
0
ARC
5
897
100
AcDbEntity
8
0-2
6
CONTINUOUS
62
3
100
AcDbCircle
10
1066.480000000000
20
363.120000000000
30
0.0
40
2.799999918801
100
AcDbArc
50
96.741989135742
51
242.092987060547
0
ARC
5
898
100
AcDbEntity
8
0-2
6
CONTINUOUS
62
3
100
AcDbCircle
10
1310.250000000000
20
363.970000000000
30
0.0
40
4.020484089407
100
AcDbArc
50
305.215988159180
51
446.117996215820
0
ARC
5
899
100
AcDbEntity
8
0-2
6
CONTINUOUS
62
3
100
AcDbCircle
10
1307.820000000000
20
368.360000000000
30
0.0
40
0.199999999384
100
AcDbArc
50
181.030990600586
51
266.117996215820
0
ARC
5
89a
100
AcDbEntity
8
0-2
6
CONTINUOUS
62
3
100
AcDbCircle
10
1332.580000000000
20
368.810000000000
30
0.0
40
24.966804760994
100
AcDbArc
50
92.227996826172
51
181.030990600586
0
ARC
5
89b
100
AcDbEntity
8
0-2
6
CONTINUOUS
62
3
100
AcDbCircle
10
1345.090000000000
20
368.810000000000
30
0.0
40
24.966804760994
100
AcDbArc
50
358.861999511719
51
447.771987915039
0
ARC
5
89c
100
AcDbEntity
8
0-2
6
CONTINUOUS
62
3
100
AcDbCircle
10
731.340000000000
20
392.070000000000
30
0.0
40
4.499999931712
100
AcDbArc
50
15.000000000000
51
99.613998413086
0
ARC
5
89d
100
AcDbEntity
8
0-2
6
CONTINUOUS
62
3
100
AcDbCircle
10
738.840000000000
20
393.780000000000
30
0.0
40
3.201169954503
100
AcDbArc
50
189.826995849609
51
350.172988891602
0
ARC
5
89e
100
AcDbEntity
8
0-2
6
CONTINUOUS
62
3
100
AcDbCircle
10
746.340000000000
20
392.070000000000
30
0.0
40
4.499999931712
100
AcDbArc
50
80.385986328125
51
165.000000000000
0
ARC
5
89f
100
AcDbEntity
8
0-2
6
CONTINUOUS
62
3
100
AcDbCircle
10
746.340000000000
20
392.070000000000
30
0.0
40
3.699999789018
100
AcDbArc
50
79.816986083984
51
169.473999023438
0
ARC
5
8a0
100
AcDbEntity
8
0-2
6
CONTINUOUS
62
3
100
AcDbCircle
10
738.840000000000
20
393.780000000000
30
0.0
40
4.001169710112
100
AcDbArc
50
190.700988769531
51
345.000991821289
0
ARC
5
8a1
100
AcDbEntity
8
0-2
6
CONTINUOUS
62
3
100
AcDbCircle
10
731.340000000000
20
392.070000000000
30
0.0
40
3.699999789018
100
AcDbArc
50
15.173995971680
51
100.182998657227
0
ARC
5
8a2
100
AcDbEntity
8
0-2
6
CONTINUOUS
62
3
100
AcDbCircle
10
1031.340000000000
20
392.070000000000
30
0.0
40
4.499999931712
100
AcDbArc
50
15.000000000000
51
84.941986083984
0
ARC
5
8a3
100
AcDbEntity
8
0-2
6
CONTINUOUS
62
3
100
AcDbCircle
10
1038.840000000000
20
393.780000000000
30
0.0
40
3.201169954503
100
AcDbArc
50
189.826995849609
51
350.172988891602
0
ARC
5
8a4
100
AcDbEntity
8
0-2
6
CONTINUOUS
62
3
100
AcDbCircle
10
1046.340000000000
20
392.070000000000
30
0.0
40
4.499999931712
100
AcDbArc
50
95.057998657227
51
165.000000000000
0
ARC
5
8a5
100
AcDbEntity
8
0-2
6
CONTINUOUS
62
3
100
AcDbCircle
10
1046.340000000000
20
392.070000000000
30
0.0
40
3.699999789018
100
AcDbArc
50
96.283996582031
51
169.473999023438
0
ARC
5
8a6
100
AcDbEntity
8
0-2
6
CONTINUOUS
62
3
100
AcDbCircle
10
1038.840000000000
20
393.780000000000
30
0.0
40
4.001169710112
100
AcDbArc
50
190.700988769531
51
345.000991821289
0
ARC
5
8a7
100
AcDbEntity
8
0-2
6
CONTINUOUS
62
3
100
AcDbCircle
10
1031.340000000000
20
392.070000000000
30
0.0
40
3.699999789018
100
AcDbArc
50
15.173995971680
51
83.715988159180
0
ARC
5
8a8
100
AcDbEntity
8
0-2
6
CONTINUOUS
62
3
100
AcDbCircle
10
1331.340000000000
20
392.070000000000
30
0.0
40
2.512265910939
100
AcDbArc
50
14.639999389648
51
82.724990844727
0
ARC
5
8a9
100
AcDbEntity
8
0-2
6
CONTINUOUS
62
3
100
AcDbCircle
10
1346.340000000000
20
392.070000000000
30
0.0
40
2.512265910939
100
AcDbArc
50
97.274993896484
51
165.359985351563
0
ARC
5
8aa
100
AcDbEntity
8
0-2
6
CONTINUOUS
62
3
100
AcDbCircle
10
1338.840000000000
20
393.780000000000
30
0.0
40
5.184863582245
100
AcDbArc
50
191.982986450195
51
348.016998291016
0
ARC
5
8ab
100
AcDbEntity
8
0-2
6
CONTINUOUS
62
3
100
AcDbCircle
10
1346.340000000000
20
392.070000000000
30
0.0
40
1.712265961787
100
AcDbArc
50
99.270996093750
51
169.477996826172
0
ARC
5
8ac
100
AcDbEntity
8
0-2
6
CONTINUOUS
62
3
100
AcDbCircle
10
1338.840000000000
20
393.780000000000
30
0.0
40
5.984864112024
100
AcDbArc
50
192.183990478516
51
346.483993530273
0
ARC
5
8ad
100
AcDbEntity
8
0-2
6
CONTINUOUS
62
3
100
AcDbCircle
10
1331.340000000000
20
392.070000000000
30
0.0
40
1.712265961787
100
AcDbArc
50
15.177993774414
51
80.728988647461
0
ARC
5
8ae
100
AcDbEntity
8
0-2
6
CONTINUOUS
62
3
100
AcDbCircle
10
732.580000000000
20
368.810000000000
30
0.0
40
25.766802581178
100
AcDbArc
50
92.064987182617
51
181.030990600586
0
ARC
5
8af
100
AcDbEntity
8
0-2
6
CONTINUOUS
62
3
100
AcDbCircle
10
745.090000000000
20
368.810000000000
30
0.0
40
25.766802581178
100
AcDbArc
50
358.861999511719
51
447.934997558594
0
ARC
5
8b0
100
AcDbEntity
8
0-2
6
CONTINUOUS
62
3
100
AcDbCircle
10
710.250000000000
20
363.970000000000
30
0.0
40
3.220483753170
100
AcDbArc
50
305.215988159180
51
446.117996215820
0
ARC
5
8b1
100
AcDbEntity
8
0-2
6
CONTINUOUS
62
3
100
AcDbCircle
10
707.820000000000
20
368.360000000000
30
0.0
40
0.999999984825
100
AcDbArc
50
181.030990600586
51
266.117996215820
0
ARC
5
8b2
100
AcDbEntity
8
0-2
6
CONTINUOUS
62
3
100
AcDbCircle
10
710.250000000000
20
363.970000000000
30
0.0
40
4.020484089407
100
AcDbArc
50
305.215988159180
51
446.117996215820
0
ARC
5
8b3
100
AcDbEntity
8
0-2
6
CONTINUOUS
62
3
100
AcDbCircle
10
707.820000000000
20
368.360000000000
30
0.0
40
0.199999999384
100
AcDbArc
50
181.030990600586
51
266.117996215820
0
ARC
5
8b4
100
AcDbEntity
8
0-2
6
CONTINUOUS
62
3
100
AcDbCircle
10
732.580000000000
20
368.810000000000
30
0.0
40
24.966804760994
100
AcDbArc
50
92.227996826172
51
181.030990600586
0
ARC
5
8b5
100
AcDbEntity
8
0-2
6
CONTINUOUS
62
3
100
AcDbCircle
10
745.090000000000
20
368.810000000000
30
0.0
40
24.966804760994
100
AcDbArc
50
358.861999511719
51
447.771987915039
0
ARC
5
8b6
100
AcDbEntity
8
0-2
6
CONTINUOUS
62
3
100
AcDbCircle
10
731.340000000000
20
392.070000000000
30
0.0
40
2.512265910939
100
AcDbArc
50
14.639999389648
51
82.724990844727
0
ARC
5
8b7
100
AcDbEntity
8
0-2
6
CONTINUOUS
62
3
100
AcDbCircle
10
746.340000000000
20
392.070000000000
30
0.0
40
2.512265910939
100
AcDbArc
50
97.274993896484
51
165.359985351563
0
ARC
5
8b8
100
AcDbEntity
8
0-2
6
CONTINUOUS
62
3
100
AcDbCircle
10
738.840000000000
20
393.780000000000
30
0.0
40
5.184863582245
100
AcDbArc
50
191.982986450195
51
348.016998291016
0
ARC
5
8b9
100
AcDbEntity
8
0-2
6
CONTINUOUS
62
3
100
AcDbCircle
10
746.340000000000
20
392.070000000000
30
0.0
40
1.712265961787
100
AcDbArc
50
99.270996093750
51
169.477996826172
0
ARC
5
8ba
100
AcDbEntity
8
0-2
6
CONTINUOUS
62
3
100
AcDbCircle
10
738.840000000000
20
393.780000000000
30
0.0
40
5.984864112024
100
AcDbArc
50
192.183990478516
51
346.483993530273
0
ARC
5
8bb
100
AcDbEntity
8
0-2
6
CONTINUOUS
62
3
100
AcDbCircle
10
731.340000000000
20
392.070000000000
30
0.0
40
1.712265961787
100
AcDbArc
50
15.177993774414
51
80.728988647461
0
ARC
5
8bc
100
AcDbEntity
8
0-2
6
CONTINUOUS
62
3
100
AcDbCircle
10
1306.820000000000
20
367.430000000000
30
0.0
40
1.999999969650
100
AcDbArc
50
172.724990844727
51
263.257995605469
0
ARC
5
8bd
100
AcDbEntity
8
0-2
6
CONTINUOUS
62
3
100
AcDbCircle
10
1366.480000000000
20
363.120000000000
30
0.0
40
1.999999969650
100
AcDbArc
50
92.479995727539
51
243.434997558594
0
ARC
5
8be
100
AcDbEntity
8
0-2
6
CONTINUOUS
62
3
100
AcDbCircle
10
1332.580000000000
20
368.810000000000
30
0.0
40
27.766804099168
100
AcDbArc
50
94.125991821289
51
182.331985473633
0
ARC
5
8bf
100
AcDbEntity
8
0-2
6
CONTINUOUS
62
3
100
AcDbCircle
10
1370.850000000000
20
367.430000000000
30
0.0
40
1.999999969650
100
AcDbArc
50
276.741989135742
51
367.274993896484
0
ARC
5
8c0
100
AcDbEntity
8
0-2
6
CONTINUOUS
62
3
100
AcDbCircle
10
1345.090000000000
20
368.810000000000
30
0.0
40
27.766804099168
100
AcDbArc
50
357.667999267578
51
445.873992919922
0
ARC
5
8c1
100
AcDbEntity
8
0-2
6
CONTINUOUS
62
3
100
AcDbCircle
10
1306.820000000000
20
367.430000000000
30
0.0
40
1.200000020498
100
AcDbArc
50
169.895996093750
51
262.424987792969
0
ARC
5
8c2
100
AcDbEntity
8
0-2
6
CONTINUOUS
62
3
100
AcDbCircle
10
1332.580000000000
20
368.810000000000
30
0.0
40
26.966801633964
100
AcDbArc
50
94.040985107422
51
182.491989135742
0
ARC
5
8c3
100
AcDbEntity
8
0-2
6
CONTINUOUS
62
3
100
AcDbCircle
10
1345.090000000000
20
368.810000000000
30
0.0
40
26.966801633964
100
AcDbArc
50
357.507995605469
51
445.958999633789
0
ARC
5
8c4
100
AcDbEntity
8
0-2
6
CONTINUOUS
62
3
100
AcDbCircle
10
1370.850000000000
20
367.430000000000
30
0.0
40
1.200000020498
100
AcDbArc
50
277.574996948242
51
370.103988647461
0
ARC
5
8c5
100
AcDbEntity
8
0-2
6
CONTINUOUS
62
3
100
AcDbCircle
10
1366.480000000000
20
363.120000000000
30
0.0
40
2.799999918801
100
AcDbArc
50
92.479995727539
51
242.092987060547
0
ARC
5
8c6
100
AcDbEntity
8
0-2
6
CONTINUOUS
62
3
100
AcDbCircle
10
1331.340000000000
20
392.070000000000
30
0.0
40
4.499999931712
100
AcDbArc
50
15.000000000000
51
99.613998413086
0
ARC
5
8c7
100
AcDbEntity
8
0-2
6
CONTINUOUS
62
3
100
AcDbCircle
10
1338.840000000000
20
393.780000000000
30
0.0
40
3.201169954503
100
AcDbArc
50
189.826995849609
51
350.172988891602
0
ARC
5
8c8
100
AcDbEntity
8
0-2
6
CONTINUOUS
62
3
100
AcDbCircle
10
1346.340000000000
20
392.070000000000
30
0.0
40
4.499999931712
100
AcDbArc
50
80.385986328125
51
165.000000000000
0
ARC
5
8c9
100
AcDbEntity
8
0-2
6
CONTINUOUS
62
3
100
AcDbCircle
10
1346.340000000000
20
392.070000000000
30
0.0
40
3.699999789018
100
AcDbArc
50
79.816986083984
51
169.473999023438
0
ARC
5
8ca
100
AcDbEntity
8
0-2
6
CONTINUOUS
62
3
100
AcDbCircle
10
1338.840000000000
20
393.780000000000
30
0.0
40
4.001169710112
100
AcDbArc
50
190.700988769531
51
345.000991821289
0
ARC
5
8cb
100
AcDbEntity
8
0-2
6
CONTINUOUS
62
3
100
AcDbCircle
10
1331.340000000000
20
392.070000000000
30
0.0
40
3.699999789018
100
AcDbArc
50
15.173995971680
51
100.182998657227
0
ARC
5
8cc
100
AcDbEntity
8
0-2
6
CONTINUOUS
62
3
100
AcDbCircle
10
706.820000000000
20
474.430000000000
30
0.0
40
1.999999969650
100
AcDbArc
50
172.724990844727
51
263.257995605469
0
ARC
5
8cd
100
AcDbEntity
8
0-2
6
CONTINUOUS
62
3
100
AcDbCircle
10
766.480000000000
20
470.120000000000
30
0.0
40
1.999999969650
100
AcDbArc
50
92.479995727539
51
243.434997558594
0
ARC
5
8ce
100
AcDbEntity
8
0-2
6
CONTINUOUS
62
3
100
AcDbCircle
10
732.580000000000
20
475.810000000000
30
0.0
40
27.766804099168
100
AcDbArc
50
94.125991821289
51
182.331985473633
0
ARC
5
8cf
100
AcDbEntity
8
0-2
6
CONTINUOUS
62
3
100
AcDbCircle
10
770.850000000000
20
474.430000000000
30
0.0
40
1.999999969650
100
AcDbArc
50
276.741989135742
51
367.274993896484
0
ARC
5
8d0
100
AcDbEntity
8
0-2
6
CONTINUOUS
62
3
100
AcDbCircle
10
745.090000000000
20
475.810000000000
30
0.0
40
27.766804099168
100
AcDbArc
50
357.667999267578
51
445.873992919922
0
ARC
5
8d1
100
AcDbEntity
8
0-2
6
CONTINUOUS
62
3
100
AcDbCircle
10
1011.200000000000
20
470.120000000000
30
0.0
40
1.999999969650
100
AcDbArc
50
296.564987182617
51
443.257995605469
0
ARC
5
8d2
100
AcDbEntity
8
0-2
6
CONTINUOUS
62
3
100
AcDbCircle
10
1035.170000000000
20
474.420000000000
30
0.0
40
29.334869873627
100
AcDbArc
50
96.732986450195
51
179.487991333008
0
ARC
5
8d3
100
AcDbEntity
8
0-2
6
CONTINUOUS
62
3
100
AcDbCircle
10
1066.480000000000
20
470.120000000000
30
0.0
40
1.999999969650
100
AcDbArc
50
96.741989135742
51
243.434997558594
0
ARC
5
8d4
100
AcDbEntity
8
0-2
6
CONTINUOUS
62
3
100
AcDbCircle
10
1007.980000000000
20
474.670000000000
30
0.0
40
2.143100061462
100
AcDbArc
50
179.467987060547
51
263.257995605469
0
ARC
5
8d5
100
AcDbEntity
8
0-2
6
CONTINUOUS
62
3
100
AcDbCircle
10
1042.500000000000
20
474.420000000000
30
0.0
40
29.334869873627
100
AcDbArc
50
0.511993408203
51
83.266998291016
0
ARC
5
8d6
100
AcDbEntity
8
0-2
6
CONTINUOUS
62
3
100
AcDbCircle
10
1069.700000000000
20
474.670000000000
30
0.0
40
2.143100061462
100
AcDbArc
50
276.741989135742
51
360.531997680664
0
ARC
5
8d7
100
AcDbEntity
8
0-2
6
CONTINUOUS
62
3
100
AcDbCircle
10
1332.580000000000
20
475.810000000000
30
0.0
40
25.766802581178
100
AcDbArc
50
92.064987182617
51
181.030990600586
0
ARC
5
8d8
100
AcDbEntity
8
0-2
6
CONTINUOUS
62
3
100
AcDbCircle
10
1345.090000000000
20
475.810000000000
30
0.0
40
25.766802581178
100
AcDbArc
50
68.415985107422
51
87.934997558594
0
ARC
5
8d9
100
AcDbEntity
8
0-2
6
CONTINUOUS
62
3
100
AcDbCircle
10
1310.250000000000
20
470.970000000000
30
0.0
40
3.220483753170
100
AcDbArc
50
305.215988159180
51
446.117996215820
0
ARC
5
8da
100
AcDbEntity
8
0-2
6
CONTINUOUS
62
3
100
AcDbCircle
10
1307.820000000000
20
475.360000000000
30
0.0
40
0.999999984825
100
AcDbArc
50
181.030990600586
51
266.117996215820
0
ARC
5
8db
100
AcDbEntity
8
0-2
6
CONTINUOUS
62
3
100
AcDbCircle
10
706.820000000000
20
474.430000000000
30
0.0
40
1.200000020498
100
AcDbArc
50
169.895996093750
51
262.424987792969
0
ARC
5
8dc
100
AcDbEntity
8
0-2
6
CONTINUOUS
62
3
100
AcDbCircle
10
732.580000000000
20
475.810000000000
30
0.0
40
26.966801633964
100
AcDbArc
50
94.040985107422
51
182.491989135742
0
ARC
5
8dd
100
AcDbEntity
8
0-2
6
CONTINUOUS
62
3
100
AcDbCircle
10
745.090000000000
20
475.810000000000
30
0.0
40
26.966801633964
100
AcDbArc
50
357.507995605469
51
445.958999633789
0
ARC
5
8de
100
AcDbEntity
8
0-2
6
CONTINUOUS
62
3
100
AcDbCircle
10
770.850000000000
20
474.430000000000
30
0.0
40
1.200000020498
100
AcDbArc
50
277.574996948242
51
370.103988647461
0
ARC
5
8df
100
AcDbEntity
8
0-2
6
CONTINUOUS
62
3
100
AcDbCircle
10
766.480000000000
20
470.120000000000
30
0.0
40
2.799999918801
100
AcDbArc
50
92.479995727539
51
242.092987060547
0
ARC
5
8e0
100
AcDbEntity
8
0-2
6
CONTINUOUS
62
3
100
AcDbCircle
10
1011.200000000000
20
470.120000000000
30
0.0
40
2.799999918801
100
AcDbArc
50
297.906997680664
51
443.257995605469
0
ARC
5
8e1
100
AcDbEntity
8
0-2
6
CONTINUOUS
62
3
100
AcDbCircle
10
1007.980000000000
20
474.670000000000
30
0.0
40
1.343100015540
100
AcDbArc
50
179.467987060547
51
263.257995605469
0
ARC
5
8e2
100
AcDbEntity
8
0-2
6
CONTINUOUS
62
3
100
AcDbCircle
10
1035.170000000000
20
474.420000000000
30
0.0
40
28.534870505103
100
AcDbArc
50
96.905990600586
51
179.467987060547
0
ARC
5
8e3
100
AcDbEntity
8
0-2
6
CONTINUOUS
62
3
100
AcDbCircle
10
1042.500000000000
20
474.420000000000
30
0.0
40
28.534870505103
100
AcDbArc
50
0.531997680664
51
83.093994140625
0
ARC
5
8e4
100
AcDbEntity
8
0-2
6
CONTINUOUS
62
3
100
AcDbCircle
10
1069.700000000000
20
474.670000000000
30
0.0
40
1.343100015540
100
AcDbArc
50
276.741989135742
51
360.531997680664
0
ARC
5
8e5
100
AcDbEntity
8
0-2
6
CONTINUOUS
62
3
100
AcDbCircle
10
1066.480000000000
20
470.120000000000
30
0.0
40
2.799999918801
100
AcDbArc
50
96.741989135742
51
242.092987060547
0
ARC
5
8e6
100
AcDbEntity
8
0-2
6
CONTINUOUS
62
3
100
AcDbCircle
10
1310.250000000000
20
470.970000000000
30
0.0
40
4.020484089407
100
AcDbArc
50
305.215988159180
51
446.117996215820
0
ARC
5
8e7
100
AcDbEntity
8
0-2
6
CONTINUOUS
62
3
100
AcDbCircle
10
1307.820000000000
20
475.360000000000
30
0.0
40
0.199999999384
100
AcDbArc
50
181.030990600586
51
266.117996215820
0
ARC
5
8e8
100
AcDbEntity
8
0-2
6
CONTINUOUS
62
3
100
AcDbCircle
10
1332.580000000000
20
475.810000000000
30
0.0
40
24.966804760994
100
AcDbArc
50
92.227996826172
51
181.030990600586
0
ARC
5
8e9
100
AcDbEntity
8
0-2
6
CONTINUOUS
62
3
100
AcDbCircle
10
1345.090000000000
20
475.810000000000
30
0.0
40
24.966804760994
100
AcDbArc
50
68.415985107422
51
87.771987915039
0
ARC
5
8ea
100
AcDbEntity
8
0-2
6
CONTINUOUS
62
3
100
AcDbCircle
10
731.340000000000
20
499.070000000000
30
0.0
40
4.499999931712
100
AcDbArc
50
15.000000000000
51
99.613998413086
0
ARC
5
8eb
100
AcDbEntity
8
0-2
6
CONTINUOUS
62
3
100
AcDbCircle
10
738.840000000000
20
500.780000000000
30
0.0
40
3.201169954503
100
AcDbArc
50
189.826995849609
51
350.172988891602
0
ARC
5
8ec
100
AcDbEntity
8
0-2
6
CONTINUOUS
62
3
100
AcDbCircle
10
746.340000000000
20
499.070000000000
30
0.0
40
4.499999931712
100
AcDbArc
50
80.385986328125
51
165.000000000000
0
ARC
5
8ed
100
AcDbEntity
8
0-2
6
CONTINUOUS
62
3
100
AcDbCircle
10
746.340000000000
20
499.070000000000
30
0.0
40
3.699999789018
100
AcDbArc
50
79.816986083984
51
169.473999023438
0
ARC
5
8ee
100
AcDbEntity
8
0-2
6
CONTINUOUS
62
3
100
AcDbCircle
10
738.840000000000
20
500.780000000000
30
0.0
40
4.001169710112
100
AcDbArc
50
190.700988769531
51
345.000991821289
0
ARC
5
8ef
100
AcDbEntity
8
0-2
6
CONTINUOUS
62
3
100
AcDbCircle
10
731.340000000000
20
499.070000000000
30
0.0
40
3.699999789018
100
AcDbArc
50
15.173995971680
51
100.182998657227
0
ARC
5
8f0
100
AcDbEntity
8
0-2
6
CONTINUOUS
62
3
100
AcDbCircle
10
1031.340000000000
20
499.070000000000
30
0.0
40
4.499999931712
100
AcDbArc
50
15.000000000000
51
84.941986083984
0
ARC
5
8f1
100
AcDbEntity
8
0-2
6
CONTINUOUS
62
3
100
AcDbCircle
10
1038.840000000000
20
500.780000000000
30
0.0
40
3.201169954503
100
AcDbArc
50
189.826995849609
51
350.172988891602
0
ARC
5
8f2
100
AcDbEntity
8
0-2
6
CONTINUOUS
62
3
100
AcDbCircle
10
1046.340000000000
20
499.070000000000
30
0.0
40
4.499999931712
100
AcDbArc
50
95.057998657227
51
165.000000000000
0
ARC
5
8f3
100
AcDbEntity
8
0-2
6
CONTINUOUS
62
3
100
AcDbCircle
10
1046.340000000000
20
499.070000000000
30
0.0
40
3.699999789018
100
AcDbArc
50
96.283996582031
51
169.473999023438
0
ARC
5
8f4
100
AcDbEntity
8
0-2
6
CONTINUOUS
62
3
100
AcDbCircle
10
1038.840000000000
20
500.780000000000
30
0.0
40
4.001169710112
100
AcDbArc
50
190.700988769531
51
345.000991821289
0
ARC
5
8f5
100
AcDbEntity
8
0-2
6
CONTINUOUS
62
3
100
AcDbCircle
10
1031.340000000000
20
499.070000000000
30
0.0
40
3.699999789018
100
AcDbArc
50
15.173995971680
51
83.715988159180
0
ARC
5
8f6
100
AcDbEntity
8
0-2
6
CONTINUOUS
62
3
100
AcDbCircle
10
1331.340000000000
20
499.070000000000
30
0.0
40
2.512265910939
100
AcDbArc
50
14.639999389648
51
82.724990844727
0
ARC
5
8f7
100
AcDbEntity
8
0-2
6
CONTINUOUS
62
3
100
AcDbCircle
10
1346.340000000000
20
499.070000000000
30
0.0
40
2.512265910939
100
AcDbArc
50
97.274993896484
51
165.359985351563
0
ARC
5
8f8
100
AcDbEntity
8
0-2
6
CONTINUOUS
62
3
100
AcDbCircle
10
1338.840000000000
20
500.780000000000
30
0.0
40
5.184863582245
100
AcDbArc
50
191.982986450195
51
348.016998291016
0
ARC
5
8f9
100
AcDbEntity
8
0-2
6
CONTINUOUS
62
3
100
AcDbCircle
10
1346.340000000000
20
499.070000000000
30
0.0
40
1.712265961787
100
AcDbArc
50
99.270996093750
51
169.477996826172
0
ARC
5
8fa
100
AcDbEntity
8
0-2
6
CONTINUOUS
62
3
100
AcDbCircle
10
1338.840000000000
20
500.780000000000
30
0.0
40
5.984864112024
100
AcDbArc
50
192.183990478516
51
346.483993530273
0
ARC
5
8fb
100
AcDbEntity
8
0-2
6
CONTINUOUS
62
3
100
AcDbCircle
10
1331.340000000000
20
499.070000000000
30
0.0
40
1.712265961787
100
AcDbArc
50
15.177993774414
51
80.728988647461
0
ARC
5
8fc
100
AcDbEntity
8
0-2
6
CONTINUOUS
62
3
100
AcDbCircle
10
732.580000000000
20
475.810000000000
30
0.0
40
25.766802581178
100
AcDbArc
50
92.064987182617
51
181.030990600586
0
ARC
5
8fd
100
AcDbEntity
8
0-2
6
CONTINUOUS
62
3
100
AcDbCircle
10
745.090000000000
20
475.810000000000
30
0.0
40
25.766802581178
100
AcDbArc
50
358.861999511719
51
447.934997558594
0
ARC
5
8fe
100
AcDbEntity
8
0-2
6
CONTINUOUS
62
3
100
AcDbCircle
10
710.250000000000
20
470.970000000000
30
0.0
40
3.220483753170
100
AcDbArc
50
305.215988159180
51
446.117996215820
0
ARC
5
8ff
100
AcDbEntity
8
0-2
6
CONTINUOUS
62
3
100
AcDbCircle
10
707.820000000000
20
475.360000000000
30
0.0
40
0.999999984825
100
AcDbArc
50
181.030990600586
51
266.117996215820
0
ARC
5
900
100
AcDbEntity
8
0-2
6
CONTINUOUS
62
3
100
AcDbCircle
10
710.250000000000
20
470.970000000000
30
0.0
40
4.020484089407
100
AcDbArc
50
305.215988159180
51
446.117996215820
0
ARC
5
901
100
AcDbEntity
8
0-2
6
CONTINUOUS
62
3
100
AcDbCircle
10
707.820000000000
20
475.360000000000
30
0.0
40
0.199999999384
100
AcDbArc
50
181.030990600586
51
266.117996215820
0
ARC
5
902
100
AcDbEntity
8
0-2
6
CONTINUOUS
62
3
100
AcDbCircle
10
732.580000000000
20
475.810000000000
30
0.0
40
24.966804760994
100
AcDbArc
50
92.227996826172
51
181.030990600586
0
ARC
5
903
100
AcDbEntity
8
0-2
6
CONTINUOUS
62
3
100
AcDbCircle
10
745.090000000000
20
475.810000000000
30
0.0
40
24.966804760994
100
AcDbArc
50
358.861999511719
51
447.771987915039
0
ARC
5
904
100
AcDbEntity
8
0-2
6
CONTINUOUS
62
3
100
AcDbCircle
10
731.340000000000
20
499.070000000000
30
0.0
40
2.512265910939
100
AcDbArc
50
14.639999389648
51
82.724990844727
0
ARC
5
905
100
AcDbEntity
8
0-2
6
CONTINUOUS
62
3
100
AcDbCircle
10
746.340000000000
20
499.070000000000
30
0.0
40
2.512265910939
100
AcDbArc
50
97.274993896484
51
165.359985351563
0
ARC
5
906
100
AcDbEntity
8
0-2
6
CONTINUOUS
62
3
100
AcDbCircle
10
738.840000000000
20
500.780000000000
30
0.0
40
5.184863582245
100
AcDbArc
50
191.982986450195
51
348.016998291016
0
ARC
5
907
100
AcDbEntity
8
0-2
6
CONTINUOUS
62
3
100
AcDbCircle
10
746.340000000000
20
499.070000000000
30
0.0
40
1.712265961787
100
AcDbArc
50
99.270996093750
51
169.477996826172
0
ARC
5
908
100
AcDbEntity
8
0-2
6
CONTINUOUS
62
3
100
AcDbCircle
10
738.840000000000
20
500.780000000000
30
0.0
40
5.984864112024
100
AcDbArc
50
192.183990478516
51
346.483993530273
0
ARC
5
909
100
AcDbEntity
8
0-2
6
CONTINUOUS
62
3
100
AcDbCircle
10
731.340000000000
20
499.070000000000
30
0.0
40
1.712265961787
100
AcDbArc
50
15.177993774414
51
80.728988647461
0
ARC
5
90a
100
AcDbEntity
8
0-2
6
CONTINUOUS
62
3
100
AcDbCircle
10
1306.820000000000
20
474.430000000000
30
0.0
40
1.999999969650
100
AcDbArc
50
172.724990844727
51
263.257995605469
0
ARC
5
90b
100
AcDbEntity
8
0-2
6
CONTINUOUS
62
3
100
AcDbCircle
10
1366.480000000000
20
470.120000000000
30
0.0
40
1.999999969650
100
AcDbArc
50
92.479995727539
51
243.434997558594
0
ARC
5
90c
100
AcDbEntity
8
0-2
6
CONTINUOUS
62
3
100
AcDbCircle
10
1332.580000000000
20
475.810000000000
30
0.0
40
27.766804099168
100
AcDbArc
50
94.125991821289
51
182.331985473633
0
ARC
5
90d
100
AcDbEntity
8
0-2
6
CONTINUOUS
62
3
100
AcDbCircle
10
1370.850000000000
20
474.430000000000
30
0.0
40
1.999999969650
100
AcDbArc
50
276.741989135742
51
367.274993896484
0
ARC
5
90e
100
AcDbEntity
8
0-2
6
CONTINUOUS
62
3
100
AcDbCircle
10
1345.090000000000
20
475.810000000000
30
0.0
40
27.766804099168
100
AcDbArc
50
357.667999267578
51
445.873992919922
0
ARC
5
90f
100
AcDbEntity
8
0-2
6
CONTINUOUS
62
3
100
AcDbCircle
10
1306.820000000000
20
474.430000000000
30
0.0
40
1.200000020498
100
AcDbArc
50
169.895996093750
51
262.424987792969
0
ARC
5
910
100
AcDbEntity
8
0-2
6
CONTINUOUS
62
3
100
AcDbCircle
10
1332.580000000000
20
475.810000000000
30
0.0
40
26.966801633964
100
AcDbArc
50
94.040985107422
51
182.491989135742
0
ARC
5
911
100
AcDbEntity
8
0-2
6
CONTINUOUS
62
3
100
AcDbCircle
10
1345.090000000000
20
475.810000000000
30
0.0
40
26.966801633964
100
AcDbArc
50
357.507995605469
51
445.958999633789
0
ARC
5
912
100
AcDbEntity
8
0-2
6
CONTINUOUS
62
3
100
AcDbCircle
10
1370.850000000000
20
474.430000000000
30
0.0
40
1.200000020498
100
AcDbArc
50
277.574996948242
51
370.103988647461
0
ARC
5
913
100
AcDbEntity
8
0-2
6
CONTINUOUS
62
3
100
AcDbCircle
10
1366.480000000000
20
470.120000000000
30
0.0
40
2.799999918801
100
AcDbArc
50
92.479995727539
51
242.092987060547
0
ARC
5
914
100
AcDbEntity
8
0-2
6
CONTINUOUS
62
3
100
AcDbCircle
10
1331.340000000000
20
499.070000000000
30
0.0
40
4.499999931712
100
AcDbArc
50
15.000000000000
51
99.613998413086
0
ARC
5
915
100
AcDbEntity
8
0-2
6
CONTINUOUS
62
3
100
AcDbCircle
10
1338.840000000000
20
500.780000000000
30
0.0
40
3.201169954503
100
AcDbArc
50
189.826995849609
51
350.172988891602
0
ARC
5
916
100
AcDbEntity
8
0-2
6
CONTINUOUS
62
3
100
AcDbCircle
10
1346.340000000000
20
499.070000000000
30
0.0
40
4.499999931712
100
AcDbArc
50
80.385986328125
51
165.000000000000
0
ARC
5
917
100
AcDbEntity
8
0-2
6
CONTINUOUS
62
3
100
AcDbCircle
10
1346.340000000000
20
499.070000000000
30
0.0
40
3.699999789018
100
AcDbArc
50
79.816986083984
51
169.473999023438
0
ARC
5
918
100
AcDbEntity
8
0-2
6
CONTINUOUS
62
3
100
AcDbCircle
10
1338.840000000000
20
500.780000000000
30
0.0
40
4.001169710112
100
AcDbArc
50
190.700988769531
51
345.000991821289
0
ARC
5
919
100
AcDbEntity
8
0-2
6
CONTINUOUS
62
3
100
AcDbCircle
10
1331.340000000000
20
499.070000000000
30
0.0
40
3.699999789018
100
AcDbArc
50
15.173995971680
51
100.182998657227
0
ARC
5
91a
100
AcDbEntity
8
0-2
6
DOT
62
4
100
AcDbCircle
10
1188.840000000000
20
331.640000000000
30
0.0
40
10.776896436769
100
AcDbArc
50
171.532989501953
51
368.466995239258
0
ARC
5
91b
100
AcDbEntity
8
0-2
6
DOT
62
4
100
AcDbCircle
10
1201.340000000000
20
405.990000000000
30
0.0
40
10.776896436769
100
AcDbArc
50
351.532989501953
51
548.466995239258
0
ARC
5
91c
100
AcDbEntity
8
0-2
6
DOT
62
4
100
AcDbCircle
10
1226.340000000000
20
405.990000000000
30
0.0
40
10.776896436769
100
AcDbArc
50
351.532989501953
51
548.466995239258
0
ARC
5
91d
100
AcDbEntity
8
0-2
6
DOT
62
4
100
AcDbCircle
10
1213.840000000000
20
331.640000000000
30
0.0
40
10.776896436769
100
AcDbArc
50
171.532989501953
51
368.466995239258
0
ARC
5
91e
100
AcDbEntity
8
0-2
6
DOT
62
4
100
AcDbCircle
10
1251.340000000000
20
405.990000000000
30
0.0
40
10.776896436769
100
AcDbArc
50
351.532989501953
51
548.466995239258
0
ARC
5
91f
100
AcDbEntity
8
0-2
6
DOT
62
4
100
AcDbCircle
10
1238.840000000000
20
331.640000000000
30
0.0
40
10.776896436769
100
AcDbArc
50
171.532989501953
51
368.466995239258
0
ARC
5
920
100
AcDbEntity
8
0-2
6
DOT
62
4
100
AcDbCircle
10
1276.340000000000
20
405.990000000000
30
0.0
40
10.776896436769
100
AcDbArc
50
351.532989501953
51
548.466995239258
0
ARC
5
921
100
AcDbEntity
8
0-2
6
DOT
62
4
100
AcDbCircle
10
1263.840000000000
20
331.640000000000
30
0.0
40
10.776896436769
100
AcDbArc
50
171.532989501953
51
368.466995239258
0
ARC
5
922
100
AcDbEntity
8
0-2
6
DOT
62
4
100
AcDbCircle
10
1291.950000000000
20
360.790000000000
30
0.0
40
9.561791005516
100
AcDbArc
50
171.532989501953
51
368.546997070313
0
ARC
5
923
100
AcDbEntity
8
0-2
6
DOT
62
4
100
AcDbCircle
10
1300.350000000000
20
432.820000000000
30
0.0
40
11.278767597979
100
AcDbArc
50
32.766998291016
51
192.131988525391
0
ARC
5
924
100
AcDbEntity
8
0-2
6
DOT
62
4
100
AcDbCircle
10
1163.840000000000
20
331.640000000000
30
0.0
40
10.776896436769
100
AcDbArc
50
171.532989501953
51
368.466995239258
0
ARC
5
925
100
AcDbEntity
8
0-2
6
DOT
62
4
100
AcDbCircle
10
1176.340000000000
20
405.990000000000
30
0.0
40
10.776896436769
100
AcDbArc
50
351.532989501953
51
548.466995239258
0
ARC
5
926
100
AcDbEntity
8
0-2
6
DOT
62
4
100
AcDbCircle
10
1138.840000000000
20
331.640000000000
30
0.0
40
10.776896436769
100
AcDbArc
50
171.532989501953
51
368.466995239258
0
ARC
5
927
100
AcDbEntity
8
0-2
6
DOT
62
4
100
AcDbCircle
10
1151.340000000000
20
405.990000000000
30
0.0
40
10.776896436769
100
AcDbArc
50
351.532989501953
51
548.466995239258
0
ARC
5
928
100
AcDbEntity
8
0-2
6
DOT
62
4
100
AcDbCircle
10
1113.840000000000
20
331.640000000000
30
0.0
40
10.776896436769
100
AcDbArc
50
171.532989501953
51
368.466995239258
0
ARC
5
929
100
AcDbEntity
8
0-2
6
DOT
62
4
100
AcDbCircle
10
1126.340000000000
20
405.990000000000
30
0.0
40
10.776896436769
100
AcDbArc
50
351.532989501953
51
548.466995239258
0
ARC
5
92a
100
AcDbEntity
8
0-2
6
DOT
62
4
100
AcDbCircle
10
1488.840000000000
20
331.640000000000
30
0.0
40
10.776896436769
100
AcDbArc
50
171.532989501953
51
270.000000000000
0
ARC
5
92b
100
AcDbEntity
8
0-2
6
DOT
62
4
100
AcDbCircle
10
1476.340000000000
20
405.990000000000
30
0.0
40
10.776896436769
100
AcDbArc
50
351.532989501953
51
548.466995239258
0
ARC
5
92c
100
AcDbEntity
8
0-2
6
DOT
62
4
100
AcDbCircle
10
1451.340000000000
20
405.990000000000
30
0.0
40
10.776896436769
100
AcDbArc
50
351.532989501953
51
548.466995239258
0
ARC
5
92d
100
AcDbEntity
8
0-2
6
DOT
62
4
100
AcDbCircle
10
1463.840000000000
20
331.640000000000
30
0.0
40
10.776896436769
100
AcDbArc
50
171.532989501953
51
368.466995239258
0
ARC
5
92e
100
AcDbEntity
8
0-2
6
DOT
62
4
100
AcDbCircle
10
1426.340000000000
20
405.990000000000
30
0.0
40
10.776896436769
100
AcDbArc
50
351.532989501953
51
548.466995239258
0
ARC
5
92f
100
AcDbEntity
8
0-2
6
DOT
62
4
100
AcDbCircle
10
1438.840000000000
20
331.640000000000
30
0.0
40
10.776896436769
100
AcDbArc
50
171.532989501953
51
368.466995239258
0
ARC
5
930
100
AcDbEntity
8
0-2
6
DOT
62
4
100
AcDbCircle
10
1401.340000000000
20
405.990000000000
30
0.0
40
10.776896436769
100
AcDbArc
50
351.532989501953
51
548.466995239258
0
ARC
5
931
100
AcDbEntity
8
0-2
6
DOT
62
4
100
AcDbCircle
10
1413.840000000000
20
331.640000000000
30
0.0
40
10.776896436769
100
AcDbArc
50
171.532989501953
51
368.466995239258
0
ARC
5
932
100
AcDbEntity
8
0-2
6
DOT
62
4
100
AcDbCircle
10
1385.730000000000
20
360.790000000000
30
0.0
40
9.561791005516
100
AcDbArc
50
171.452987670898
51
368.466995239258
0
ARC
5
933
100
AcDbEntity
8
0-2
6
DOT
62
4
100
AcDbCircle
10
1377.330000000000
20
432.820000000000
30
0.0
40
11.278767597979
100
AcDbArc
50
347.867996215820
51
507.232986450195
0
ARC
5
934
100
AcDbEntity
8
0-2
6
DOT
62
4
100
AcDbCircle
10
888.840000000000
20
331.640000000000
30
0.0
40
10.776896436769
100
AcDbArc
50
171.532989501953
51
368.466995239258
0
ARC
5
935
100
AcDbEntity
8
0-2
6
DOT
62
4
100
AcDbCircle
10
901.340000000000
20
405.990000000000
30
0.0
40
10.776896436769
100
AcDbArc
50
351.532989501953
51
548.466995239258
0
ARC
5
936
100
AcDbEntity
8
0-2
6
DOT
62
4
100
AcDbCircle
10
926.340000000000
20
405.990000000000
30
0.0
40
10.776896436769
100
AcDbArc
50
351.532989501953
51
548.466995239258
0
ARC
5
937
100
AcDbEntity
8
0-2
6
DOT
62
4
100
AcDbCircle
10
913.840000000000
20
331.640000000000
30
0.0
40
10.776896436769
100
AcDbArc
50
171.532989501953
51
368.466995239258
0
ARC
5
938
100
AcDbEntity
8
0-2
6
DOT
62
4
100
AcDbCircle
10
951.340000000000
20
405.990000000000
30
0.0
40
10.776896436769
100
AcDbArc
50
351.532989501953
51
548.466995239258
0
ARC
5
939
100
AcDbEntity
8
0-2
6
DOT
62
4
100
AcDbCircle
10
938.840000000000
20
331.640000000000
30
0.0
40
10.776896436769
100
AcDbArc
50
171.532989501953
51
368.466995239258
0
ARC
5
93a
100
AcDbEntity
8
0-2
6
DOT
62
4
100
AcDbCircle
10
976.340000000000
20
405.990000000000
30
0.0
40
10.776896436769
100
AcDbArc
50
351.532989501953
51
548.466995239258
0
ARC
5
93b
100
AcDbEntity
8
0-2
6
DOT
62
4
100
AcDbCircle
10
963.840000000000
20
331.640000000000
30
0.0
40
10.776896436769
100
AcDbArc
50
171.532989501953
51
368.466995239258
0
ARC
5
93c
100
AcDbEntity
8
0-2
6
DOT
62
4
100
AcDbCircle
10
991.950000000000
20
360.790000000000
30
0.0
40
9.561791005516
100
AcDbArc
50
171.532989501953
51
368.546997070313
0
ARC
5
93d
100
AcDbEntity
8
0-2
6
DOT
62
4
100
AcDbCircle
10
1000.350000000000
20
432.820000000000
30
0.0
40
11.278767597979
100
AcDbArc
50
32.766998291016
51
192.131988525391
0
ARC
5
93e
100
AcDbEntity
8
0-2
6
DOT
62
4
100
AcDbCircle
10
1101.340000000000
20
405.990000000000
30
0.0
40
10.776896436769
100
AcDbArc
50
351.532989501953
51
548.466995239258
0
ARC
5
93f
100
AcDbEntity
8
0-2
6
DOT
62
4
100
AcDbCircle
10
1085.730000000000
20
360.790000000000
30
0.0
40
9.561791005516
100
AcDbArc
50
171.452987670898
51
368.466995239258
0
ARC
5
940
100
AcDbEntity
8
0-2
6
DOT
62
4
100
AcDbCircle
10
1077.330000000000
20
432.820000000000
30
0.0
40
11.278767597979
100
AcDbArc
50
347.867996215820
51
507.232986450195
0
ARC
5
941
100
AcDbEntity
8
0-2
6
DOT
62
4
100
AcDbCircle
10
626.340000000000
20
407.630000000000
30
0.0
40
10.776896436769
100
AcDbArc
50
351.532989501953
51
450.000000000000
0
ARC
5
942
100
AcDbEntity
8
0-2
6
DOT
62
4
100
AcDbCircle
10
651.340000000000
20
407.630000000000
30
0.0
40
10.776896436769
100
AcDbArc
50
351.532989501953
51
548.466995239258
0
ARC
5
943
100
AcDbEntity
8
0-2
6
DOT
62
4
100
AcDbCircle
10
638.840000000000
20
333.270000000000
30
0.0
40
10.776896436769
100
AcDbArc
50
171.532989501953
51
368.466995239258
0
ARC
5
944
100
AcDbEntity
8
0-2
6
DOT
62
4
100
AcDbCircle
10
676.340000000000
20
407.630000000000
30
0.0
40
10.776896436769
100
AcDbArc
50
351.532989501953
51
548.466995239258
0
ARC
5
945
100
AcDbEntity
8
0-2
6
DOT
62
4
100
AcDbCircle
10
663.840000000000
20
333.270000000000
30
0.0
40
10.776896436769
100
AcDbArc
50
171.532989501953
51
368.466995239258
0
ARC
5
946
100
AcDbEntity
8
0-2
6
DOT
62
4
100
AcDbCircle
10
691.950000000000
20
362.430000000000
30
0.0
40
9.561791005516
100
AcDbArc
50
171.532989501953
51
358.685989379883
0
ARC
5
947
100
AcDbEntity
8
0-2
6
DOT
62
4
100
AcDbCircle
10
700.350000000000
20
434.460000000000
30
0.0
40
11.278767597979
100
AcDbArc
50
32.766998291016
51
192.131988525391
0
ARC
5
948
100
AcDbEntity
8
0-2
6
DOT
62
4
100
AcDbCircle
10
801.340000000000
20
407.630000000000
30
0.0
40
10.776896436769
100
AcDbArc
50
351.532989501953
51
548.466995239258
0
ARC
5
949
100
AcDbEntity
8
0-2
6
DOT
62
4
100
AcDbCircle
10
785.730000000000
20
362.430000000000
30
0.0
40
9.561791005516
100
AcDbArc
50
180.021987915039
51
360.000000000000
0
ARC
5
94a
100
AcDbEntity
8
0-2
6
DOT
62
4
100
AcDbCircle
10
777.330000000000
20
434.460000000000
30
0.0
40
11.278767597979
100
AcDbArc
50
347.867996215820
51
507.232986450195
0
ARC
5
94b
100
AcDbEntity
8
0-2
6
DOT
62
4
100
AcDbCircle
10
863.840000000000
20
331.640000000000
30
0.0
40
10.776896436769
100
AcDbArc
50
171.532989501953
51
368.466995239258
0
ARC
5
94c
100
AcDbEntity
8
0-2
6
DOT
62
4
100
AcDbCircle
10
876.340000000000
20
405.990000000000
30
0.0
40
10.776896436769
100
AcDbArc
50
351.532989501953
51
548.466995239258
0
ARC
5
94d
100
AcDbEntity
8
0-2
6
DOT
62
4
100
AcDbCircle
10
838.840000000000
20
331.640000000000
30
0.0
40
10.776896436769
100
AcDbArc
50
171.532989501953
51
368.466995239258
0
ARC
5
94e
100
AcDbEntity
8
0-2
6
DOT
62
4
100
AcDbCircle
10
851.340000000000
20
405.990000000000
30
0.0
40
10.776896436769
100
AcDbArc
50
351.532989501953
51
548.466995239258
0
ARC
5
94f
100
AcDbEntity
8
0-2
6
DOT
62
4
100
AcDbCircle
10
813.840000000000
20
331.640000000000
30
0.0
40
10.776896436769
100
AcDbArc
50
171.532989501953
51
368.466995239258
0
ARC
5
950
100
AcDbEntity
8
0-2
6
DOT
62
4
100
AcDbCircle
10
826.340000000000
20
405.990000000000
30
0.0
40
10.776896436769
100
AcDbArc
50
351.532989501953
51
548.466995239258
0
ARC
5
951
100
AcDbEntity
8
0-2
6
CONTINUOUS
62
7
100
AcDbCircle
10
1349.920000000000
20
469.610000000000
30
0.0
40
6.399999980296
100
AcDbArc
50
6.214996337891
51
54.131988525391
0
ARC
5
952
100
AcDbEntity
8
0-2
6
CONTINUOUS
62
7
100
AcDbCircle
10
1374.500000000000
20
366.930000000000
30
0.0
40
1.599999995074
100
AcDbArc
50
273.099990844727
51
385.185989379883
0
ARC
5
953
100
AcDbEntity
8
0-2
6
CONTINUOUS
62
7
100
AcDbCircle
10
1374.500000000000
20
366.930000000000
30
0.0
40
4.800000081993
100
AcDbArc
50
273.099990844727
51
377.088989257813
0
ARC
5
954
100
AcDbEntity
8
0-2
6
CONTINUOUS
62
7
100
AcDbCircle
10
1333.410000000000
20
365.310000000000
30
0.0
40
31.000001077910
100
AcDbArc
50
127.883987426758
51
165.985992431641
0
ARC
5
955
100
AcDbEntity
8
0-2
6
CONTINUOUS
62
7
100
AcDbCircle
10
1303.180000000000
20
366.930000000000
30
0.0
40
4.800000081993
100
AcDbArc
50
162.910995483398
51
266.899993896484
0
ARC
5
956
100
AcDbEntity
8
0-2
6
CONTINUOUS
62
7
100
AcDbCircle
10
1303.180000000000
20
366.930000000000
30
0.0
40
1.599999995074
100
AcDbArc
50
154.813995361328
51
266.899993896484
0
ARC
5
957
100
AcDbEntity
8
0-2
6
CONTINUOUS
62
7
100
AcDbCircle
10
1327.760000000000
20
469.610000000000
30
0.0
40
6.399999980296
100
AcDbArc
50
125.867996215820
51
173.784988403320
0
ARC
5
958
100
AcDbEntity
8
0-2
6
CONTINUOUS
62
7
100
AcDbCircle
10
1322.840000000000
20
475.120000000000
30
0.0
40
2.999999954475
100
AcDbArc
50
29.198989868164
51
39.074996948242
0
ARC
5
959
100
AcDbEntity
8
0-2
6
CONTINUOUS
62
7
100
AcDbCircle
10
1339.280000000000
20
469.100000000000
30
0.0
40
32.099997500036
100
AcDbArc
50
122.319992065430
51
168.082992553711
0
ARC
5
95a
100
AcDbEntity
8
0-2
6
CONTINUOUS
62
7
100
AcDbCircle
10
1346.510000000000
20
499.210000000000
30
0.0
40
4.599999852777
100
AcDbArc
50
270.000000000000
51
311.339996337891
0
ARC
5
95b
100
AcDbEntity
8
0-2
6
CONTINUOUS
62
7
100
AcDbCircle
10
1354.840000000000
20
475.120000000000
30
0.0
40
2.999999954475
100
AcDbArc
50
76.288986206055
51
180.000000000000
0
ARC
5
95c
100
AcDbEntity
8
0-2
6
CONTINUOUS
62
7
100
AcDbCircle
10
1352.870000000000
20
491.980000000000
30
0.0
40
5.030829694518
100
AcDbArc
50
57.679992675781
51
180.000000000000
0
ARC
5
95d
100
AcDbEntity
8
0-2
6
CONTINUOUS
62
7
100
AcDbCircle
10
1331.170000000000
20
499.210000000000
30
0.0
40
4.599999852777
100
AcDbArc
50
228.659988403320
51
270.000000000000
0
ARC
5
95e
100
AcDbEntity
8
0-2
6
CONTINUOUS
62
7
100
AcDbCircle
10
1322.840000000000
20
475.120000000000
30
0.0
40
2.999999954475
100
AcDbArc
50
360.000000000000
51
463.710998535156
0
ARC
5
95f
100
AcDbEntity
8
0-2
6
CONTINUOUS
62
7
100
AcDbCircle
10
1324.810000000000
20
491.980000000000
30
0.0
40
5.030829694518
100
AcDbArc
50
360.000000000000
51
482.319992065430
0
ARC
5
960
100
AcDbEntity
8
0-2
6
CONTINUOUS
62
7
100
AcDbCircle
10
1350.930000000000
20
460.350000000000
30
0.0
40
3.199999990148
100
AcDbArc
50
6.214996337891
51
90.000000000000
0
ARC
5
961
100
AcDbEntity
8
0-2
6
CONTINUOUS
62
7
100
AcDbCircle
10
1351.090000000000
20
458.880000000000
30
0.0
40
6.399999980296
100
AcDbArc
50
6.214996337891
51
90.000000000000
0
ARC
5
962
100
AcDbEntity
8
0-2
6
CONTINUOUS
62
7
100
AcDbCircle
10
1326.750000000000
20
460.350000000000
30
0.0
40
3.199999990148
100
AcDbArc
50
90.000000000000
51
173.784988403320
0
ARC
5
963
100
AcDbEntity
8
0-2
6
CONTINUOUS
62
7
100
AcDbCircle
10
1326.590000000000
20
458.880000000000
30
0.0
40
6.399999980296
100
AcDbArc
50
90.000000000000
51
173.784988403320
0
ARC
5
964
100
AcDbEntity
8
0-2
6
CONTINUOUS
62
7
100
AcDbCircle
10
1304.990000000000
20
414.180000000000
30
0.0
40
4.907467646511
100
AcDbArc
50
150.000000000000
51
210.000000000000
0
ARC
5
965
100
AcDbEntity
8
0-2
6
CONTINUOUS
62
7
100
AcDbCircle
10
1313.610000000000
20
406.810000000000
30
0.0
40
13.779166257572
100
AcDbArc
50
159.135986328125
51
180.000000000000
0
ARC
5
966
100
AcDbEntity
8
0-2
6
CONTINUOUS
62
7
100
AcDbCircle
10
1309.630000000000
20
412.060000000000
30
0.0
40
1.799999933976
100
AcDbArc
50
174.371994018555
51
180.000000000000
0
ARC
5
967
100
AcDbEntity
8
0-2
6
CONTINUOUS
62
7
100
AcDbCircle
10
1304.990000000000
20
399.450000000000
30
0.0
40
4.907467646511
100
AcDbArc
50
150.000000000000
51
210.000000000000
0
ARC
5
968
100
AcDbEntity
8
0-2
6
CONTINUOUS
62
7
100
AcDbCircle
10
1313.610000000000
20
406.810000000000
30
0.0
40
13.779166257572
100
AcDbArc
50
180.000000000000
51
200.863998413086
0
ARC
5
969
100
AcDbEntity
8
0-2
6
CONTINUOUS
62
7
100
AcDbCircle
10
1343.090000000000
20
469.220000000000
30
0.0
40
14.064927873914
100
AcDbArc
50
252.411987304688
51
287.587997436523
0
ARC
5
96a
100
AcDbEntity
8
0-2
6
CONTINUOUS
62
7
100
AcDbCircle
10
1334.590000000000
20
469.220000000000
30
0.0
40
14.064927873914
100
AcDbArc
50
252.411987304688
51
287.587997436523
0
ARC
5
96b
100
AcDbEntity
8
0-2
6
CONTINUOUS
62
7
100
AcDbCircle
10
1353.430000000000
20
406.810000000000
30
0.0
40
19.035712172015
100
AcDbArc
50
336.358993530273
51
395.299987792969
0
ARC
5
96c
100
AcDbEntity
8
0-2
6
CONTINUOUS
62
7
100
AcDbCircle
10
1368.960000000000
20
416.310000000000
30
0.0
40
1.499999977237
100
AcDbArc
50
90.000000000000
51
94.815994262695
0
ARC
5
96d
100
AcDbEntity
8
0-2
6
CONTINUOUS
62
7
100
AcDbCircle
10
1327.760000000000
20
469.610000000000
30
0.0
40
8.999999863424
100
AcDbArc
50
118.034988403320
51
139.843994140625
0
ARC
5
96e
100
AcDbEntity
8
0-2
6
CONTINUOUS
62
7
100
AcDbCircle
10
1349.920000000000
20
469.610000000000
30
0.0
40
8.999999863424
100
AcDbArc
50
40.155990600586
51
61.964996337891
0
ARC
5
96f
100
AcDbEntity
8
0-2
6
CONTINUOUS
62
7
100
AcDbCircle
10
1327.760000000000
20
469.610000000000
30
0.0
40
6.499999901362
100
AcDbArc
50
125.232986450195
51
139.843994140625
0
ARC
5
970
100
AcDbEntity
8
0-2
6
CONTINUOUS
62
7
100
AcDbCircle
10
1349.920000000000
20
469.610000000000
30
0.0
40
6.499999901362
100
AcDbArc
50
40.155990600586
51
54.766998291016
0
ARC
5
971
100
AcDbEntity
8
0-2
6
CONTINUOUS
62
7
100
AcDbCircle
10
1323.060000000000
20
478.440000000000
30
0.0
40
0.999999984825
100
AcDbArc
50
298.034988403320
51
328.893997192383
0
ARC
5
972
100
AcDbEntity
8
0-2
6
CONTINUOUS
62
7
100
AcDbCircle
10
1354.620000000000
20
478.440000000000
30
0.0
40
0.999999984825
100
AcDbArc
50
211.105987548828
51
241.964996337891
0
ARC
5
973
100
AcDbEntity
8
0-2
6
CONTINUOUS
62
7
100
AcDbCircle
10
1311.430000000000
20
393.570000000000
30
0.0
40
4.800000081993
100
AcDbArc
50
307.883987426758
51
353.784988403320
0
ARC
5
974
100
AcDbEntity
8
0-2
6
CONTINUOUS
62
7
100
AcDbCircle
10
1344.260000000000
20
365.310000000000
30
0.0
40
31.000001077910
100
AcDbArc
50
14.013992309570
51
52.115997314453
0
ARC
5
975
100
AcDbEntity
8
0-2
6
CONTINUOUS
62
7
100
AcDbCircle
10
1366.250000000000
20
393.570000000000
30
0.0
40
4.800000081993
100
AcDbArc
50
186.214996337891
51
232.115997314453
0
ARC
5
976
100
AcDbEntity
8
0-2
6
CONTINUOUS
62
7
100
AcDbCircle
10
1338.400000000000
20
469.100000000000
30
0.0
40
32.099997500036
100
AcDbArc
50
11.916992187500
51
57.679992675781
0
ARC
5
977
100
AcDbEntity
8
0-2
6
CONTINUOUS
62
7
100
AcDbCircle
10
1049.920000000000
20
469.610000000000
30
0.0
40
6.399999980296
100
AcDbArc
50
6.214996337891
51
54.131988525391
0
ARC
5
978
100
AcDbEntity
8
0-2
6
CONTINUOUS
62
7
100
AcDbCircle
10
1074.500000000000
20
366.930000000000
30
0.0
40
1.599999995074
100
AcDbArc
50
273.099990844727
51
385.185989379883
0
ARC
5
979
100
AcDbEntity
8
0-2
6
CONTINUOUS
62
7
100
AcDbCircle
10
1074.500000000000
20
366.930000000000
30
0.0
40
4.800000081993
100
AcDbArc
50
273.099990844727
51
377.088989257813
0
ARC
5
97a
100
AcDbEntity
8
0-2
6
CONTINUOUS
62
7
100
AcDbCircle
10
1033.410000000000
20
365.310000000000
30
0.0
40
31.000001077910
100
AcDbArc
50
127.883987426758
51
165.985992431641
0
ARC
5
97b
100
AcDbEntity
8
0-2
6
CONTINUOUS
62
7
100
AcDbCircle
10
1003.180000000000
20
366.930000000000
30
0.0
40
4.800000081993
100
AcDbArc
50
162.910995483398
51
266.899993896484
0
ARC
5
97c
100
AcDbEntity
8
0-2
6
CONTINUOUS
62
7
100
AcDbCircle
10
1003.180000000000
20
366.930000000000
30
0.0
40
1.599999995074
100
AcDbArc
50
154.813995361328
51
266.899993896484
0
ARC
5
97d
100
AcDbEntity
8
0-2
6
CONTINUOUS
62
7
100
AcDbCircle
10
1027.760000000000
20
469.610000000000
30
0.0
40
6.399999980296
100
AcDbArc
50
125.867996215820
51
173.784988403320
0
ARC
5
97e
100
AcDbEntity
8
0-2
6
CONTINUOUS
62
7
100
AcDbCircle
10
1022.840000000000
20
475.120000000000
30
0.0
40
2.999999954475
100
AcDbArc
50
29.198989868164
51
39.074996948242
0
ARC
5
97f
100
AcDbEntity
8
0-2
6
CONTINUOUS
62
7
100
AcDbCircle
10
1039.280000000000
20
469.100000000000
30
0.0
40
32.099997500036
100
AcDbArc
50
122.319992065430
51
168.082992553711
0
ARC
5
980
100
AcDbEntity
8
0-2
6
CONTINUOUS
62
7
100
AcDbCircle
10
1046.510000000000
20
499.210000000000
30
0.0
40
4.599999852777
100
AcDbArc
50
270.000000000000
51
311.339996337891
0
ARC
5
981
100
AcDbEntity
8
0-2
6
CONTINUOUS
62
7
100
AcDbCircle
10
1054.840000000000
20
475.120000000000
30
0.0
40
2.999999954475
100
AcDbArc
50
76.288986206055
51
180.000000000000
0
ARC
5
982
100
AcDbEntity
8
0-2
6
CONTINUOUS
62
7
100
AcDbCircle
10
1052.870000000000
20
491.980000000000
30
0.0
40
5.030829694518
100
AcDbArc
50
57.679992675781
51
180.000000000000
0
ARC
5
983
100
AcDbEntity
8
0-2
6
CONTINUOUS
62
7
100
AcDbCircle
10
1031.170000000000
20
499.210000000000
30
0.0
40
4.599999852777
100
AcDbArc
50
228.659988403320
51
270.000000000000
0
ARC
5
984
100
AcDbEntity
8
0-2
6
CONTINUOUS
62
7
100
AcDbCircle
10
1022.840000000000
20
475.120000000000
30
0.0
40
2.999999954475
100
AcDbArc
50
360.000000000000
51
463.710998535156
0
ARC
5
985
100
AcDbEntity
8
0-2
6
CONTINUOUS
62
7
100
AcDbCircle
10
1024.810000000000
20
491.980000000000
30
0.0
40
5.030829694518
100
AcDbArc
50
360.000000000000
51
482.319992065430
0
ARC
5
986
100
AcDbEntity
8
0-2
6
CONTINUOUS
62
7
100
AcDbCircle
10
1050.930000000000
20
460.350000000000
30
0.0
40
3.199999990148
100
AcDbArc
50
6.214996337891
51
90.000000000000
0
ARC
5
987
100
AcDbEntity
8
0-2
6
CONTINUOUS
62
7
100
AcDbCircle
10
1051.090000000000
20
458.880000000000
30
0.0
40
6.399999980296
100
AcDbArc
50
6.214996337891
51
90.000000000000
0
ARC
5
988
100
AcDbEntity
8
0-2
6
CONTINUOUS
62
7
100
AcDbCircle
10
1026.750000000000
20
460.350000000000
30
0.0
40
3.199999990148
100
AcDbArc
50
90.000000000000
51
173.784988403320
0
ARC
5
989
100
AcDbEntity
8
0-2
6
CONTINUOUS
62
7
100
AcDbCircle
10
1026.590000000000
20
458.880000000000
30
0.0
40
6.399999980296
100
AcDbArc
50
90.000000000000
51
173.784988403320
0
ARC
5
98a
100
AcDbEntity
8
0-2
6
CONTINUOUS
62
7
100
AcDbCircle
10
1004.990000000000
20
414.180000000000
30
0.0
40
4.907467646511
100
AcDbArc
50
150.000000000000
51
210.000000000000
0
ARC
5
98b
100
AcDbEntity
8
0-2
6
CONTINUOUS
62
7
100
AcDbCircle
10
1013.610000000000
20
406.810000000000
30
0.0
40
13.779166257572
100
AcDbArc
50
159.135986328125
51
180.000000000000
0
ARC
5
98c
100
AcDbEntity
8
0-2
6
CONTINUOUS
62
7
100
AcDbCircle
10
1009.630000000000
20
412.060000000000
30
0.0
40
1.799999933976
100
AcDbArc
50
174.371994018555
51
180.000000000000
0
ARC
5
98d
100
AcDbEntity
8
0-2
6
CONTINUOUS
62
7
100
AcDbCircle
10
1004.990000000000
20
399.450000000000
30
0.0
40
4.907467646511
100
AcDbArc
50
150.000000000000
51
210.000000000000
0
ARC
5
98e
100
AcDbEntity
8
0-2
6
CONTINUOUS
62
7
100
AcDbCircle
10
1013.610000000000
20
406.810000000000
30
0.0
40
13.779166257572
100
AcDbArc
50
180.000000000000
51
200.863998413086
0
ARC
5
98f
100
AcDbEntity
8
0-2
6
CONTINUOUS
62
7
100
AcDbCircle
10
1043.090000000000
20
469.220000000000
30
0.0
40
14.064927873914
100
AcDbArc
50
252.411987304688
51
287.587997436523
0
ARC
5
990
100
AcDbEntity
8
0-2
6
CONTINUOUS
62
7
100
AcDbCircle
10
1034.590000000000
20
469.220000000000
30
0.0
40
14.064927873914
100
AcDbArc
50
252.411987304688
51
287.587997436523
0
ARC
5
991
100
AcDbEntity
8
0-2
6
CONTINUOUS
62
7
100
AcDbCircle
10
1053.430000000000
20
406.810000000000
30
0.0
40
19.035712172015
100
AcDbArc
50
336.358993530273
51
395.299987792969
0
ARC
5
992
100
AcDbEntity
8
0-2
6
CONTINUOUS
62
7
100
AcDbCircle
10
1068.970000000000
20
416.310000000000
30
0.0
40
1.499999977237
100
AcDbArc
50
90.000000000000
51
94.815994262695
0
ARC
5
993
100
AcDbEntity
8
0-2
6
CONTINUOUS
62
7
100
AcDbCircle
10
1027.760000000000
20
469.610000000000
30
0.0
40
8.999999863424
100
AcDbArc
50
118.034988403320
51
139.843994140625
0
ARC
5
994
100
AcDbEntity
8
0-2
6
CONTINUOUS
62
7
100
AcDbCircle
10
1049.920000000000
20
469.610000000000
30
0.0
40
8.999999863424
100
AcDbArc
50
40.155990600586
51
61.964996337891
0
ARC
5
995
100
AcDbEntity
8
0-2
6
CONTINUOUS
62
7
100
AcDbCircle
10
1027.760000000000
20
469.610000000000
30
0.0
40
6.499999901362
100
AcDbArc
50
125.232986450195
51
139.843994140625
0
ARC
5
996
100
AcDbEntity
8
0-2
6
CONTINUOUS
62
7
100
AcDbCircle
10
1049.920000000000
20
469.610000000000
30
0.0
40
6.499999901362
100
AcDbArc
50
40.155990600586
51
54.766998291016
0
ARC
5
997
100
AcDbEntity
8
0-2
6
CONTINUOUS
62
7
100
AcDbCircle
10
1023.060000000000
20
478.440000000000
30
0.0
40
0.999999984825
100
AcDbArc
50
298.034988403320
51
328.893997192383
0
ARC
5
998
100
AcDbEntity
8
0-2
6
CONTINUOUS
62
7
100
AcDbCircle
10
1054.620000000000
20
478.440000000000
30
0.0
40
0.999999984825
100
AcDbArc
50
211.105987548828
51
241.964996337891
0
ARC
5
999
100
AcDbEntity
8
0-2
6
CONTINUOUS
62
7
100
AcDbCircle
10
1011.430000000000
20
393.570000000000
30
0.0
40
4.800000081993
100
AcDbArc
50
307.883987426758
51
353.784988403320
0
ARC
5
99a
100
AcDbEntity
8
0-2
6
CONTINUOUS
62
7
100
AcDbCircle
10
1044.260000000000
20
365.310000000000
30
0.0
40
31.000001077910
100
AcDbArc
50
14.013992309570
51
52.115997314453
0
ARC
5
99b
100
AcDbEntity
8
0-2
6
CONTINUOUS
62
7
100
AcDbCircle
10
1066.250000000000
20
393.570000000000
30
0.0
40
4.800000081993
100
AcDbArc
50
186.214996337891
51
232.115997314453
0
ARC
5
99c
100
AcDbEntity
8
0-2
6
CONTINUOUS
62
7
100
AcDbCircle
10
1038.400000000000
20
469.100000000000
30
0.0
40
32.099997500036
100
AcDbArc
50
11.916992187500
51
57.679992675781
0
ARC
5
99d
100
AcDbEntity
8
0-2
6
CONTINUOUS
62
7
100
AcDbCircle
10
749.920000000000
20
469.610000000000
30
0.0
40
6.399999980296
100
AcDbArc
50
6.214996337891
51
54.131988525391
0
ARC
5
99e
100
AcDbEntity
8
0-2
6
CONTINUOUS
62
7
100
AcDbCircle
10
774.500000000000
20
366.930000000000
30
0.0
40
1.599999995074
100
AcDbArc
50
273.099990844727
51
385.185989379883
0
ARC
5
99f
100
AcDbEntity
8
0-2
6
CONTINUOUS
62
7
100
AcDbCircle
10
774.500000000000
20
366.930000000000
30
0.0
40
4.800000081993
100
AcDbArc
50
273.099990844727
51
377.088989257813
0
ARC
5
9a0
100
AcDbEntity
8
0-2
6
CONTINUOUS
62
7
100
AcDbCircle
10
733.410000000000
20
365.310000000000
30
0.0
40
31.000001077910
100
AcDbArc
50
127.883987426758
51
165.985992431641
0
ARC
5
9a1
100
AcDbEntity
8
0-2
6
CONTINUOUS
62
7
100
AcDbCircle
10
703.180000000000
20
366.930000000000
30
0.0
40
4.800000081993
100
AcDbArc
50
162.910995483398
51
266.899993896484
0
ARC
5
9a2
100
AcDbEntity
8
0-2
6
CONTINUOUS
62
7
100
AcDbCircle
10
703.180000000000
20
366.930000000000
30
0.0
40
1.599999995074
100
AcDbArc
50
154.813995361328
51
266.899993896484
0
ARC
5
9a3
100
AcDbEntity
8
0-2
6
CONTINUOUS
62
7
100
AcDbCircle
10
727.760000000000
20
469.610000000000
30
0.0
40
6.399999980296
100
AcDbArc
50
125.867996215820
51
173.784988403320
0
ARC
5
9a4
100
AcDbEntity
8
0-2
6
CONTINUOUS
62
7
100
AcDbCircle
10
722.840000000000
20
475.120000000000
30
0.0
40
2.999999954475
100
AcDbArc
50
29.198989868164
51
39.074996948242
0
ARC
5
9a5
100
AcDbEntity
8
0-2
6
CONTINUOUS
62
7
100
AcDbCircle
10
739.280000000000
20
469.100000000000
30
0.0
40
32.099997500036
100
AcDbArc
50
122.319992065430
51
168.082992553711
0
ARC
5
9a6
100
AcDbEntity
8
0-2
6
CONTINUOUS
62
7
100
AcDbCircle
10
746.510000000000
20
499.210000000000
30
0.0
40
4.599999852777
100
AcDbArc
50
270.000000000000
51
311.339996337891
0
ARC
5
9a7
100
AcDbEntity
8
0-2
6
CONTINUOUS
62
7
100
AcDbCircle
10
754.840000000000
20
475.120000000000
30
0.0
40
2.999999954475
100
AcDbArc
50
76.288986206055
51
180.000000000000
0
ARC
5
9a8
100
AcDbEntity
8
0-2
6
CONTINUOUS
62
7
100
AcDbCircle
10
752.870000000000
20
491.980000000000
30
0.0
40
5.030829694518
100
AcDbArc
50
57.679992675781
51
180.000000000000
0
ARC
5
9a9
100
AcDbEntity
8
0-2
6
CONTINUOUS
62
7
100
AcDbCircle
10
731.170000000000
20
499.210000000000
30
0.0
40
4.599999852777
100
AcDbArc
50
228.659988403320
51
270.000000000000
0
ARC
5
9aa
100
AcDbEntity
8
0-2
6
CONTINUOUS
62
7
100
AcDbCircle
10
722.840000000000
20
475.120000000000
30
0.0
40
2.999999954475
100
AcDbArc
50
360.000000000000
51
463.710998535156
0
ARC
5
9ab
100
AcDbEntity
8
0-2
6
CONTINUOUS
62
7
100
AcDbCircle
10
724.810000000000
20
491.980000000000
30
0.0
40
5.030829694518
100
AcDbArc
50
360.000000000000
51
482.319992065430
0
ARC
5
9ac
100
AcDbEntity
8
0-2
6
CONTINUOUS
62
7
100
AcDbCircle
10
750.930000000000
20
460.350000000000
30
0.0
40
3.199999990148
100
AcDbArc
50
6.214996337891
51
90.000000000000
0
ARC
5
9ad
100
AcDbEntity
8
0-2
6
CONTINUOUS
62
7
100
AcDbCircle
10
751.090000000000
20
458.880000000000
30
0.0
40
6.399999980296
100
AcDbArc
50
6.214996337891
51
90.000000000000
0
ARC
5
9ae
100
AcDbEntity
8
0-2
6
CONTINUOUS
62
7
100
AcDbCircle
10
726.750000000000
20
460.350000000000
30
0.0
40
3.199999990148
100
AcDbArc
50
90.000000000000
51
173.784988403320
0
ARC
5
9af
100
AcDbEntity
8
0-2
6
CONTINUOUS
62
7
100
AcDbCircle
10
726.590000000000
20
458.880000000000
30
0.0
40
6.399999980296
100
AcDbArc
50
90.000000000000
51
173.784988403320
0
ARC
5
9b0
100
AcDbEntity
8
0-2
6
CONTINUOUS
62
7
100
AcDbCircle
10
704.990000000000
20
414.180000000000
30
0.0
40
4.907467646511
100
AcDbArc
50
150.000000000000
51
210.000000000000
0
ARC
5
9b1
100
AcDbEntity
8
0-2
6
CONTINUOUS
62
7
100
AcDbCircle
10
713.610000000000
20
406.810000000000
30
0.0
40
13.779166257572
100
AcDbArc
50
159.135986328125
51
180.000000000000
0
ARC
5
9b2
100
AcDbEntity
8
0-2
6
CONTINUOUS
62
7
100
AcDbCircle
10
709.630000000000
20
412.060000000000
30
0.0
40
1.799999933976
100
AcDbArc
50
174.371994018555
51
180.000000000000
0
ARC
5
9b3
100
AcDbEntity
8
0-2
6
CONTINUOUS
62
7
100
AcDbCircle
10
704.990000000000
20
399.450000000000
30
0.0
40
4.907467646511
100
AcDbArc
50
150.000000000000
51
210.000000000000
0
ARC
5
9b4
100
AcDbEntity
8
0-2
6
CONTINUOUS
62
7
100
AcDbCircle
10
713.610000000000
20
406.810000000000
30
0.0
40
13.779166257572
100
AcDbArc
50
180.000000000000
51
200.863998413086
0
ARC
5
9b5
100
AcDbEntity
8
0-2
6
CONTINUOUS
62
7
100
AcDbCircle
10
743.090000000000
20
469.220000000000
30
0.0
40
14.064927873914
100
AcDbArc
50
252.411987304688
51
287.587997436523
0
ARC
5
9b6
100
AcDbEntity
8
0-2
6
CONTINUOUS
62
7
100
AcDbCircle
10
734.590000000000
20
469.220000000000
30
0.0
40
14.064927873914
100
AcDbArc
50
252.411987304688
51
287.587997436523
0
ARC
5
9b7
100
AcDbEntity
8
0-2
6
CONTINUOUS
62
7
100
AcDbCircle
10
753.430000000000
20
406.810000000000
30
0.0
40
19.035712172015
100
AcDbArc
50
336.358993530273
51
395.299987792969
0
ARC
5
9b8
100
AcDbEntity
8
0-2
6
CONTINUOUS
62
7
100
AcDbCircle
10
768.960000000000
20
416.310000000000
30
0.0
40
1.499999977237
100
AcDbArc
50
90.000000000000
51
94.815994262695
0
ARC
5
9b9
100
AcDbEntity
8
0-2
6
CONTINUOUS
62
7
100
AcDbCircle
10
727.760000000000
20
469.610000000000
30
0.0
40
8.999999863424
100
AcDbArc
50
118.034988403320
51
139.843994140625
0
ARC
5
9ba
100
AcDbEntity
8
0-2
6
CONTINUOUS
62
7
100
AcDbCircle
10
749.920000000000
20
469.610000000000
30
0.0
40
8.999999863424
100
AcDbArc
50
40.155990600586
51
61.964996337891
0
ARC
5
9bb
100
AcDbEntity
8
0-2
6
CONTINUOUS
62
7
100
AcDbCircle
10
727.760000000000
20
469.610000000000
30
0.0
40
6.499999901362
100
AcDbArc
50
125.232986450195
51
139.843994140625
0
ARC
5
9bc
100
AcDbEntity
8
0-2
6
CONTINUOUS
62
7
100
AcDbCircle
10
749.920000000000
20
469.610000000000
30
0.0
40
6.499999901362
100
AcDbArc
50
40.155990600586
51
54.766998291016
0
ARC
5
9bd
100
AcDbEntity
8
0-2
6
CONTINUOUS
62
7
100
AcDbCircle
10
723.060000000000
20
478.440000000000
30
0.0
40
0.999999984825
100
AcDbArc
50
298.034988403320
51
328.893997192383
0
ARC
5
9be
100
AcDbEntity
8
0-2
6
CONTINUOUS
62
7
100
AcDbCircle
10
754.620000000000
20
478.440000000000
30
0.0
40
0.999999984825
100
AcDbArc
50
211.105987548828
51
241.964996337891
0
ARC
5
9bf
100
AcDbEntity
8
0-2
6
CONTINUOUS
62
7
100
AcDbCircle
10
711.430000000000
20
393.570000000000
30
0.0
40
4.800000081993
100
AcDbArc
50
307.883987426758
51
353.784988403320
0
ARC
5
9c0
100
AcDbEntity
8
0-2
6
CONTINUOUS
62
7
100
AcDbCircle
10
744.260000000000
20
365.310000000000
30
0.0
40
31.000001077910
100
AcDbArc
50
14.013992309570
51
52.115997314453
0
ARC
5
9c1
100
AcDbEntity
8
0-2
6
CONTINUOUS
62
7
100
AcDbCircle
10
766.250000000000
20
393.570000000000
30
0.0
40
4.800000081993
100
AcDbArc
50
186.214996337891
51
232.115997314453
0
ARC
5
9c2
100
AcDbEntity
8
0-2
6
CONTINUOUS
62
7
100
AcDbCircle
10
738.400000000000
20
469.100000000000
30
0.0
40
32.099997500036
100
AcDbArc
50
11.916992187500
51
57.679992675781
0
ARC
5
9c3
100
AcDbEntity
8
0-0
6
CONTINUOUS
62
3
100
AcDbCircle
10
706.820000000000
20
817.030000000000
30
0.0
40
1.999999969650
100
AcDbArc
50
172.724990844727
51
263.257995605469
0
ARC
5
9c4
100
AcDbEntity
8
0-0
6
CONTINUOUS
62
3
100
AcDbCircle
10
766.480000000000
20
812.720000000000
30
0.0
40
1.999999969650
100
AcDbArc
50
92.479995727539
51
243.434997558594
0
ARC
5
9c5
100
AcDbEntity
8
0-0
6
CONTINUOUS
62
3
100
AcDbCircle
10
732.580000000000
20
818.410000000000
30
0.0
40
27.766804099168
100
AcDbArc
50
94.125991821289
51
182.331985473633
0
ARC
5
9c6
100
AcDbEntity
8
0-0
6
CONTINUOUS
62
3
100
AcDbCircle
10
770.850000000000
20
817.030000000000
30
0.0
40
1.999999969650
100
AcDbArc
50
276.741989135742
51
7.274993896484
0
ARC
5
9c7
100
AcDbEntity
8
0-0
6
CONTINUOUS
62
3
100
AcDbCircle
10
745.090000000000
20
818.410000000000
30
0.0
40
27.766804099168
100
AcDbArc
50
357.667999267578
51
85.873992919922
0
ARC
5
9c8
100
AcDbEntity
8
0-0
6
CONTINUOUS
62
3
100
AcDbCircle
10
1011.200000000000
20
812.720000000000
30
0.0
40
1.999999969650
100
AcDbArc
50
296.564987182617
51
83.257995605469
0
ARC
5
9c9
100
AcDbEntity
8
0-0
6
CONTINUOUS
62
3
100
AcDbCircle
10
1035.170000000000
20
817.020000000000
30
0.0
40
29.334869873627
100
AcDbArc
50
96.732986450195
51
179.487991333008
0
ARC
5
9ca
100
AcDbEntity
8
0-0
6
CONTINUOUS
62
3
100
AcDbCircle
10
1066.480000000000
20
812.720000000000
30
0.0
40
1.999999969650
100
AcDbArc
50
96.741989135742
51
243.434997558594
0
ARC
5
9cb
100
AcDbEntity
8
0-0
6
CONTINUOUS
62
3
100
AcDbCircle
10
1007.980000000000
20
817.270000000000
30
0.0
40
2.143100061462
100
AcDbArc
50
179.467987060547
51
263.257995605469
0
ARC
5
9cc
100
AcDbEntity
8
0-0
6
CONTINUOUS
62
3
100
AcDbCircle
10
1042.500000000000
20
817.020000000000
30
0.0
40
29.334869873627
100
AcDbArc
50
0.511993408203
51
83.266998291016
0
ARC
5
9cd
100
AcDbEntity
8
0-0
6
CONTINUOUS
62
3
100
AcDbCircle
10
1069.700000000000
20
817.270000000000
30
0.0
40
2.143100061462
100
AcDbArc
50
276.741989135742
51
0.531997680664
0
ARC
5
9ce
100
AcDbEntity
8
0-0
6
CONTINUOUS
62
3
100
AcDbCircle
10
1332.580000000000
20
818.410000000000
30
0.0
40
25.766801032838
100
AcDbArc
50
92.064987182617
51
181.030990600586
0
ARC
5
9cf
100
AcDbEntity
8
0-0
6
CONTINUOUS
62
3
100
AcDbCircle
10
1345.090000000000
20
818.410000000000
30
0.0
40
25.766801032838
100
AcDbArc
50
69.785995483398
51
87.934997558594
0
ARC
5
9d0
100
AcDbEntity
8
0-0
6
CONTINUOUS
62
3
100
AcDbCircle
10
1310.250000000000
20
813.570000000000
30
0.0
40
3.220483753170
100
AcDbArc
50
305.215988159180
51
86.117996215820
0
ARC
5
9d1
100
AcDbEntity
8
0-0
6
CONTINUOUS
62
3
100
AcDbCircle
10
1307.820000000000
20
817.970000000000
30
0.0
40
0.999999984825
100
AcDbArc
50
181.030990600586
51
266.117996215820
0
ARC
5
9d2
100
AcDbEntity
8
0-0
6
CONTINUOUS
62
3
100
AcDbCircle
10
706.820000000000
20
817.030000000000
30
0.0
40
1.200000020498
100
AcDbArc
50
169.895996093750
51
262.424987792969
0
ARC
5
9d3
100
AcDbEntity
8
0-0
6
CONTINUOUS
62
3
100
AcDbCircle
10
732.580000000000
20
818.410000000000
30
0.0
40
26.966801633964
100
AcDbArc
50
94.040985107422
51
182.491989135742
0
ARC
5
9d4
100
AcDbEntity
8
0-0
6
CONTINUOUS
62
3
100
AcDbCircle
10
745.090000000000
20
818.410000000000
30
0.0
40
26.966801633964
100
AcDbArc
50
357.507995605469
51
85.958999633789
0
ARC
5
9d5
100
AcDbEntity
8
0-0
6
CONTINUOUS
62
3
100
AcDbCircle
10
770.850000000000
20
817.030000000000
30
0.0
40
1.200000020498
100
AcDbArc
50
277.574996948242
51
10.103988647461
0
ARC
5
9d6
100
AcDbEntity
8
0-0
6
CONTINUOUS
62
3
100
AcDbCircle
10
766.480000000000
20
812.720000000000
30
0.0
40
2.799999918801
100
AcDbArc
50
92.479995727539
51
242.092987060547
0
ARC
5
9d7
100
AcDbEntity
8
0-0
6
CONTINUOUS
62
3
100
AcDbCircle
10
1011.200000000000
20
812.720000000000
30
0.0
40
2.799999918801
100
AcDbArc
50
297.906997680664
51
83.257995605469
0
ARC
5
9d8
100
AcDbEntity
8
0-0
6
CONTINUOUS
62
3
100
AcDbCircle
10
1007.980000000000
20
817.270000000000
30
0.0
40
1.343100015540
100
AcDbArc
50
179.467987060547
51
263.257995605469
0
ARC
5
9d9
100
AcDbEntity
8
0-0
6
CONTINUOUS
62
3
100
AcDbCircle
10
1035.170000000000
20
817.020000000000
30
0.0
40
28.534870505103
100
AcDbArc
50
96.905990600586
51
179.467987060547
0
ARC
5
9da
100
AcDbEntity
8
0-0
6
CONTINUOUS
62
3
100
AcDbCircle
10
1042.500000000000
20
817.020000000000
30
0.0
40
28.534870505103
100
AcDbArc
50
0.531997680664
51
83.093994140625
0
ARC
5
9db
100
AcDbEntity
8
0-0
6
CONTINUOUS
62
3
100
AcDbCircle
10
1069.700000000000
20
817.270000000000
30
0.0
40
1.343100015540
100
AcDbArc
50
276.741989135742
51
0.531997680664
0
ARC
5
9dc
100
AcDbEntity
8
0-0
6
CONTINUOUS
62
3
100
AcDbCircle
10
1066.480000000000
20
812.720000000000
30
0.0
40
2.799999918801
100
AcDbArc
50
96.741989135742
51
242.092987060547
0
ARC
5
9dd
100
AcDbEntity
8
0-0
6
CONTINUOUS
62
3
100
AcDbCircle
10
1310.250000000000
20
813.570000000000
30
0.0
40
4.020484089407
100
AcDbArc
50
305.215988159180
51
86.117996215820
0
ARC
5
9de
100
AcDbEntity
8
0-0
6
CONTINUOUS
62
3
100
AcDbCircle
10
1307.820000000000
20
817.970000000000
30
0.0
40
0.199999999384
100
AcDbArc
50
181.030990600586
51
266.117996215820
0
ARC
5
9df
100
AcDbEntity
8
0-0
6
CONTINUOUS
62
3
100
AcDbCircle
10
1332.580000000000
20
818.410000000000
30
0.0
40
24.966804760994
100
AcDbArc
50
92.227996826172
51
181.030990600586
0
ARC
5
9e0
100
AcDbEntity
8
0-0
6
CONTINUOUS
62
3
100
AcDbCircle
10
1345.090000000000
20
818.410000000000
30
0.0
40
24.966804760994
100
AcDbArc
50
69.785995483398
51
87.771987915039
0
ARC
5
9e1
100
AcDbEntity
8
0-0
6
CONTINUOUS
62
3
100
AcDbCircle
10
731.340000000000
20
841.670000000000
30
0.0
40
4.499999931712
100
AcDbArc
50
15.000000000000
51
99.613998413086
0
ARC
5
9e2
100
AcDbEntity
8
0-0
6
CONTINUOUS
62
3
100
AcDbCircle
10
738.840000000000
20
843.380000000000
30
0.0
40
3.201169954503
100
AcDbArc
50
189.826995849609
51
350.172988891602
0
ARC
5
9e3
100
AcDbEntity
8
0-0
6
CONTINUOUS
62
3
100
AcDbCircle
10
746.340000000000
20
841.670000000000
30
0.0
40
4.499999931712
100
AcDbArc
50
80.385986328125
51
165.000000000000
0
ARC
5
9e4
100
AcDbEntity
8
0-0
6
CONTINUOUS
62
3
100
AcDbCircle
10
746.340000000000
20
841.670000000000
30
0.0
40
3.699999789018
100
AcDbArc
50
79.816986083984
51
169.473999023438
0
ARC
5
9e5
100
AcDbEntity
8
0-0
6
CONTINUOUS
62
3
100
AcDbCircle
10
738.840000000000
20
843.380000000000
30
0.0
40
4.001169710112
100
AcDbArc
50
190.700988769531
51
345.000991821289
0
ARC
5
9e6
100
AcDbEntity
8
0-0
6
CONTINUOUS
62
3
100
AcDbCircle
10
731.340000000000
20
841.670000000000
30
0.0
40
3.699999789018
100
AcDbArc
50
15.173995971680
51
100.182998657227
0
ARC
5
9e7
100
AcDbEntity
8
0-0
6
CONTINUOUS
62
3
100
AcDbCircle
10
1031.340000000000
20
841.670000000000
30
0.0
40
4.499999931712
100
AcDbArc
50
15.000000000000
51
84.941986083984
0
ARC
5
9e8
100
AcDbEntity
8
0-0
6
CONTINUOUS
62
3
100
AcDbCircle
10
1038.840000000000
20
843.380000000000
30
0.0
40
3.201169954503
100
AcDbArc
50
189.826995849609
51
350.172988891602
0
ARC
5
9e9
100
AcDbEntity
8
0-0
6
CONTINUOUS
62
3
100
AcDbCircle
10
1046.340000000000
20
841.670000000000
30
0.0
40
4.499999931712
100
AcDbArc
50
95.057998657227
51
165.000000000000
0
ARC
5
9ea
100
AcDbEntity
8
0-0
6
CONTINUOUS
62
3
100
AcDbCircle
10
1046.340000000000
20
841.670000000000
30
0.0
40
3.699999789018
100
AcDbArc
50
96.283996582031
51
169.473999023438
0
ARC
5
9eb
100
AcDbEntity
8
0-0
6
CONTINUOUS
62
3
100
AcDbCircle
10
1038.840000000000
20
843.380000000000
30
0.0
40
4.001169710112
100
AcDbArc
50
190.700988769531
51
345.000991821289
0
ARC
5
9ec
100
AcDbEntity
8
0-0
6
CONTINUOUS
62
3
100
AcDbCircle
10
1031.340000000000
20
841.670000000000
30
0.0
40
3.699999789018
100
AcDbArc
50
15.173995971680
51
83.715988159180
0
ARC
5
9ed
100
AcDbEntity
8
0-0
6
CONTINUOUS
62
3
100
AcDbCircle
10
1331.340000000000
20
841.670000000000
30
0.0
40
2.512265910939
100
AcDbArc
50
14.639999389648
51
82.724990844727
0
ARC
5
9ee
100
AcDbEntity
8
0-0
6
CONTINUOUS
62
3
100
AcDbCircle
10
1346.340000000000
20
841.670000000000
30
0.0
40
2.512265910939
100
AcDbArc
50
97.274993896484
51
165.359985351563
0
ARC
5
9ef
100
AcDbEntity
8
0-0
6
CONTINUOUS
62
3
100
AcDbCircle
10
1338.840000000000
20
843.380000000000
30
0.0
40
5.184863582245
100
AcDbArc
50
191.982986450195
51
348.016998291016
0
ARC
5
9f0
100
AcDbEntity
8
0-0
6
CONTINUOUS
62
3
100
AcDbCircle
10
1346.340000000000
20
841.670000000000
30
0.0
40
1.712265961787
100
AcDbArc
50
99.270996093750
51
169.477996826172
0
ARC
5
9f1
100
AcDbEntity
8
0-0
6
CONTINUOUS
62
3
100
AcDbCircle
10
1338.840000000000
20
843.380000000000
30
0.0
40
5.984864112024
100
AcDbArc
50
192.183990478516
51
346.483993530273
0
ARC
5
9f2
100
AcDbEntity
8
0-0
6
CONTINUOUS
62
3
100
AcDbCircle
10
1331.340000000000
20
841.670000000000
30
0.0
40
1.712265961787
100
AcDbArc
50
15.177993774414
51
80.728988647461
0
ARC
5
9f3
100
AcDbEntity
8
0-1
6
CONTINUOUS
62
3
100
AcDbCircle
10
369.520000000000
20
284.570000000000
30
0.0
40
7.999946460871
100
AcDbArc
50
359.999740600586
51
89.999740600586
0
ARC
5
9f4
100
AcDbEntity
8
0-1
6
CONTINUOUS
62
3
100
AcDbCircle
10
391.020000000000
20
284.570000000000
30
0.0
40
7.999946460871
100
AcDbArc
50
89.999740600586
51
179.999740600586
0
ARC
5
9f5
100
AcDbEntity
8
0-1
6
CONTINUOUS
62
7
100
AcDbCircle
10
400.270000000000
20
305.020000000000
30
0.0
40
1.249999981031
100
AcDbArc
50
180.000000000000
51
270.000000000000
0
ARC
5
9f6
100
AcDbEntity
8
0-1
6
CONTINUOUS
62
7
100
AcDbCircle
10
360.270000000000
20
305.020000000000
30
0.0
40
1.249999981031
100
AcDbArc
50
270.000000000000
51
0.000000000000
0
ARC
5
9f7
100
AcDbEntity
8
0-1
6
DOT
62
7
100
AcDbCircle
10
375.870000000000
20
354.890000000000
30
0.0
40
0.999999984825
100
AcDbArc
50
249.429489135742
51
270.000000000000
0
ARC
5
9f8
100
AcDbEntity
8
0-1
6
DOT
62
7
100
AcDbCircle
10
384.490000000000
20
342.580000000000
30
0.0
40
0.999999984825
100
AcDbArc
50
270.000000000000
51
309.974060058594
0
ARC
5
9f9
100
AcDbEntity
8
0-1
6
DOT
62
7
100
AcDbCircle
10
368.500000000000
20
339.770000000000
30
0.0
40
5.999999908949
100
AcDbArc
50
50.025924682617
51
90.000000000000
0
ARC
5
9fa
100
AcDbEntity
8
0-1
6
DOT
62
7
100
AcDbCircle
10
390.940000000000
20
349.770000000000
30
0.0
40
5.999999908949
100
AcDbArc
50
90.000000000000
51
110.570495605469
0
ARC
5
9fb
100
AcDbEntity
8
0-1
6
DOT
62
7
100
AcDbCircle
10
376.050000000000
20
342.580000000000
30
0.0
40
0.999999984825
100
AcDbArc
50
230.025924682617
51
270.000000000000
0
ARC
5
9fc
100
AcDbEntity
8
0-1
6
DOT
62
7
100
AcDbCircle
10
392.040000000000
20
339.770000000000
30
0.0
40
5.999999908949
100
AcDbArc
50
90.000000000000
51
129.974060058594
0
ARC
5
9fd
100
AcDbEntity
8
0-1
6
DOT
62
7
100
AcDbCircle
10
384.670000000000
20
354.890000000000
30
0.0
40
0.999999984825
100
AcDbArc
50
270.000000000000
51
290.570495605469
0
ARC
5
9fe
100
AcDbEntity
8
0-1
6
DOT
62
7
100
AcDbCircle
10
369.600000000000
20
349.770000000000
30
0.0
40
5.999999908949
100
AcDbArc
50
69.429489135742
51
90.000000000000
0
ARC
5
9ff
100
AcDbEntity
8
0-1
6
DOT
62
7
100
AcDbCircle
10
380.270000000000
20
354.770000000000
30
0.0
40
23.999999635796
100
AcDbArc
50
83.081878662109
51
96.918106079102
0
ARC
5
a00
100
AcDbEntity
8
0-1
6
DOT
62
7
100
AcDbCircle
10
392.770000000000
20
376.770000000000
30
0.0
40
9.999999848249
100
AcDbArc
50
360.000000000000
51
450.000000000000
0
ARC
5
a01
100
AcDbEntity
8
0-1
6
DOT
62
7
100
AcDbCircle
10
367.770000000000
20
376.770000000000
30
0.0
40
9.999999848249
100
AcDbArc
50
90.000000000000
51
180.000000000000
0
ARC
5
a02
100
AcDbEntity
8
0-1
6
DOT
62
7
100
AcDbCircle
10
398.270000000000
20
367.870000000000
30
0.0
40
4.499999931712
100
AcDbArc
50
279.594055175781
51
317.917694091797
0
ARC
5
a03
100
AcDbEntity
8
0-1
6
DOT
62
7
100
AcDbCircle
10
362.270000000000
20
367.870000000000
30
0.0
40
4.499999931712
100
AcDbArc
50
222.082290649414
51
260.405929565430
0
ARC
5
a04
100
AcDbEntity
8
0-1
6
CONTINUOUS
62
7
100
AcDbCircle
10
370.420000000000
20
300.770000000000
30
0.0
40
3.999999939299
100
AcDbArc
50
90.000000000000
51
131.409606933594
0
ARC
5
a05
100
AcDbEntity
8
0-1
6
CONTINUOUS
62
7
100
AcDbCircle
10
367.770000000000
20
303.770000000000
30
0.0
40
3.199999990148
100
AcDbArc
50
269.999984741211
51
311.409606933594
0
ARC
5
a06
100
AcDbEntity
8
0-1
6
CONTINUOUS
62
7
100
AcDbCircle
10
390.120000000000
20
300.770000000000
30
0.0
40
3.999999939299
100
AcDbArc
50
48.590377807617
51
90.000000000000
0
ARC
5
a07
100
AcDbEntity
8
0-1
6
CONTINUOUS
62
7
100
AcDbCircle
10
390.120000000000
20
300.770000000000
30
0.0
40
0.799999997537
100
AcDbArc
50
48.590377807617
51
90.000000000000
0
ARC
5
a08
100
AcDbEntity
8
0-1
6
CONTINUOUS
62
7
100
AcDbCircle
10
370.420000000000
20
300.770000000000
30
0.0
40
0.799999997537
100
AcDbArc
50
90.000000000000
51
131.409606933594
0
ARC
5
a09
100
AcDbEntity
8
0-1
6
CONTINUOUS
62
7
100
AcDbCircle
10
392.770000000000
20
303.770000000000
30
0.0
40
3.199999990148
100
AcDbArc
50
228.590377807617
51
270.000000000000
0
ARC
5
a0a
100
AcDbEntity
8
0-1
6
DOT
62
7
100
AcDbCircle
10
381.240000000000
20
377.980000000000
30
0.0
40
2.632683984122
100
AcDbArc
50
27.204330444336
51
36.104293823242
0
ARC
5
a0b
100
AcDbEntity
8
0-1
6
DOT
62
7
100
AcDbCircle
10
381.160000000000
20
377.830000000000
30
0.0
40
2.780902307096
100
AcDbArc
50
37.597259521484
51
46.497222900391
0
ARC
5
a0c
100
AcDbEntity
8
0-1
6
DOT
62
7
100
AcDbCircle
10
381.070000000000
20
377.700000000000
30
0.0
40
2.943910760106
100
AcDbArc
50
46.881134033203
51
55.781112670898
0
ARC
5
a0d
100
AcDbEntity
8
0-1
6
DOT
62
7
100
AcDbCircle
10
380.950000000000
20
377.590000000000
30
0.0
40
3.105037399482
100
AcDbArc
50
55.188629150391
51
64.088592529297
0
ARC
5
a0e
100
AcDbEntity
8
0-1
6
DOT
62
7
100
AcDbCircle
10
380.820000000000
20
377.490000000000
30
0.0
40
3.250238007944
100
AcDbArc
50
62.708374023438
51
71.608352661133
0
ARC
5
a0f
100
AcDbEntity
8
0-1
6
DOT
62
7
100
AcDbCircle
10
380.670000000000
20
377.420000000000
30
0.0
40
3.368475824972
100
AcDbArc
50
69.637023925781
51
78.537002563477
0
ARC
5
a10
100
AcDbEntity
8
0-1
6
DOT
62
7
100
AcDbCircle
10
380.510000000000
20
377.370000000000
30
0.0
40
3.451677806204
100
AcDbArc
50
76.159515380859
51
85.059478759766
0
ARC
5
a11
100
AcDbEntity
8
0-1
6
DOT
62
7
100
AcDbCircle
10
380.350000000000
20
377.340000000000
30
0.0
40
3.494576886304
100
AcDbArc
50
82.445663452148
51
91.345642089844
0
ARC
5
a12
100
AcDbEntity
8
0-1
6
DOT
62
7
100
AcDbCircle
10
380.190000000000
20
377.340000000000
30
0.0
40
3.494576886304
100
AcDbArc
50
88.654342651367
51
97.554321289063
0
ARC
5
a13
100
AcDbEntity
8
0-1
6
DOT
62
7
100
AcDbCircle
10
380.020000000000
20
377.370000000000
30
0.0
40
3.451677806204
100
AcDbArc
50
94.940505981445
51
103.840469360352
0
ARC
5
a14
100
AcDbEntity
8
0-1
6
DOT
62
7
100
AcDbCircle
10
379.870000000000
20
377.420000000000
30
0.0
40
3.368475824972
100
AcDbArc
50
101.462982177734
51
110.362960815430
0
ARC
5
a15
100
AcDbEntity
8
0-1
6
DOT
62
7
100
AcDbCircle
10
379.720000000000
20
377.490000000000
30
0.0
40
3.250238007944
100
AcDbArc
50
108.391632080078
51
117.291610717773
0
ARC
5
a16
100
AcDbEntity
8
0-1
6
DOT
62
7
100
AcDbCircle
10
379.590000000000
20
377.590000000000
30
0.0
40
3.105037399482
100
AcDbArc
50
115.911392211914
51
124.811355590820
0
ARC
5
a17
100
AcDbEntity
8
0-1
6
DOT
62
7
100
AcDbCircle
10
379.470000000000
20
377.700000000000
30
0.0
40
2.943910760106
100
AcDbArc
50
124.218872070313
51
133.118850708008
0
ARC
5
a18
100
AcDbEntity
8
0-1
6
DOT
62
7
100
AcDbCircle
10
379.370000000000
20
377.830000000000
30
0.0
40
2.780902307096
100
AcDbArc
50
133.502761840820
51
142.402725219727
0
ARC
5
a19
100
AcDbEntity
8
0-1
6
DOT
62
7
100
AcDbCircle
10
379.300000000000
20
377.980000000000
30
0.0
40
2.632683984122
100
AcDbArc
50
143.895690917969
51
152.795654296875
0
ARC
5
a1a
100
AcDbEntity
8
0-1
6
DOT
62
7
100
AcDbCircle
10
381.290000000000
20
379.760000000000
30
0.0
40
2.487772141056
100
AcDbArc
50
4.680358886719
51
27.180358886719
0
ARC
5
a1b
100
AcDbEntity
8
0-1
6
DOT
62
7
100
AcDbCircle
10
381.130000000000
20
379.390000000000
30
0.0
40
2.809625561023
100
AcDbArc
50
32.545272827148
51
55.045272827148
0
ARC
5
a1c
100
AcDbEntity
8
0-1
6
DOT
62
7
100
AcDbCircle
10
380.850000000000
20
379.100000000000
30
0.0
40
3.210172389905
100
AcDbArc
50
53.781234741211
51
76.281234741211
0
ARC
5
a1d
100
AcDbEntity
8
0-1
6
DOT
62
7
100
AcDbCircle
10
380.470000000000
20
378.950000000000
30
0.0
40
3.465571834511
100
AcDbArc
50
70.858001708984
51
93.358001708984
0
ARC
5
a1e
100
AcDbEntity
8
0-1
6
DOT
62
7
100
AcDbCircle
10
380.070000000000
20
378.950000000000
30
0.0
40
3.465571834511
100
AcDbArc
50
86.641983032227
51
109.141983032227
0
ARC
5
a1f
100
AcDbEntity
8
0-1
6
DOT
62
7
100
AcDbCircle
10
379.690000000000
20
379.100000000000
30
0.0
40
3.210172389905
100
AcDbArc
50
103.718750000000
51
126.218750000000
0
ARC
5
a20
100
AcDbEntity
8
0-1
6
DOT
62
7
100
AcDbCircle
10
379.400000000000
20
379.390000000000
30
0.0
40
2.809625561023
100
AcDbArc
50
124.954711914063
51
147.454711914063
0
ARC
5
a21
100
AcDbEntity
8
0-1
6
DOT
62
7
100
AcDbCircle
10
379.250000000000
20
379.760000000000
30
0.0
40
2.487772141056
100
AcDbArc
50
152.819625854492
51
175.319625854492
0
ARC
5
a22
100
AcDbEntity
8
0-1
6
DOT
62
7
100
AcDbCircle
10
379.250000000000
20
380.170000000000
30
0.0
40
2.487772141056
100
AcDbArc
50
184.680358886719
51
207.180358886719
0
ARC
5
a23
100
AcDbEntity
8
0-1
6
DOT
62
7
100
AcDbCircle
10
379.400000000000
20
380.550000000000
30
0.0
40
2.809625561023
100
AcDbArc
50
212.545272827148
51
235.045272827148
0
ARC
5
a24
100
AcDbEntity
8
0-1
6
DOT
62
7
100
AcDbCircle
10
379.690000000000
20
380.830000000000
30
0.0
40
3.210172389905
100
AcDbArc
50
233.781234741211
51
256.281234741211
0
ARC
5
a25
100
AcDbEntity
8
0-1
6
DOT
62
7
100
AcDbCircle
10
380.070000000000
20
380.990000000000
30
0.0
40
3.465571834511
100
AcDbArc
50
250.858001708984
51
273.358001708984
0
ARC
5
a26
100
AcDbEntity
8
0-1
6
DOT
62
7
100
AcDbCircle
10
380.470000000000
20
380.990000000000
30
0.0
40
3.465571834511
100
AcDbArc
50
266.641983032227
51
289.141983032227
0
ARC
5
a27
100
AcDbEntity
8
0-1
6
DOT
62
7
100
AcDbCircle
10
380.850000000000
20
380.830000000000
30
0.0
40
3.210172389905
100
AcDbArc
50
283.718750000000
51
306.218750000000
0
ARC
5
a28
100
AcDbEntity
8
0-1
6
DOT
62
7
100
AcDbCircle
10
381.130000000000
20
380.550000000000
30
0.0
40
2.809625561023
100
AcDbArc
50
304.954711914063
51
327.454711914063
0
ARC
5
a29
100
AcDbEntity
8
0-1
6
DOT
62
7
100
AcDbCircle
10
381.290000000000
20
380.170000000000
30
0.0
40
2.487772141056
100
AcDbArc
50
332.819625854492
51
355.319625854492
0
TEXT
5
a2a
100
AcDbEntity
8
F-F
62
3
370
-3
100
AcDbText
10
532.090
20
75.752
30
0.0
40
4.923
1
変　　　　　　更　　　　　　記　　　　　　事
41
0.999
50
0.000
100
AcDbText
0
TEXT
5
a2b
100
AcDbEntity
8
F-F
62
3
370
-3
100
AcDbText
10
815.825
20
74.952
30
0.0
40
4.923
1
受領　　日附
41
0.999
50
0.000
100
AcDbText
0
TEXT
5
a2c
100
AcDbEntity
8
F-F
62
3
370
-3
100
AcDbText
10
1014.042
20
45.520
30
0.0
40
4.923
1
施工者
41
0.999
50
0.000
100
AcDbText
0
TEXT
5
a2d
100
AcDbEntity
8
F-F
62
3
370
-3
100
AcDbText
10
1014.042
20
75.150
30
0.0
40
4.923
1
設計者
41
0.999
50
0.000
100
AcDbText
0
TEXT
5
a2e
100
AcDbEntity
8
F-F
62
3
370
-3
100
AcDbText
10
1219.525
20
44.977
30
0.0
40
4.923
1
作図
41
0.999
50
0.000
100
AcDbText
0
TEXT
5
a2f
100
AcDbEntity
8
F-F
62
3
370
-3
100
AcDbText
10
1291.352
20
45.508
30
0.0
40
4.923
1
図面名
41
0.999
50
0.000
100
AcDbText
0
TEXT
5
a30
100
AcDbEntity
8
F-F
62
3
370
-3
100
AcDbText
10
1219.525
20
74.607
30
0.0
40
4.923
1
日附
41
0.999
50
0.000
100
AcDbText
0
TEXT
5
a31
100
AcDbEntity
8
F-F
62
3
370
-3
100
AcDbText
10
1291.352
20
75.137
30
0.0
40
4.923
1
工事件名
41
0.999
50
0.000
100
AcDbText
0
TEXT
5
a32
100
AcDbEntity
8
F-F
62
3
370
-3
100
AcDbText
10
1241.661
20
74.355
30
0.0
40
4.923
1
年　月　日
41
0.999
50
0.000
100
AcDbText
0
TEXT
5
a33
100
AcDbEntity
8
F-F
62
3
370
-3
100
AcDbText
10
1241.661
20
44.726
30
0.0
40
4.923
1
年　月　日
41
0.999
50
0.000
100
AcDbText
0
TEXT
5
a34
100
AcDbEntity
8
F-F
62
3
370
-3
100
AcDbText
10
1543.695
20
75.137
30
0.0
40
4.923
1
設計番号
41
0.999
50
0.000
100
AcDbText
0
MTEXT
5
a35
100
AcDbEntity
8
F-F
62
3
370
-3
100
AcDbMText
10
387.012
20
67.821
30
0.0
40
4.649
41
0.000
71
7
72
1
1
\W1.134;{\W0.817;. }　{\W0.817;.}　{\W0.817; }
7
STANDARD
11
1.00000
21
0.00000
31
0.0
0
MTEXT
5
a36
100
AcDbEntity
8
F-F
62
3
370
-3
100
AcDbMText
10
387.012
20
57.945
30
0.0
40
4.649
41
0.000
71
7
72
1
1
\W1.134;{\W0.817;. }　{\W0.817;.}　{\W0.817; }
7
STANDARD
11
1.00000
21
0.00000
31
0.0
0
MTEXT
5
a37
100
AcDbEntity
8
F-F
62
3
370
-3
100
AcDbMText
10
387.012
20
48.068
30
0.0
40
4.649
41
0.000
71
7
72
1
1
\W1.134;{\W0.817;. }　{\W0.817;.}　{\W0.817; }
7
STANDARD
11
1.00000
21
0.00000
31
0.0
0
MTEXT
5
a38
100
AcDbEntity
8
F-F
62
3
370
-3
100
AcDbMText
10
387.012
20
38.191
30
0.0
40
4.649
41
0.000
71
7
72
1
1
\W1.134;{\W0.817;. }　{\W0.817;.}　{\W0.817; }
7
STANDARD
11
1.00000
21
0.00000
31
0.0
0
MTEXT
5
a39
100
AcDbEntity
8
F-F
62
3
370
-3
100
AcDbMText
10
387.012
20
28.314
30
0.0
40
4.649
41
0.000
71
7
72
1
1
\W1.134;{\W0.817;. }　{\W0.817;.}　{\W0.817; }
7
STANDARD
11
1.00000
21
0.00000
31
0.0
0
TEXT
5
a3a
100
AcDbEntity
8
F-F
62
3
370
-3
100
AcDbText
10
1034.383
20
62.373
30
0.0
40
6.564
1
　　　　　　　　　　
41
0.963
50
0.000
100
AcDbText
0
TEXT
5
a3b
100
AcDbEntity
8
F-F
62
3
370
-3
100
AcDbText
10
1034.383
20
32.743
30
0.0
40
6.564
1
　　　　　　　　　　
41
0.963
50
0.000
100
AcDbText
0
TEXT
5
a3c
100
AcDbEntity
8
F-F
62
3
370
-3
100
AcDbText
10
1317.846
20
63.920
30
0.0
40
6.564
1
　　　　　　　　　　　　　
41
0.963
50
0.000
100
AcDbText
0
TEXT
5
a3d
100
AcDbEntity
8
F-F
62
3
370
-3
100
AcDbText
10
378.040
20
75.687
30
0.0
40
4.923
1
年　月　日
41
0.999
50
0.000
100
AcDbText
0
TEXT
5
a3e
100
AcDbEntity
8
F-F
62
3
370
-3
100
AcDbText
10
872.996
20
74.368
30
0.0
40
4.923
1
年　　月　　日
41
0.999
50
0.000
100
AcDbText
0
MTEXT
5
a3f
100
AcDbEntity
8
F-F
62
3
370
-3
100
AcDbMText
10
885.548
20
63.398
30
0.0
40
4.649
41
0.000
71
7
72
1
1
\W1.134;{\W0.817;.}　{\W0.817; }　{\W0.817;.}
7
STANDARD
11
1.00000
21
0.00000
31
0.0
0
TEXT
5
a40
100
AcDbEntity
8
F-F
62
3
370
-3
100
AcDbText
10
815.825
20
45.323
30
0.0
40
4.923
1
受領　　日附
41
0.999
50
0.000
100
AcDbText
0
TEXT
5
a41
100
AcDbEntity
8
F-F
62
3
370
-3
100
AcDbText
10
872.996
20
44.738
30
0.0
40
4.923
1
年　　月　　日
41
0.999
50
0.000
100
AcDbText
0
MTEXT
5
a42
100
AcDbEntity
8
F-F
62
3
370
-3
100
AcDbMText
10
885.548
20
33.769
30
0.0
40
4.649
41
0.000
71
7
72
1
1
\W1.134;{\W0.817;.}　{\W0.817; }　{\W0.817;.}
7
STANDARD
11
1.00000
21
0.00000
31
0.0
0
MTEXT
5
a43
100
AcDbEntity
8
F-F
62
3
370
-3
100
AcDbMText
10
1248.433
20
61.685
30
0.0
40
4.649
41
0.000
71
7
72
1
1
\W1.134;{\W0.817;.}　　{\W0.817;.}　
7
STANDARD
11
1.00000
21
0.00000
31
0.0
0
TEXT
5
a44
100
AcDbEntity
8
F-F
62
3
370
-3
100
AcDbText
10
1543.695
20
45.508
30
0.0
40
4.923
1
縮　尺
41
0.999
50
0.000
100
AcDbText
0
TEXT
5
a45
100
AcDbEntity
8
F-F
62
3
370
-3
100
AcDbText
10
1567.012
20
41.647
30
0.0
40
6.564
1
Ａ１－１／２　
41
0.963
50
0.000
100
AcDbText
0
TEXT
5
a46
100
AcDbEntity
8
F-F
62
3
370
-3
100
AcDbText
10
1567.012
20
26.832
30
0.0
40
6.564
1
Ａ３－１／４　
41
0.963
50
0.000
100
AcDbText
0
TEXT
5
a47
100
AcDbEntity
8
F-F
62
3
370
-3
100
AcDbText
10
166.668
20
28.767
30
0.0
40
6.564
1
電話（０５４）２６３－２２８０（代表）
41
0.963
50
0.000
100
AcDbText
0
TEXT
5
a48
100
AcDbEntity
8
F-F
62
3
370
-3
100
AcDbText
10
122.770
20
61.158
30
0.0
40
13.127
1
小　池　弥　太　郎　商　店
41
0.963
50
0.000
100
AcDbText
0
TEXT
5
a49
100
AcDbEntity
8
F-F
62
3
370
-3
100
AcDbText
10
166.664
20
43.600
30
0.0
40
6.564
1
静岡県静岡市葵区流通センター１６番
41
0.963
50
0.000
100
AcDbText
0
TEXT
5
a4a
100
AcDbEntity
8
F-F
62
3
370
-3
100
AcDbText
10
100.135
20
68.250
30
0.0
40
4.923
1
株
41
0.999
50
0.000
100
AcDbText
0
TEXT
5
a4b
100
AcDbEntity
8
F-F
62
3
370
-3
100
AcDbText
10
107.285
20
61.000
30
0.0
40
4.923
1
社
41
0.999
50
0.000
100
AcDbText
0
TEXT
5
a4c
100
AcDbEntity
8
F-F
62
3
370
-3
100
AcDbText
10
100.085
20
61.000
30
0.0
40
4.923
1
会
41
0.999
50
0.000
100
AcDbText
0
TEXT
5
a4d
100
AcDbEntity
8
F-F
62
3
370
-3
100
AcDbText
10
106.885
20
68.050
30
0.0
40
4.923
1
式
41
0.999
50
0.000
100
AcDbText
0
TEXT
5
a4e
100
AcDbEntity
8
0-2
62
3
370
-3
100
AcDbText
10
993.624
20
256.835
30
0.0
40
8.205
1
（甲丸形・羽根型）
41
0.942
50
0.000
100
AcDbText
0
TEXT
5
a4f
100
AcDbEntity
8
0-2
62
3
370
-3
100
AcDbText
10
989.378
20
272.217
30
0.0
40
13.127
1
タイトフレーム
41
0.963
50
0.000
100
AcDbText
0
TEXT
5
a50
100
AcDbEntity
8
0-2
62
3
370
-3
100
AcDbText
10
640.107
20
513.831
30
0.0
40
13.127
1
吊子
41
0.963
50
0.000
100
AcDbText
0
TEXT
5
a51
100
AcDbEntity
8
0-2
62
3
370
-3
100
AcDbText
10
573.942
20
487.293
30
0.0
40
13.127
1
ルーフバンド
41
0.963
50
360.000
100
AcDbText
0
TEXT
5
a52
100
AcDbEntity
8
0-2
62
3
370
-3
100
AcDbText
10
876.463
20
531.962
30
0.0
40
13.127
41
0.658
50
0.000
1
300
72
1
11
889.625
21
530.503
31
0.0
100
AcDbText
73
1
0
TEXT
5
a53
100
AcDbEntity
8
0-2
62
3
370
-3
100
AcDbText
10
1176.463
20
531.962
30
0.0
40
13.127
41
0.658
50
0.000
1
300
72
1
11
1189.625
21
530.503
31
0.0
100
AcDbText
73
1
0
TEXT
5
a54
100
AcDbEntity
8
0-2
62
3
370
-3
100
AcDbText
10
1244.590
20
454.416
30
0.0
40
13.127
41
0.567
50
90.000
1
83
72
1
11
1246.049
21
463.191
31
0.0
100
AcDbText
73
1
0
TEXT
5
a55
100
AcDbEntity
8
0-2
62
3
370
-3
100
AcDbText
10
1338.327
20
386.916
30
0.0
40
13.127
1
12
41
0.675
50
0.000
100
AcDbText
0
TEXT
5
a56
100
AcDbEntity
8
0-2
62
3
370
-3
100
AcDbText
10
1026.463
20
556.962
30
0.0
40
13.127
41
0.653
50
0.000
1
600
72
1
11
1039.625
21
555.503
31
0.0
100
AcDbText
73
1
0
TEXT
5
a57
100
AcDbEntity
8
0-2
62
3
370
-3
100
AcDbText
10
651.463
20
556.962
30
0.0
40
13.127
41
0.633
50
0.000
1
@600
72
1
11
669.013
21
555.503
31
0.0
100
AcDbText
73
1
0
TEXT
5
a58
100
AcDbEntity
8
0-2
62
3
370
-3
100
AcDbText
10
1392.463
20
556.962
30
0.0
40
13.127
41
0.633
50
0.000
1
@600
72
1
11
1410.013
21
555.503
31
0.0
100
AcDbText
73
1
0
TEXT
5
a59
100
AcDbEntity
8
0-0
62
3
370
-3
100
AcDbText
10
876.463
20
726.565
30
0.0
40
13.127
41
0.677
50
0.000
1
176
72
1
11
889.625
21
725.107
31
0.0
100
AcDbText
73
1
0
TEXT
5
a5a
100
AcDbEntity
8
0-0
62
3
370
-3
100
AcDbText
10
1176.463
20
726.565
30
0.0
40
13.127
41
0.677
50
0.000
1
176
72
1
11
1189.625
21
725.107
31
0.0
100
AcDbText
73
1
0
TEXT
5
a5b
100
AcDbEntity
8
0-0
62
3
370
-3
100
AcDbText
10
1026.463
20
940.560
30
0.0
40
13.127
41
0.653
50
0.000
1
600
72
1
11
1039.625
21
939.101
31
0.0
100
AcDbText
73
1
0
TEXT
5
a5c
100
AcDbEntity
8
0-0
62
3
370
-3
100
AcDbText
10
876.463
20
920.560
30
0.0
40
13.127
41
0.658
50
0.000
1
300
72
1
11
889.625
21
919.101
31
0.0
100
AcDbText
73
1
0
TEXT
5
a5d
100
AcDbEntity
8
0-0
62
3
370
-3
100
AcDbText
10
1176.463
20
920.560
30
0.0
40
13.127
41
0.658
50
0.000
1
300
72
1
11
1189.625
21
919.101
31
0.0
100
AcDbText
73
1
0
TEXT
5
a5e
100
AcDbEntity
8
0-0
62
3
370
-3
100
AcDbText
10
1030.963
20
880.560
30
0.0
40
13.127
41
0.568
50
0.000
1
66
72
1
11
1039.738
21
879.101
31
0.0
100
AcDbText
73
1
0
TEXT
5
a5f
100
AcDbEntity
8
0-0
62
3
370
-3
100
AcDbText
10
730.974
20
880.560
30
0.0
40
13.127
41
0.561
50
0.000
1
68
72
1
11
739.749
21
879.101
31
0.0
100
AcDbText
73
1
0
TEXT
5
a60
100
AcDbEntity
8
0-0
62
3
370
-3
100
AcDbText
10
826.298
20
796.795
30
0.0
40
13.127
41
0.567
50
90.000
1
83
72
1
11
827.757
21
805.570
31
0.0
100
AcDbText
73
1
0
TEXT
5
a61
100
AcDbEntity
8
0-2
62
3
370
-3
100
AcDbText
10
1244.590
20
354.691
30
0.0
40
13.127
41
0.710
50
90.000
1
105
72
1
11
1246.049
21
367.854
31
0.0
100
AcDbText
73
1
0
TEXT
5
a62
100
AcDbEntity
8
0-2
62
3
370
-3
100
AcDbText
10
1338.327
20
305.889
30
0.0
40
13.127
1
12
41
0.675
50
0.000
100
AcDbText
0
TEXT
5
a63
100
AcDbEntity
8
0-2
62
3
370
-3
100
AcDbText
10
839.168
20
464.216
30
0.0
40
11.486
1
断熱材：グラスウール
41
0.979
50
0.000
100
AcDbText
0
MTEXT
5
a64
100
AcDbEntity
8
0-2
62
3
370
-3
100
AcDbMText
10
839.168
20
442.939
30
0.0
40
10.848
41
0.000
71
7
72
1
1
\W1.111;{\W0.800;t=100mm 10kg/}ｍ
7
STANDARD
11
1.00000
21
0.00000
31
0.0
0
TEXT
5
a65
100
AcDbEntity
8
0-2
62
3
370
-3
100
AcDbText
10
955.624
20
449.614
30
0.0
40
8.205
1
3
41
0.568
50
0.001
100
AcDbText
0
TEXT
5
a66
100
AcDbEntity
8
0-2
62
3
370
-3
100
AcDbText
10
1104.228
20
465.590
30
0.0
40
11.486
1
断熱金具２型
41
0.979
50
0.000
100
AcDbText
0
TEXT
5
a67
100
AcDbEntity
8
0-2
62
3
370
-3
100
AcDbText
10
799.401
20
488.611
30
0.0
40
13.127
1
Ｈルーフ６００
41
0.963
50
0.000
100
AcDbText
0
TEXT
5
a68
100
AcDbEntity
8
0-1
62
3
370
-3
100
AcDbText
10
226.009
20
272.956
30
0.0
40
11.486
1
タイトフレーム
41
0.979
50
0.000
100
AcDbText
0
TEXT
5
a69
100
AcDbEntity
8
0-1
62
3
370
-3
100
AcDbText
10
372.393
20
328.887
30
0.0
40
13.127
41
0.597
50
0.000
1
39
72
1
11
381.168
21
327.428
31
0.0
100
AcDbText
73
1
0
TEXT
5
a6a
100
AcDbEntity
8
0-1
62
3
370
-3
100
AcDbText
10
216.874
20
477.891
30
0.0
40
13.127
41
0.597
50
89.999
1
34
72
1
11
218.333
21
486.666
31
0.0
100
AcDbText
73
1
0
TEXT
5
a6b
100
AcDbEntity
8
0-1
62
3
370
-3
100
AcDbText
10
196.875
20
298.692
30
0.0
40
13.127
41
0.675
50
90.000
1
12
72
1
11
198.333
21
307.467
31
0.0
100
AcDbText
73
1
0
TEXT
5
a6c
100
AcDbEntity
8
0-1
62
3
370
-3
100
AcDbText
10
196.875
20
453.391
30
0.0
40
13.127
41
0.567
50
90.000
1
83
72
1
11
198.333
21
462.166
31
0.0
100
AcDbText
73
1
0
TEXT
5
a6d
100
AcDbEntity
8
0-1
62
3
370
-3
100
AcDbText
10
196.875
20
353.892
30
0.0
40
13.127
41
0.710
50
90.000
1
105
72
1
11
198.333
21
367.054
31
0.0
100
AcDbText
73
1
0
TEXT
5
a6e
100
AcDbEntity
8
0-1
62
3
370
-3
100
AcDbText
10
389.321
20
521.181
30
0.0
40
11.486
1
断熱金具２型
41
0.979
50
0.000
100
AcDbText
0
TEXT
5
a6f
100
AcDbEntity
8
0-1
62
3
370
-3
100
AcDbText
10
230.333
20
257.874
30
0.0
40
8.205
1
（甲丸形・羽根型）
41
0.942
50
0.000
100
AcDbText
0
TEXT
5
a70
100
AcDbEntity
8
F-F
62
3
370
-3
100
AcDbText
10
1317.846
20
34.290
30
0.0
40
6.564
1
コイケＨルーフ６００Ｗ　折板　断面図
41
0.963
50
0.000
100
AcDbText
0
TEXT
5
a71
100
AcDbEntity
8
F-F
62
3
370
-3
100
AcDbText
10
1568.835
20
61.186
30
0.0
40
8.205
1
KH600W-01
41
0.603
50
0.000
100
AcDbText
0
TEXT
5
a72
100
AcDbEntity
8
F-F
62
3
370
-3
100
AcDbText
10
1222.716
20
31.565
30
0.0
40
4.923
1
MA 2015-05-28
41
0.645
50
0.000
100
AcDbText
0
POLYLINE
5
a73
100
AcDbEntity
  8
F-F
6
CONTINUOUS
62
3
100
AcDb2dPolyline
66
1
10
0
20
0
70
1
40
0.800
41
0.800
0
VERTEX
5
a74
100
AcDbEntity
  8
F-F
6
CONTINUOUS
62
3
100
AcDbVertex
100
AcDb2dVertex
10
54.357
20
1143.641
30
0.0
42
1.000
0
VERTEX
5
a75
100
AcDbEntity
  8
F-F
6
CONTINUOUS
62
3
100
AcDbVertex
100
AcDb2dVertex
10
55.157
20
1143.641
30
0.0
42
1.000
0
SEQEND
5
a76
100
AcDbEntity
  8
F-F
0
POLYLINE
5
a77
100
AcDbEntity
  8
0-2
6
CONTINUOUS
62
3
100
AcDb2dPolyline
66
1
10
0
20
0
70
1
40
0.800
41
0.800
0
VERTEX
5
a78
100
AcDbEntity
  8
0-2
6
CONTINUOUS
62
3
100
AcDbVertex
100
AcDb2dVertex
10
738.439
20
553.567
30
0.0
42
1.000
0
VERTEX
5
a79
100
AcDbEntity
  8
0-2
6
CONTINUOUS
62
3
100
AcDbVertex
100
AcDb2dVertex
10
739.239
20
553.567
30
0.0
42
1.000
0
SEQEND
5
a7a
100
AcDbEntity
  8
0-2
0
POLYLINE
5
a7b
100
AcDbEntity
  8
0-2
6
CONTINUOUS
62
3
100
AcDb2dPolyline
66
1
10
0
20
0
70
1
40
0.800
41
0.800
0
VERTEX
5
a7c
100
AcDbEntity
  8
0-2
6
CONTINUOUS
62
3
100
AcDbVertex
100
AcDb2dVertex
10
1332.597
20
381.594
30
0.0
42
1.000
0
VERTEX
5
a7d
100
AcDbEntity
  8
0-2
6
CONTINUOUS
62
3
100
AcDbVertex
100
AcDb2dVertex
10
1333.397
20
381.594
30
0.0
42
1.000
0
SEQEND
5
a7e
100
AcDbEntity
  8
0-2
0
POLYLINE
5
a7f
100
AcDbEntity
  8
0-2
6
CONTINUOUS
62
3
100
AcDb2dPolyline
66
1
10
0
20
0
70
1
40
0.800
41
0.800
0
VERTEX
5
a80
100
AcDbEntity
  8
0-2
6
CONTINUOUS
62
3
100
AcDbVertex
100
AcDb2dVertex
10
1332.597
20
394.595
30
0.0
42
1.000
0
VERTEX
5
a81
100
AcDbEntity
  8
0-2
6
CONTINUOUS
62
3
100
AcDbVertex
100
AcDb2dVertex
10
1333.397
20
394.595
30
0.0
42
1.000
0
SEQEND
5
a82
100
AcDbEntity
  8
0-2
0
POLYLINE
5
a83
100
AcDbEntity
  8
0-2
6
CONTINUOUS
62
3
100
AcDb2dPolyline
66
1
10
0
20
0
70
1
40
0.800
41
0.800
0
VERTEX
5
a84
100
AcDbEntity
  8
0-2
6
CONTINUOUS
62
3
100
AcDbVertex
100
AcDb2dVertex
10
1247.584
20
420.567
30
0.0
42
1.000
0
VERTEX
5
a85
100
AcDbEntity
  8
0-2
6
CONTINUOUS
62
3
100
AcDbVertex
100
AcDb2dVertex
10
1248.384
20
420.567
30
0.0
42
1.000
0
SEQEND
5
a86
100
AcDbEntity
  8
0-2
0
POLYLINE
5
a87
100
AcDbEntity
  8
0-2
6
CONTINUOUS
62
3
100
AcDb2dPolyline
66
1
10
0
20
0
70
1
40
0.800
41
0.800
0
VERTEX
5
a88
100
AcDbEntity
  8
0-2
6
CONTINUOUS
62
3
100
AcDbVertex
100
AcDb2dVertex
10
1338.439
20
553.567
30
0.0
42
1.000
0
VERTEX
5
a89
100
AcDbEntity
  8
0-2
6
CONTINUOUS
62
3
100
AcDbVertex
100
AcDb2dVertex
10
1339.239
20
553.567
30
0.0
42
1.000
0
SEQEND
5
a8a
100
AcDbEntity
  8
0-2
0
POLYLINE
5
a8b
100
AcDbEntity
  8
0-2
6
CONTINUOUS
62
3
100
AcDb2dPolyline
66
1
10
0
20
0
70
1
40
0.800
41
0.800
0
VERTEX
5
a8c
100
AcDbEntity
  8
0-2
6
CONTINUOUS
62
3
100
AcDbVertex
100
AcDb2dVertex
10
1038.439
20
528.567
30
0.0
42
1.000
0
VERTEX
5
a8d
100
AcDbEntity
  8
0-2
6
CONTINUOUS
62
3
100
AcDbVertex
100
AcDb2dVertex
10
1039.239
20
528.567
30
0.0
42
1.000
0
SEQEND
5
a8e
100
AcDbEntity
  8
0-2
0
POLYLINE
5
a8f
100
AcDbEntity
  8
0-2
6
CONTINUOUS
62
3
100
AcDb2dPolyline
66
1
10
0
20
0
70
1
40
0.800
41
0.800
0
VERTEX
5
a90
100
AcDbEntity
  8
0-2
6
CONTINUOUS
62
3
100
AcDbVertex
100
AcDb2dVertex
10
738.439
20
528.567
30
0.0
42
1.000
0
VERTEX
5
a91
100
AcDbEntity
  8
0-2
6
CONTINUOUS
62
3
100
AcDbVertex
100
AcDb2dVertex
10
739.239
20
528.567
30
0.0
42
1.000
0
SEQEND
5
a92
100
AcDbEntity
  8
0-2
0
POLYLINE
5
a93
100
AcDbEntity
  8
0-2
6
CONTINUOUS
62
3
100
AcDb2dPolyline
66
1
10
0
20
0
70
1
40
0.800
41
0.800
0
VERTEX
5
a94
100
AcDbEntity
  8
0-2
6
CONTINUOUS
62
3
100
AcDbVertex
100
AcDb2dVertex
10
1038.439
20
528.567
30
0.0
42
1.000
0
VERTEX
5
a95
100
AcDbEntity
  8
0-2
6
CONTINUOUS
62
3
100
AcDbVertex
100
AcDb2dVertex
10
1039.239
20
528.567
30
0.0
42
1.000
0
SEQEND
5
a96
100
AcDbEntity
  8
0-2
0
POLYLINE
5
a97
100
AcDbEntity
  8
0-2
6
CONTINUOUS
62
3
100
AcDb2dPolyline
66
1
10
0
20
0
70
1
40
0.800
41
0.800
0
VERTEX
5
a98
100
AcDbEntity
  8
0-2
6
CONTINUOUS
62
3
100
AcDbVertex
100
AcDb2dVertex
10
1338.439
20
528.567
30
0.0
42
1.000
0
VERTEX
5
a99
100
AcDbEntity
  8
0-2
6
CONTINUOUS
62
3
100
AcDbVertex
100
AcDb2dVertex
10
1339.239
20
528.567
30
0.0
42
1.000
0
SEQEND
5
a9a
100
AcDbEntity
  8
0-2
0
POLYLINE
5
a9b
100
AcDbEntity
  8
0-2
6
CONTINUOUS
62
3
100
AcDb2dPolyline
66
1
10
0
20
0
70
1
40
0.800
41
0.800
0
VERTEX
5
a9c
100
AcDbEntity
  8
0-2
6
CONTINUOUS
62
3
100
AcDbVertex
100
AcDb2dVertex
10
1247.584
20
504.017
30
0.0
42
1.000
0
VERTEX
5
a9d
100
AcDbEntity
  8
0-2
6
CONTINUOUS
62
3
100
AcDbVertex
100
AcDb2dVertex
10
1248.384
20
504.017
30
0.0
42
1.000
0
SEQEND
5
a9e
100
AcDbEntity
  8
0-2
0
POLYLINE
5
a9f
100
AcDbEntity
  8
0-0
6
CONTINUOUS
62
3
100
AcDb2dPolyline
66
1
10
0
20
0
70
1
40
0.800
41
0.800
0
VERTEX
5
aa0
100
AcDbEntity
  8
0-0
6
CONTINUOUS
62
3
100
AcDbVertex
100
AcDb2dVertex
10
1277.912
20
723.171
30
0.0
42
1.000
0
VERTEX
5
aa1
100
AcDbEntity
  8
0-0
6
CONTINUOUS
62
3
100
AcDbVertex
100
AcDb2dVertex
10
1278.712
20
723.171
30
0.0
42
1.000
0
SEQEND
5
aa2
100
AcDbEntity
  8
0-0
0
POLYLINE
5
aa3
100
AcDbEntity
  8
0-0
6
CONTINUOUS
62
3
100
AcDb2dPolyline
66
1
10
0
20
0
70
1
40
0.800
41
0.800
0
VERTEX
5
aa4
100
AcDbEntity
  8
0-0
6
CONTINUOUS
62
3
100
AcDbVertex
100
AcDb2dVertex
10
1098.965
20
723.171
30
0.0
42
1.000
0
VERTEX
5
aa5
100
AcDbEntity
  8
0-0
6
CONTINUOUS
62
3
100
AcDbVertex
100
AcDb2dVertex
10
1099.765
20
723.171
30
0.0
42
1.000
0
SEQEND
5
aa6
100
AcDbEntity
  8
0-0
0
POLYLINE
5
aa7
100
AcDbEntity
  8
0-0
6
CONTINUOUS
62
3
100
AcDb2dPolyline
66
1
10
0
20
0
70
1
40
0.800
41
0.800
0
VERTEX
5
aa8
100
AcDbEntity
  8
0-0
6
CONTINUOUS
62
3
100
AcDbVertex
100
AcDb2dVertex
10
977.912
20
723.171
30
0.0
42
1.000
0
VERTEX
5
aa9
100
AcDbEntity
  8
0-0
6
CONTINUOUS
62
3
100
AcDbVertex
100
AcDb2dVertex
10
978.712
20
723.171
30
0.0
42
1.000
0
SEQEND
5
aaa
100
AcDbEntity
  8
0-0
0
POLYLINE
5
aab
100
AcDbEntity
  8
0-0
6
CONTINUOUS
62
3
100
AcDb2dPolyline
66
1
10
0
20
0
70
1
40
0.800
41
0.800
0
VERTEX
5
aac
100
AcDbEntity
  8
0-0
6
CONTINUOUS
62
3
100
AcDbVertex
100
AcDb2dVertex
10
798.965
20
723.171
30
0.0
42
1.000
0
VERTEX
5
aad
100
AcDbEntity
  8
0-0
6
CONTINUOUS
62
3
100
AcDbVertex
100
AcDb2dVertex
10
799.765
20
723.171
30
0.0
42
1.000
0
SEQEND
5
aae
100
AcDbEntity
  8
0-0
0
POLYLINE
5
aaf
100
AcDbEntity
  8
0-0
6
CONTINUOUS
62
3
100
AcDb2dPolyline
66
1
10
0
20
0
70
1
40
0.800
41
0.800
0
VERTEX
5
ab0
100
AcDbEntity
  8
0-0
6
CONTINUOUS
62
3
100
AcDbVertex
100
AcDb2dVertex
10
738.439
20
937.165
30
0.0
42
1.000
0
VERTEX
5
ab1
100
AcDbEntity
  8
0-0
6
CONTINUOUS
62
3
100
AcDbVertex
100
AcDb2dVertex
10
739.239
20
937.165
30
0.0
42
1.000
0
SEQEND
5
ab2
100
AcDbEntity
  8
0-0
0
POLYLINE
5
ab3
100
AcDbEntity
  8
0-0
6
CONTINUOUS
62
3
100
AcDb2dPolyline
66
1
10
0
20
0
70
1
40
0.800
41
0.800
0
VERTEX
5
ab4
100
AcDbEntity
  8
0-0
6
CONTINUOUS
62
3
100
AcDbVertex
100
AcDb2dVertex
10
1338.439
20
937.165
30
0.0
42
1.000
0
VERTEX
5
ab5
100
AcDbEntity
  8
0-0
6
CONTINUOUS
62
3
100
AcDbVertex
100
AcDb2dVertex
10
1339.239
20
937.165
30
0.0
42
1.000
0
SEQEND
5
ab6
100
AcDbEntity
  8
0-0
0
POLYLINE
5
ab7
100
AcDbEntity
  8
0-0
6
CONTINUOUS
62
3
100
AcDb2dPolyline
66
1
10
0
20
0
70
1
40
0.800
41
0.800
0
VERTEX
5
ab8
100
AcDbEntity
  8
0-0
6
CONTINUOUS
62
3
100
AcDbVertex
100
AcDb2dVertex
10
738.439
20
917.165
30
0.0
42
1.000
0
VERTEX
5
ab9
100
AcDbEntity
  8
0-0
6
CONTINUOUS
62
3
100
AcDbVertex
100
AcDb2dVertex
10
739.239
20
917.165
30
0.0
42
1.000
0
SEQEND
5
aba
100
AcDbEntity
  8
0-0
0
POLYLINE
5
abb
100
AcDbEntity
  8
0-0
6
CONTINUOUS
62
3
100
AcDb2dPolyline
66
1
10
0
20
0
70
1
40
0.800
41
0.800
0
VERTEX
5
abc
100
AcDbEntity
  8
0-0
6
CONTINUOUS
62
3
100
AcDbVertex
100
AcDb2dVertex
10
1038.439
20
917.165
30
0.0
42
1.000
0
VERTEX
5
abd
100
AcDbEntity
  8
0-0
6
CONTINUOUS
62
3
100
AcDbVertex
100
AcDb2dVertex
10
1039.239
20
917.165
30
0.0
42
1.000
0
SEQEND
5
abe
100
AcDbEntity
  8
0-0
0
POLYLINE
5
abf
100
AcDbEntity
  8
0-0
6
CONTINUOUS
62
3
100
AcDb2dPolyline
66
1
10
0
20
0
70
1
40
0.800
41
0.800
0
VERTEX
5
ac0
100
AcDbEntity
  8
0-0
6
CONTINUOUS
62
3
100
AcDbVertex
100
AcDb2dVertex
10
1338.439
20
917.165
30
0.0
42
1.000
0
VERTEX
5
ac1
100
AcDbEntity
  8
0-0
6
CONTINUOUS
62
3
100
AcDbVertex
100
AcDb2dVertex
10
1339.239
20
917.165
30
0.0
42
1.000
0
SEQEND
5
ac2
100
AcDbEntity
  8
0-0
0
POLYLINE
5
ac3
100
AcDbEntity
  8
0-0
6
CONTINUOUS
62
3
100
AcDb2dPolyline
66
1
10
0
20
0
70
1
40
0.800
41
0.800
0
VERTEX
5
ac4
100
AcDbEntity
  8
0-0
6
CONTINUOUS
62
3
100
AcDbVertex
100
AcDb2dVertex
10
1071.439
20
877.165
30
0.0
42
1.000
0
VERTEX
5
ac5
100
AcDbEntity
  8
0-0
6
CONTINUOUS
62
3
100
AcDbVertex
100
AcDb2dVertex
10
1072.239
20
877.165
30
0.0
42
1.000
0
SEQEND
5
ac6
100
AcDbEntity
  8
0-0
0
POLYLINE
5
ac7
100
AcDbEntity
  8
0-0
6
CONTINUOUS
62
3
100
AcDb2dPolyline
66
1
10
0
20
0
70
1
40
0.800
41
0.800
0
VERTEX
5
ac8
100
AcDbEntity
  8
0-0
6
CONTINUOUS
62
3
100
AcDbVertex
100
AcDb2dVertex
10
1005.439
20
877.165
30
0.0
42
1.000
0
VERTEX
5
ac9
100
AcDbEntity
  8
0-0
6
CONTINUOUS
62
3
100
AcDbVertex
100
AcDb2dVertex
10
1006.239
20
877.165
30
0.0
42
1.000
0
SEQEND
5
aca
100
AcDbEntity
  8
0-0
0
POLYLINE
5
acb
100
AcDbEntity
  8
0-0
6
CONTINUOUS
62
3
100
AcDb2dPolyline
66
1
10
0
20
0
70
1
40
0.800
41
0.800
0
VERTEX
5
acc
100
AcDbEntity
  8
0-0
6
CONTINUOUS
62
3
100
AcDbVertex
100
AcDb2dVertex
10
772.462
20
877.165
30
0.0
42
1.000
0
VERTEX
5
acd
100
AcDbEntity
  8
0-0
6
CONTINUOUS
62
3
100
AcDbVertex
100
AcDb2dVertex
10
773.262
20
877.165
30
0.0
42
1.000
0
SEQEND
5
ace
100
AcDbEntity
  8
0-0
0
POLYLINE
5
acf
100
AcDbEntity
  8
0-0
6
CONTINUOUS
62
3
100
AcDb2dPolyline
66
1
10
0
20
0
70
1
40
0.800
41
0.800
0
VERTEX
5
ad0
100
AcDbEntity
  8
0-0
6
CONTINUOUS
62
3
100
AcDbVertex
100
AcDb2dVertex
10
704.439
20
877.165
30
0.0
42
1.000
0
VERTEX
5
ad1
100
AcDbEntity
  8
0-0
6
CONTINUOUS
62
3
100
AcDbVertex
100
AcDb2dVertex
10
705.239
20
877.165
30
0.0
42
1.000
0
SEQEND
5
ad2
100
AcDbEntity
  8
0-0
0
POLYLINE
5
ad3
100
AcDbEntity
  8
0-0
6
CONTINUOUS
62
3
100
AcDb2dPolyline
66
1
10
0
20
0
70
1
40
0.800
41
0.800
0
VERTEX
5
ad4
100
AcDbEntity
  8
0-0
6
CONTINUOUS
62
3
100
AcDbVertex
100
AcDb2dVertex
10
829.293
20
763.171
30
0.0
42
1.000
0
VERTEX
5
ad5
100
AcDbEntity
  8
0-0
6
CONTINUOUS
62
3
100
AcDbVertex
100
AcDb2dVertex
10
830.093
20
763.171
30
0.0
42
1.000
0
SEQEND
5
ad6
100
AcDbEntity
  8
0-0
0
POLYLINE
5
ad7
100
AcDbEntity
  8
0-0
6
CONTINUOUS
62
3
100
AcDb2dPolyline
66
1
10
0
20
0
70
1
40
0.800
41
0.800
0
VERTEX
5
ad8
100
AcDbEntity
  8
0-0
6
CONTINUOUS
62
3
100
AcDbVertex
100
AcDb2dVertex
10
829.293
20
846.171
30
0.0
42
1.000
0
VERTEX
5
ad9
100
AcDbEntity
  8
0-0
6
CONTINUOUS
62
3
100
AcDbVertex
100
AcDb2dVertex
10
830.093
20
846.171
30
0.0
42
1.000
0
SEQEND
5
ada
100
AcDbEntity
  8
0-0
0
POLYLINE
5
adb
100
AcDbEntity
  8
0-2
6
CONTINUOUS
62
3
100
AcDb2dPolyline
66
1
10
0
20
0
70
1
40
0.800
41
0.800
0
VERTEX
5
adc
100
AcDbEntity
  8
0-2
6
CONTINUOUS
62
3
100
AcDbVertex
100
AcDb2dVertex
10
1247.584
20
313.567
30
0.0
42
1.000
0
VERTEX
5
add
100
AcDbEntity
  8
0-2
6
CONTINUOUS
62
3
100
AcDbVertex
100
AcDb2dVertex
10
1248.384
20
313.567
30
0.0
42
1.000
0
SEQEND
5
ade
100
AcDbEntity
  8
0-2
0
POLYLINE
5
adf
100
AcDbEntity
  8
0-2
6
CONTINUOUS
62
3
100
AcDb2dPolyline
66
1
10
0
20
0
70
1
40
0.800
41
0.800
0
VERTEX
5
ae0
100
AcDbEntity
  8
0-2
6
CONTINUOUS
62
3
100
AcDbVertex
100
AcDb2dVertex
10
1332.597
20
300.567
30
0.0
42
1.000
0
VERTEX
5
ae1
100
AcDbEntity
  8
0-2
6
CONTINUOUS
62
3
100
AcDbVertex
100
AcDb2dVertex
10
1333.397
20
300.567
30
0.0
42
1.000
0
SEQEND
5
ae2
100
AcDbEntity
  8
0-2
0
POLYLINE
5
ae3
100
AcDbEntity
  8
0-2
6
CONTINUOUS
62
3
100
AcDb2dPolyline
66
1
10
0
20
0
70
1
40
0.800
41
0.800
0
VERTEX
5
ae4
100
AcDbEntity
  8
0-2
6
CONTINUOUS
62
3
100
AcDbVertex
100
AcDb2dVertex
10
1332.597
20
313.567
30
0.0
42
1.000
0
VERTEX
5
ae5
100
AcDbEntity
  8
0-2
6
CONTINUOUS
62
3
100
AcDbVertex
100
AcDb2dVertex
10
1333.397
20
313.567
30
0.0
42
1.000
0
SEQEND
5
ae6
100
AcDbEntity
  8
0-2
0
POLYLINE
5
ae7
100
AcDbEntity
  8
0-2
6
CONTINUOUS
62
3
100
AcDb2dPolyline
66
1
10
0
20
0
70
1
40
0.800
41
0.800
0
VERTEX
5
ae8
100
AcDbEntity
  8
0-2
6
CONTINUOUS
62
3
100
AcDbVertex
100
AcDb2dVertex
10
723.915
20
481.339
30
0.0
42
1.000
0
VERTEX
5
ae9
100
AcDbEntity
  8
0-2
6
CONTINUOUS
62
3
100
AcDbVertex
100
AcDb2dVertex
10
724.715
20
481.339
30
0.0
42
1.000
0
SEQEND
5
aea
100
AcDbEntity
  8
0-2
0
POLYLINE
5
aeb
100
AcDbEntity
  8
0-2
6
CONTINUOUS
62
3
100
AcDb2dPolyline
66
1
10
0
20
0
70
1
40
0.800
41
0.800
0
VERTEX
5
aec
100
AcDbEntity
  8
0-2
6
CONTINUOUS
62
3
100
AcDbVertex
100
AcDb2dVertex
10
706.385
20
479.996
30
0.0
42
1.000
0
VERTEX
5
aed
100
AcDbEntity
  8
0-2
6
CONTINUOUS
62
3
100
AcDbVertex
100
AcDb2dVertex
10
707.185
20
479.996
30
0.0
42
1.000
0
SEQEND
5
aee
100
AcDbEntity
  8
0-2
0
POLYLINE
5
aef
100
AcDbEntity
  8
0-2
6
CONTINUOUS
62
3
100
AcDb2dPolyline
66
1
10
0
20
0
70
1
40
0.800
41
0.800
0
VERTEX
5
af0
100
AcDbEntity
  8
0-2
6
CONTINUOUS
62
3
100
AcDbVertex
100
AcDb2dVertex
10
798.270
20
422.697
30
0.0
42
1.000
0
VERTEX
5
af1
100
AcDbEntity
  8
0-2
6
CONTINUOUS
62
3
100
AcDbVertex
100
AcDb2dVertex
10
799.070
20
422.697
30
0.0
42
1.000
0
SEQEND
5
af2
100
AcDbEntity
  8
0-2
0
POLYLINE
5
af3
100
AcDbEntity
  8
0-2
6
CONTINUOUS
62
3
100
AcDb2dPolyline
66
1
10
0
20
0
70
1
40
0.800
41
0.800
0
VERTEX
5
af4
100
AcDbEntity
  8
0-2
6
CONTINUOUS
62
3
100
AcDbVertex
100
AcDb2dVertex
10
821.690
20
390.537
30
0.0
42
1.000
0
VERTEX
5
af5
100
AcDbEntity
  8
0-2
6
CONTINUOUS
62
3
100
AcDbVertex
100
AcDb2dVertex
10
822.490
20
390.537
30
0.0
42
1.000
0
SEQEND
5
af6
100
AcDbEntity
  8
0-2
0
POLYLINE
5
af7
100
AcDbEntity
  8
0-2
6
CONTINUOUS
62
3
100
AcDb2dPolyline
66
1
10
0
20
0
70
1
40
0.800
41
0.800
0
VERTEX
5
af8
100
AcDbEntity
  8
0-2
6
CONTINUOUS
62
3
100
AcDbVertex
100
AcDb2dVertex
10
1079.336
20
327.177
30
0.0
42
1.000
0
VERTEX
5
af9
100
AcDbEntity
  8
0-2
6
CONTINUOUS
62
3
100
AcDbVertex
100
AcDb2dVertex
10
1080.136
20
327.177
30
0.0
42
1.000
0
SEQEND
5
afa
100
AcDbEntity
  8
0-2
0
POLYLINE
5
afb
100
AcDbEntity
  8
0-2
6
CONTINUOUS
62
3
100
AcDb2dPolyline
66
1
10
0
20
0
70
1
40
0.800
41
0.800
0
VERTEX
5
afc
100
AcDbEntity
  8
0-2
6
CONTINUOUS
62
3
100
AcDbVertex
100
AcDb2dVertex
10
1065.714
20
442.831
30
0.0
42
1.000
0
VERTEX
5
afd
100
AcDbEntity
  8
0-2
6
CONTINUOUS
62
3
100
AcDbVertex
100
AcDb2dVertex
10
1066.514
20
442.831
30
0.0
42
1.000
0
SEQEND
5
afe
100
AcDbEntity
  8
0-2
0
POLYLINE
5
aff
100
AcDbEntity
  8
0-1
6
CONTINUOUS
62
3
100
AcDb2dPolyline
66
1
10
0
20
0
70
1
40
0.800
41
0.800
0
VERTEX
5
b00
100
AcDbEntity
  8
0-1
6
CONTINUOUS
62
3
100
AcDbVertex
100
AcDb2dVertex
10
361.119
20
323.492
30
0.0
42
1.000
0
VERTEX
5
b01
100
AcDbEntity
  8
0-1
6
CONTINUOUS
62
3
100
AcDbVertex
100
AcDb2dVertex
10
361.919
20
323.492
30
0.0
42
1.000
0
SEQEND
5
b02
100
AcDbEntity
  8
0-1
0
POLYLINE
5
b03
100
AcDbEntity
  8
0-1
6
CONTINUOUS
62
3
100
AcDb2dPolyline
66
1
10
0
20
0
70
1
40
0.800
41
0.800
0
VERTEX
5
b04
100
AcDbEntity
  8
0-1
6
CONTINUOUS
62
3
100
AcDbVertex
100
AcDb2dVertex
10
398.619
20
323.492
30
0.0
42
1.000
0
VERTEX
5
b05
100
AcDbEntity
  8
0-1
6
CONTINUOUS
62
3
100
AcDbVertex
100
AcDb2dVertex
10
399.419
20
323.492
30
0.0
42
1.000
0
SEQEND
5
b06
100
AcDbEntity
  8
0-1
0
POLYLINE
5
b07
100
AcDbEntity
  8
0-1
6
CONTINUOUS
62
3
100
AcDb2dPolyline
66
1
10
0
20
0
70
1
40
0.800
41
0.800
0
VERTEX
5
b08
100
AcDbEntity
  8
0-1
6
CONTINUOUS
62
3
100
AcDbVertex
100
AcDb2dVertex
10
219.869
20
468.767
30
0.0
42
1.000
0
VERTEX
5
b09
100
AcDbEntity
  8
0-1
6
CONTINUOUS
62
3
100
AcDbVertex
100
AcDb2dVertex
10
220.669
20
468.767
30
0.0
42
1.000
0
SEQEND
5
b0a
100
AcDbEntity
  8
0-1
0
POLYLINE
5
b0b
100
AcDbEntity
  8
0-1
6
CONTINUOUS
62
3
100
AcDb2dPolyline
66
1
10
0
20
0
70
1
40
0.800
41
0.800
0
VERTEX
5
b0c
100
AcDbEntity
  8
0-1
6
CONTINUOUS
62
3
100
AcDbVertex
100
AcDb2dVertex
10
219.869
20
502.767
30
0.0
42
1.000
0
VERTEX
5
b0d
100
AcDbEntity
  8
0-1
6
CONTINUOUS
62
3
100
AcDbVertex
100
AcDb2dVertex
10
220.669
20
502.767
30
0.0
42
1.000
0
SEQEND
5
b0e
100
AcDbEntity
  8
0-1
0
POLYLINE
5
b0f
100
AcDbEntity
  8
0-1
6
CONTINUOUS
62
3
100
AcDb2dPolyline
66
1
10
0
20
0
70
1
40
0.800
41
0.800
0
VERTEX
5
b10
100
AcDbEntity
  8
0-1
6
CONTINUOUS
62
3
100
AcDbVertex
100
AcDb2dVertex
10
199.869
20
300.568
30
0.0
42
1.000
0
VERTEX
5
b11
100
AcDbEntity
  8
0-1
6
CONTINUOUS
62
3
100
AcDbVertex
100
AcDb2dVertex
10
200.669
20
300.568
30
0.0
42
1.000
0
SEQEND
5
b12
100
AcDbEntity
  8
0-1
0
POLYLINE
5
b13
100
AcDbEntity
  8
0-1
6
CONTINUOUS
62
3
100
AcDb2dPolyline
66
1
10
0
20
0
70
1
40
0.800
41
0.800
0
VERTEX
5
b14
100
AcDbEntity
  8
0-1
6
CONTINUOUS
62
3
100
AcDbVertex
100
AcDb2dVertex
10
199.869
20
419.767
30
0.0
42
1.000
0
VERTEX
5
b15
100
AcDbEntity
  8
0-1
6
CONTINUOUS
62
3
100
AcDbVertex
100
AcDb2dVertex
10
200.669
20
419.767
30
0.0
42
1.000
0
SEQEND
5
b16
100
AcDbEntity
  8
0-1
0
POLYLINE
5
b17
100
AcDbEntity
  8
0-1
6
CONTINUOUS
62
3
100
AcDb2dPolyline
66
1
10
0
20
0
70
1
40
0.800
41
0.800
0
VERTEX
5
b18
100
AcDbEntity
  8
0-1
6
CONTINUOUS
62
3
100
AcDbVertex
100
AcDb2dVertex
10
199.869
20
502.767
30
0.0
42
1.000
0
VERTEX
5
b19
100
AcDbEntity
  8
0-1
6
CONTINUOUS
62
3
100
AcDbVertex
100
AcDb2dVertex
10
200.669
20
502.767
30
0.0
42
1.000
0
SEQEND
5
b1a
100
AcDbEntity
  8
0-1
0
POLYLINE
5
b1b
100
AcDbEntity
  8
0-1
6
CONTINUOUS
62
3
100
AcDb2dPolyline
66
1
10
0
20
0
70
1
40
0.800
41
0.800
0
VERTEX
5
b1c
100
AcDbEntity
  8
0-1
6
CONTINUOUS
62
3
100
AcDbVertex
100
AcDb2dVertex
10
361.119
20
355.153
30
0.0
42
1.000
0
VERTEX
5
b1d
100
AcDbEntity
  8
0-1
6
CONTINUOUS
62
3
100
AcDbVertex
100
AcDb2dVertex
10
361.919
20
355.153
30
0.0
42
1.000
0
SEQEND
5
b1e
100
AcDbEntity
  8
0-1
0
POLYLINE
5
b1f
100
AcDbEntity
  8
0-1
6
CONTINUOUS
62
3
100
AcDb2dPolyline
66
1
10
0
20
0
70
1
40
0.800
41
0.800
0
VERTEX
5
b20
100
AcDbEntity
  8
0-1
6
CONTINUOUS
62
3
100
AcDbVertex
100
AcDb2dVertex
10
199.869
20
312.768
30
0.0
42
1.000
0
VERTEX
5
b21
100
AcDbEntity
  8
0-1
6
CONTINUOUS
62
3
100
AcDbVertex
100
AcDb2dVertex
10
200.669
20
312.768
30
0.0
42
1.000
0
SEQEND
5
b22
100
AcDbEntity
  8
0-1
0
POLYLINE
5
b23
100
AcDbEntity
  8
0-1
6
CONTINUOUS
62
3
100
AcDb2dPolyline
66
1
10
0
20
0
70
1
40
0.800
41
0.800
0
VERTEX
5
b24
100
AcDbEntity
  8
0-1
6
CONTINUOUS
62
3
100
AcDbVertex
100
AcDb2dVertex
10
393.537
20
488.167
30
0.0
42
1.000
0
VERTEX
5
b25
100
AcDbEntity
  8
0-1
6
CONTINUOUS
62
3
100
AcDbVertex
100
AcDb2dVertex
10
394.337
20
488.167
30
0.0
42
1.000
0
SEQEND
5
b26
100
AcDbEntity
  8
0-1
0
ENDSEC
 0
SECTION
  2
OBJECTS
 0
DICTIONARY
  5
C
100
AcDbDictionary
  3
ACAD_GROUP
350
D
  3
ACAD_MLINESTYLE
350
E
 0
DICTIONARY
  5
D
102
{ACAD_REACTORS
102
}
100
AcDbDictionary
 0
DICTIONARY
  5
E
102
{ACAD_REACTORS
102
}
100
AcDbDictionary
  3
STANDARD
350
13
0
MLINESTYLE
  5
13
102
{ACAD_REACTORS
102
}
100
AcDbMlineStyle
  2
STANDARD
 70
    0
3

62
256
51
90.0
52
90.0
71
0
0
ACDBPLACEHOLDER
  5
14
102
{ACAD_REACTORS
102
}
0
ENDSEC
0
EOF
