0
SECTION
2
HEADER
9
$ACADVER
1
AC1015
9
$ACADMAINTVER
 70
6
9
$DWGCODEPAGE
3
ANSI_932
9
$EXTMIN
10
0.000
20
0.000
30
0.0
9
$EXTMAX
10
1682.000
20
1188.000
30
0.0
9
$LIMMIN
10
0.000
20
0.000
9
$LIMMAX
10
1682.000
20
1188.000
9
$DIMSCALE
40
2.000000
9
$LTSCALE
40
2.000
9
$PDMODE
70
0
9
$PDSIZE
40
40.0
9
$HANDSEED
5
61da8
9
$UNITMODE
70
0
9
$VISRETAIN
70
0
9
$PLINEGEN
70
0
9
$PSLTSCALE
70
1
9
$TREEDEPTH
70
3020
9
$CMLSTYLE
2
STANDARD
9
$CMLJUST
70
0
9
$CMLSCALE
40
1.0
9
$PROXYGRAPHICS
70
1
9
$MEASUREMENT
70
0
9
$CELWEIGHT
370
-1
9
$ENDCAPS
280
0
9
$JOINSTYLE
280
0
9
$LWDISPLAY
290
0
9
$INSUNITS
70
0
9
$HYPERLINKBASE
1

9
$STYLESHEET
1

9
$XEDIT
290
1
9
$CEPSNTYPE
380
0
9
$PSTYLEMODE
290
1
9
$FINGERPRINTGUID
2
{5F082321-0195-11D3-BDFB-0060B0CD5109}
9
$VERSIONGUID
2
{12943756-294D-11D3-98C2-0060B087942D}
9
$EXTNAMES
290
1
9
$PSVPSCALE
40
0.0
9
$OLESTARTUP
290
0
0
ENDSEC
0
SECTION
  2
CLASSES
0
ENDSEC
0
SECTION
2
TABLES
0
TABLE
2
VPORT
5
190
100
AcDbSymbolTable
70
2
0
VPORT
5
191
100
AcDbSymbolTableRecord
100
AcDbViewportTableRecord
2
*ACTIVE
70
0
10
0.0
20
0.0
11
1.0
21
1.0
12
841.000
22
594.000
13
0.0
23
0.0
14
1.0
24
1.0
15
0.0
25
0.0
16
0.0
26
0.0
36
1.0
17
0.0
27
0.0
37
0.0
40
1218.841
41
2.0
42
50.0
43
0.0
44
0.0
50
0.0
51
0.0
71
0
72
1000
73
1
74
1
75
0
76
0
77
0
78
0
0
ENDTAB
0
TABLE
2
LTYPE
5
1f4
100
AcDbSymbolTable
70
9
0
LTYPE
5
1f5
100
AcDbSymbolTableRecord
100
AcDbLinetypeTableRecord
2
BYBLOCK
70
 64
3

72
 65
73
  0
40
0.0
0
LTYPE
5
1f6
100
AcDbSymbolTableRecord
100
AcDbLinetypeTableRecord
2
BYLAYER
70
 64
3

72
 65
73
  0
40
0.0
0
LTYPE
5
1f7
100
AcDbSymbolTableRecord
100
AcDbLinetypeTableRecord
2
CONTINUOUS
70
64
3
SolidLine
72
65
73
0
40
0.0
0
LTYPE
5
1f8
100
AcDbSymbolTableRecord
100
AcDbLinetypeTableRecord
2
DOT
70
64
3
--  --  --  --  --  --  --  --     
72
65
73
2
40
3.000
49
1.000
74
0
49
-2.000
74
0
0
LTYPE
5
1f9
100
AcDbSymbolTableRecord
100
AcDbLinetypeTableRecord
2
DASHED
70
64
3
----    ----    ----    ----    
72
65
73
2
40
5.000
49
2.000
74
0
49
-3.000
74
0
0
LTYPE
5
1fa
100
AcDbSymbolTableRecord
100
AcDbLinetypeTableRecord
2
DASHED2
70
64
3
------  ------  ------  ------ 
72
65
73
2
40
10.000
49
4.000
74
0
49
-6.000
74
0
0
LTYPE
5
1fb
100
AcDbSymbolTableRecord
100
AcDbLinetypeTableRecord
2
CENTER
70
64
3
----- - ----- - ----- - ----- - 
72
65
73
4
40
10.000
49
6.000
74
0
49
-3.000
74
0
49
1.000
74
0
49
-3.000
74
0
0
LTYPE
5
1fc
100
AcDbSymbolTableRecord
100
AcDbLinetypeTableRecord
2
CENTER2
70
64
3
----------  --  ----------  -- 
72
65
73
4
40
17.000
49
12.000
74
0
49
-5.000
74
0
49
2.000
74
0
49
-5.000
74
0
0
LTYPE
5
1fd
100
AcDbSymbolTableRecord
100
AcDbLinetypeTableRecord
2
PHANTOM
70
64
3
--- - - --- - - --- - - --- - -
72
65
73
6
40
13.000
49
5.000
74
0
49
-3.000
74
0
49
1.000
74
0
49
-3.000
74
0
49
1.000
74
0
49
-3.000
74
0
0
LTYPE
5
1fe
100
AcDbSymbolTableRecord
100
AcDbLinetypeTableRecord
2
PHANTOM2
70
64
3
--------  -  -  --------  -  -
72
65
73
6
40
20.000
49
6.000
74
0
49
-5.000
74
0
49
2.000
74
0
49
-5.000
74
0
49
2.000
74
0
49
-5.000
74
0
0
LTYPE
5
1ff
100
AcDbSymbolTableRecord
100
AcDbLinetypeTableRecord
2
HIDDEN
70
64
3
-   -   -   -   -   -   -   -   
72
65
73
2
40
3.000
49
0.500
74
0
49
-2.500
74
0
0
ENDTAB
0
TABLE
2
STYLE
5
200
100
AcDbSymbolTable
70
1
0
STYLE
5
201
100
AcDbSymbolTableRecord
100
AcDbTextStyleTableRecord
2
STANDARD
70
0
40
0.0
41
1.0
50
0.0
71
0
42
0.0
3
txt.shx
4
extfont.shx
0
STYLE
5
202
100
AcDbSymbolTableRecord
100
AcDbTextStyleTableRecord
2
TATEGAKI
70
4
40
0.0
41
1.0
50
0.0
71
0
42
0.0
3
txt.shx
4
extfont.shx
0
STYLE
5
203
100
AcDbSymbolTableRecord
100
AcDbTextStyleTableRecord
2
DIM
70
0
40
0.0
41
0.75
50
0.0
71
0
42
0.0
3
txt.shx
4
extfont.shx
0
STYLE
5
204
100
AcDbSymbolTableRecord
100
AcDbTextStyleTableRecord
2
_Gothic_
70
0
40
1.0
41
1.0
50
0.0
71
0
42
10.0
3

4

1001
ACAD
1000
MS Gothic
1071
32817
0
STYLE
5
205
100
AcDbSymbolTableRecord
100
AcDbTextStyleTableRecord
2
_TateGothic_
70
4
40
0.0
41
1.0
50
0.0
71
0
42
0.0
3
@MS Gothic
4

0
ENDTAB
0
TABLE
2
VIEW
5
206
100
AcDbSymbolTable
70
0
0
ENDTAB
0
TABLE
2
UCS
5
207
100
AcDbSymbolTable
70
0
0
ENDTAB
0
TABLE
2
APPID
5
208
100
AcDbSymbolTable
70
1
0
APPID
5
209
100
AcDbSymbolTableRecord
100
AcDbRegAppTableRecord
2
ACAD
70
0
0
ENDTAB
0
TABLE
2
DIMSTYLE
5
403
330
0
100
AcDbSymbolTable
70
1
100
AcDbDimStyleTable
71
0
0
DIMSTYLE
105
404
330
402
100
AcDbSymbolTableRecord
100
AcDbDimStyleTableRecord
2
JAC_DIM
70
0
41
4.000
42
0.000
44
0.0
73
0
74
0
77
1
78
8
79
2
140
0.000
170
0
171
2
172
0
173
0
174
0
175
0
176
0
177
0
178
0
270
2
271
0
272
0
273
2
274
2
340
201
275
0
280
0
281
0
282
0
283
0
284
0
285
0
286
0
287
3
288
0
0
ENDTAB
0
TABLE
2
BLOCK_RECORD
5
405
100
AcDbSymbolTable
70
0
0
BLOCK_RECORD
5
406
100
AcDbSymbolTableRecord
100
AcDbBlockTableRecord
2
*MODEL_SPACE
0
BLOCK_RECORD
5
407
100
AcDbSymbolTableRecord
100
AcDbBlockTableRecord
2
*PAPER_SPACE
0
BLOCK_RECORD
5
408
100
AcDbSymbolTableRecord
100
AcDbBlockTableRecord
2
_JACCONVERT_
0
ENDTAB
0
TABLE
2
LAYER
5
409
100
AcDbSymbolTable
70
10
0
LAYER
5
40a
100
AcDbSymbolTableRecord
100
AcDbLayerTableRecord
2
0
70
0
62
7
6
CONTINUOUS
370
-3
390
14
0
LAYER
5
40b
100
AcDbSymbolTableRecord
100
AcDbLayerTableRecord
2
0-0
70
0
62
7
6
CONTINUOUS
370
-3
390
14
0
LAYER
5
40c
100
AcDbSymbolTableRecord
100
AcDbLayerTableRecord
2
F-E_J_ADD
70
0
62
-7
6
CONTINUOUS
290
0
370
-3
390
14
0
LAYER
5
40d
100
AcDbSymbolTableRecord
100
AcDbLayerTableRecord
2
F-F
70
0
62
7
6
CONTINUOUS
370
-3
390
14
0
ENDTAB
0
ENDSEC
0
SECTION
2
BLOCKS
0
BLOCK
5
40e
100
AcDbEntity
67
1
8
0
100
AcDbBlockBegin
2
*MODEL_SPACE
70
0
10
0.0
20
0.0
30
0.0
3
*MODEL_SPACE
1

0
ENDBLK
5
40f
100
AcDbEntity
8
0
100
AcDbBlockEnd
0
BLOCK
5
410
100
AcDbEntity
67
1
8
0
100
AcDbBlockBegin
2
*PAPER_SPACE
70
0
10
0.0
20
0.0
30
0.0
3
*PAPER_SPACE
1

0
ENDBLK
5
411
100
AcDbEntity
67
1
8
0
100
AcDbBlockEnd
0
BLOCK
5
412
100
AcDbEntity
8
0
100
AcDbBlockBegin
2
_JACCONVERT_
70
2
10
0.0
20
0.0
30
0.0
3
_JACCONVERT_
1
_JACCONVERT_
0
ATTDEF
5
413
100
AcDbEntity
8
0
62
0
100
AcDbText
10
0.0
20
0.0
30
0.0
40
1.0
1
User:460950EB0890EC0964308A
100
AcDbAttributeDefinition
3

2
USER
70
8
0
ATTDEF
5
414
100
AcDbEntity
8
0
62
0
100
AcDbText
10
0.0
20
2.0
30
0.0
40
1.0
1
Date:15/06/15 14:42
100
AcDbAttributeDefinition
3

2
REVDATE
70
8
0
ATTDEF
5
415
100
AcDbEntity
8
0
62
0
100
AcDbText
10
0.0
20
4.0
30
0.0
40
1.0
1
File:KW800.dxf
100
AcDbAttributeDefinition
3

2
FNAME
70
8
0
ATTDEF
5
416
100
AcDbEntity
8
0
62
0
100
AcDbText
10
0.0
20
6.0
30
0.0
40
1.0
1
JacConvert Version3.09 copyright (c) 2001-2013 K.Nakahara
100
AcDbAttributeDefinition
3

2
VER
70
8
0
ENDBLK
5
417
100
AcDbEntity
67
1
8
0
100
AcDbBlockEnd
0
ENDSEC
0
SECTION
2
ENTITIES
0
LINE
5
418
100
AcDbEntity
8
F-F
6
CONTINUOUS
62
2
100
AcDbLine
10
54.760000000000
20
23.630000000000
30
0.0
11
54.760000000000
21
1143.640000000000
31
0.0
0
LINE
5
419
100
AcDbEntity
8
F-F
6
CONTINUOUS
62
2
100
AcDbLine
10
1284.760000000000
20
82.890000000000
30
0.0
11
1284.760000000000
21
23.630000000000
31
0.0
0
LINE
5
41a
100
AcDbEntity
8
F-F
6
CONTINUOUS
62
2
100
AcDbLine
10
1214.540000000000
20
82.890000000000
30
0.0
11
1214.540000000000
21
23.630000000000
31
0.0
0
LINE
5
41b
100
AcDbEntity
8
F-F
6
CONTINUOUS
62
2
100
AcDbLine
10
1537.120000000000
20
23.630000000000
30
0.0
11
1537.120000000000
21
82.890000000000
31
0.0
0
LINE
5
41c
100
AcDbEntity
8
F-F
6
CONTINUOUS
62
2
100
AcDbLine
10
806.890000000000
20
82.890000000000
30
0.0
11
806.890000000000
21
23.630000000000
31
0.0
0
LINE
5
41d
100
AcDbEntity
8
F-F
6
CONTINUOUS
62
2
100
AcDbLine
10
1009.740000000000
20
82.890000000000
30
0.0
11
1009.740000000000
21
23.630000000000
31
0.0
0
LINE
5
41e
100
AcDbEntity
8
F-F
6
CONTINUOUS
62
2
100
AcDbLine
10
806.890000000000
20
63.140000000000
30
0.0
11
369.760000000000
21
63.140000000000
31
0.0
0
LINE
5
41f
100
AcDbEntity
8
F-F
6
CONTINUOUS
62
2
100
AcDbLine
10
806.890000000000
20
43.390000000000
30
0.0
11
369.760000000000
21
43.390000000000
31
0.0
0
LINE
5
420
100
AcDbEntity
8
F-F
6
CONTINUOUS
62
2
100
AcDbLine
10
806.890000000000
20
33.510000000000
30
0.0
11
369.760000000000
21
33.510000000000
31
0.0
0
LINE
5
421
100
AcDbEntity
8
F-F
6
CONTINUOUS
62
2
100
AcDbLine
10
806.890000000000
20
73.020000000000
30
0.0
11
369.760000000000
21
73.020000000000
31
0.0
0
LINE
5
422
100
AcDbEntity
8
F-F
6
CONTINUOUS
62
2
100
AcDbLine
10
422.420000000000
20
82.890000000000
30
0.0
11
422.420000000000
21
23.630000000000
31
0.0
0
LINE
5
423
100
AcDbEntity
8
F-F
6
CONTINUOUS
62
2
100
AcDbLine
10
369.760000000000
20
82.890000000000
30
0.0
11
369.760000000000
21
23.630000000000
31
0.0
0
LINE
5
424
100
AcDbEntity
8
F-F
6
CONTINUOUS
62
2
100
AcDbLine
10
1631.650000000000
20
23.630000000000
30
0.0
11
1631.650000000000
21
1143.640000000000
31
0.0
0
LINE
5
425
100
AcDbEntity
8
F-F
6
CONTINUOUS
62
2
100
AcDbLine
10
54.760000000000
20
1143.640000000000
30
0.0
11
1631.650000000000
21
1143.640000000000
31
0.0
0
LINE
5
426
100
AcDbEntity
8
F-F
6
CONTINUOUS
62
2
100
AcDbLine
10
54.760000000000
20
23.630000000000
30
0.0
11
1631.650000000000
21
23.630000000000
31
0.0
0
LINE
5
427
100
AcDbEntity
8
F-F
6
CONTINUOUS
62
2
100
AcDbLine
10
1631.650000000000
20
82.890000000000
30
0.0
11
54.760000000000
21
82.890000000000
31
0.0
0
LINE
5
428
100
AcDbEntity
8
F-F
6
CONTINUOUS
62
2
100
AcDbLine
10
369.760000000000
20
53.260000000000
30
0.0
11
1631.650000000000
21
53.260000000000
31
0.0
0
POLYLINE
5
429
100
AcDbEntity
8
F-F
6
CONTINUOUS
62
  3
100
AcDb2dPolyline
66
1
10
0.0
20
0.0
30
0.0
70
0
0
VERTEX
5
42a
100
AcDbEntity
8
F-F
6
CONTINUOUS
62
  3
100
AcDbVertex
100
AcDb2dVertex
10
71.720000000000
20
59.100000000000
30
0.0
0
VERTEX
5
42b
100
AcDbEntity
8
F-F
6
CONTINUOUS
62
  3
100
AcDbVertex
100
AcDb2dVertex
10
71.720000000000
20
75.100000000000
30
0.0
0
VERTEX
5
42c
100
AcDbEntity
8
F-F
6
CONTINUOUS
62
  3
100
AcDbVertex
100
AcDb2dVertex
10
87.720000000000
20
75.100000000000
30
0.0
0
VERTEX
5
42d
100
AcDbEntity
8
F-F
6
CONTINUOUS
62
  3
100
AcDbVertex
100
AcDb2dVertex
10
87.720000000000
20
59.100000000000
30
0.0
0
VERTEX
5
42e
100
AcDbEntity
8
F-F
6
CONTINUOUS
62
  3
100
AcDbVertex
100
AcDb2dVertex
10
71.720000000000
20
59.100000000000
30
0.0
0
SEQEND
5
42f
100
AcDbEntity
8
F-F
0
LINE
5
430
100
AcDbEntity
8
F-F
6
CONTINUOUS
62
3
100
AcDbLine
10
73.320000000000
20
61.260000000000
30
0.0
11
73.320000000000
21
73.500000000000
31
0.0
0
LINE
5
431
100
AcDbEntity
8
F-F
6
CONTINUOUS
62
3
100
AcDbLine
10
86.120000000000
20
60.700000000000
30
0.0
11
73.880000000000
21
60.700000000000
31
0.0
0
POLYLINE
5
432
100
AcDbEntity
8
F-F
6
CONTINUOUS
62
  3
100
AcDb2dPolyline
66
1
10
0.0
20
0.0
30
0.0
70
0
0
VERTEX
5
433
100
AcDbEntity
8
F-F
6
CONTINUOUS
62
  3
100
AcDbVertex
100
AcDb2dVertex
10
73.320000000000
20
73.500000000000
30
0.0
0
VERTEX
5
434
100
AcDbEntity
8
F-F
6
CONTINUOUS
62
  3
100
AcDbVertex
100
AcDb2dVertex
10
85.550000000000
20
73.500000000000
30
0.0
0
VERTEX
5
435
100
AcDbEntity
8
F-F
6
CONTINUOUS
62
  3
100
AcDbVertex
100
AcDb2dVertex
10
73.320000000000
20
61.260000000000
30
0.0
0
SEQEND
5
436
100
AcDbEntity
8
F-F
0
LINE
5
437
100
AcDbEntity
8
F-F
6
CONTINUOUS
62
3
100
AcDbLine
10
86.120000000000
20
72.930000000000
30
0.0
11
73.880000000000
21
60.700000000000
31
0.0
0
LINE
5
438
100
AcDbEntity
8
F-F
6
CONTINUOUS
62
3
100
AcDbLine
10
86.120000000000
20
72.930000000000
30
0.0
11
86.120000000000
21
60.700000000000
31
0.0
0
LINE
5
439
100
AcDbEntity
8
F-F
6
CONTINUOUS
62
4
100
AcDbLine
10
71.720000000000
20
74.940000000000
30
0.0
11
87.720000000000
21
74.940000000000
31
0.0
0
LINE
5
43a
100
AcDbEntity
8
F-F
6
CONTINUOUS
62
4
100
AcDbLine
10
71.720000000000
20
74.620000000000
30
0.0
11
87.720000000000
21
74.620000000000
31
0.0
0
LINE
5
43b
100
AcDbEntity
8
F-F
6
CONTINUOUS
62
4
100
AcDbLine
10
71.720000000000
20
74.300000000000
30
0.0
11
87.720000000000
21
74.300000000000
31
0.0
0
LINE
5
43c
100
AcDbEntity
8
F-F
6
CONTINUOUS
62
4
100
AcDbLine
10
71.720000000000
20
73.980000000000
30
0.0
11
87.720000000000
21
73.980000000000
31
0.0
0
LINE
5
43d
100
AcDbEntity
8
F-F
6
CONTINUOUS
62
4
100
AcDbLine
10
71.720000000000
20
73.660000000000
30
0.0
11
87.720000000000
21
73.660000000000
31
0.0
0
LINE
5
43e
100
AcDbEntity
8
F-F
6
CONTINUOUS
62
4
100
AcDbLine
10
71.720000000000
20
60.540000000000
30
0.0
11
87.720000000000
21
60.540000000000
31
0.0
0
LINE
5
43f
100
AcDbEntity
8
F-F
6
CONTINUOUS
62
4
100
AcDbLine
10
71.720000000000
20
60.220000000000
30
0.0
11
87.720000000000
21
60.220000000000
31
0.0
0
LINE
5
440
100
AcDbEntity
8
F-F
6
CONTINUOUS
62
4
100
AcDbLine
10
71.720000000000
20
59.900000000000
30
0.0
11
87.720000000000
21
59.900000000000
31
0.0
0
LINE
5
441
100
AcDbEntity
8
F-F
6
CONTINUOUS
62
4
100
AcDbLine
10
71.720000000000
20
59.580000000000
30
0.0
11
87.720000000000
21
59.580000000000
31
0.0
0
LINE
5
442
100
AcDbEntity
8
F-F
6
CONTINUOUS
62
4
100
AcDbLine
10
71.720000000000
20
59.260000000000
30
0.0
11
87.720000000000
21
59.260000000000
31
0.0
0
LINE
5
443
100
AcDbEntity
8
F-F
6
CONTINUOUS
62
4
100
AcDbLine
10
71.720000000000
20
61.500000000000
30
0.0
11
73.320000000000
21
61.500000000000
31
0.0
0
LINE
5
444
100
AcDbEntity
8
F-F
6
CONTINUOUS
62
4
100
AcDbLine
10
71.720000000000
20
61.820000000000
30
0.0
11
73.320000000000
21
61.820000000000
31
0.0
0
LINE
5
445
100
AcDbEntity
8
F-F
6
CONTINUOUS
62
4
100
AcDbLine
10
71.720000000000
20
62.140000000000
30
0.0
11
73.320000000000
21
62.140000000000
31
0.0
0
LINE
5
446
100
AcDbEntity
8
F-F
6
CONTINUOUS
62
4
100
AcDbLine
10
71.720000000000
20
62.460000000000
30
0.0
11
73.320000000000
21
62.460000000000
31
0.0
0
LINE
5
447
100
AcDbEntity
8
F-F
6
CONTINUOUS
62
4
100
AcDbLine
10
71.720000000000
20
62.780000000000
30
0.0
11
73.320000000000
21
62.780000000000
31
0.0
0
LINE
5
448
100
AcDbEntity
8
F-F
6
CONTINUOUS
62
4
100
AcDbLine
10
71.720000000000
20
63.100000000000
30
0.0
11
73.320000000000
21
63.100000000000
31
0.0
0
LINE
5
449
100
AcDbEntity
8
F-F
6
CONTINUOUS
62
4
100
AcDbLine
10
71.720000000000
20
63.420000000000
30
0.0
11
73.320000000000
21
63.420000000000
31
0.0
0
LINE
5
44a
100
AcDbEntity
8
F-F
6
CONTINUOUS
62
4
100
AcDbLine
10
71.720000000000
20
63.740000000000
30
0.0
11
73.320000000000
21
63.740000000000
31
0.0
0
LINE
5
44b
100
AcDbEntity
8
F-F
6
CONTINUOUS
62
4
100
AcDbLine
10
71.720000000000
20
64.060000000000
30
0.0
11
73.320000000000
21
64.060000000000
31
0.0
0
LINE
5
44c
100
AcDbEntity
8
F-F
6
CONTINUOUS
62
4
100
AcDbLine
10
71.720000000000
20
64.380000000000
30
0.0
11
73.320000000000
21
64.380000000000
31
0.0
0
LINE
5
44d
100
AcDbEntity
8
F-F
6
CONTINUOUS
62
4
100
AcDbLine
10
71.720000000000
20
64.700000000000
30
0.0
11
73.320000000000
21
64.700000000000
31
0.0
0
LINE
5
44e
100
AcDbEntity
8
F-F
6
CONTINUOUS
62
4
100
AcDbLine
10
71.720000000000
20
65.020000000000
30
0.0
11
73.320000000000
21
65.020000000000
31
0.0
0
LINE
5
44f
100
AcDbEntity
8
F-F
6
CONTINUOUS
62
4
100
AcDbLine
10
71.720000000000
20
65.340000000000
30
0.0
11
73.320000000000
21
65.340000000000
31
0.0
0
LINE
5
450
100
AcDbEntity
8
F-F
6
CONTINUOUS
62
4
100
AcDbLine
10
71.720000000000
20
65.660000000000
30
0.0
11
73.320000000000
21
65.660000000000
31
0.0
0
LINE
5
451
100
AcDbEntity
8
F-F
6
CONTINUOUS
62
4
100
AcDbLine
10
71.720000000000
20
65.980000000000
30
0.0
11
73.320000000000
21
65.980000000000
31
0.0
0
LINE
5
452
100
AcDbEntity
8
F-F
6
CONTINUOUS
62
4
100
AcDbLine
10
71.720000000000
20
66.300000000000
30
0.0
11
73.320000000000
21
66.300000000000
31
0.0
0
LINE
5
453
100
AcDbEntity
8
F-F
6
CONTINUOUS
62
4
100
AcDbLine
10
71.720000000000
20
66.620000000000
30
0.0
11
73.320000000000
21
66.620000000000
31
0.0
0
LINE
5
454
100
AcDbEntity
8
F-F
6
CONTINUOUS
62
4
100
AcDbLine
10
71.720000000000
20
66.940000000000
30
0.0
11
73.320000000000
21
66.940000000000
31
0.0
0
LINE
5
455
100
AcDbEntity
8
F-F
6
CONTINUOUS
62
4
100
AcDbLine
10
71.720000000000
20
67.260000000000
30
0.0
11
73.320000000000
21
67.260000000000
31
0.0
0
LINE
5
456
100
AcDbEntity
8
F-F
6
CONTINUOUS
62
4
100
AcDbLine
10
71.720000000000
20
67.580000000000
30
0.0
11
73.320000000000
21
67.580000000000
31
0.0
0
LINE
5
457
100
AcDbEntity
8
F-F
6
CONTINUOUS
62
4
100
AcDbLine
10
71.720000000000
20
67.900000000000
30
0.0
11
73.320000000000
21
67.900000000000
31
0.0
0
LINE
5
458
100
AcDbEntity
8
F-F
6
CONTINUOUS
62
4
100
AcDbLine
10
71.720000000000
20
68.220000000000
30
0.0
11
73.320000000000
21
68.220000000000
31
0.0
0
LINE
5
459
100
AcDbEntity
8
F-F
6
CONTINUOUS
62
4
100
AcDbLine
10
71.720000000000
20
68.540000000000
30
0.0
11
73.320000000000
21
68.540000000000
31
0.0
0
LINE
5
45a
100
AcDbEntity
8
F-F
6
CONTINUOUS
62
4
100
AcDbLine
10
71.720000000000
20
68.860000000000
30
0.0
11
73.320000000000
21
68.860000000000
31
0.0
0
LINE
5
45b
100
AcDbEntity
8
F-F
6
CONTINUOUS
62
4
100
AcDbLine
10
71.720000000000
20
69.820000000000
30
0.0
11
73.320000000000
21
69.820000000000
31
0.0
0
LINE
5
45c
100
AcDbEntity
8
F-F
6
CONTINUOUS
62
4
100
AcDbLine
10
71.720000000000
20
70.780000000000
30
0.0
11
73.320000000000
21
70.780000000000
31
0.0
0
LINE
5
45d
100
AcDbEntity
8
F-F
6
CONTINUOUS
62
4
100
AcDbLine
10
71.720000000000
20
71.100000000000
30
0.0
11
73.320000000000
21
71.100000000000
31
0.0
0
LINE
5
45e
100
AcDbEntity
8
F-F
6
CONTINUOUS
62
4
100
AcDbLine
10
71.720000000000
20
71.420000000000
30
0.0
11
73.320000000000
21
71.420000000000
31
0.0
0
LINE
5
45f
100
AcDbEntity
8
F-F
6
CONTINUOUS
62
4
100
AcDbLine
10
71.720000000000
20
71.740000000000
30
0.0
11
73.320000000000
21
71.740000000000
31
0.0
0
LINE
5
460
100
AcDbEntity
8
F-F
6
CONTINUOUS
62
4
100
AcDbLine
10
71.720000000000
20
73.340000000000
30
0.0
11
73.320000000000
21
73.340000000000
31
0.0
0
LINE
5
461
100
AcDbEntity
8
F-F
6
CONTINUOUS
62
4
100
AcDbLine
10
71.720000000000
20
73.020000000000
30
0.0
11
73.320000000000
21
73.020000000000
31
0.0
0
LINE
5
462
100
AcDbEntity
8
F-F
6
CONTINUOUS
62
4
100
AcDbLine
10
71.720000000000
20
72.700000000000
30
0.0
11
73.320000000000
21
72.700000000000
31
0.0
0
LINE
5
463
100
AcDbEntity
8
F-F
6
CONTINUOUS
62
4
100
AcDbLine
10
71.720000000000
20
72.380000000000
30
0.0
11
73.320000000000
21
72.380000000000
31
0.0
0
LINE
5
464
100
AcDbEntity
8
F-F
6
CONTINUOUS
62
4
100
AcDbLine
10
71.720000000000
20
72.060000000000
30
0.0
11
73.320000000000
21
72.060000000000
31
0.0
0
LINE
5
465
100
AcDbEntity
8
F-F
6
CONTINUOUS
62
4
100
AcDbLine
10
71.720000000000
20
70.140000000000
30
0.0
11
73.320000000000
21
70.140000000000
31
0.0
0
LINE
5
466
100
AcDbEntity
8
F-F
6
CONTINUOUS
62
4
100
AcDbLine
10
71.720000000000
20
70.460000000000
30
0.0
11
73.320000000000
21
70.460000000000
31
0.0
0
LINE
5
467
100
AcDbEntity
8
F-F
6
CONTINUOUS
62
4
100
AcDbLine
10
71.720000000000
20
69.500000000000
30
0.0
11
73.320000000000
21
69.500000000000
31
0.0
0
LINE
5
468
100
AcDbEntity
8
F-F
6
CONTINUOUS
62
4
100
AcDbLine
10
71.720000000000
20
69.180000000000
30
0.0
11
73.320000000000
21
69.180000000000
31
0.0
0
LINE
5
469
100
AcDbEntity
8
F-F
6
CONTINUOUS
62
4
100
AcDbLine
10
73.870000000000
20
61.820000000000
30
0.0
11
75.000000000000
21
61.820000000000
31
0.0
0
LINE
5
46a
100
AcDbEntity
8
F-F
6
CONTINUOUS
62
4
100
AcDbLine
10
73.550000000000
20
61.500000000000
30
0.0
11
74.680000000000
21
61.500000000000
31
0.0
0
LINE
5
46b
100
AcDbEntity
8
F-F
6
CONTINUOUS
62
4
100
AcDbLine
10
71.720000000000
20
61.180000000000
30
0.0
11
74.360000000000
21
61.180000000000
31
0.0
0
LINE
5
46c
100
AcDbEntity
8
F-F
6
CONTINUOUS
62
4
100
AcDbLine
10
71.720000000000
20
60.860000000000
30
0.0
11
74.040000000000
21
60.860000000000
31
0.0
0
LINE
5
46d
100
AcDbEntity
8
F-F
6
CONTINUOUS
62
4
100
AcDbLine
10
75.790000000000
20
63.740000000000
30
0.0
11
76.920000000000
21
63.740000000000
31
0.0
0
LINE
5
46e
100
AcDbEntity
8
F-F
6
CONTINUOUS
62
4
100
AcDbLine
10
75.470000000000
20
63.420000000000
30
0.0
11
76.600000000000
21
63.420000000000
31
0.0
0
LINE
5
46f
100
AcDbEntity
8
F-F
6
CONTINUOUS
62
4
100
AcDbLine
10
75.150000000000
20
63.100000000000
30
0.0
11
76.280000000000
21
63.100000000000
31
0.0
0
LINE
5
470
100
AcDbEntity
8
F-F
6
CONTINUOUS
62
4
100
AcDbLine
10
74.830000000000
20
62.780000000000
30
0.0
11
75.960000000000
21
62.780000000000
31
0.0
0
LINE
5
471
100
AcDbEntity
8
F-F
6
CONTINUOUS
62
4
100
AcDbLine
10
74.510000000000
20
62.460000000000
30
0.0
11
75.640000000000
21
62.460000000000
31
0.0
0
LINE
5
472
100
AcDbEntity
8
F-F
6
CONTINUOUS
62
4
100
AcDbLine
10
74.190000000000
20
62.140000000000
30
0.0
11
75.320000000000
21
62.140000000000
31
0.0
0
LINE
5
473
100
AcDbEntity
8
F-F
6
CONTINUOUS
62
4
100
AcDbLine
10
73.320000000000
20
73.500000000000
30
0.0
11
73.320000000000
21
73.820000000000
31
0.0
0
LINE
5
474
100
AcDbEntity
8
F-F
6
CONTINUOUS
62
4
100
AcDbLine
10
86.120000000000
20
61.500000000000
30
0.0
11
87.720000000000
21
61.500000000000
31
0.0
0
LINE
5
475
100
AcDbEntity
8
F-F
6
CONTINUOUS
62
4
100
AcDbLine
10
86.120000000000
20
61.820000000000
30
0.0
11
87.720000000000
21
61.820000000000
31
0.0
0
LINE
5
476
100
AcDbEntity
8
F-F
6
CONTINUOUS
62
4
100
AcDbLine
10
86.120000000000
20
62.140000000000
30
0.0
11
87.720000000000
21
62.140000000000
31
0.0
0
LINE
5
477
100
AcDbEntity
8
F-F
6
CONTINUOUS
62
4
100
AcDbLine
10
86.120000000000
20
62.460000000000
30
0.0
11
87.720000000000
21
62.460000000000
31
0.0
0
LINE
5
478
100
AcDbEntity
8
F-F
6
CONTINUOUS
62
4
100
AcDbLine
10
86.120000000000
20
62.780000000000
30
0.0
11
87.720000000000
21
62.780000000000
31
0.0
0
LINE
5
479
100
AcDbEntity
8
F-F
6
CONTINUOUS
62
4
100
AcDbLine
10
86.120000000000
20
63.100000000000
30
0.0
11
87.720000000000
21
63.100000000000
31
0.0
0
LINE
5
47a
100
AcDbEntity
8
F-F
6
CONTINUOUS
62
4
100
AcDbLine
10
86.120000000000
20
63.420000000000
30
0.0
11
87.720000000000
21
63.420000000000
31
0.0
0
LINE
5
47b
100
AcDbEntity
8
F-F
6
CONTINUOUS
62
4
100
AcDbLine
10
86.120000000000
20
63.740000000000
30
0.0
11
87.720000000000
21
63.740000000000
31
0.0
0
LINE
5
47c
100
AcDbEntity
8
F-F
6
CONTINUOUS
62
4
100
AcDbLine
10
86.120000000000
20
64.060000000000
30
0.0
11
87.720000000000
21
64.060000000000
31
0.0
0
LINE
5
47d
100
AcDbEntity
8
F-F
6
CONTINUOUS
62
4
100
AcDbLine
10
86.120000000000
20
64.380000000000
30
0.0
11
87.720000000000
21
64.380000000000
31
0.0
0
LINE
5
47e
100
AcDbEntity
8
F-F
6
CONTINUOUS
62
4
100
AcDbLine
10
86.120000000000
20
64.700000000000
30
0.0
11
87.720000000000
21
64.700000000000
31
0.0
0
LINE
5
47f
100
AcDbEntity
8
F-F
6
CONTINUOUS
62
4
100
AcDbLine
10
86.120000000000
20
65.020000000000
30
0.0
11
87.720000000000
21
65.020000000000
31
0.0
0
LINE
5
480
100
AcDbEntity
8
F-F
6
CONTINUOUS
62
4
100
AcDbLine
10
86.120000000000
20
65.340000000000
30
0.0
11
87.720000000000
21
65.340000000000
31
0.0
0
LINE
5
481
100
AcDbEntity
8
F-F
6
CONTINUOUS
62
4
100
AcDbLine
10
86.120000000000
20
65.980000000000
30
0.0
11
87.720000000000
21
65.980000000000
31
0.0
0
LINE
5
482
100
AcDbEntity
8
F-F
6
CONTINUOUS
62
4
100
AcDbLine
10
86.120000000000
20
66.300000000000
30
0.0
11
87.720000000000
21
66.300000000000
31
0.0
0
LINE
5
483
100
AcDbEntity
8
F-F
6
CONTINUOUS
62
4
100
AcDbLine
10
86.120000000000
20
66.620000000000
30
0.0
11
87.720000000000
21
66.620000000000
31
0.0
0
LINE
5
484
100
AcDbEntity
8
F-F
6
CONTINUOUS
62
4
100
AcDbLine
10
86.120000000000
20
66.940000000000
30
0.0
11
87.720000000000
21
66.940000000000
31
0.0
0
LINE
5
485
100
AcDbEntity
8
F-F
6
CONTINUOUS
62
4
100
AcDbLine
10
86.120000000000
20
67.260000000000
30
0.0
11
87.720000000000
21
67.260000000000
31
0.0
0
LINE
5
486
100
AcDbEntity
8
F-F
6
CONTINUOUS
62
4
100
AcDbLine
10
86.120000000000
20
67.580000000000
30
0.0
11
87.720000000000
21
67.580000000000
31
0.0
0
LINE
5
487
100
AcDbEntity
8
F-F
6
CONTINUOUS
62
4
100
AcDbLine
10
86.120000000000
20
67.900000000000
30
0.0
11
87.720000000000
21
67.900000000000
31
0.0
0
LINE
5
488
100
AcDbEntity
8
F-F
6
CONTINUOUS
62
4
100
AcDbLine
10
86.120000000000
20
68.220000000000
30
0.0
11
87.720000000000
21
68.220000000000
31
0.0
0
LINE
5
489
100
AcDbEntity
8
F-F
6
CONTINUOUS
62
4
100
AcDbLine
10
86.120000000000
20
68.540000000000
30
0.0
11
87.720000000000
21
68.540000000000
31
0.0
0
LINE
5
48a
100
AcDbEntity
8
F-F
6
CONTINUOUS
62
4
100
AcDbLine
10
86.120000000000
20
68.860000000000
30
0.0
11
87.720000000000
21
68.860000000000
31
0.0
0
LINE
5
48b
100
AcDbEntity
8
F-F
6
CONTINUOUS
62
4
100
AcDbLine
10
86.120000000000
20
69.820000000000
30
0.0
11
87.720000000000
21
69.820000000000
31
0.0
0
LINE
5
48c
100
AcDbEntity
8
F-F
6
CONTINUOUS
62
4
100
AcDbLine
10
86.120000000000
20
70.780000000000
30
0.0
11
87.720000000000
21
70.780000000000
31
0.0
0
LINE
5
48d
100
AcDbEntity
8
F-F
6
CONTINUOUS
62
4
100
AcDbLine
10
86.120000000000
20
71.100000000000
30
0.0
11
87.720000000000
21
71.100000000000
31
0.0
0
LINE
5
48e
100
AcDbEntity
8
F-F
6
CONTINUOUS
62
4
100
AcDbLine
10
86.120000000000
20
71.420000000000
30
0.0
11
87.720000000000
21
71.420000000000
31
0.0
0
LINE
5
48f
100
AcDbEntity
8
F-F
6
CONTINUOUS
62
4
100
AcDbLine
10
86.120000000000
20
71.740000000000
30
0.0
11
87.720000000000
21
71.740000000000
31
0.0
0
LINE
5
490
100
AcDbEntity
8
F-F
6
CONTINUOUS
62
4
100
AcDbLine
10
86.120000000000
20
72.700000000000
30
0.0
11
87.720000000000
21
72.700000000000
31
0.0
0
LINE
5
491
100
AcDbEntity
8
F-F
6
CONTINUOUS
62
4
100
AcDbLine
10
86.120000000000
20
72.380000000000
30
0.0
11
87.720000000000
21
72.380000000000
31
0.0
0
LINE
5
492
100
AcDbEntity
8
F-F
6
CONTINUOUS
62
4
100
AcDbLine
10
86.120000000000
20
72.060000000000
30
0.0
11
87.720000000000
21
72.060000000000
31
0.0
0
LINE
5
493
100
AcDbEntity
8
F-F
6
CONTINUOUS
62
4
100
AcDbLine
10
86.120000000000
20
70.140000000000
30
0.0
11
87.720000000000
21
70.140000000000
31
0.0
0
LINE
5
494
100
AcDbEntity
8
F-F
6
CONTINUOUS
62
4
100
AcDbLine
10
86.120000000000
20
70.460000000000
30
0.0
11
87.720000000000
21
70.460000000000
31
0.0
0
LINE
5
495
100
AcDbEntity
8
F-F
6
CONTINUOUS
62
4
100
AcDbLine
10
86.120000000000
20
69.500000000000
30
0.0
11
87.720000000000
21
69.500000000000
31
0.0
0
LINE
5
496
100
AcDbEntity
8
F-F
6
CONTINUOUS
62
4
100
AcDbLine
10
86.120000000000
20
69.180000000000
30
0.0
11
87.720000000000
21
69.180000000000
31
0.0
0
LINE
5
497
100
AcDbEntity
8
F-F
6
CONTINUOUS
62
4
100
AcDbLine
10
86.120000000000
20
60.860000000000
30
0.0
11
87.720000000000
21
60.860000000000
31
0.0
0
LINE
5
498
100
AcDbEntity
8
F-F
6
CONTINUOUS
62
4
100
AcDbLine
10
86.120000000000
20
61.180000000000
30
0.0
11
87.720000000000
21
61.180000000000
31
0.0
0
LINE
5
499
100
AcDbEntity
8
F-F
6
CONTINUOUS
62
4
100
AcDbLine
10
85.390000000000
20
73.340000000000
30
0.0
11
87.720000000000
21
73.340000000000
31
0.0
0
LINE
5
49a
100
AcDbEntity
8
F-F
6
CONTINUOUS
62
4
100
AcDbLine
10
85.070000000000
20
73.020000000000
30
0.0
11
87.720000000000
21
73.020000000000
31
0.0
0
LINE
5
49b
100
AcDbEntity
8
F-F
6
CONTINUOUS
62
4
100
AcDbLine
10
77.070000000000
20
65.020000000000
30
0.0
11
78.200000000000
21
65.020000000000
31
0.0
0
LINE
5
49c
100
AcDbEntity
8
F-F
6
CONTINUOUS
62
4
100
AcDbLine
10
76.750000000000
20
64.700000000000
30
0.0
11
77.880000000000
21
64.700000000000
31
0.0
0
LINE
5
49d
100
AcDbEntity
8
F-F
6
CONTINUOUS
62
4
100
AcDbLine
10
76.430000000000
20
64.380000000000
30
0.0
11
77.560000000000
21
64.380000000000
31
0.0
0
LINE
5
49e
100
AcDbEntity
8
F-F
6
CONTINUOUS
62
4
100
AcDbLine
10
76.110000000000
20
64.060000000000
30
0.0
11
77.240000000000
21
64.060000000000
31
0.0
0
LINE
5
49f
100
AcDbEntity
8
F-F
6
CONTINUOUS
62
4
100
AcDbLine
10
78.350000000000
20
66.300000000000
30
0.0
11
79.480000000000
21
66.300000000000
31
0.0
0
LINE
5
4a0
100
AcDbEntity
8
F-F
6
CONTINUOUS
62
4
100
AcDbLine
10
78.030000000000
20
65.980000000000
30
0.0
11
79.160000000000
21
65.980000000000
31
0.0
0
LINE
5
4a1
100
AcDbEntity
8
F-F
6
CONTINUOUS
62
4
100
AcDbLine
10
77.710000000000
20
65.660000000000
30
0.0
11
78.840000000000
21
65.660000000000
31
0.0
0
LINE
5
4a2
100
AcDbEntity
8
F-F
6
CONTINUOUS
62
4
100
AcDbLine
10
77.390000000000
20
65.340000000000
30
0.0
11
78.520000000000
21
65.340000000000
31
0.0
0
LINE
5
4a3
100
AcDbEntity
8
F-F
6
CONTINUOUS
62
4
100
AcDbLine
10
79.630000000000
20
67.580000000000
30
0.0
11
80.760000000000
21
67.580000000000
31
0.0
0
LINE
5
4a4
100
AcDbEntity
8
F-F
6
CONTINUOUS
62
4
100
AcDbLine
10
79.310000000000
20
67.260000000000
30
0.0
11
80.440000000000
21
67.260000000000
31
0.0
0
LINE
5
4a5
100
AcDbEntity
8
F-F
6
CONTINUOUS
62
4
100
AcDbLine
10
78.990000000000
20
66.940000000000
30
0.0
11
80.120000000000
21
66.940000000000
31
0.0
0
LINE
5
4a6
100
AcDbEntity
8
F-F
6
CONTINUOUS
62
4
100
AcDbLine
10
78.670000000000
20
66.620000000000
30
0.0
11
79.800000000000
21
66.620000000000
31
0.0
0
LINE
5
4a7
100
AcDbEntity
8
F-F
6
CONTINUOUS
62
4
100
AcDbLine
10
80.910000000000
20
68.860000000000
30
0.0
11
82.040000000000
21
68.860000000000
31
0.0
0
LINE
5
4a8
100
AcDbEntity
8
F-F
6
CONTINUOUS
62
4
100
AcDbLine
10
80.590000000000
20
68.540000000000
30
0.0
11
81.720000000000
21
68.540000000000
31
0.0
0
LINE
5
4a9
100
AcDbEntity
8
F-F
6
CONTINUOUS
62
4
100
AcDbLine
10
80.270000000000
20
68.220000000000
30
0.0
11
81.400000000000
21
68.220000000000
31
0.0
0
LINE
5
4aa
100
AcDbEntity
8
F-F
6
CONTINUOUS
62
4
100
AcDbLine
10
79.950000000000
20
67.900000000000
30
0.0
11
81.080000000000
21
67.900000000000
31
0.0
0
LINE
5
4ab
100
AcDbEntity
8
F-F
6
CONTINUOUS
62
4
100
AcDbLine
10
82.190000000000
20
70.140000000000
30
0.0
11
83.320000000000
21
70.140000000000
31
0.0
0
LINE
5
4ac
100
AcDbEntity
8
F-F
6
CONTINUOUS
62
4
100
AcDbLine
10
81.870000000000
20
69.820000000000
30
0.0
11
83.000000000000
21
69.820000000000
31
0.0
0
LINE
5
4ad
100
AcDbEntity
8
F-F
6
CONTINUOUS
62
4
100
AcDbLine
10
81.550000000000
20
69.500000000000
30
0.0
11
82.680000000000
21
69.500000000000
31
0.0
0
LINE
5
4ae
100
AcDbEntity
8
F-F
6
CONTINUOUS
62
4
100
AcDbLine
10
81.230000000000
20
69.180000000000
30
0.0
11
82.360000000000
21
69.180000000000
31
0.0
0
LINE
5
4af
100
AcDbEntity
8
F-F
6
CONTINUOUS
62
4
100
AcDbLine
10
83.470000000000
20
71.420000000000
30
0.0
11
84.600000000000
21
71.420000000000
31
0.0
0
LINE
5
4b0
100
AcDbEntity
8
F-F
6
CONTINUOUS
62
4
100
AcDbLine
10
83.150000000000
20
71.100000000000
30
0.0
11
84.280000000000
21
71.100000000000
31
0.0
0
LINE
5
4b1
100
AcDbEntity
8
F-F
6
CONTINUOUS
62
4
100
AcDbLine
10
82.830000000000
20
70.780000000000
30
0.0
11
83.960000000000
21
70.780000000000
31
0.0
0
LINE
5
4b2
100
AcDbEntity
8
F-F
6
CONTINUOUS
62
4
100
AcDbLine
10
82.510000000000
20
70.460000000000
30
0.0
11
83.640000000000
21
70.460000000000
31
0.0
0
LINE
5
4b3
100
AcDbEntity
8
F-F
6
CONTINUOUS
62
4
100
AcDbLine
10
84.750000000000
20
72.700000000000
30
0.0
11
85.880000000000
21
72.700000000000
31
0.0
0
LINE
5
4b4
100
AcDbEntity
8
F-F
6
CONTINUOUS
62
4
100
AcDbLine
10
84.430000000000
20
72.380000000000
30
0.0
11
85.560000000000
21
72.380000000000
31
0.0
0
LINE
5
4b5
100
AcDbEntity
8
F-F
6
CONTINUOUS
62
4
100
AcDbLine
10
84.110000000000
20
72.060000000000
30
0.0
11
85.240000000000
21
72.060000000000
31
0.0
0
LINE
5
4b6
100
AcDbEntity
8
F-F
6
CONTINUOUS
62
4
100
AcDbLine
10
83.790000000000
20
71.740000000000
30
0.0
11
84.920000000000
21
71.740000000000
31
0.0
0
LINE
5
4b7
100
AcDbEntity
8
F-F
6
CONTINUOUS
62
4
100
AcDbLine
10
86.120000000000
20
65.660000000000
30
0.0
11
87.720000000000
21
65.660000000000
31
0.0
0
LINE
5
4b8
100
AcDbEntity
8
0-0
6
CONTINUOUS
62
3
100
AcDbLine
10
312.460000000000
20
785.040000000000
30
0.0
11
297.130000000000
21
771.190000000000
31
0.0
0
LINE
5
4b9
100
AcDbEntity
8
0-0
6
CONTINUOUS
62
3
100
AcDbLine
10
296.790000000000
20
771.560000000000
30
0.0
11
312.120000000000
21
785.410000000000
31
0.0
0
LINE
5
4ba
100
AcDbEntity
8
0-0
6
CONTINUOUS
62
3
100
AcDbLine
10
402.720000000000
20
770.560000000000
30
0.0
11
386.280000000000
21
785.410000000000
31
0.0
0
LINE
5
4bb
100
AcDbEntity
8
0-0
6
CONTINUOUS
62
3
100
AcDbLine
10
385.940000000000
20
785.040000000000
30
0.0
11
402.380000000000
21
770.190000000000
31
0.0
0
LINE
5
4bc
100
AcDbEntity
8
0-0
6
CONTINUOUS
62
3
100
AcDbLine
10
430.290000000000
20
770.560000000000
30
0.0
11
446.720000000000
21
785.410000000000
31
0.0
0
LINE
5
4bd
100
AcDbEntity
8
0-0
6
CONTINUOUS
62
3
100
AcDbLine
10
447.060000000000
20
785.040000000000
30
0.0
11
430.620000000000
21
770.190000000000
31
0.0
0
LINE
5
4be
100
AcDbEntity
8
0-0
6
CONTINUOUS
62
3
100
AcDbLine
10
403.390000000000
20
770.300000000000
30
0.0
11
429.620000000000
21
770.300000000000
31
0.0
0
LINE
5
4bf
100
AcDbEntity
8
0-0
6
CONTINUOUS
62
3
100
AcDbLine
10
429.620000000000
20
769.800000000000
30
0.0
11
403.390000000000
21
769.800000000000
31
0.0
0
LINE
5
4c0
100
AcDbEntity
8
0-0
6
CONTINUOUS
62
3
100
AcDbLine
10
447.730000000000
20
785.800000000000
30
0.0
11
483.150000000000
21
785.800000000000
31
0.0
0
LINE
5
4c1
100
AcDbEntity
8
0-0
6
CONTINUOUS
62
3
100
AcDbLine
10
483.150000000000
20
785.300000000000
30
0.0
11
447.730000000000
21
785.300000000000
31
0.0
0
LINE
5
4c2
100
AcDbEntity
8
0-0
6
CONTINUOUS
62
3
100
AcDbLine
10
349.850000000000
20
785.800000000000
30
0.0
11
385.270000000000
21
785.800000000000
31
0.0
0
LINE
5
4c3
100
AcDbEntity
8
0-0
6
CONTINUOUS
62
3
100
AcDbLine
10
385.270000000000
20
785.300000000000
30
0.0
11
349.850000000000
21
785.300000000000
31
0.0
0
LINE
5
4c4
100
AcDbEntity
8
0-0
6
CONTINUOUS
62
3
100
AcDbLine
10
313.130000000000
20
785.800000000000
30
0.0
11
349.850000000000
21
785.800000000000
31
0.0
0
LINE
5
4c5
100
AcDbEntity
8
0-0
6
CONTINUOUS
62
3
100
AcDbLine
10
349.850000000000
20
785.300000000000
30
0.0
11
313.130000000000
21
785.300000000000
31
0.0
0
LINE
5
4c6
100
AcDbEntity
8
0-0
6
CONTINUOUS
62
3
100
AcDbLine
10
536.120000000000
20
770.560000000000
30
0.0
11
519.680000000000
21
785.410000000000
31
0.0
0
LINE
5
4c7
100
AcDbEntity
8
0-0
6
CONTINUOUS
62
3
100
AcDbLine
10
519.340000000000
20
785.040000000000
30
0.0
11
535.780000000000
21
770.190000000000
31
0.0
0
LINE
5
4c8
100
AcDbEntity
8
0-0
6
CONTINUOUS
62
3
100
AcDbLine
10
563.690000000000
20
770.560000000000
30
0.0
11
580.120000000000
21
785.410000000000
31
0.0
0
LINE
5
4c9
100
AcDbEntity
8
0-0
6
CONTINUOUS
62
3
100
AcDbLine
10
580.460000000000
20
785.040000000000
30
0.0
11
564.020000000000
21
770.190000000000
31
0.0
0
LINE
5
4ca
100
AcDbEntity
8
0-0
6
CONTINUOUS
62
3
100
AcDbLine
10
536.790000000000
20
770.300000000000
30
0.0
11
563.020000000000
21
770.300000000000
31
0.0
0
LINE
5
4cb
100
AcDbEntity
8
0-0
6
CONTINUOUS
62
3
100
AcDbLine
10
563.020000000000
20
769.800000000000
30
0.0
11
536.790000000000
21
769.800000000000
31
0.0
0
LINE
5
4cc
100
AcDbEntity
8
0-0
6
CONTINUOUS
62
3
100
AcDbLine
10
581.130000000000
20
785.800000000000
30
0.0
11
616.550000000000
21
785.800000000000
31
0.0
0
LINE
5
4cd
100
AcDbEntity
8
0-0
6
CONTINUOUS
62
3
100
AcDbLine
10
616.550000000000
20
785.300000000000
30
0.0
11
581.130000000000
21
785.300000000000
31
0.0
0
LINE
5
4ce
100
AcDbEntity
8
0-0
6
CONTINUOUS
62
3
100
AcDbLine
10
483.250000000000
20
785.800000000000
30
0.0
11
518.670000000000
21
785.800000000000
31
0.0
0
LINE
5
4cf
100
AcDbEntity
8
0-0
6
CONTINUOUS
62
3
100
AcDbLine
10
518.670000000000
20
785.300000000000
30
0.0
11
483.250000000000
21
785.300000000000
31
0.0
0
LINE
5
4d0
100
AcDbEntity
8
0-0
6
CONTINUOUS
62
3
100
AcDbLine
10
669.520000000000
20
770.560000000000
30
0.0
11
653.080000000000
21
785.410000000000
31
0.0
0
LINE
5
4d1
100
AcDbEntity
8
0-0
6
CONTINUOUS
62
3
100
AcDbLine
10
652.740000000000
20
785.040000000000
30
0.0
11
669.180000000000
21
770.190000000000
31
0.0
0
LINE
5
4d2
100
AcDbEntity
8
0-0
6
CONTINUOUS
62
3
100
AcDbLine
10
697.090000000000
20
770.560000000000
30
0.0
11
713.520000000000
21
785.410000000000
31
0.0
0
LINE
5
4d3
100
AcDbEntity
8
0-0
6
CONTINUOUS
62
3
100
AcDbLine
10
713.860000000000
20
785.040000000000
30
0.0
11
697.420000000000
21
770.190000000000
31
0.0
0
LINE
5
4d4
100
AcDbEntity
8
0-0
6
CONTINUOUS
62
3
100
AcDbLine
10
670.190000000000
20
770.300000000000
30
0.0
11
696.420000000000
21
770.300000000000
31
0.0
0
LINE
5
4d5
100
AcDbEntity
8
0-0
6
CONTINUOUS
62
3
100
AcDbLine
10
696.420000000000
20
769.800000000000
30
0.0
11
670.190000000000
21
769.800000000000
31
0.0
0
LINE
5
4d6
100
AcDbEntity
8
0-0
6
CONTINUOUS
62
3
100
AcDbLine
10
714.530000000000
20
785.800000000000
30
0.0
11
749.950000000000
21
785.800000000000
31
0.0
0
LINE
5
4d7
100
AcDbEntity
8
0-0
6
CONTINUOUS
62
3
100
AcDbLine
10
749.950000000000
20
785.300000000000
30
0.0
11
714.530000000000
21
785.300000000000
31
0.0
0
LINE
5
4d8
100
AcDbEntity
8
0-0
6
CONTINUOUS
62
3
100
AcDbLine
10
616.650000000000
20
785.800000000000
30
0.0
11
652.070000000000
21
785.800000000000
31
0.0
0
LINE
5
4d9
100
AcDbEntity
8
0-0
6
CONTINUOUS
62
3
100
AcDbLine
10
652.070000000000
20
785.300000000000
30
0.0
11
616.650000000000
21
785.300000000000
31
0.0
0
LINE
5
4da
100
AcDbEntity
8
0-0
6
CONTINUOUS
62
3
100
AcDbLine
10
802.820000000000
20
770.560000000000
30
0.0
11
786.380000000000
21
785.410000000000
31
0.0
0
LINE
5
4db
100
AcDbEntity
8
0-0
6
CONTINUOUS
62
3
100
AcDbLine
10
786.040000000000
20
785.040000000000
30
0.0
11
802.480000000000
21
770.190000000000
31
0.0
0
LINE
5
4dc
100
AcDbEntity
8
0-0
6
CONTINUOUS
62
3
100
AcDbLine
10
830.390000000000
20
770.560000000000
30
0.0
11
846.820000000000
21
785.410000000000
31
0.0
0
LINE
5
4dd
100
AcDbEntity
8
0-0
6
CONTINUOUS
62
3
100
AcDbLine
10
847.160000000000
20
785.040000000000
30
0.0
11
830.720000000000
21
770.190000000000
31
0.0
0
LINE
5
4de
100
AcDbEntity
8
0-0
6
CONTINUOUS
62
3
100
AcDbLine
10
803.490000000000
20
770.300000000000
30
0.0
11
829.720000000000
21
770.300000000000
31
0.0
0
LINE
5
4df
100
AcDbEntity
8
0-0
6
CONTINUOUS
62
3
100
AcDbLine
10
829.720000000000
20
769.800000000000
30
0.0
11
803.490000000000
21
769.800000000000
31
0.0
0
LINE
5
4e0
100
AcDbEntity
8
0-0
6
CONTINUOUS
62
3
100
AcDbLine
10
847.830000000000
20
785.800000000000
30
0.0
11
883.250000000000
21
785.800000000000
31
0.0
0
LINE
5
4e1
100
AcDbEntity
8
0-0
6
CONTINUOUS
62
3
100
AcDbLine
10
883.250000000000
20
785.300000000000
30
0.0
11
847.830000000000
21
785.300000000000
31
0.0
0
LINE
5
4e2
100
AcDbEntity
8
0-0
6
CONTINUOUS
62
3
100
AcDbLine
10
749.950000000000
20
785.800000000000
30
0.0
11
785.370000000000
21
785.800000000000
31
0.0
0
LINE
5
4e3
100
AcDbEntity
8
0-0
6
CONTINUOUS
62
3
100
AcDbLine
10
785.370000000000
20
785.300000000000
30
0.0
11
749.950000000000
21
785.300000000000
31
0.0
0
LINE
5
4e4
100
AcDbEntity
8
0-0
6
CONTINUOUS
62
3
100
AcDbLine
10
936.120000000000
20
770.560000000000
30
0.0
11
919.680000000000
21
785.410000000000
31
0.0
0
LINE
5
4e5
100
AcDbEntity
8
0-0
6
CONTINUOUS
62
3
100
AcDbLine
10
919.340000000000
20
785.040000000000
30
0.0
11
935.780000000000
21
770.190000000000
31
0.0
0
LINE
5
4e6
100
AcDbEntity
8
0-0
6
CONTINUOUS
62
3
100
AcDbLine
10
963.690000000000
20
770.560000000000
30
0.0
11
980.120000000000
21
785.410000000000
31
0.0
0
LINE
5
4e7
100
AcDbEntity
8
0-0
6
CONTINUOUS
62
3
100
AcDbLine
10
980.460000000000
20
785.040000000000
30
0.0
11
964.020000000000
21
770.190000000000
31
0.0
0
LINE
5
4e8
100
AcDbEntity
8
0-0
6
CONTINUOUS
62
3
100
AcDbLine
10
936.790000000000
20
770.300000000000
30
0.0
11
963.020000000000
21
770.300000000000
31
0.0
0
LINE
5
4e9
100
AcDbEntity
8
0-0
6
CONTINUOUS
62
3
100
AcDbLine
10
963.020000000000
20
769.800000000000
30
0.0
11
936.790000000000
21
769.800000000000
31
0.0
0
LINE
5
4ea
100
AcDbEntity
8
0-0
6
CONTINUOUS
62
3
100
AcDbLine
10
981.130000000000
20
785.800000000000
30
0.0
11
1016.550000000000
21
785.800000000000
31
0.0
0
LINE
5
4eb
100
AcDbEntity
8
0-0
6
CONTINUOUS
62
3
100
AcDbLine
10
1016.550000000000
20
785.300000000000
30
0.0
11
981.130000000000
21
785.300000000000
31
0.0
0
LINE
5
4ec
100
AcDbEntity
8
0-0
6
CONTINUOUS
62
3
100
AcDbLine
10
883.250000000000
20
785.800000000000
30
0.0
11
918.670000000000
21
785.800000000000
31
0.0
0
LINE
5
4ed
100
AcDbEntity
8
0-0
6
CONTINUOUS
62
3
100
AcDbLine
10
918.670000000000
20
785.300000000000
30
0.0
11
883.250000000000
21
785.300000000000
31
0.0
0
LINE
5
4ee
100
AcDbEntity
8
0-0
6
CONTINUOUS
62
3
100
AcDbLine
10
1069.420000000000
20
770.560000000000
30
0.0
11
1052.980000000000
21
785.410000000000
31
0.0
0
LINE
5
4ef
100
AcDbEntity
8
0-0
6
CONTINUOUS
62
3
100
AcDbLine
10
1052.640000000000
20
785.040000000000
30
0.0
11
1069.080000000000
21
770.190000000000
31
0.0
0
LINE
5
4f0
100
AcDbEntity
8
0-0
6
CONTINUOUS
62
3
100
AcDbLine
10
1051.970000000000
20
785.800000000000
30
0.0
11
1016.550000000000
21
785.800000000000
31
0.0
0
LINE
5
4f1
100
AcDbEntity
8
0-0
6
CONTINUOUS
62
3
100
AcDbLine
10
1016.550000000000
20
785.300000000000
30
0.0
11
1051.970000000000
21
785.300000000000
31
0.0
0
LINE
5
4f2
100
AcDbEntity
8
0-0
6
CONTINUOUS
62
3
100
AcDbLine
10
1096.320000000000
20
770.300000000000
30
0.0
11
1070.090000000000
21
770.300000000000
31
0.0
0
LINE
5
4f3
100
AcDbEntity
8
0-0
6
CONTINUOUS
62
3
100
AcDbLine
10
1096.320000000000
20
769.800000000000
30
0.0
11
1070.090000000000
21
769.800000000000
31
0.0
0
LINE
5
4f4
100
AcDbEntity
8
0-0
6
CONTINUOUS
62
3
100
AcDbLine
10
312.460000000000
20
425.040000000000
30
0.0
11
297.130000000000
21
411.190000000000
31
0.0
0
LINE
5
4f5
100
AcDbEntity
8
0-0
6
CONTINUOUS
62
3
100
AcDbLine
10
296.790000000000
20
411.560000000000
30
0.0
11
312.120000000000
21
425.410000000000
31
0.0
0
LINE
5
4f6
100
AcDbEntity
8
0-0
6
CONTINUOUS
62
3
100
AcDbLine
10
402.720000000000
20
410.560000000000
30
0.0
11
386.280000000000
21
425.410000000000
31
0.0
0
LINE
5
4f7
100
AcDbEntity
8
0-0
6
CONTINUOUS
62
3
100
AcDbLine
10
385.940000000000
20
425.040000000000
30
0.0
11
402.380000000000
21
410.190000000000
31
0.0
0
LINE
5
4f8
100
AcDbEntity
8
0-0
6
CONTINUOUS
62
3
100
AcDbLine
10
430.290000000000
20
410.560000000000
30
0.0
11
446.720000000000
21
425.410000000000
31
0.0
0
LINE
5
4f9
100
AcDbEntity
8
0-0
6
CONTINUOUS
62
3
100
AcDbLine
10
447.060000000000
20
425.040000000000
30
0.0
11
430.620000000000
21
410.190000000000
31
0.0
0
LINE
5
4fa
100
AcDbEntity
8
0-0
6
CONTINUOUS
62
3
100
AcDbLine
10
403.390000000000
20
410.300000000000
30
0.0
11
429.620000000000
21
410.300000000000
31
0.0
0
LINE
5
4fb
100
AcDbEntity
8
0-0
6
CONTINUOUS
62
3
100
AcDbLine
10
429.620000000000
20
409.800000000000
30
0.0
11
403.390000000000
21
409.800000000000
31
0.0
0
LINE
5
4fc
100
AcDbEntity
8
0-0
6
CONTINUOUS
62
3
100
AcDbLine
10
536.120000000000
20
410.560000000000
30
0.0
11
519.680000000000
21
425.410000000000
31
0.0
0
LINE
5
4fd
100
AcDbEntity
8
0-0
6
CONTINUOUS
62
3
100
AcDbLine
10
519.340000000000
20
425.040000000000
30
0.0
11
535.780000000000
21
410.190000000000
31
0.0
0
LINE
5
4fe
100
AcDbEntity
8
0-0
6
CONTINUOUS
62
3
100
AcDbLine
10
563.690000000000
20
410.560000000000
30
0.0
11
580.120000000000
21
425.410000000000
31
0.0
0
LINE
5
4ff
100
AcDbEntity
8
0-0
6
CONTINUOUS
62
3
100
AcDbLine
10
580.460000000000
20
425.040000000000
30
0.0
11
564.020000000000
21
410.190000000000
31
0.0
0
LINE
5
500
100
AcDbEntity
8
0-0
6
CONTINUOUS
62
3
100
AcDbLine
10
536.790000000000
20
410.300000000000
30
0.0
11
563.020000000000
21
410.300000000000
31
0.0
0
LINE
5
501
100
AcDbEntity
8
0-0
6
CONTINUOUS
62
3
100
AcDbLine
10
563.020000000000
20
409.800000000000
30
0.0
11
536.790000000000
21
409.800000000000
31
0.0
0
LINE
5
502
100
AcDbEntity
8
0-0
6
CONTINUOUS
62
3
100
AcDbLine
10
669.520000000000
20
410.560000000000
30
0.0
11
653.080000000000
21
425.410000000000
31
0.0
0
LINE
5
503
100
AcDbEntity
8
0-0
6
CONTINUOUS
62
3
100
AcDbLine
10
652.740000000000
20
425.040000000000
30
0.0
11
669.180000000000
21
410.190000000000
31
0.0
0
LINE
5
504
100
AcDbEntity
8
0-0
6
CONTINUOUS
62
3
100
AcDbLine
10
697.090000000000
20
410.560000000000
30
0.0
11
713.520000000000
21
425.410000000000
31
0.0
0
LINE
5
505
100
AcDbEntity
8
0-0
6
CONTINUOUS
62
3
100
AcDbLine
10
713.860000000000
20
425.040000000000
30
0.0
11
697.420000000000
21
410.190000000000
31
0.0
0
LINE
5
506
100
AcDbEntity
8
0-0
6
CONTINUOUS
62
3
100
AcDbLine
10
670.190000000000
20
410.300000000000
30
0.0
11
696.420000000000
21
410.300000000000
31
0.0
0
LINE
5
507
100
AcDbEntity
8
0-0
6
CONTINUOUS
62
3
100
AcDbLine
10
696.420000000000
20
409.800000000000
30
0.0
11
670.190000000000
21
409.800000000000
31
0.0
0
LINE
5
508
100
AcDbEntity
8
0-0
6
CONTINUOUS
62
3
100
AcDbLine
10
802.820000000000
20
410.560000000000
30
0.0
11
786.380000000000
21
425.410000000000
31
0.0
0
LINE
5
509
100
AcDbEntity
8
0-0
6
CONTINUOUS
62
3
100
AcDbLine
10
786.040000000000
20
425.040000000000
30
0.0
11
802.480000000000
21
410.190000000000
31
0.0
0
LINE
5
50a
100
AcDbEntity
8
0-0
6
CONTINUOUS
62
3
100
AcDbLine
10
830.390000000000
20
410.560000000000
30
0.0
11
846.820000000000
21
425.410000000000
31
0.0
0
LINE
5
50b
100
AcDbEntity
8
0-0
6
CONTINUOUS
62
3
100
AcDbLine
10
847.160000000000
20
425.040000000000
30
0.0
11
830.720000000000
21
410.190000000000
31
0.0
0
LINE
5
50c
100
AcDbEntity
8
0-0
6
CONTINUOUS
62
3
100
AcDbLine
10
803.490000000000
20
410.300000000000
30
0.0
11
829.720000000000
21
410.300000000000
31
0.0
0
LINE
5
50d
100
AcDbEntity
8
0-0
6
CONTINUOUS
62
3
100
AcDbLine
10
829.720000000000
20
409.800000000000
30
0.0
11
803.490000000000
21
409.800000000000
31
0.0
0
LINE
5
50e
100
AcDbEntity
8
0-0
6
CONTINUOUS
62
3
100
AcDbLine
10
936.120000000000
20
410.560000000000
30
0.0
11
919.680000000000
21
425.410000000000
31
0.0
0
LINE
5
50f
100
AcDbEntity
8
0-0
6
CONTINUOUS
62
3
100
AcDbLine
10
919.340000000000
20
425.040000000000
30
0.0
11
935.780000000000
21
410.190000000000
31
0.0
0
LINE
5
510
100
AcDbEntity
8
0-0
6
CONTINUOUS
62
3
100
AcDbLine
10
963.690000000000
20
410.560000000000
30
0.0
11
980.120000000000
21
425.410000000000
31
0.0
0
LINE
5
511
100
AcDbEntity
8
0-0
6
CONTINUOUS
62
3
100
AcDbLine
10
980.460000000000
20
425.040000000000
30
0.0
11
964.020000000000
21
410.190000000000
31
0.0
0
LINE
5
512
100
AcDbEntity
8
0-0
6
CONTINUOUS
62
3
100
AcDbLine
10
936.790000000000
20
410.300000000000
30
0.0
11
963.020000000000
21
410.300000000000
31
0.0
0
LINE
5
513
100
AcDbEntity
8
0-0
6
CONTINUOUS
62
3
100
AcDbLine
10
963.020000000000
20
409.800000000000
30
0.0
11
936.790000000000
21
409.800000000000
31
0.0
0
LINE
5
514
100
AcDbEntity
8
0-0
6
CONTINUOUS
62
3
100
AcDbLine
10
1069.420000000000
20
410.560000000000
30
0.0
11
1052.980000000000
21
425.410000000000
31
0.0
0
LINE
5
515
100
AcDbEntity
8
0-0
6
CONTINUOUS
62
3
100
AcDbLine
10
1052.640000000000
20
425.040000000000
30
0.0
11
1069.080000000000
21
410.190000000000
31
0.0
0
LINE
5
516
100
AcDbEntity
8
0-0
6
CONTINUOUS
62
3
100
AcDbLine
10
1096.320000000000
20
410.300000000000
30
0.0
11
1070.090000000000
21
410.300000000000
31
0.0
0
LINE
5
517
100
AcDbEntity
8
0-0
6
CONTINUOUS
62
3
100
AcDbLine
10
1096.320000000000
20
409.800000000000
30
0.0
11
1070.090000000000
21
409.800000000000
31
0.0
0
LINE
5
518
100
AcDbEntity
8
0-0
6
CONTINUOUS
62
3
100
AcDbLine
10
461.530000000000
20
425.300000000000
30
0.0
11
447.730000000000
21
425.300000000000
31
0.0
0
LINE
5
519
100
AcDbEntity
8
0-0
6
CONTINUOUS
62
3
100
AcDbLine
10
464.070000000000
20
424.300000000000
30
0.0
11
483.150000000000
21
424.300000000000
31
0.0
0
LINE
5
51a
100
AcDbEntity
8
0-0
6
CONTINUOUS
62
3
100
AcDbLine
10
447.730000000000
20
425.800000000000
30
0.0
11
461.530000000000
21
425.800000000000
31
0.0
0
LINE
5
51b
100
AcDbEntity
8
0-0
6
CONTINUOUS
62
3
100
AcDbLine
10
463.360000000000
20
424.590000000000
30
0.0
11
462.590000000000
21
425.360000000000
31
0.0
0
LINE
5
51c
100
AcDbEntity
8
0-0
6
CONTINUOUS
62
3
100
AcDbLine
10
462.240000000000
20
425.010000000000
30
0.0
11
463.010000000000
21
424.240000000000
31
0.0
0
LINE
5
51d
100
AcDbEntity
8
0-0
6
CONTINUOUS
62
3
100
AcDbLine
10
464.070000000000
20
423.800000000000
30
0.0
11
483.150000000000
21
423.800000000000
31
0.0
0
LINE
5
51e
100
AcDbEntity
8
0-0
6
CONTINUOUS
62
3
100
AcDbLine
10
504.770000000000
20
425.300000000000
30
0.0
11
518.570000000000
21
425.300000000000
31
0.0
0
LINE
5
51f
100
AcDbEntity
8
0-0
6
CONTINUOUS
62
3
100
AcDbLine
10
502.240000000000
20
424.300000000000
30
0.0
11
483.150000000000
21
424.300000000000
31
0.0
0
LINE
5
520
100
AcDbEntity
8
0-0
6
CONTINUOUS
62
3
100
AcDbLine
10
518.570000000000
20
425.800000000000
30
0.0
11
504.770000000000
21
425.800000000000
31
0.0
0
LINE
5
521
100
AcDbEntity
8
0-0
6
CONTINUOUS
62
3
100
AcDbLine
10
502.940000000000
20
424.590000000000
30
0.0
11
503.710000000000
21
425.360000000000
31
0.0
0
LINE
5
522
100
AcDbEntity
8
0-0
6
CONTINUOUS
62
3
100
AcDbLine
10
504.070000000000
20
425.010000000000
30
0.0
11
503.300000000000
21
424.240000000000
31
0.0
0
LINE
5
523
100
AcDbEntity
8
0-0
6
CONTINUOUS
62
3
100
AcDbLine
10
502.240000000000
20
423.800000000000
30
0.0
11
483.150000000000
21
423.800000000000
31
0.0
0
LINE
5
524
100
AcDbEntity
8
0-0
6
CONTINUOUS
62
3
100
AcDbLine
10
594.930000000000
20
425.300000000000
30
0.0
11
581.130000000000
21
425.300000000000
31
0.0
0
LINE
5
525
100
AcDbEntity
8
0-0
6
CONTINUOUS
62
3
100
AcDbLine
10
597.470000000000
20
424.300000000000
30
0.0
11
616.550000000000
21
424.300000000000
31
0.0
0
LINE
5
526
100
AcDbEntity
8
0-0
6
CONTINUOUS
62
3
100
AcDbLine
10
581.130000000000
20
425.800000000000
30
0.0
11
594.930000000000
21
425.800000000000
31
0.0
0
LINE
5
527
100
AcDbEntity
8
0-0
6
CONTINUOUS
62
3
100
AcDbLine
10
596.760000000000
20
424.590000000000
30
0.0
11
595.990000000000
21
425.360000000000
31
0.0
0
LINE
5
528
100
AcDbEntity
8
0-0
6
CONTINUOUS
62
3
100
AcDbLine
10
595.640000000000
20
425.010000000000
30
0.0
11
596.410000000000
21
424.240000000000
31
0.0
0
LINE
5
529
100
AcDbEntity
8
0-0
6
CONTINUOUS
62
3
100
AcDbLine
10
597.470000000000
20
423.800000000000
30
0.0
11
616.550000000000
21
423.800000000000
31
0.0
0
LINE
5
52a
100
AcDbEntity
8
0-0
6
CONTINUOUS
62
3
100
AcDbLine
10
638.170000000000
20
425.300000000000
30
0.0
11
651.970000000000
21
425.300000000000
31
0.0
0
LINE
5
52b
100
AcDbEntity
8
0-0
6
CONTINUOUS
62
3
100
AcDbLine
10
635.640000000000
20
424.300000000000
30
0.0
11
616.550000000000
21
424.300000000000
31
0.0
0
LINE
5
52c
100
AcDbEntity
8
0-0
6
CONTINUOUS
62
3
100
AcDbLine
10
651.970000000000
20
425.800000000000
30
0.0
11
638.170000000000
21
425.800000000000
31
0.0
0
LINE
5
52d
100
AcDbEntity
8
0-0
6
CONTINUOUS
62
3
100
AcDbLine
10
636.340000000000
20
424.590000000000
30
0.0
11
637.110000000000
21
425.360000000000
31
0.0
0
LINE
5
52e
100
AcDbEntity
8
0-0
6
CONTINUOUS
62
3
100
AcDbLine
10
637.470000000000
20
425.010000000000
30
0.0
11
636.700000000000
21
424.240000000000
31
0.0
0
LINE
5
52f
100
AcDbEntity
8
0-0
6
CONTINUOUS
62
3
100
AcDbLine
10
635.640000000000
20
423.800000000000
30
0.0
11
616.550000000000
21
423.800000000000
31
0.0
0
LINE
5
530
100
AcDbEntity
8
0-0
6
CONTINUOUS
62
3
100
AcDbLine
10
728.330000000000
20
425.300000000000
30
0.0
11
714.530000000000
21
425.300000000000
31
0.0
0
LINE
5
531
100
AcDbEntity
8
0-0
6
CONTINUOUS
62
3
100
AcDbLine
10
730.870000000000
20
424.300000000000
30
0.0
11
749.950000000000
21
424.300000000000
31
0.0
0
LINE
5
532
100
AcDbEntity
8
0-0
6
CONTINUOUS
62
3
100
AcDbLine
10
714.530000000000
20
425.800000000000
30
0.0
11
728.330000000000
21
425.800000000000
31
0.0
0
LINE
5
533
100
AcDbEntity
8
0-0
6
CONTINUOUS
62
3
100
AcDbLine
10
730.160000000000
20
424.590000000000
30
0.0
11
729.390000000000
21
425.360000000000
31
0.0
0
LINE
5
534
100
AcDbEntity
8
0-0
6
CONTINUOUS
62
3
100
AcDbLine
10
729.040000000000
20
425.010000000000
30
0.0
11
729.810000000000
21
424.240000000000
31
0.0
0
LINE
5
535
100
AcDbEntity
8
0-0
6
CONTINUOUS
62
3
100
AcDbLine
10
730.870000000000
20
423.800000000000
30
0.0
11
749.950000000000
21
423.800000000000
31
0.0
0
LINE
5
536
100
AcDbEntity
8
0-0
6
CONTINUOUS
62
3
100
AcDbLine
10
771.570000000000
20
425.300000000000
30
0.0
11
785.370000000000
21
425.300000000000
31
0.0
0
LINE
5
537
100
AcDbEntity
8
0-0
6
CONTINUOUS
62
3
100
AcDbLine
10
769.040000000000
20
424.300000000000
30
0.0
11
749.950000000000
21
424.300000000000
31
0.0
0
LINE
5
538
100
AcDbEntity
8
0-0
6
CONTINUOUS
62
3
100
AcDbLine
10
785.370000000000
20
425.800000000000
30
0.0
11
771.570000000000
21
425.800000000000
31
0.0
0
LINE
5
539
100
AcDbEntity
8
0-0
6
CONTINUOUS
62
3
100
AcDbLine
10
769.740000000000
20
424.590000000000
30
0.0
11
770.510000000000
21
425.360000000000
31
0.0
0
LINE
5
53a
100
AcDbEntity
8
0-0
6
CONTINUOUS
62
3
100
AcDbLine
10
770.870000000000
20
425.010000000000
30
0.0
11
770.100000000000
21
424.240000000000
31
0.0
0
LINE
5
53b
100
AcDbEntity
8
0-0
6
CONTINUOUS
62
3
100
AcDbLine
10
769.040000000000
20
423.800000000000
30
0.0
11
749.950000000000
21
423.800000000000
31
0.0
0
LINE
5
53c
100
AcDbEntity
8
0-0
6
CONTINUOUS
62
3
100
AcDbLine
10
861.630000000000
20
425.300000000000
30
0.0
11
847.830000000000
21
425.300000000000
31
0.0
0
LINE
5
53d
100
AcDbEntity
8
0-0
6
CONTINUOUS
62
3
100
AcDbLine
10
864.170000000000
20
424.300000000000
30
0.0
11
883.250000000000
21
424.300000000000
31
0.0
0
LINE
5
53e
100
AcDbEntity
8
0-0
6
CONTINUOUS
62
3
100
AcDbLine
10
847.830000000000
20
425.800000000000
30
0.0
11
861.630000000000
21
425.800000000000
31
0.0
0
LINE
5
53f
100
AcDbEntity
8
0-0
6
CONTINUOUS
62
3
100
AcDbLine
10
863.460000000000
20
424.590000000000
30
0.0
11
862.690000000000
21
425.360000000000
31
0.0
0
LINE
5
540
100
AcDbEntity
8
0-0
6
CONTINUOUS
62
3
100
AcDbLine
10
862.340000000000
20
425.010000000000
30
0.0
11
863.110000000000
21
424.240000000000
31
0.0
0
LINE
5
541
100
AcDbEntity
8
0-0
6
CONTINUOUS
62
3
100
AcDbLine
10
864.170000000000
20
423.800000000000
30
0.0
11
883.250000000000
21
423.800000000000
31
0.0
0
LINE
5
542
100
AcDbEntity
8
0-0
6
CONTINUOUS
62
3
100
AcDbLine
10
904.870000000000
20
425.300000000000
30
0.0
11
918.670000000000
21
425.300000000000
31
0.0
0
LINE
5
543
100
AcDbEntity
8
0-0
6
CONTINUOUS
62
3
100
AcDbLine
10
902.340000000000
20
424.300000000000
30
0.0
11
883.250000000000
21
424.300000000000
31
0.0
0
LINE
5
544
100
AcDbEntity
8
0-0
6
CONTINUOUS
62
3
100
AcDbLine
10
918.670000000000
20
425.800000000000
30
0.0
11
904.870000000000
21
425.800000000000
31
0.0
0
LINE
5
545
100
AcDbEntity
8
0-0
6
CONTINUOUS
62
3
100
AcDbLine
10
903.040000000000
20
424.590000000000
30
0.0
11
903.810000000000
21
425.360000000000
31
0.0
0
LINE
5
546
100
AcDbEntity
8
0-0
6
CONTINUOUS
62
3
100
AcDbLine
10
904.170000000000
20
425.010000000000
30
0.0
11
903.400000000000
21
424.240000000000
31
0.0
0
LINE
5
547
100
AcDbEntity
8
0-0
6
CONTINUOUS
62
3
100
AcDbLine
10
902.340000000000
20
423.800000000000
30
0.0
11
883.250000000000
21
423.800000000000
31
0.0
0
LINE
5
548
100
AcDbEntity
8
0-0
6
CONTINUOUS
62
3
100
AcDbLine
10
994.930000000000
20
425.300000000000
30
0.0
11
981.130000000000
21
425.300000000000
31
0.0
0
LINE
5
549
100
AcDbEntity
8
0-0
6
CONTINUOUS
62
3
100
AcDbLine
10
997.470000000000
20
424.300000000000
30
0.0
11
1016.550000000000
21
424.300000000000
31
0.0
0
LINE
5
54a
100
AcDbEntity
8
0-0
6
CONTINUOUS
62
3
100
AcDbLine
10
981.130000000000
20
425.800000000000
30
0.0
11
994.930000000000
21
425.800000000000
31
0.0
0
LINE
5
54b
100
AcDbEntity
8
0-0
6
CONTINUOUS
62
3
100
AcDbLine
10
996.760000000000
20
424.590000000000
30
0.0
11
995.990000000000
21
425.360000000000
31
0.0
0
LINE
5
54c
100
AcDbEntity
8
0-0
6
CONTINUOUS
62
3
100
AcDbLine
10
995.640000000000
20
425.010000000000
30
0.0
11
996.410000000000
21
424.240000000000
31
0.0
0
LINE
5
54d
100
AcDbEntity
8
0-0
6
CONTINUOUS
62
3
100
AcDbLine
10
997.470000000000
20
423.800000000000
30
0.0
11
1016.550000000000
21
423.800000000000
31
0.0
0
LINE
5
54e
100
AcDbEntity
8
0-0
6
CONTINUOUS
62
3
100
AcDbLine
10
1038.170000000000
20
425.300000000000
30
0.0
11
1051.970000000000
21
425.300000000000
31
0.0
0
LINE
5
54f
100
AcDbEntity
8
0-0
6
CONTINUOUS
62
3
100
AcDbLine
10
1035.640000000000
20
424.300000000000
30
0.0
11
1016.550000000000
21
424.300000000000
31
0.0
0
LINE
5
550
100
AcDbEntity
8
0-0
6
CONTINUOUS
62
3
100
AcDbLine
10
1051.970000000000
20
425.800000000000
30
0.0
11
1038.170000000000
21
425.800000000000
31
0.0
0
LINE
5
551
100
AcDbEntity
8
0-0
6
CONTINUOUS
62
3
100
AcDbLine
10
1036.340000000000
20
424.590000000000
30
0.0
11
1037.110000000000
21
425.360000000000
31
0.0
0
LINE
5
552
100
AcDbEntity
8
0-0
6
CONTINUOUS
62
3
100
AcDbLine
10
1037.470000000000
20
425.010000000000
30
0.0
11
1036.700000000000
21
424.240000000000
31
0.0
0
LINE
5
553
100
AcDbEntity
8
0-0
6
CONTINUOUS
62
3
100
AcDbLine
10
1035.640000000000
20
423.800000000000
30
0.0
11
1016.550000000000
21
423.800000000000
31
0.0
0
LINE
5
554
100
AcDbEntity
8
0-0
6
CONTINUOUS
62
3
100
AcDbLine
10
330.770000000000
20
424.300000000000
30
0.0
11
349.850000000000
21
424.300000000000
31
0.0
0
LINE
5
555
100
AcDbEntity
8
0-0
6
CONTINUOUS
62
3
100
AcDbLine
10
330.060000000000
20
424.590000000000
30
0.0
11
329.290000000000
21
425.360000000000
31
0.0
0
LINE
5
556
100
AcDbEntity
8
0-0
6
CONTINUOUS
62
3
100
AcDbLine
10
328.940000000000
20
425.010000000000
30
0.0
11
329.710000000000
21
424.240000000000
31
0.0
0
LINE
5
557
100
AcDbEntity
8
0-0
6
CONTINUOUS
62
3
100
AcDbLine
10
330.770000000000
20
423.800000000000
30
0.0
11
349.850000000000
21
423.800000000000
31
0.0
0
LINE
5
558
100
AcDbEntity
8
0-0
6
CONTINUOUS
62
3
100
AcDbLine
10
371.470000000000
20
425.300000000000
30
0.0
11
385.270000000000
21
425.300000000000
31
0.0
0
LINE
5
559
100
AcDbEntity
8
0-0
6
CONTINUOUS
62
3
100
AcDbLine
10
368.940000000000
20
424.300000000000
30
0.0
11
349.850000000000
21
424.300000000000
31
0.0
0
LINE
5
55a
100
AcDbEntity
8
0-0
6
CONTINUOUS
62
3
100
AcDbLine
10
385.270000000000
20
425.800000000000
30
0.0
11
371.470000000000
21
425.800000000000
31
0.0
0
LINE
5
55b
100
AcDbEntity
8
0-0
6
CONTINUOUS
62
3
100
AcDbLine
10
369.640000000000
20
424.590000000000
30
0.0
11
370.410000000000
21
425.360000000000
31
0.0
0
LINE
5
55c
100
AcDbEntity
8
0-0
6
CONTINUOUS
62
3
100
AcDbLine
10
370.770000000000
20
425.010000000000
30
0.0
11
370.000000000000
21
424.240000000000
31
0.0
0
LINE
5
55d
100
AcDbEntity
8
0-0
6
CONTINUOUS
62
3
100
AcDbLine
10
368.940000000000
20
423.800000000000
30
0.0
11
349.850000000000
21
423.800000000000
31
0.0
0
LINE
5
55e
100
AcDbEntity
8
0-0
6
CONTINUOUS
62
3
100
AcDbLine
10
313.130000000000
20
425.800000000000
30
0.0
11
328.230000000000
21
425.800000000000
31
0.0
0
LINE
5
55f
100
AcDbEntity
8
0-0
6
CONTINUOUS
62
3
100
AcDbLine
10
328.230000000000
20
425.300000000000
30
0.0
11
313.130000000000
21
425.300000000000
31
0.0
0
LINE
5
560
100
AcDbEntity
8
0-0
6
CONTINUOUS
62
7
100
AcDbLine
10
296.700000000000
20
795.800000000000
30
0.0
11
296.700000000000
21
810.800000000000
31
0.0
0
LINE
5
561
100
AcDbEntity
8
0-0
6
CONTINUOUS
62
7
100
AcDbLine
10
385.850000000000
20
810.800000000000
30
0.0
11
447.150000000000
21
810.800000000000
31
0.0
0
LINE
5
562
100
AcDbEntity
8
0-0
6
CONTINUOUS
62
7
100
AcDbLine
10
385.850000000000
20
795.800000000000
30
0.0
11
385.850000000000
21
810.800000000000
31
0.0
0
POLYLINE
5
563
100
AcDbEntity
8
0-0
6
CONTINUOUS
62
  7
100
AcDb2dPolyline
66
1
10
0.0
20
0.0
30
0.0
70
0
0
VERTEX
5
564
100
AcDbEntity
8
0-0
6
CONTINUOUS
62
  7
100
AcDbVertex
100
AcDb2dVertex
10
447.150000000000
20
795.800000000000
30
0.0
0
VERTEX
5
565
100
AcDbEntity
8
0-0
6
CONTINUOUS
62
  7
100
AcDbVertex
100
AcDb2dVertex
10
447.150000000000
20
810.800000000000
30
0.0
0
VERTEX
5
566
100
AcDbEntity
8
0-0
6
CONTINUOUS
62
  7
100
AcDbVertex
100
AcDb2dVertex
10
519.150000000000
20
810.800000000000
30
0.0
0
SEQEND
5
567
100
AcDbEntity
8
0-0
0
LINE
5
568
100
AcDbEntity
8
0-0
6
CONTINUOUS
62
7
100
AcDbLine
10
519.150000000000
20
795.800000000000
30
0.0
11
519.150000000000
21
810.800000000000
31
0.0
0
POLYLINE
5
569
100
AcDbEntity
8
0-0
6
CONTINUOUS
62
  7
100
AcDb2dPolyline
66
1
10
0.0
20
0.0
30
0.0
70
0
0
VERTEX
5
56a
100
AcDbEntity
8
0-0
6
CONTINUOUS
62
  7
100
AcDbVertex
100
AcDb2dVertex
10
283.200000000000
20
830.800000000000
30
0.0
0
VERTEX
5
56b
100
AcDbEntity
8
0-0
6
CONTINUOUS
62
  7
100
AcDbVertex
100
AcDb2dVertex
10
416.500000000000
20
830.800000000000
30
0.0
0
VERTEX
5
56c
100
AcDbEntity
8
0-0
6
CONTINUOUS
62
  7
100
AcDbVertex
100
AcDb2dVertex
10
549.800000000000
20
830.800000000000
30
0.0
0
VERTEX
5
56d
100
AcDbEntity
8
0-0
6
CONTINUOUS
62
  7
100
AcDbVertex
100
AcDb2dVertex
10
683.200000000000
20
830.800000000000
30
0.0
0
VERTEX
5
56e
100
AcDbEntity
8
0-0
6
CONTINUOUS
62
  7
100
AcDbVertex
100
AcDb2dVertex
10
816.600000000000
20
830.800000000000
30
0.0
0
VERTEX
5
56f
100
AcDbEntity
8
0-0
6
CONTINUOUS
62
  7
100
AcDbVertex
100
AcDb2dVertex
10
949.900000000000
20
830.800000000000
30
0.0
0
VERTEX
5
570
100
AcDbEntity
8
0-0
6
CONTINUOUS
62
  7
100
AcDbVertex
100
AcDb2dVertex
10
1083.200000000000
20
830.800000000000
30
0.0
0
SEQEND
5
571
100
AcDbEntity
8
0-0
0
LINE
5
572
100
AcDbEntity
8
0-0
6
CONTINUOUS
62
7
100
AcDbLine
10
283.200000000000
20
850.800000000000
30
0.0
11
1083.200000000000
21
850.800000000000
31
0.0
0
LINE
5
573
100
AcDbEntity
8
0-0
6
CONTINUOUS
62
7
100
AcDbLine
10
271.700000000000
20
744.800000000000
30
0.0
11
276.650000000000
21
744.800000000000
31
0.0
0
LINE
5
574
100
AcDbEntity
8
0-0
6
CONTINUOUS
62
7
100
AcDbLine
10
276.650000000000
20
759.800000000000
30
0.0
11
276.650000000000
21
744.800000000000
31
0.0
0
LINE
5
575
100
AcDbEntity
8
0-0
6
CONTINUOUS
62
7
100
AcDbLine
10
296.700000000000
20
759.800000000000
30
0.0
11
296.700000000000
21
744.800000000000
31
0.0
0
POLYLINE
5
576
100
AcDbEntity
8
0-0
6
CONTINUOUS
62
  7
100
AcDb2dPolyline
66
1
10
0.0
20
0.0
30
0.0
70
0
0
VERTEX
5
577
100
AcDbEntity
8
0-0
6
CONTINUOUS
62
  7
100
AcDbVertex
100
AcDb2dVertex
10
1069.700000000000
20
759.800000000000
30
0.0
0
VERTEX
5
578
100
AcDbEntity
8
0-0
6
CONTINUOUS
62
  7
100
AcDbVertex
100
AcDb2dVertex
10
1069.700000000000
20
744.800000000000
30
0.0
0
VERTEX
5
579
100
AcDbEntity
8
0-0
6
CONTINUOUS
62
  7
100
AcDbVertex
100
AcDb2dVertex
10
1096.700000000000
20
744.800000000000
30
0.0
0
SEQEND
5
57a
100
AcDbEntity
8
0-0
0
LINE
5
57b
100
AcDbEntity
8
0-0
6
CONTINUOUS
62
7
100
AcDbLine
10
1096.700000000000
20
759.800000000000
30
0.0
11
1096.700000000000
21
744.800000000000
31
0.0
0
LINE
5
57c
100
AcDbEntity
8
0-0
6
CONTINUOUS
62
7
100
AcDbLine
10
1103.600000000000
20
762.380000000000
30
0.0
11
1113.660000000000
21
751.250000000000
31
0.0
0
LINE
5
57d
100
AcDbEntity
8
0-0
6
CONTINUOUS
62
7
100
AcDbLine
10
283.200000000000
20
812.390000000000
30
0.0
11
283.200000000000
21
783.640000000000
31
0.0
0
LINE
5
57e
100
AcDbEntity
8
0-0
6
CONTINUOUS
62
7
100
AcDbLine
10
416.500000000000
20
812.390000000000
30
0.0
11
416.500000000000
21
783.640000000000
31
0.0
0
LINE
5
57f
100
AcDbEntity
8
0-0
6
CONTINUOUS
62
7
100
AcDbLine
10
416.500000000000
20
830.800000000000
30
0.0
11
416.500000000000
21
825.570000000000
31
0.0
0
LINE
5
580
100
AcDbEntity
8
0-0
6
CONTINUOUS
62
7
100
AcDbLine
10
283.200000000000
20
850.800000000000
30
0.0
11
283.200000000000
21
825.570000000000
31
0.0
0
LINE
5
581
100
AcDbEntity
8
0-0
6
CONTINUOUS
62
7
100
AcDbLine
10
549.800000000000
20
830.800000000000
30
0.0
11
549.800000000000
21
783.640000000000
31
0.0
0
LINE
5
582
100
AcDbEntity
8
0-0
6
CONTINUOUS
62
7
100
AcDbLine
10
683.200000000000
20
830.800000000000
30
0.0
11
683.200000000000
21
783.640000000000
31
0.0
0
LINE
5
583
100
AcDbEntity
8
0-0
6
CONTINUOUS
62
7
100
AcDbLine
10
816.600000000000
20
830.800000000000
30
0.0
11
816.600000000000
21
783.640000000000
31
0.0
0
LINE
5
584
100
AcDbEntity
8
0-0
6
CONTINUOUS
62
7
100
AcDbLine
10
949.900000000000
20
830.800000000000
30
0.0
11
949.900000000000
21
783.640000000000
31
0.0
0
LINE
5
585
100
AcDbEntity
8
0-0
6
CONTINUOUS
62
7
100
AcDbLine
10
1083.200000000000
20
850.800000000000
30
0.0
11
1083.200000000000
21
783.640000000000
31
0.0
0
LINE
5
586
100
AcDbEntity
8
0-0
6
CONTINUOUS
62
7
100
AcDbLine
10
403.000000000000
20
759.800000000000
30
0.0
11
403.000000000000
21
744.800000000000
31
0.0
0
LINE
5
587
100
AcDbEntity
8
0-0
6
CONTINUOUS
62
7
100
AcDbLine
10
430.000000000000
20
759.800000000000
30
0.0
11
430.000000000000
21
744.800000000000
31
0.0
0
LINE
5
588
100
AcDbEntity
8
0-0
6
CONTINUOUS
62
7
100
AcDbLine
10
749.900000000000
20
769.800000000000
30
0.0
11
749.900000000000
21
785.800000000000
31
0.0
0
LINE
5
589
100
AcDbEntity
8
0-0
6
CONTINUOUS
62
7
100
AcDbLine
10
724.310000000000
20
769.800000000000
30
0.0
11
749.950000000000
21
769.800000000000
31
0.0
0
LINE
5
58a
100
AcDbEntity
8
0-0
6
CONTINUOUS
62
7
100
AcDbLine
10
403.000000000000
20
744.800000000000
30
0.0
11
536.300000000000
21
744.800000000000
31
0.0
0
LINE
5
58b
100
AcDbEntity
8
0-0
6
CONTINUOUS
62
7
100
AcDbLine
10
536.300000000000
20
759.800000000000
30
0.0
11
536.300000000000
21
744.800000000000
31
0.0
0
LINE
5
58c
100
AcDbEntity
8
0-0
6
CONTINUOUS
62
7
100
AcDbLine
10
296.700000000000
20
435.800000000000
30
0.0
11
296.700000000000
21
450.800000000000
31
0.0
0
LINE
5
58d
100
AcDbEntity
8
0-0
6
CONTINUOUS
62
7
100
AcDbLine
10
385.850000000000
20
450.800000000000
30
0.0
11
447.150000000000
21
450.800000000000
31
0.0
0
LINE
5
58e
100
AcDbEntity
8
0-0
6
CONTINUOUS
62
7
100
AcDbLine
10
385.850000000000
20
435.800000000000
30
0.0
11
385.850000000000
21
450.800000000000
31
0.0
0
POLYLINE
5
58f
100
AcDbEntity
8
0-0
6
CONTINUOUS
62
  7
100
AcDb2dPolyline
66
1
10
0.0
20
0.0
30
0.0
70
0
0
VERTEX
5
590
100
AcDbEntity
8
0-0
6
CONTINUOUS
62
  7
100
AcDbVertex
100
AcDb2dVertex
10
447.150000000000
20
435.800000000000
30
0.0
0
VERTEX
5
591
100
AcDbEntity
8
0-0
6
CONTINUOUS
62
  7
100
AcDbVertex
100
AcDb2dVertex
10
447.150000000000
20
450.800000000000
30
0.0
0
VERTEX
5
592
100
AcDbEntity
8
0-0
6
CONTINUOUS
62
  7
100
AcDbVertex
100
AcDb2dVertex
10
519.150000000000
20
450.800000000000
30
0.0
0
SEQEND
5
593
100
AcDbEntity
8
0-0
0
LINE
5
594
100
AcDbEntity
8
0-0
6
CONTINUOUS
62
7
100
AcDbLine
10
519.150000000000
20
435.800000000000
30
0.0
11
519.150000000000
21
450.800000000000
31
0.0
0
POLYLINE
5
595
100
AcDbEntity
8
0-0
6
CONTINUOUS
62
  7
100
AcDb2dPolyline
66
1
10
0.0
20
0.0
30
0.0
70
0
0
VERTEX
5
596
100
AcDbEntity
8
0-0
6
CONTINUOUS
62
  7
100
AcDbVertex
100
AcDb2dVertex
10
283.200000000000
20
470.800000000000
30
0.0
0
VERTEX
5
597
100
AcDbEntity
8
0-0
6
CONTINUOUS
62
  7
100
AcDbVertex
100
AcDb2dVertex
10
416.500000000000
20
470.800000000000
30
0.0
0
VERTEX
5
598
100
AcDbEntity
8
0-0
6
CONTINUOUS
62
  7
100
AcDbVertex
100
AcDb2dVertex
10
549.800000000000
20
470.800000000000
30
0.0
0
VERTEX
5
599
100
AcDbEntity
8
0-0
6
CONTINUOUS
62
  7
100
AcDbVertex
100
AcDb2dVertex
10
683.200000000000
20
470.800000000000
30
0.0
0
VERTEX
5
59a
100
AcDbEntity
8
0-0
6
CONTINUOUS
62
  7
100
AcDbVertex
100
AcDb2dVertex
10
816.600000000000
20
470.800000000000
30
0.0
0
VERTEX
5
59b
100
AcDbEntity
8
0-0
6
CONTINUOUS
62
  7
100
AcDbVertex
100
AcDb2dVertex
10
949.900000000000
20
470.800000000000
30
0.0
0
VERTEX
5
59c
100
AcDbEntity
8
0-0
6
CONTINUOUS
62
  7
100
AcDbVertex
100
AcDb2dVertex
10
1083.200000000000
20
470.800000000000
30
0.0
0
SEQEND
5
59d
100
AcDbEntity
8
0-0
0
LINE
5
59e
100
AcDbEntity
8
0-0
6
CONTINUOUS
62
7
100
AcDbLine
10
283.200000000000
20
490.800000000000
30
0.0
11
1083.200000000000
21
490.800000000000
31
0.0
0
POLYLINE
5
59f
100
AcDbEntity
8
0-0
6
CONTINUOUS
62
  7
100
AcDb2dPolyline
66
1
10
0.0
20
0.0
30
0.0
70
0
0
VERTEX
5
5a0
100
AcDbEntity
8
0-0
6
CONTINUOUS
62
  7
100
AcDbVertex
100
AcDb2dVertex
10
276.650000000000
20
399.800000000000
30
0.0
0
VERTEX
5
5a1
100
AcDbEntity
8
0-0
6
CONTINUOUS
62
  7
100
AcDbVertex
100
AcDb2dVertex
10
276.650000000000
20
384.800000000000
30
0.0
0
VERTEX
5
5a2
100
AcDbEntity
8
0-0
6
CONTINUOUS
62
  7
100
AcDbVertex
100
AcDb2dVertex
10
296.700000000000
20
384.800000000000
30
0.0
0
SEQEND
5
5a3
100
AcDbEntity
8
0-0
0
LINE
5
5a4
100
AcDbEntity
8
0-0
6
CONTINUOUS
62
7
100
AcDbLine
10
296.700000000000
20
399.800000000000
30
0.0
11
296.700000000000
21
384.800000000000
31
0.0
0
POLYLINE
5
5a5
100
AcDbEntity
8
0-0
6
CONTINUOUS
62
  7
100
AcDb2dPolyline
66
1
10
0.0
20
0.0
30
0.0
70
0
0
VERTEX
5
5a6
100
AcDbEntity
8
0-0
6
CONTINUOUS
62
  7
100
AcDbVertex
100
AcDb2dVertex
10
1069.700000000000
20
399.800000000000
30
0.0
0
VERTEX
5
5a7
100
AcDbEntity
8
0-0
6
CONTINUOUS
62
  7
100
AcDbVertex
100
AcDb2dVertex
10
1069.700000000000
20
384.800000000000
30
0.0
0
VERTEX
5
5a8
100
AcDbEntity
8
0-0
6
CONTINUOUS
62
  7
100
AcDbVertex
100
AcDb2dVertex
10
1096.700000000000
20
384.800000000000
30
0.0
0
SEQEND
5
5a9
100
AcDbEntity
8
0-0
0
LINE
5
5aa
100
AcDbEntity
8
0-0
6
CONTINUOUS
62
7
100
AcDbLine
10
1096.700000000000
20
399.800000000000
30
0.0
11
1096.700000000000
21
384.800000000000
31
0.0
0
LINE
5
5ab
100
AcDbEntity
8
0-0
6
CONTINUOUS
62
7
100
AcDbLine
10
403.000000000000
20
399.800000000000
30
0.0
11
403.000000000000
21
384.800000000000
31
0.0
0
LINE
5
5ac
100
AcDbEntity
8
0-0
6
CONTINUOUS
62
7
100
AcDbLine
10
430.000000000000
20
399.800000000000
30
0.0
11
430.000000000000
21
384.800000000000
31
0.0
0
LINE
5
5ad
100
AcDbEntity
8
0-0
6
CONTINUOUS
62
7
100
AcDbLine
10
724.310000000000
20
409.800000000000
30
0.0
11
749.950000000000
21
409.800000000000
31
0.0
0
LINE
5
5ae
100
AcDbEntity
8
0-0
6
CONTINUOUS
62
7
100
AcDbLine
10
403.000000000000
20
384.800000000000
30
0.0
11
536.300000000000
21
384.800000000000
31
0.0
0
LINE
5
5af
100
AcDbEntity
8
0-0
6
CONTINUOUS
62
7
100
AcDbLine
10
536.300000000000
20
399.800000000000
30
0.0
11
536.300000000000
21
384.800000000000
31
0.0
0
LINE
5
5b0
100
AcDbEntity
8
0-0
6
CONTINUOUS
62
7
100
AcDbLine
10
283.200000000000
20
452.390000000000
30
0.0
11
283.200000000000
21
423.640000000000
31
0.0
0
LINE
5
5b1
100
AcDbEntity
8
0-0
6
CONTINUOUS
62
7
100
AcDbLine
10
416.500000000000
20
452.390000000000
30
0.0
11
416.500000000000
21
423.640000000000
31
0.0
0
LINE
5
5b2
100
AcDbEntity
8
0-0
6
CONTINUOUS
62
7
100
AcDbLine
10
416.500000000000
20
470.800000000000
30
0.0
11
416.500000000000
21
465.570000000000
31
0.0
0
LINE
5
5b3
100
AcDbEntity
8
0-0
6
CONTINUOUS
62
7
100
AcDbLine
10
283.200000000000
20
490.800000000000
30
0.0
11
283.200000000000
21
465.570000000000
31
0.0
0
LINE
5
5b4
100
AcDbEntity
8
0-0
6
CONTINUOUS
62
7
100
AcDbLine
10
549.800000000000
20
470.800000000000
30
0.0
11
549.800000000000
21
423.640000000000
31
0.0
0
LINE
5
5b5
100
AcDbEntity
8
0-0
6
CONTINUOUS
62
7
100
AcDbLine
10
683.200000000000
20
470.800000000000
30
0.0
11
683.200000000000
21
423.640000000000
31
0.0
0
LINE
5
5b6
100
AcDbEntity
8
0-0
6
CONTINUOUS
62
7
100
AcDbLine
10
816.600000000000
20
470.800000000000
30
0.0
11
816.600000000000
21
423.640000000000
31
0.0
0
LINE
5
5b7
100
AcDbEntity
8
0-0
6
CONTINUOUS
62
7
100
AcDbLine
10
949.900000000000
20
470.800000000000
30
0.0
11
949.900000000000
21
423.640000000000
31
0.0
0
LINE
5
5b8
100
AcDbEntity
8
0-0
6
CONTINUOUS
62
7
100
AcDbLine
10
1083.200000000000
20
490.800000000000
30
0.0
11
1083.200000000000
21
423.640000000000
31
0.0
0
POLYLINE
5
5b9
100
AcDbEntity
8
0-0
6
CONTINUOUS
62
  7
100
AcDb2dPolyline
66
1
10
0.0
20
0.0
30
0.0
70
0
0
VERTEX
5
5ba
100
AcDbEntity
8
0-0
6
CONTINUOUS
62
  7
100
AcDbVertex
100
AcDb2dVertex
10
580.550000000000
20
435.800000000000
30
0.0
0
VERTEX
5
5bb
100
AcDbEntity
8
0-0
6
CONTINUOUS
62
  7
100
AcDbVertex
100
AcDb2dVertex
10
580.550000000000
20
450.800000000000
30
0.0
0
VERTEX
5
5bc
100
AcDbEntity
8
0-0
6
CONTINUOUS
62
  7
100
AcDbVertex
100
AcDb2dVertex
10
652.550000000000
20
450.800000000000
30
0.0
0
SEQEND
5
5bd
100
AcDbEntity
8
0-0
0
LINE
5
5be
100
AcDbEntity
8
0-0
6
CONTINUOUS
62
7
100
AcDbLine
10
652.550000000000
20
435.800000000000
30
0.0
11
652.550000000000
21
450.800000000000
31
0.0
0
LINE
5
5bf
100
AcDbEntity
8
0-0
6
CONTINUOUS
62
7
100
AcDbLine
10
595.550000000000
20
435.800000000000
30
0.0
11
595.550000000000
21
450.800000000000
31
0.0
0
LINE
5
5c0
100
AcDbEntity
8
0-0
6
CONTINUOUS
62
7
100
AcDbLine
10
637.550000000000
20
435.800000000000
30
0.0
11
637.550000000000
21
450.800000000000
31
0.0
0
LINE
5
5c1
100
AcDbEntity
8
0-0
6
CONTINUOUS
62
7
100
AcDbLine
10
735.780000000000
20
425.800000000000
30
0.0
11
749.900000000000
21
425.800000000000
31
0.0
0
LINE
5
5c2
100
AcDbEntity
8
0-0
6
CONTINUOUS
62
7
100
AcDbLine
10
749.900000000000
20
409.800000000000
30
0.0
11
749.900000000000
21
425.800000000000
31
0.0
0
LINE
5
5c3
100
AcDbEntity
8
0-0
6
CONTINUOUS
62
3
100
AcDbLine
10
276.590000000000
20
771.350000000000
30
0.0
11
275.070000000000
21
772.660000000000
31
0.0
0
LINE
5
5c4
100
AcDbEntity
8
0-0
6
CONTINUOUS
62
3
100
AcDbLine
10
276.730000000000
20
771.300000000000
30
0.0
11
296.120000000000
21
771.300000000000
31
0.0
0
LINE
5
5c5
100
AcDbEntity
8
0-0
6
CONTINUOUS
62
3
100
AcDbLine
10
276.270000000000
20
770.970000000000
30
0.0
11
274.770000000000
21
772.260000000000
31
0.0
0
LINE
5
5c6
100
AcDbEntity
8
0-0
6
CONTINUOUS
62
3
100
AcDbLine
10
276.730000000000
20
770.800000000000
30
0.0
11
296.120000000000
21
770.800000000000
31
0.0
0
LINE
5
5c7
100
AcDbEntity
8
0-0
6
CONTINUOUS
62
7
100
AcDbLine
10
270.700000000000
20
810.800000000000
30
0.0
11
296.700000000000
21
810.800000000000
31
0.0
0
LINE
5
5c8
100
AcDbEntity
8
0-0
6
CONTINUOUS
62
7
100
AcDbLine
10
270.700000000000
20
795.800000000000
30
0.0
11
270.700000000000
21
810.800000000000
31
0.0
0
POLYLINE
5
5c9
100
AcDbEntity
8
0-0
6
CONTINUOUS
62
  7
100
AcDb2dPolyline
66
1
10
0.0
20
0.0
30
0.0
70
0
0
VERTEX
5
5ca
100
AcDbEntity
8
0-0
6
CONTINUOUS
62
  7
100
AcDbVertex
100
AcDb2dVertex
10
270.700000000000
20
759.800000000000
30
0.0
0
VERTEX
5
5cb
100
AcDbEntity
8
0-0
6
CONTINUOUS
62
  7
100
AcDbVertex
100
AcDb2dVertex
10
270.700000000000
20
744.800000000000
30
0.0
0
VERTEX
5
5cc
100
AcDbEntity
8
0-0
6
CONTINUOUS
62
  7
100
AcDbVertex
100
AcDb2dVertex
10
296.700000000000
20
744.800000000000
30
0.0
0
SEQEND
5
5cd
100
AcDbEntity
8
0-0
0
LINE
5
5ce
100
AcDbEntity
8
0-0
6
CONTINUOUS
62
3
100
AcDbLine
10
270.700000000000
20
769.620000000000
30
0.0
11
274.230000000000
21
772.660000000000
31
0.0
0
POLYLINE
5
5cf
100
AcDbEntity
8
0-0
6
CONTINUOUS
62
  3
100
AcDb2dPolyline
66
1
10
0.0
20
0.0
30
0.0
70
0
0
VERTEX
5
5d0
100
AcDbEntity
8
0-0
6
CONTINUOUS
62
  3
100
AcDbVertex
100
AcDb2dVertex
10
270.700000000000
20
769.620000000000
30
0.0
0
VERTEX
5
5d1
100
AcDbEntity
8
0-0
6
CONTINUOUS
62
  3
100
AcDbVertex
100
AcDb2dVertex
10
271.030000000000
20
769.240000000000
30
0.0
0
VERTEX
5
5d2
100
AcDbEntity
8
0-0
6
CONTINUOUS
62
  3
100
AcDbVertex
100
AcDb2dVertex
10
274.530000000000
20
772.260000000000
30
0.0
0
SEQEND
5
5d3
100
AcDbEntity
8
0-0
0
LINE
5
5d4
100
AcDbEntity
8
0-0
6
CONTINUOUS
62
3
100
AcDbLine
10
276.590000000000
20
411.350000000000
30
0.0
11
275.070000000000
21
412.660000000000
31
0.0
0
LINE
5
5d5
100
AcDbEntity
8
0-0
6
CONTINUOUS
62
3
100
AcDbLine
10
276.270000000000
20
410.970000000000
30
0.0
11
274.770000000000
21
412.260000000000
31
0.0
0
LINE
5
5d6
100
AcDbEntity
8
0-0
6
CONTINUOUS
62
3
100
AcDbLine
10
270.700000000000
20
409.620000000000
30
0.0
11
274.230000000000
21
412.660000000000
31
0.0
0
POLYLINE
5
5d7
100
AcDbEntity
8
0-0
6
CONTINUOUS
62
  3
100
AcDb2dPolyline
66
1
10
0.0
20
0.0
30
0.0
70
0
0
VERTEX
5
5d8
100
AcDbEntity
8
0-0
6
CONTINUOUS
62
  3
100
AcDbVertex
100
AcDb2dVertex
10
270.700000000000
20
409.620000000000
30
0.0
0
VERTEX
5
5d9
100
AcDbEntity
8
0-0
6
CONTINUOUS
62
  3
100
AcDbVertex
100
AcDb2dVertex
10
271.030000000000
20
409.240000000000
30
0.0
0
VERTEX
5
5da
100
AcDbEntity
8
0-0
6
CONTINUOUS
62
  3
100
AcDbVertex
100
AcDb2dVertex
10
274.530000000000
20
412.260000000000
30
0.0
0
SEQEND
5
5db
100
AcDbEntity
8
0-0
0
POLYLINE
5
5dc
100
AcDbEntity
8
0-0
6
CONTINUOUS
62
  7
100
AcDb2dPolyline
66
1
10
0.0
20
0.0
30
0.0
70
0
0
VERTEX
5
5dd
100
AcDbEntity
8
0-0
6
CONTINUOUS
62
  7
100
AcDbVertex
100
AcDb2dVertex
10
270.700000000000
20
399.800000000000
30
0.0
0
VERTEX
5
5de
100
AcDbEntity
8
0-0
6
CONTINUOUS
62
  7
100
AcDbVertex
100
AcDb2dVertex
10
270.700000000000
20
384.800000000000
30
0.0
0
VERTEX
5
5df
100
AcDbEntity
8
0-0
6
CONTINUOUS
62
  7
100
AcDbVertex
100
AcDb2dVertex
10
276.650000000000
20
384.800000000000
30
0.0
0
SEQEND
5
5e0
100
AcDbEntity
8
0-0
0
POLYLINE
5
5e1
100
AcDbEntity
8
0-0
6
CONTINUOUS
62
  7
100
AcDb2dPolyline
66
1
10
0.0
20
0.0
30
0.0
70
0
0
VERTEX
5
5e2
100
AcDbEntity
8
0-0
6
CONTINUOUS
62
  7
100
AcDbVertex
100
AcDb2dVertex
10
270.700000000000
20
435.800000000000
30
0.0
0
VERTEX
5
5e3
100
AcDbEntity
8
0-0
6
CONTINUOUS
62
  7
100
AcDbVertex
100
AcDb2dVertex
10
270.700000000000
20
450.800000000000
30
0.0
0
VERTEX
5
5e4
100
AcDbEntity
8
0-0
6
CONTINUOUS
62
  7
100
AcDbVertex
100
AcDb2dVertex
10
296.700000000000
20
450.800000000000
30
0.0
0
SEQEND
5
5e5
100
AcDbEntity
8
0-0
0
LINE
5
5e6
100
AcDbEntity
8
0-0
6
CONTINUOUS
62
3
100
AcDbLine
10
296.120000000000
20
411.300000000000
30
0.0
11
276.730000000000
21
411.300000000000
31
0.0
0
LINE
5
5e7
100
AcDbEntity
8
0-0
6
CONTINUOUS
62
3
100
AcDbLine
10
276.730000000000
20
410.800000000000
30
0.0
11
296.120000000000
21
410.800000000000
31
0.0
0
LINE
5
5e8
100
AcDbEntity
8
0-0
6
CONTINUOUS
62
3
100
AcDbLine
10
1109.430000000000
20
785.260000000000
30
0.0
11
1109.850000000000
21
784.980000000000
31
0.0
0
LINE
5
5e9
100
AcDbEntity
8
0-0
6
CONTINUOUS
62
3
100
AcDbLine
10
1103.960000000000
20
776.860000000000
30
0.0
11
1096.990000000000
21
770.560000000000
31
0.0
0
LINE
5
5ea
100
AcDbEntity
8
0-0
6
CONTINUOUS
62
3
100
AcDbLine
10
1103.990000000000
20
776.900000000000
30
0.0
11
1109.430000000000
21
785.260000000000
31
0.0
0
LINE
5
5eb
100
AcDbEntity
8
0-0
6
CONTINUOUS
62
3
100
AcDbLine
10
1109.850000000000
20
784.980000000000
30
0.0
11
1104.410000000000
21
776.620000000000
31
0.0
0
LINE
5
5ec
100
AcDbEntity
8
0-0
6
CONTINUOUS
62
3
100
AcDbLine
10
1097.320000000000
20
770.190000000000
30
0.0
11
1104.290000000000
21
776.490000000000
31
0.0
0
LINE
5
5ed
100
AcDbEntity
8
0-0
6
CONTINUOUS
62
7
100
AcDbLine
10
1112.780000000000
20
771.150000000000
30
0.0
11
1125.350000000000
21
762.970000000000
31
0.0
0
LINE
5
5ee
100
AcDbEntity
8
0-0
6
CONTINUOUS
62
7
100
AcDbLine
10
1118.230000000000
20
779.530000000000
30
0.0
11
1130.800000000000
21
771.350000000000
31
0.0
0
LINE
5
5ef
100
AcDbEntity
8
0-0
6
CONTINUOUS
62
7
100
AcDbLine
10
1113.660000000000
20
751.250000000000
30
0.0
11
1121.080000000000
21
757.960000000000
31
0.0
0
LINE
5
5f0
100
AcDbEntity
8
0-0
6
CONTINUOUS
62
7
100
AcDbLine
10
1111.020000000000
20
769.090000000000
30
0.0
11
1121.080000000000
21
757.960000000000
31
0.0
0
LINE
5
5f1
100
AcDbEntity
8
0-0
6
CONTINUOUS
62
7
100
AcDbLine
10
1125.350000000000
20
762.970000000000
30
0.0
11
1130.800000000000
21
771.350000000000
31
0.0
0
LINE
5
5f2
100
AcDbEntity
8
0-0
6
CONTINUOUS
62
7
100
AcDbLine
10
1103.600000000000
20
402.380000000000
30
0.0
11
1113.660000000000
21
391.250000000000
31
0.0
0
LINE
5
5f3
100
AcDbEntity
8
0-0
6
CONTINUOUS
62
3
100
AcDbLine
10
1109.430000000000
20
425.260000000000
30
0.0
11
1109.850000000000
21
424.980000000000
31
0.0
0
LINE
5
5f4
100
AcDbEntity
8
0-0
6
CONTINUOUS
62
3
100
AcDbLine
10
1103.960000000000
20
416.860000000000
30
0.0
11
1096.990000000000
21
410.560000000000
31
0.0
0
LINE
5
5f5
100
AcDbEntity
8
0-0
6
CONTINUOUS
62
3
100
AcDbLine
10
1103.990000000000
20
416.900000000000
30
0.0
11
1109.430000000000
21
425.260000000000
31
0.0
0
LINE
5
5f6
100
AcDbEntity
8
0-0
6
CONTINUOUS
62
3
100
AcDbLine
10
1109.850000000000
20
424.980000000000
30
0.0
11
1104.410000000000
21
416.620000000000
31
0.0
0
LINE
5
5f7
100
AcDbEntity
8
0-0
6
CONTINUOUS
62
3
100
AcDbLine
10
1097.320000000000
20
410.190000000000
30
0.0
11
1104.290000000000
21
416.490000000000
31
0.0
0
LINE
5
5f8
100
AcDbEntity
8
0-0
6
CONTINUOUS
62
7
100
AcDbLine
10
1112.780000000000
20
411.150000000000
30
0.0
11
1125.350000000000
21
402.970000000000
31
0.0
0
LINE
5
5f9
100
AcDbEntity
8
0-0
6
CONTINUOUS
62
7
100
AcDbLine
10
1118.230000000000
20
419.530000000000
30
0.0
11
1130.800000000000
21
411.350000000000
31
0.0
0
LINE
5
5fa
100
AcDbEntity
8
0-0
6
CONTINUOUS
62
7
100
AcDbLine
10
1113.660000000000
20
391.250000000000
30
0.0
11
1121.080000000000
21
397.960000000000
31
0.0
0
LINE
5
5fb
100
AcDbEntity
8
0-0
6
CONTINUOUS
62
7
100
AcDbLine
10
1111.020000000000
20
409.090000000000
30
0.0
11
1121.080000000000
21
397.960000000000
31
0.0
0
LINE
5
5fc
100
AcDbEntity
8
0-0
6
CONTINUOUS
62
7
100
AcDbLine
10
1125.350000000000
20
402.970000000000
30
0.0
11
1130.800000000000
21
411.350000000000
31
0.0
0
POLYLINE
5
5fd
100
AcDbEntity
8
F-F
6
CONTINUOUS
62
  2
100
AcDb2dPolyline
66
1
10
0.0
20
0.0
30
0.0
70
0
0
VERTEX
5
5fe
100
AcDbEntity
8
F-F
6
CONTINUOUS
62
  2
100
AcDbVertex
100
AcDb2dVertex
10
1224.220000000000
20
1143.640000000000
30
0.0
0
VERTEX
5
5ff
100
AcDbEntity
8
F-F
6
CONTINUOUS
62
  2
100
AcDbVertex
100
AcDb2dVertex
10
1224.220000000000
20
977.430000000000
30
0.0
0
VERTEX
5
600
100
AcDbEntity
8
F-F
6
CONTINUOUS
62
  2
100
AcDbVertex
100
AcDb2dVertex
10
1631.650000000000
20
977.430000000000
30
0.0
0
SEQEND
5
601
100
AcDbEntity
8
F-F
0
LINE
5
602
100
AcDbEntity
8
0-0
6
CONTINUOUS
62
3
100
AcDbLine
10
1380.710000000000
20
498.540000000000
30
0.0
11
1364.280000000000
21
513.400000000000
31
0.0
0
LINE
5
603
100
AcDbEntity
8
0-0
6
CONTINUOUS
62
3
100
AcDbLine
10
1363.940000000000
20
513.030000000000
30
0.0
11
1380.380000000000
21
498.170000000000
31
0.0
0
LINE
5
604
100
AcDbEntity
8
0-0
6
CONTINUOUS
62
3
100
AcDbLine
10
1363.270000000000
20
513.780000000000
30
0.0
11
1327.850000000000
21
513.780000000000
31
0.0
0
LINE
5
605
100
AcDbEntity
8
0-0
6
CONTINUOUS
62
3
100
AcDbLine
10
1327.850000000000
20
513.280000000000
30
0.0
11
1363.270000000000
21
513.280000000000
31
0.0
0
LINE
5
606
100
AcDbEntity
8
0-0
6
CONTINUOUS
62
3
100
AcDbLine
10
1407.610000000000
20
498.280000000000
30
0.0
11
1381.380000000000
21
498.280000000000
31
0.0
0
LINE
5
607
100
AcDbEntity
8
0-0
6
CONTINUOUS
62
3
100
AcDbLine
10
1407.610000000000
20
497.780000000000
30
0.0
11
1381.380000000000
21
497.780000000000
31
0.0
0
LINE
5
608
100
AcDbEntity
8
0-0
6
CONTINUOUS
62
3
100
AcDbLine
10
1422.440000000000
20
511.840000000000
30
0.0
11
1422.790000000000
21
511.480000000000
31
0.0
0
LINE
5
609
100
AcDbEntity
8
0-0
6
CONTINUOUS
62
3
100
AcDbLine
10
1423.760000000000
20
513.030000000000
30
0.0
11
1408.430000000000
21
499.170000000000
31
0.0
0
LINE
5
60a
100
AcDbEntity
8
0-0
6
CONTINUOUS
62
3
100
AcDbLine
10
1408.090000000000
20
499.540000000000
30
0.0
11
1423.420000000000
21
513.400000000000
31
0.0
0
LINE
5
60b
100
AcDbEntity
8
0-0
6
CONTINUOUS
62
3
100
AcDbLine
10
1424.430000000000
20
513.780000000000
30
0.0
11
1461.150000000000
21
513.780000000000
31
0.0
0
LINE
5
60c
100
AcDbEntity
8
0-0
6
CONTINUOUS
62
3
100
AcDbLine
10
1461.150000000000
20
513.280000000000
30
0.0
11
1424.430000000000
21
513.280000000000
31
0.0
0
LINE
5
60d
100
AcDbEntity
8
0-0
6
CONTINUOUS
62
3
100
AcDbLine
10
1388.020000000000
20
499.280000000000
30
0.0
11
1407.420000000000
21
499.280000000000
31
0.0
0
LINE
5
60e
100
AcDbEntity
8
0-0
6
CONTINUOUS
62
3
100
AcDbLine
10
1388.020000000000
20
498.780000000000
30
0.0
11
1407.420000000000
21
498.780000000000
31
0.0
0
LINE
5
60f
100
AcDbEntity
8
0-0
6
CONTINUOUS
62
3
100
AcDbLine
10
1381.420000000000
20
498.740000000000
30
0.0
11
1381.630000000000
21
498.280000000000
31
0.0
0
LINE
5
610
100
AcDbEntity
8
0-0
6
CONTINUOUS
62
3
100
AcDbLine
10
1415.270000000000
20
504.860000000000
30
0.0
11
1422.440000000000
21
511.840000000000
31
0.0
0
LINE
5
611
100
AcDbEntity
8
0-0
6
CONTINUOUS
62
3
100
AcDbLine
10
1415.270000000000
20
504.860000000000
30
0.0
11
1408.280000000000
21
498.540000000000
31
0.0
0
LINE
5
612
100
AcDbEntity
8
0-0
6
CONTINUOUS
62
3
100
AcDbLine
10
1422.790000000000
20
511.480000000000
30
0.0
11
1415.620000000000
21
504.500000000000
31
0.0
0
LINE
5
613
100
AcDbEntity
8
0-0
6
CONTINUOUS
62
3
100
AcDbLine
10
1408.620000000000
20
498.170000000000
30
0.0
11
1415.620000000000
21
504.500000000000
31
0.0
0
LINE
5
614
100
AcDbEntity
8
0-0
6
CONTINUOUS
62
3
100
AcDbLine
10
1385.650000000000
20
500.210000000000
30
0.0
11
1381.630000000000
21
498.280000000000
31
0.0
0
LINE
5
615
100
AcDbEntity
8
0-0
6
CONTINUOUS
62
3
100
AcDbLine
10
1386.190000000000
20
500.130000000000
30
0.0
11
1387.560000000000
21
498.950000000000
31
0.0
0
LINE
5
616
100
AcDbEntity
8
0-0
6
CONTINUOUS
62
3
100
AcDbLine
10
1387.890000000000
20
499.330000000000
30
0.0
11
1386.520000000000
21
500.510000000000
31
0.0
0
LINE
5
617
100
AcDbEntity
8
0-0
6
CONTINUOUS
62
3
100
AcDbLine
10
1381.420000000000
20
498.740000000000
30
0.0
11
1385.440000000000
21
500.660000000000
31
0.0
0
LINE
5
618
100
AcDbEntity
8
0-0
6
CONTINUOUS
62
7
100
AcDbLine
10
1363.850000000000
20
538.780000000000
30
0.0
11
1425.150000000000
21
538.780000000000
31
0.0
0
LINE
5
619
100
AcDbEntity
8
0-0
6
CONTINUOUS
62
7
100
AcDbLine
10
1363.850000000000
20
523.780000000000
30
0.0
11
1363.850000000000
21
538.780000000000
31
0.0
0
LINE
5
61a
100
AcDbEntity
8
0-0
6
CONTINUOUS
62
7
100
AcDbLine
10
1425.150000000000
20
523.780000000000
30
0.0
11
1425.150000000000
21
538.780000000000
31
0.0
0
POLYLINE
5
61b
100
AcDbEntity
8
0-0
6
CONTINUOUS
62
  7
100
AcDb2dPolyline
66
1
10
0.0
20
0.0
30
0.0
70
0
0
VERTEX
5
61c
100
AcDbEntity
8
0-0
6
CONTINUOUS
62
  7
100
AcDbVertex
100
AcDb2dVertex
10
1381.000000000000
20
487.780000000000
30
0.0
0
VERTEX
5
61d
100
AcDbEntity
8
0-0
6
CONTINUOUS
62
  7
100
AcDbVertex
100
AcDb2dVertex
10
1381.000000000000
20
472.780000000000
30
0.0
0
VERTEX
5
61e
100
AcDbEntity
8
0-0
6
CONTINUOUS
62
  7
100
AcDbVertex
100
AcDb2dVertex
10
1408.000000000000
20
472.780000000000
30
0.0
0
SEQEND
5
61f
100
AcDbEntity
8
0-0
0
LINE
5
620
100
AcDbEntity
8
0-0
6
CONTINUOUS
62
7
100
AcDbLine
10
1408.000000000000
20
487.780000000000
30
0.0
11
1408.000000000000
21
472.780000000000
31
0.0
0
POLYLINE
5
621
100
AcDbEntity
8
0-0
6
CONTINUOUS
62
  7
100
AcDb2dPolyline
66
1
10
0.0
20
0.0
30
0.0
70
0
0
VERTEX
5
622
100
AcDbEntity
8
0-0
6
CONTINUOUS
62
  7
100
AcDbVertex
100
AcDb2dVertex
10
1434.200000000000
20
497.780000000000
30
0.0
0
VERTEX
5
623
100
AcDbEntity
8
0-0
6
CONTINUOUS
62
  7
100
AcDbVertex
100
AcDb2dVertex
10
1449.200000000000
20
497.780000000000
30
0.0
0
VERTEX
5
624
100
AcDbEntity
8
0-0
6
CONTINUOUS
62
  7
100
AcDbVertex
100
AcDb2dVertex
10
1449.200000000000
20
513.780000000000
30
0.0
0
SEQEND
5
625
100
AcDbEntity
8
0-0
0
CIRCLE
5
626
100
AcDbEntity
8
F-F
6
CONTINUOUS
62
3
100
AcDbCircle
10
79.720000000000
20
67.100000000000
30
0.0
40
11.313709759210
0
CIRCLE
5
627
100
AcDbEntity
8
F-F
6
CONTINUOUS
62
3
100
AcDbCircle
10
79.720000000000
20
67.100000000000
30
0.0
40
12.913709270428
0
CIRCLE
5
628
100
AcDbEntity
8
F-F
6
CONTINUOUS
62
4
100
AcDbCircle
10
79.720000000000
20
67.100000000000
30
0.0
40
11.473710561919
0
CIRCLE
5
629
100
AcDbEntity
8
F-F
6
CONTINUOUS
62
4
100
AcDbCircle
10
79.720000000000
20
67.100000000000
30
0.0
40
11.793707522317
0
CIRCLE
5
62a
100
AcDbEntity
8
F-F
6
CONTINUOUS
62
4
100
AcDbCircle
10
79.720000000000
20
67.100000000000
30
0.0
40
12.113709127734
0
CIRCLE
5
62b
100
AcDbEntity
8
F-F
6
CONTINUOUS
62
4
100
AcDbCircle
10
79.720000000000
20
67.100000000000
30
0.0
40
12.433706862302
0
CIRCLE
5
62c
100
AcDbEntity
8
F-F
6
CONTINUOUS
62
4
100
AcDbCircle
10
79.720000000000
20
67.100000000000
30
0.0
40
12.753706145210
0
ARC
5
62d
100
AcDbEntity
8
0-0
6
CONTINUOUS
62
3
100
AcDbCircle
10
296.120000000000
20
772.300000000000
30
0.0
40
0.999999984825
100
AcDbArc
50
270.000000000000
51
312.107040405273
0
ARC
5
62e
100
AcDbEntity
8
0-0
6
CONTINUOUS
62
3
100
AcDbCircle
10
296.120000000000
20
772.300000000000
30
0.0
40
1.499999977237
100
AcDbArc
50
270.000000000000
51
312.107040405273
0
ARC
5
62f
100
AcDbEntity
8
0-0
6
CONTINUOUS
62
3
100
AcDbCircle
10
313.130000000000
20
784.300000000000
30
0.0
40
0.999999984825
100
AcDbArc
50
90.000000000000
51
132.107177734375
0
ARC
5
630
100
AcDbEntity
8
0-0
6
CONTINUOUS
62
3
100
AcDbCircle
10
313.130000000000
20
784.300000000000
30
0.0
40
1.499999977237
100
AcDbArc
50
90.000000000000
51
132.107177734375
0
ARC
5
631
100
AcDbEntity
8
0-0
6
CONTINUOUS
62
3
100
AcDbCircle
10
385.270000000000
20
784.300000000000
30
0.0
40
0.999999984825
100
AcDbArc
50
47.893356323242
51
90.000000000000
0
ARC
5
632
100
AcDbEntity
8
0-0
6
CONTINUOUS
62
3
100
AcDbCircle
10
385.270000000000
20
784.300000000000
30
0.0
40
1.499999977237
100
AcDbArc
50
47.893356323242
51
90.000000000000
0
ARC
5
633
100
AcDbEntity
8
0-0
6
CONTINUOUS
62
3
100
AcDbCircle
10
403.390000000000
20
771.300000000000
30
0.0
40
0.999999984825
100
AcDbArc
50
227.893356323242
51
270.000000000000
0
ARC
5
634
100
AcDbEntity
8
0-0
6
CONTINUOUS
62
3
100
AcDbCircle
10
403.390000000000
20
771.300000000000
30
0.0
40
1.499999977237
100
AcDbArc
50
227.893356323242
51
270.000000000000
0
ARC
5
635
100
AcDbEntity
8
0-0
6
CONTINUOUS
62
3
100
AcDbCircle
10
447.730000000000
20
784.300000000000
30
0.0
40
0.999999984825
100
AcDbArc
50
90.000000000000
51
132.106643676758
0
ARC
5
636
100
AcDbEntity
8
0-0
6
CONTINUOUS
62
3
100
AcDbCircle
10
447.730000000000
20
784.300000000000
30
0.0
40
1.499999977237
100
AcDbArc
50
90.000000000000
51
132.106643676758
0
ARC
5
637
100
AcDbEntity
8
0-0
6
CONTINUOUS
62
3
100
AcDbCircle
10
429.620000000000
20
771.300000000000
30
0.0
40
0.999999984825
100
AcDbArc
50
270.000000000000
51
312.106643676758
0
ARC
5
638
100
AcDbEntity
8
0-0
6
CONTINUOUS
62
3
100
AcDbCircle
10
429.620000000000
20
771.300000000000
30
0.0
40
1.499999977237
100
AcDbArc
50
270.000000000000
51
312.106643676758
0
ARC
5
639
100
AcDbEntity
8
0-0
6
CONTINUOUS
62
3
100
AcDbCircle
10
518.670000000000
20
784.300000000000
30
0.0
40
0.999999984825
100
AcDbArc
50
47.893356323242
51
90.000000000000
0
ARC
5
63a
100
AcDbEntity
8
0-0
6
CONTINUOUS
62
3
100
AcDbCircle
10
518.670000000000
20
784.300000000000
30
0.0
40
1.499999977237
100
AcDbArc
50
47.893356323242
51
90.000000000000
0
ARC
5
63b
100
AcDbEntity
8
0-0
6
CONTINUOUS
62
3
100
AcDbCircle
10
536.790000000000
20
771.300000000000
30
0.0
40
0.999999984825
100
AcDbArc
50
227.893356323242
51
270.000000000000
0
ARC
5
63c
100
AcDbEntity
8
0-0
6
CONTINUOUS
62
3
100
AcDbCircle
10
536.790000000000
20
771.300000000000
30
0.0
40
1.499999977237
100
AcDbArc
50
227.893356323242
51
270.000000000000
0
ARC
5
63d
100
AcDbEntity
8
0-0
6
CONTINUOUS
62
3
100
AcDbCircle
10
581.130000000000
20
784.300000000000
30
0.0
40
0.999999984825
100
AcDbArc
50
90.000000000000
51
132.106643676758
0
ARC
5
63e
100
AcDbEntity
8
0-0
6
CONTINUOUS
62
3
100
AcDbCircle
10
581.130000000000
20
784.300000000000
30
0.0
40
1.499999977237
100
AcDbArc
50
90.000000000000
51
132.106643676758
0
ARC
5
63f
100
AcDbEntity
8
0-0
6
CONTINUOUS
62
3
100
AcDbCircle
10
563.020000000000
20
771.300000000000
30
0.0
40
0.999999984825
100
AcDbArc
50
270.000000000000
51
312.106643676758
0
ARC
5
640
100
AcDbEntity
8
0-0
6
CONTINUOUS
62
3
100
AcDbCircle
10
563.020000000000
20
771.300000000000
30
0.0
40
1.499999977237
100
AcDbArc
50
270.000000000000
51
312.106643676758
0
ARC
5
641
100
AcDbEntity
8
0-0
6
CONTINUOUS
62
3
100
AcDbCircle
10
652.070000000000
20
784.300000000000
30
0.0
40
0.999999984825
100
AcDbArc
50
47.893356323242
51
90.000000000000
0
ARC
5
642
100
AcDbEntity
8
0-0
6
CONTINUOUS
62
3
100
AcDbCircle
10
652.070000000000
20
784.300000000000
30
0.0
40
1.499999977237
100
AcDbArc
50
47.893356323242
51
90.000000000000
0
ARC
5
643
100
AcDbEntity
8
0-0
6
CONTINUOUS
62
3
100
AcDbCircle
10
670.190000000000
20
771.300000000000
30
0.0
40
0.999999984825
100
AcDbArc
50
227.893356323242
51
270.000000000000
0
ARC
5
644
100
AcDbEntity
8
0-0
6
CONTINUOUS
62
3
100
AcDbCircle
10
670.190000000000
20
771.300000000000
30
0.0
40
1.499999977237
100
AcDbArc
50
227.893356323242
51
270.000000000000
0
ARC
5
645
100
AcDbEntity
8
0-0
6
CONTINUOUS
62
3
100
AcDbCircle
10
714.530000000000
20
784.300000000000
30
0.0
40
0.999999984825
100
AcDbArc
50
90.000000000000
51
132.106643676758
0
ARC
5
646
100
AcDbEntity
8
0-0
6
CONTINUOUS
62
3
100
AcDbCircle
10
714.530000000000
20
784.300000000000
30
0.0
40
1.499999977237
100
AcDbArc
50
90.000000000000
51
132.106643676758
0
ARC
5
647
100
AcDbEntity
8
0-0
6
CONTINUOUS
62
3
100
AcDbCircle
10
696.420000000000
20
771.300000000000
30
0.0
40
0.999999984825
100
AcDbArc
50
270.000000000000
51
312.106643676758
0
ARC
5
648
100
AcDbEntity
8
0-0
6
CONTINUOUS
62
3
100
AcDbCircle
10
696.420000000000
20
771.300000000000
30
0.0
40
1.499999977237
100
AcDbArc
50
270.000000000000
51
312.106643676758
0
ARC
5
649
100
AcDbEntity
8
0-0
6
CONTINUOUS
62
3
100
AcDbCircle
10
785.370000000000
20
784.300000000000
30
0.0
40
0.999999984825
100
AcDbArc
50
47.893356323242
51
90.000000000000
0
ARC
5
64a
100
AcDbEntity
8
0-0
6
CONTINUOUS
62
3
100
AcDbCircle
10
785.370000000000
20
784.300000000000
30
0.0
40
1.499999977237
100
AcDbArc
50
47.893356323242
51
90.000000000000
0
ARC
5
64b
100
AcDbEntity
8
0-0
6
CONTINUOUS
62
3
100
AcDbCircle
10
803.490000000000
20
771.300000000000
30
0.0
40
0.999999984825
100
AcDbArc
50
227.893356323242
51
270.000000000000
0
ARC
5
64c
100
AcDbEntity
8
0-0
6
CONTINUOUS
62
3
100
AcDbCircle
10
803.490000000000
20
771.300000000000
30
0.0
40
1.499999977237
100
AcDbArc
50
227.893356323242
51
270.000000000000
0
ARC
5
64d
100
AcDbEntity
8
0-0
6
CONTINUOUS
62
3
100
AcDbCircle
10
847.830000000000
20
784.300000000000
30
0.0
40
0.999999984825
100
AcDbArc
50
90.000000000000
51
132.106643676758
0
ARC
5
64e
100
AcDbEntity
8
0-0
6
CONTINUOUS
62
3
100
AcDbCircle
10
847.830000000000
20
784.300000000000
30
0.0
40
1.499999977237
100
AcDbArc
50
90.000000000000
51
132.106643676758
0
ARC
5
64f
100
AcDbEntity
8
0-0
6
CONTINUOUS
62
3
100
AcDbCircle
10
829.720000000000
20
771.300000000000
30
0.0
40
0.999999984825
100
AcDbArc
50
270.000000000000
51
312.106643676758
0
ARC
5
650
100
AcDbEntity
8
0-0
6
CONTINUOUS
62
3
100
AcDbCircle
10
829.720000000000
20
771.300000000000
30
0.0
40
1.499999977237
100
AcDbArc
50
270.000000000000
51
312.106643676758
0
ARC
5
651
100
AcDbEntity
8
0-0
6
CONTINUOUS
62
3
100
AcDbCircle
10
918.670000000000
20
784.300000000000
30
0.0
40
0.999999984825
100
AcDbArc
50
47.893356323242
51
90.000000000000
0
ARC
5
652
100
AcDbEntity
8
0-0
6
CONTINUOUS
62
3
100
AcDbCircle
10
918.670000000000
20
784.300000000000
30
0.0
40
1.499999977237
100
AcDbArc
50
47.893356323242
51
90.000000000000
0
ARC
5
653
100
AcDbEntity
8
0-0
6
CONTINUOUS
62
3
100
AcDbCircle
10
936.790000000000
20
771.300000000000
30
0.0
40
0.999999984825
100
AcDbArc
50
227.893356323242
51
270.000000000000
0
ARC
5
654
100
AcDbEntity
8
0-0
6
CONTINUOUS
62
3
100
AcDbCircle
10
936.790000000000
20
771.300000000000
30
0.0
40
1.499999977237
100
AcDbArc
50
227.893356323242
51
270.000000000000
0
ARC
5
655
100
AcDbEntity
8
0-0
6
CONTINUOUS
62
3
100
AcDbCircle
10
981.130000000000
20
784.300000000000
30
0.0
40
0.999999984825
100
AcDbArc
50
90.000000000000
51
132.106643676758
0
ARC
5
656
100
AcDbEntity
8
0-0
6
CONTINUOUS
62
3
100
AcDbCircle
10
981.130000000000
20
784.300000000000
30
0.0
40
1.499999977237
100
AcDbArc
50
90.000000000000
51
132.106643676758
0
ARC
5
657
100
AcDbEntity
8
0-0
6
CONTINUOUS
62
3
100
AcDbCircle
10
963.020000000000
20
771.300000000000
30
0.0
40
0.999999984825
100
AcDbArc
50
270.000000000000
51
312.106643676758
0
ARC
5
658
100
AcDbEntity
8
0-0
6
CONTINUOUS
62
3
100
AcDbCircle
10
963.020000000000
20
771.300000000000
30
0.0
40
1.499999977237
100
AcDbArc
50
270.000000000000
51
312.106643676758
0
ARC
5
659
100
AcDbEntity
8
0-0
6
CONTINUOUS
62
3
100
AcDbCircle
10
1051.970000000000
20
784.300000000000
30
0.0
40
0.999999984825
100
AcDbArc
50
47.893356323242
51
90.000000000000
0
ARC
5
65a
100
AcDbEntity
8
0-0
6
CONTINUOUS
62
3
100
AcDbCircle
10
1051.970000000000
20
784.300000000000
30
0.0
40
1.499999977237
100
AcDbArc
50
47.893356323242
51
90.000000000000
0
ARC
5
65b
100
AcDbEntity
8
0-0
6
CONTINUOUS
62
3
100
AcDbCircle
10
1070.090000000000
20
771.300000000000
30
0.0
40
0.999999984825
100
AcDbArc
50
227.893356323242
51
270.000000000000
0
ARC
5
65c
100
AcDbEntity
8
0-0
6
CONTINUOUS
62
3
100
AcDbCircle
10
1070.090000000000
20
771.300000000000
30
0.0
40
1.499999977237
100
AcDbArc
50
227.893356323242
51
270.000000000000
0
ARC
5
65d
100
AcDbEntity
8
0-0
6
CONTINUOUS
62
3
100
AcDbCircle
10
1096.320000000000
20
771.300000000000
30
0.0
40
0.999999984825
100
AcDbArc
50
270.000000000000
51
312.108322143555
0
ARC
5
65e
100
AcDbEntity
8
0-0
6
CONTINUOUS
62
3
100
AcDbCircle
10
1096.320000000000
20
771.300000000000
30
0.0
40
1.499999977237
100
AcDbArc
50
270.000000000000
51
312.108322143555
0
ARC
5
65f
100
AcDbEntity
8
0-0
6
CONTINUOUS
62
3
100
AcDbCircle
10
296.120000000000
20
412.300000000000
30
0.0
40
0.999999984825
100
AcDbArc
50
270.000000000000
51
312.107040405273
0
ARC
5
660
100
AcDbEntity
8
0-0
6
CONTINUOUS
62
3
100
AcDbCircle
10
296.120000000000
20
412.300000000000
30
0.0
40
1.499999977237
100
AcDbArc
50
270.000000000000
51
312.107040405273
0
ARC
5
661
100
AcDbEntity
8
0-0
6
CONTINUOUS
62
3
100
AcDbCircle
10
403.390000000000
20
411.300000000000
30
0.0
40
0.999999984825
100
AcDbArc
50
227.893356323242
51
270.000000000000
0
ARC
5
662
100
AcDbEntity
8
0-0
6
CONTINUOUS
62
3
100
AcDbCircle
10
403.390000000000
20
411.300000000000
30
0.0
40
1.499999977237
100
AcDbArc
50
227.893356323242
51
270.000000000000
0
ARC
5
663
100
AcDbEntity
8
0-0
6
CONTINUOUS
62
3
100
AcDbCircle
10
447.730000000000
20
424.300000000000
30
0.0
40
0.999999984825
100
AcDbArc
50
90.000000000000
51
132.106643676758
0
ARC
5
664
100
AcDbEntity
8
0-0
6
CONTINUOUS
62
3
100
AcDbCircle
10
447.730000000000
20
424.300000000000
30
0.0
40
1.499999977237
100
AcDbArc
50
90.000000000000
51
132.106643676758
0
ARC
5
665
100
AcDbEntity
8
0-0
6
CONTINUOUS
62
3
100
AcDbCircle
10
429.620000000000
20
411.300000000000
30
0.0
40
0.999999984825
100
AcDbArc
50
270.000000000000
51
312.106643676758
0
ARC
5
666
100
AcDbEntity
8
0-0
6
CONTINUOUS
62
3
100
AcDbCircle
10
429.620000000000
20
411.300000000000
30
0.0
40
1.499999977237
100
AcDbArc
50
270.000000000000
51
312.106643676758
0
ARC
5
667
100
AcDbEntity
8
0-0
6
CONTINUOUS
62
3
100
AcDbCircle
10
536.790000000000
20
411.300000000000
30
0.0
40
0.999999984825
100
AcDbArc
50
227.893356323242
51
270.000000000000
0
ARC
5
668
100
AcDbEntity
8
0-0
6
CONTINUOUS
62
3
100
AcDbCircle
10
536.790000000000
20
411.300000000000
30
0.0
40
1.499999977237
100
AcDbArc
50
227.893356323242
51
270.000000000000
0
ARC
5
669
100
AcDbEntity
8
0-0
6
CONTINUOUS
62
3
100
AcDbCircle
10
563.020000000000
20
411.300000000000
30
0.0
40
0.999999984825
100
AcDbArc
50
270.000000000000
51
312.106643676758
0
ARC
5
66a
100
AcDbEntity
8
0-0
6
CONTINUOUS
62
3
100
AcDbCircle
10
563.020000000000
20
411.300000000000
30
0.0
40
1.499999977237
100
AcDbArc
50
270.000000000000
51
312.106643676758
0
ARC
5
66b
100
AcDbEntity
8
0-0
6
CONTINUOUS
62
3
100
AcDbCircle
10
670.190000000000
20
411.300000000000
30
0.0
40
0.999999984825
100
AcDbArc
50
227.893356323242
51
270.000000000000
0
ARC
5
66c
100
AcDbEntity
8
0-0
6
CONTINUOUS
62
3
100
AcDbCircle
10
670.190000000000
20
411.300000000000
30
0.0
40
1.499999977237
100
AcDbArc
50
227.893356323242
51
270.000000000000
0
ARC
5
66d
100
AcDbEntity
8
0-0
6
CONTINUOUS
62
3
100
AcDbCircle
10
696.420000000000
20
411.300000000000
30
0.0
40
0.999999984825
100
AcDbArc
50
270.000000000000
51
312.106643676758
0
ARC
5
66e
100
AcDbEntity
8
0-0
6
CONTINUOUS
62
3
100
AcDbCircle
10
696.420000000000
20
411.300000000000
30
0.0
40
1.499999977237
100
AcDbArc
50
270.000000000000
51
312.106643676758
0
ARC
5
66f
100
AcDbEntity
8
0-0
6
CONTINUOUS
62
3
100
AcDbCircle
10
803.490000000000
20
411.300000000000
30
0.0
40
0.999999984825
100
AcDbArc
50
227.893356323242
51
270.000000000000
0
ARC
5
670
100
AcDbEntity
8
0-0
6
CONTINUOUS
62
3
100
AcDbCircle
10
803.490000000000
20
411.300000000000
30
0.0
40
1.499999977237
100
AcDbArc
50
227.893356323242
51
270.000000000000
0
ARC
5
671
100
AcDbEntity
8
0-0
6
CONTINUOUS
62
3
100
AcDbCircle
10
829.720000000000
20
411.300000000000
30
0.0
40
0.999999984825
100
AcDbArc
50
270.000000000000
51
312.106643676758
0
ARC
5
672
100
AcDbEntity
8
0-0
6
CONTINUOUS
62
3
100
AcDbCircle
10
829.720000000000
20
411.300000000000
30
0.0
40
1.499999977237
100
AcDbArc
50
270.000000000000
51
312.106643676758
0
ARC
5
673
100
AcDbEntity
8
0-0
6
CONTINUOUS
62
3
100
AcDbCircle
10
936.790000000000
20
411.300000000000
30
0.0
40
0.999999984825
100
AcDbArc
50
227.893356323242
51
270.000000000000
0
ARC
5
674
100
AcDbEntity
8
0-0
6
CONTINUOUS
62
3
100
AcDbCircle
10
936.790000000000
20
411.300000000000
30
0.0
40
1.499999977237
100
AcDbArc
50
227.893356323242
51
270.000000000000
0
ARC
5
675
100
AcDbEntity
8
0-0
6
CONTINUOUS
62
3
100
AcDbCircle
10
963.020000000000
20
411.300000000000
30
0.0
40
0.999999984825
100
AcDbArc
50
270.000000000000
51
312.106643676758
0
ARC
5
676
100
AcDbEntity
8
0-0
6
CONTINUOUS
62
3
100
AcDbCircle
10
963.020000000000
20
411.300000000000
30
0.0
40
1.499999977237
100
AcDbArc
50
270.000000000000
51
312.106643676758
0
ARC
5
677
100
AcDbEntity
8
0-0
6
CONTINUOUS
62
3
100
AcDbCircle
10
1070.090000000000
20
411.300000000000
30
0.0
40
0.999999984825
100
AcDbArc
50
227.893356323242
51
270.000000000000
0
ARC
5
678
100
AcDbEntity
8
0-0
6
CONTINUOUS
62
3
100
AcDbCircle
10
1070.090000000000
20
411.300000000000
30
0.0
40
1.499999977237
100
AcDbArc
50
227.893356323242
51
270.000000000000
0
ARC
5
679
100
AcDbEntity
8
0-0
6
CONTINUOUS
62
3
100
AcDbCircle
10
1096.320000000000
20
411.300000000000
30
0.0
40
0.999999984825
100
AcDbArc
50
270.000000000000
51
312.108322143555
0
ARC
5
67a
100
AcDbEntity
8
0-0
6
CONTINUOUS
62
3
100
AcDbCircle
10
1096.320000000000
20
411.300000000000
30
0.0
40
1.499999977237
100
AcDbArc
50
270.000000000000
51
312.108322143555
0
ARC
5
67b
100
AcDbEntity
8
0-0
6
CONTINUOUS
62
3
100
AcDbCircle
10
461.530000000000
20
424.300000000000
30
0.0
40
0.999999984825
100
AcDbArc
50
45.000000000000
51
90.000000000000
0
ARC
5
67c
100
AcDbEntity
8
0-0
6
CONTINUOUS
62
3
100
AcDbCircle
10
464.070000000000
20
425.300000000000
30
0.0
40
0.999999984825
100
AcDbArc
50
225.000000000000
51
270.000000000000
0
ARC
5
67d
100
AcDbEntity
8
0-0
6
CONTINUOUS
62
3
100
AcDbCircle
10
461.530000000000
20
424.300000000000
30
0.0
40
1.499999977237
100
AcDbArc
50
45.000000000000
51
90.000000000000
0
ARC
5
67e
100
AcDbEntity
8
0-0
6
CONTINUOUS
62
3
100
AcDbCircle
10
464.070000000000
20
425.300000000000
30
0.0
40
1.499999977237
100
AcDbArc
50
225.000000000000
51
270.000000000000
0
ARC
5
67f
100
AcDbEntity
8
0-0
6
CONTINUOUS
62
3
100
AcDbCircle
10
518.570000000000
20
424.300000000000
30
0.0
40
0.999999984825
100
AcDbArc
50
47.893356323242
51
90.000000000000
0
ARC
5
680
100
AcDbEntity
8
0-0
6
CONTINUOUS
62
3
100
AcDbCircle
10
518.570000000000
20
424.300000000000
30
0.0
40
1.499999977237
100
AcDbArc
50
47.893356323242
51
90.000000000000
0
ARC
5
681
100
AcDbEntity
8
0-0
6
CONTINUOUS
62
3
100
AcDbCircle
10
504.770000000000
20
424.300000000000
30
0.0
40
0.999999984825
100
AcDbArc
50
90.000000000000
51
135.000000000000
0
ARC
5
682
100
AcDbEntity
8
0-0
6
CONTINUOUS
62
3
100
AcDbCircle
10
502.240000000000
20
425.300000000000
30
0.0
40
0.999999984825
100
AcDbArc
50
270.000000000000
51
315.000000000000
0
ARC
5
683
100
AcDbEntity
8
0-0
6
CONTINUOUS
62
3
100
AcDbCircle
10
504.770000000000
20
424.300000000000
30
0.0
40
1.499999977237
100
AcDbArc
50
90.000000000000
51
135.000000000000
0
ARC
5
684
100
AcDbEntity
8
0-0
6
CONTINUOUS
62
3
100
AcDbCircle
10
502.240000000000
20
425.300000000000
30
0.0
40
1.499999977237
100
AcDbArc
50
270.000000000000
51
315.000000000000
0
ARC
5
685
100
AcDbEntity
8
0-0
6
CONTINUOUS
62
3
100
AcDbCircle
10
581.130000000000
20
424.300000000000
30
0.0
40
0.999999984825
100
AcDbArc
50
90.000000000000
51
132.106643676758
0
ARC
5
686
100
AcDbEntity
8
0-0
6
CONTINUOUS
62
3
100
AcDbCircle
10
581.130000000000
20
424.300000000000
30
0.0
40
1.499999977237
100
AcDbArc
50
90.000000000000
51
132.106643676758
0
ARC
5
687
100
AcDbEntity
8
0-0
6
CONTINUOUS
62
3
100
AcDbCircle
10
594.930000000000
20
424.300000000000
30
0.0
40
0.999999984825
100
AcDbArc
50
45.000000000000
51
90.000000000000
0
ARC
5
688
100
AcDbEntity
8
0-0
6
CONTINUOUS
62
3
100
AcDbCircle
10
597.470000000000
20
425.300000000000
30
0.0
40
0.999999984825
100
AcDbArc
50
225.000000000000
51
270.000000000000
0
ARC
5
689
100
AcDbEntity
8
0-0
6
CONTINUOUS
62
3
100
AcDbCircle
10
594.930000000000
20
424.300000000000
30
0.0
40
1.499999977237
100
AcDbArc
50
45.000000000000
51
90.000000000000
0
ARC
5
68a
100
AcDbEntity
8
0-0
6
CONTINUOUS
62
3
100
AcDbCircle
10
597.470000000000
20
425.300000000000
30
0.0
40
1.499999977237
100
AcDbArc
50
225.000000000000
51
270.000000000000
0
ARC
5
68b
100
AcDbEntity
8
0-0
6
CONTINUOUS
62
3
100
AcDbCircle
10
651.970000000000
20
424.300000000000
30
0.0
40
0.999999984825
100
AcDbArc
50
47.893356323242
51
90.000000000000
0
ARC
5
68c
100
AcDbEntity
8
0-0
6
CONTINUOUS
62
3
100
AcDbCircle
10
651.970000000000
20
424.300000000000
30
0.0
40
1.499999977237
100
AcDbArc
50
47.893356323242
51
90.000000000000
0
ARC
5
68d
100
AcDbEntity
8
0-0
6
CONTINUOUS
62
3
100
AcDbCircle
10
638.170000000000
20
424.300000000000
30
0.0
40
0.999999984825
100
AcDbArc
50
90.000000000000
51
135.000000000000
0
ARC
5
68e
100
AcDbEntity
8
0-0
6
CONTINUOUS
62
3
100
AcDbCircle
10
635.640000000000
20
425.300000000000
30
0.0
40
0.999999984825
100
AcDbArc
50
270.000000000000
51
315.000000000000
0
ARC
5
68f
100
AcDbEntity
8
0-0
6
CONTINUOUS
62
3
100
AcDbCircle
10
638.170000000000
20
424.300000000000
30
0.0
40
1.499999977237
100
AcDbArc
50
90.000000000000
51
135.000000000000
0
ARC
5
690
100
AcDbEntity
8
0-0
6
CONTINUOUS
62
3
100
AcDbCircle
10
635.640000000000
20
425.300000000000
30
0.0
40
1.499999977237
100
AcDbArc
50
270.000000000000
51
315.000000000000
0
ARC
5
691
100
AcDbEntity
8
0-0
6
CONTINUOUS
62
3
100
AcDbCircle
10
714.530000000000
20
424.300000000000
30
0.0
40
0.999999984825
100
AcDbArc
50
90.000000000000
51
132.106643676758
0
ARC
5
692
100
AcDbEntity
8
0-0
6
CONTINUOUS
62
3
100
AcDbCircle
10
714.530000000000
20
424.300000000000
30
0.0
40
1.499999977237
100
AcDbArc
50
90.000000000000
51
132.106643676758
0
ARC
5
693
100
AcDbEntity
8
0-0
6
CONTINUOUS
62
3
100
AcDbCircle
10
728.330000000000
20
424.300000000000
30
0.0
40
0.999999984825
100
AcDbArc
50
45.000000000000
51
90.000000000000
0
ARC
5
694
100
AcDbEntity
8
0-0
6
CONTINUOUS
62
3
100
AcDbCircle
10
730.870000000000
20
425.300000000000
30
0.0
40
0.999999984825
100
AcDbArc
50
225.000000000000
51
270.000000000000
0
ARC
5
695
100
AcDbEntity
8
0-0
6
CONTINUOUS
62
3
100
AcDbCircle
10
728.330000000000
20
424.300000000000
30
0.0
40
1.499999977237
100
AcDbArc
50
45.000000000000
51
90.000000000000
0
ARC
5
696
100
AcDbEntity
8
0-0
6
CONTINUOUS
62
3
100
AcDbCircle
10
730.870000000000
20
425.300000000000
30
0.0
40
1.499999977237
100
AcDbArc
50
225.000000000000
51
270.000000000000
0
ARC
5
697
100
AcDbEntity
8
0-0
6
CONTINUOUS
62
3
100
AcDbCircle
10
785.370000000000
20
424.300000000000
30
0.0
40
0.999999984825
100
AcDbArc
50
47.893356323242
51
90.000000000000
0
ARC
5
698
100
AcDbEntity
8
0-0
6
CONTINUOUS
62
3
100
AcDbCircle
10
785.370000000000
20
424.300000000000
30
0.0
40
1.499999977237
100
AcDbArc
50
47.893356323242
51
90.000000000000
0
ARC
5
699
100
AcDbEntity
8
0-0
6
CONTINUOUS
62
3
100
AcDbCircle
10
771.570000000000
20
424.300000000000
30
0.0
40
0.999999984825
100
AcDbArc
50
90.000000000000
51
135.000000000000
0
ARC
5
69a
100
AcDbEntity
8
0-0
6
CONTINUOUS
62
3
100
AcDbCircle
10
769.040000000000
20
425.300000000000
30
0.0
40
0.999999984825
100
AcDbArc
50
270.000000000000
51
315.000000000000
0
ARC
5
69b
100
AcDbEntity
8
0-0
6
CONTINUOUS
62
3
100
AcDbCircle
10
771.570000000000
20
424.300000000000
30
0.0
40
1.499999977237
100
AcDbArc
50
90.000000000000
51
135.000000000000
0
ARC
5
69c
100
AcDbEntity
8
0-0
6
CONTINUOUS
62
3
100
AcDbCircle
10
769.040000000000
20
425.300000000000
30
0.0
40
1.499999977237
100
AcDbArc
50
270.000000000000
51
315.000000000000
0
ARC
5
69d
100
AcDbEntity
8
0-0
6
CONTINUOUS
62
3
100
AcDbCircle
10
847.830000000000
20
424.300000000000
30
0.0
40
0.999999984825
100
AcDbArc
50
90.000000000000
51
132.106643676758
0
ARC
5
69e
100
AcDbEntity
8
0-0
6
CONTINUOUS
62
3
100
AcDbCircle
10
847.830000000000
20
424.300000000000
30
0.0
40
1.499999977237
100
AcDbArc
50
90.000000000000
51
132.106643676758
0
ARC
5
69f
100
AcDbEntity
8
0-0
6
CONTINUOUS
62
3
100
AcDbCircle
10
861.630000000000
20
424.300000000000
30
0.0
40
0.999999984825
100
AcDbArc
50
45.000000000000
51
90.000000000000
0
ARC
5
6a0
100
AcDbEntity
8
0-0
6
CONTINUOUS
62
3
100
AcDbCircle
10
864.170000000000
20
425.300000000000
30
0.0
40
0.999999984825
100
AcDbArc
50
225.000000000000
51
270.000000000000
0
ARC
5
6a1
100
AcDbEntity
8
0-0
6
CONTINUOUS
62
3
100
AcDbCircle
10
861.630000000000
20
424.300000000000
30
0.0
40
1.499999977237
100
AcDbArc
50
45.000000000000
51
90.000000000000
0
ARC
5
6a2
100
AcDbEntity
8
0-0
6
CONTINUOUS
62
3
100
AcDbCircle
10
864.170000000000
20
425.300000000000
30
0.0
40
1.499999977237
100
AcDbArc
50
225.000000000000
51
270.000000000000
0
ARC
5
6a3
100
AcDbEntity
8
0-0
6
CONTINUOUS
62
3
100
AcDbCircle
10
918.670000000000
20
424.300000000000
30
0.0
40
0.999999984825
100
AcDbArc
50
47.893356323242
51
90.000000000000
0
ARC
5
6a4
100
AcDbEntity
8
0-0
6
CONTINUOUS
62
3
100
AcDbCircle
10
918.670000000000
20
424.300000000000
30
0.0
40
1.499999977237
100
AcDbArc
50
47.893356323242
51
90.000000000000
0
ARC
5
6a5
100
AcDbEntity
8
0-0
6
CONTINUOUS
62
3
100
AcDbCircle
10
904.870000000000
20
424.300000000000
30
0.0
40
0.999999984825
100
AcDbArc
50
90.000000000000
51
135.000000000000
0
ARC
5
6a6
100
AcDbEntity
8
0-0
6
CONTINUOUS
62
3
100
AcDbCircle
10
902.340000000000
20
425.300000000000
30
0.0
40
0.999999984825
100
AcDbArc
50
270.000000000000
51
315.000000000000
0
ARC
5
6a7
100
AcDbEntity
8
0-0
6
CONTINUOUS
62
3
100
AcDbCircle
10
904.870000000000
20
424.300000000000
30
0.0
40
1.499999977237
100
AcDbArc
50
90.000000000000
51
135.000000000000
0
ARC
5
6a8
100
AcDbEntity
8
0-0
6
CONTINUOUS
62
3
100
AcDbCircle
10
902.340000000000
20
425.300000000000
30
0.0
40
1.499999977237
100
AcDbArc
50
270.000000000000
51
315.000000000000
0
ARC
5
6a9
100
AcDbEntity
8
0-0
6
CONTINUOUS
62
3
100
AcDbCircle
10
981.130000000000
20
424.300000000000
30
0.0
40
0.999999984825
100
AcDbArc
50
90.000000000000
51
132.106643676758
0
ARC
5
6aa
100
AcDbEntity
8
0-0
6
CONTINUOUS
62
3
100
AcDbCircle
10
981.130000000000
20
424.300000000000
30
0.0
40
1.499999977237
100
AcDbArc
50
90.000000000000
51
132.106643676758
0
ARC
5
6ab
100
AcDbEntity
8
0-0
6
CONTINUOUS
62
3
100
AcDbCircle
10
994.930000000000
20
424.300000000000
30
0.0
40
0.999999984825
100
AcDbArc
50
45.000000000000
51
90.000000000000
0
ARC
5
6ac
100
AcDbEntity
8
0-0
6
CONTINUOUS
62
3
100
AcDbCircle
10
997.470000000000
20
425.300000000000
30
0.0
40
0.999999984825
100
AcDbArc
50
225.000000000000
51
270.000000000000
0
ARC
5
6ad
100
AcDbEntity
8
0-0
6
CONTINUOUS
62
3
100
AcDbCircle
10
994.930000000000
20
424.300000000000
30
0.0
40
1.499999977237
100
AcDbArc
50
45.000000000000
51
90.000000000000
0
ARC
5
6ae
100
AcDbEntity
8
0-0
6
CONTINUOUS
62
3
100
AcDbCircle
10
997.470000000000
20
425.300000000000
30
0.0
40
1.499999977237
100
AcDbArc
50
225.000000000000
51
270.000000000000
0
ARC
5
6af
100
AcDbEntity
8
0-0
6
CONTINUOUS
62
3
100
AcDbCircle
10
1051.970000000000
20
424.300000000000
30
0.0
40
0.999999984825
100
AcDbArc
50
47.893356323242
51
90.000000000000
0
ARC
5
6b0
100
AcDbEntity
8
0-0
6
CONTINUOUS
62
3
100
AcDbCircle
10
1051.970000000000
20
424.300000000000
30
0.0
40
1.499999977237
100
AcDbArc
50
47.893356323242
51
90.000000000000
0
ARC
5
6b1
100
AcDbEntity
8
0-0
6
CONTINUOUS
62
3
100
AcDbCircle
10
1038.170000000000
20
424.300000000000
30
0.0
40
0.999999984825
100
AcDbArc
50
90.000000000000
51
135.000000000000
0
ARC
5
6b2
100
AcDbEntity
8
0-0
6
CONTINUOUS
62
3
100
AcDbCircle
10
1035.640000000000
20
425.300000000000
30
0.0
40
0.999999984825
100
AcDbArc
50
270.000000000000
51
315.000000000000
0
ARC
5
6b3
100
AcDbEntity
8
0-0
6
CONTINUOUS
62
3
100
AcDbCircle
10
1038.170000000000
20
424.300000000000
30
0.0
40
1.499999977237
100
AcDbArc
50
90.000000000000
51
135.000000000000
0
ARC
5
6b4
100
AcDbEntity
8
0-0
6
CONTINUOUS
62
3
100
AcDbCircle
10
1035.640000000000
20
425.300000000000
30
0.0
40
1.499999977237
100
AcDbArc
50
270.000000000000
51
315.000000000000
0
ARC
5
6b5
100
AcDbEntity
8
0-0
6
CONTINUOUS
62
3
100
AcDbCircle
10
313.130000000000
20
424.300000000000
30
0.0
40
0.999999984825
100
AcDbArc
50
90.000000000000
51
132.106643676758
0
ARC
5
6b6
100
AcDbEntity
8
0-0
6
CONTINUOUS
62
3
100
AcDbCircle
10
313.130000000000
20
424.300000000000
30
0.0
40
1.499999977237
100
AcDbArc
50
90.000000000000
51
132.106643676758
0
ARC
5
6b7
100
AcDbEntity
8
0-0
6
CONTINUOUS
62
3
100
AcDbCircle
10
328.230000000000
20
424.300000000000
30
0.0
40
0.999999984825
100
AcDbArc
50
45.000000000000
51
90.000000000000
0
ARC
5
6b8
100
AcDbEntity
8
0-0
6
CONTINUOUS
62
3
100
AcDbCircle
10
330.770000000000
20
425.300000000000
30
0.0
40
0.999999984825
100
AcDbArc
50
225.000000000000
51
270.000000000000
0
ARC
5
6b9
100
AcDbEntity
8
0-0
6
CONTINUOUS
62
3
100
AcDbCircle
10
328.230000000000
20
424.300000000000
30
0.0
40
1.499999977237
100
AcDbArc
50
45.000000000000
51
90.000000000000
0
ARC
5
6ba
100
AcDbEntity
8
0-0
6
CONTINUOUS
62
3
100
AcDbCircle
10
330.770000000000
20
425.300000000000
30
0.0
40
1.499999977237
100
AcDbArc
50
225.000000000000
51
270.000000000000
0
ARC
5
6bb
100
AcDbEntity
8
0-0
6
CONTINUOUS
62
3
100
AcDbCircle
10
385.270000000000
20
424.300000000000
30
0.0
40
0.999999984825
100
AcDbArc
50
47.893356323242
51
90.000000000000
0
ARC
5
6bc
100
AcDbEntity
8
0-0
6
CONTINUOUS
62
3
100
AcDbCircle
10
385.270000000000
20
424.300000000000
30
0.0
40
1.499999977237
100
AcDbArc
50
47.893356323242
51
90.000000000000
0
ARC
5
6bd
100
AcDbEntity
8
0-0
6
CONTINUOUS
62
3
100
AcDbCircle
10
371.470000000000
20
424.300000000000
30
0.0
40
0.999999984825
100
AcDbArc
50
90.000000000000
51
135.000000000000
0
ARC
5
6be
100
AcDbEntity
8
0-0
6
CONTINUOUS
62
3
100
AcDbCircle
10
368.940000000000
20
425.300000000000
30
0.0
40
0.999999984825
100
AcDbArc
50
270.000000000000
51
315.000000000000
0
ARC
5
6bf
100
AcDbEntity
8
0-0
6
CONTINUOUS
62
3
100
AcDbCircle
10
371.470000000000
20
424.300000000000
30
0.0
40
1.499999977237
100
AcDbArc
50
90.000000000000
51
135.000000000000
0
ARC
5
6c0
100
AcDbEntity
8
0-0
6
CONTINUOUS
62
3
100
AcDbCircle
10
368.940000000000
20
425.300000000000
30
0.0
40
1.499999977237
100
AcDbArc
50
270.000000000000
51
315.000000000000
0
ARC
5
6c1
100
AcDbEntity
8
0-0
6
CONTINUOUS
62
3
100
AcDbCircle
10
274.650000000000
20
772.100000000000
30
0.0
40
0.199999999384
100
AcDbArc
50
53.135772705078
51
126.864227294922
0
ARC
5
6c2
100
AcDbEntity
8
0-0
6
CONTINUOUS
62
3
100
AcDbCircle
10
274.650000000000
20
772.100000000000
30
0.0
40
0.699999979700
100
AcDbArc
50
53.135772705078
51
126.864227294922
0
ARC
5
6c3
100
AcDbEntity
8
0-0
6
CONTINUOUS
62
3
100
AcDbCircle
10
276.730000000000
20
771.500000000000
30
0.0
40
0.199999999384
100
AcDbArc
50
229.270889282227
51
270.000000000000
0
ARC
5
6c4
100
AcDbEntity
8
0-0
6
CONTINUOUS
62
3
100
AcDbCircle
10
276.730000000000
20
771.500000000000
30
0.0
40
0.699999979700
100
AcDbArc
50
229.270889282227
51
270.000000000000
0
ARC
5
6c5
100
AcDbEntity
8
0-0
6
CONTINUOUS
62
3
100
AcDbCircle
10
274.650000000000
20
412.100000000000
30
0.0
40
0.199999999384
100
AcDbArc
50
53.135772705078
51
126.864227294922
0
ARC
5
6c6
100
AcDbEntity
8
0-0
6
CONTINUOUS
62
3
100
AcDbCircle
10
274.650000000000
20
412.100000000000
30
0.0
40
0.699999979700
100
AcDbArc
50
53.135772705078
51
126.864227294922
0
ARC
5
6c7
100
AcDbEntity
8
0-0
6
CONTINUOUS
62
3
100
AcDbCircle
10
276.730000000000
20
411.500000000000
30
0.0
40
0.199999999384
100
AcDbArc
50
229.270889282227
51
270.000000000000
0
ARC
5
6c8
100
AcDbEntity
8
0-0
6
CONTINUOUS
62
3
100
AcDbCircle
10
276.730000000000
20
411.500000000000
30
0.0
40
0.699999979700
100
AcDbArc
50
229.270889282227
51
270.000000000000
0
ARC
5
6c9
100
AcDbEntity
8
0-0
6
CONTINUOUS
62
3
100
AcDbCircle
10
1103.820000000000
20
777.010000000000
30
0.0
40
0.199999999384
100
AcDbArc
50
312.107513427734
51
326.932083129883
0
ARC
5
6ca
100
AcDbEntity
8
0-0
6
CONTINUOUS
62
3
100
AcDbCircle
10
1103.820000000000
20
777.010000000000
30
0.0
40
0.699999979700
100
AcDbArc
50
312.107513427734
51
326.932083129883
0
ARC
5
6cb
100
AcDbEntity
8
0-0
6
CONTINUOUS
62
3
100
AcDbCircle
10
1103.820000000000
20
417.010000000000
30
0.0
40
0.199999999384
100
AcDbArc
50
312.107513427734
51
326.932083129883
0
ARC
5
6cc
100
AcDbEntity
8
0-0
6
CONTINUOUS
62
3
100
AcDbCircle
10
1103.820000000000
20
417.010000000000
30
0.0
40
0.699999979700
100
AcDbArc
50
312.107513427734
51
326.932083129883
0
ARC
5
6cd
100
AcDbEntity
8
0-0
6
CONTINUOUS
62
3
100
AcDbCircle
10
1363.270000000000
20
512.280000000000
30
0.0
40
0.999999984825
100
AcDbArc
50
47.893356323242
51
90.000000000000
0
ARC
5
6ce
100
AcDbEntity
8
0-0
6
CONTINUOUS
62
3
100
AcDbCircle
10
1363.270000000000
20
512.280000000000
30
0.0
40
1.499999977237
100
AcDbArc
50
47.893356323242
51
90.000000000000
0
ARC
5
6cf
100
AcDbEntity
8
0-0
6
CONTINUOUS
62
3
100
AcDbCircle
10
1381.380000000000
20
499.280000000000
30
0.0
40
0.999999984825
100
AcDbArc
50
227.893356323242
51
270.000000000000
0
ARC
5
6d0
100
AcDbEntity
8
0-0
6
CONTINUOUS
62
3
100
AcDbCircle
10
1381.380000000000
20
499.280000000000
30
0.0
40
1.499999977237
100
AcDbArc
50
227.893356323242
51
270.000000000000
0
ARC
5
6d1
100
AcDbEntity
8
0-0
6
CONTINUOUS
62
3
100
AcDbCircle
10
1407.610000000000
20
499.280000000000
30
0.0
40
0.999999984825
100
AcDbArc
50
270.000000000000
51
312.108322143555
0
ARC
5
6d2
100
AcDbEntity
8
0-0
6
CONTINUOUS
62
3
100
AcDbCircle
10
1407.610000000000
20
499.280000000000
30
0.0
40
1.499999977237
100
AcDbArc
50
270.000000000000
51
312.108322143555
0
ARC
5
6d3
100
AcDbEntity
8
0-0
6
CONTINUOUS
62
3
100
AcDbCircle
10
1407.420000000000
20
500.280000000000
30
0.0
40
0.999999984825
100
AcDbArc
50
270.000000000000
51
312.107040405273
0
ARC
5
6d4
100
AcDbEntity
8
0-0
6
CONTINUOUS
62
3
100
AcDbCircle
10
1407.420000000000
20
500.280000000000
30
0.0
40
1.499999977237
100
AcDbArc
50
270.000000000000
51
312.107040405273
0
ARC
5
6d5
100
AcDbEntity
8
0-0
6
CONTINUOUS
62
3
100
AcDbCircle
10
1424.430000000000
20
512.280000000000
30
0.0
40
0.999999984825
100
AcDbArc
50
90.000000000000
51
132.107177734375
0
ARC
5
6d6
100
AcDbEntity
8
0-0
6
CONTINUOUS
62
3
100
AcDbCircle
10
1424.430000000000
20
512.280000000000
30
0.0
40
1.499999977237
100
AcDbArc
50
90.000000000000
51
132.107177734375
0
ARC
5
6d7
100
AcDbEntity
8
0-0
6
CONTINUOUS
62
3
100
AcDbCircle
10
1388.020000000000
20
499.480000000000
30
0.0
40
0.199999999384
100
AcDbArc
50
229.270889282227
51
270.000000000000
0
ARC
5
6d8
100
AcDbEntity
8
0-0
6
CONTINUOUS
62
3
100
AcDbCircle
10
1388.020000000000
20
499.480000000000
30
0.0
40
0.699999979700
100
AcDbArc
50
229.270889282227
51
270.000000000000
0
ARC
5
6d9
100
AcDbEntity
8
0-0
6
CONTINUOUS
62
3
100
AcDbCircle
10
1385.870000000000
20
499.750000000000
30
0.0
40
0.499999992412
100
AcDbArc
50
49.287857055664
51
115.557067871094
0
ARC
5
6da
100
AcDbEntity
8
0-0
6
CONTINUOUS
62
3
100
AcDbCircle
10
1385.870000000000
20
499.750000000000
30
0.0
40
0.999999984825
100
AcDbArc
50
49.287857055664
51
115.557067871094
0
TEXT
5
6db
100
AcDbEntity
8
F-F
62
3
370
-3
100
AcDbText
10
532.090
20
75.752
30
0.0
40
4.923
1
変　　　　　　更　　　　　　記　　　　　　事
41
0.914
50
0.000
100
AcDbText
0
TEXT
5
6dc
100
AcDbEntity
8
F-F
62
3
370
-3
100
AcDbText
10
815.825
20
74.952
30
0.0
40
4.923
1
受領　　日附
41
0.914
50
0.000
100
AcDbText
0
TEXT
5
6dd
100
AcDbEntity
8
F-F
62
3
370
-3
100
AcDbText
10
1014.042
20
45.520
30
0.0
40
4.923
1
施工者
41
0.914
50
0.000
100
AcDbText
0
TEXT
5
6de
100
AcDbEntity
8
F-F
62
3
370
-3
100
AcDbText
10
1014.042
20
75.150
30
0.0
40
4.923
1
設計者
41
0.914
50
0.000
100
AcDbText
0
TEXT
5
6df
100
AcDbEntity
8
F-F
62
3
370
-3
100
AcDbText
10
1219.525
20
44.977
30
0.0
40
4.923
1
作図
41
0.914
50
0.000
100
AcDbText
0
TEXT
5
6e0
100
AcDbEntity
8
F-F
62
3
370
-3
100
AcDbText
10
1291.352
20
45.508
30
0.0
40
4.923
1
図面名
41
0.914
50
0.000
100
AcDbText
0
TEXT
5
6e1
100
AcDbEntity
8
F-F
62
3
370
-3
100
AcDbText
10
1219.525
20
74.607
30
0.0
40
4.923
1
日附
41
0.914
50
0.000
100
AcDbText
0
TEXT
5
6e2
100
AcDbEntity
8
F-F
62
3
370
-3
100
AcDbText
10
1291.352
20
75.137
30
0.0
40
4.923
1
工事件名
41
0.914
50
0.000
100
AcDbText
0
TEXT
5
6e3
100
AcDbEntity
8
F-F
62
3
370
-3
100
AcDbText
10
1241.661
20
74.355
30
0.0
40
4.923
1
年　月　日
41
0.914
50
0.000
100
AcDbText
0
TEXT
5
6e4
100
AcDbEntity
8
F-F
62
3
370
-3
100
AcDbText
10
1241.661
20
44.726
30
0.0
40
4.923
1
年　月　日
41
0.914
50
0.000
100
AcDbText
0
TEXT
5
6e5
100
AcDbEntity
8
F-F
62
3
370
-3
100
AcDbText
10
1543.695
20
75.137
30
0.0
40
4.923
1
設計番号
41
0.914
50
0.000
100
AcDbText
0
MTEXT
5
6e6
100
AcDbEntity
8
F-F
62
3
370
-3
100
AcDbMText
10
387.012
20
67.821
30
0.0
40
4.649
41
0.000
71
7
72
1
1
\W1.037;{\W0.747;. }　{\W0.747;.}　{\W0.747; }
7
STANDARD
11
1.00000
21
0.00000
31
0.0
0
MTEXT
5
6e7
100
AcDbEntity
8
F-F
62
3
370
-3
100
AcDbMText
10
387.012
20
57.945
30
0.0
40
4.649
41
0.000
71
7
72
1
1
\W1.037;{\W0.747;. }　{\W0.747;.}　{\W0.747; }
7
STANDARD
11
1.00000
21
0.00000
31
0.0
0
MTEXT
5
6e8
100
AcDbEntity
8
F-F
62
3
370
-3
100
AcDbMText
10
387.012
20
48.068
30
0.0
40
4.649
41
0.000
71
7
72
1
1
\W1.037;{\W0.747;. }　{\W0.747;.}　{\W0.747; }
7
STANDARD
11
1.00000
21
0.00000
31
0.0
0
MTEXT
5
6e9
100
AcDbEntity
8
F-F
62
3
370
-3
100
AcDbMText
10
387.012
20
38.191
30
0.0
40
4.649
41
0.000
71
7
72
1
1
\W1.037;{\W0.747;. }　{\W0.747;.}　{\W0.747; }
7
STANDARD
11
1.00000
21
0.00000
31
0.0
0
MTEXT
5
6ea
100
AcDbEntity
8
F-F
62
3
370
-3
100
AcDbMText
10
387.012
20
28.314
30
0.0
40
4.649
41
0.000
71
7
72
1
1
\W1.037;{\W0.747;. }　{\W0.747;.}　{\W0.747; }
7
STANDARD
11
1.00000
21
0.00000
31
0.0
0
TEXT
5
6eb
100
AcDbEntity
8
F-F
62
3
370
-3
100
AcDbText
10
1034.383
20
32.743
30
0.0
40
6.564
1
　　　　　　　　　　
41
0.921
50
0.000
100
AcDbText
0
TEXT
5
6ec
100
AcDbEntity
8
F-F
62
3
370
-3
100
AcDbText
10
378.040
20
75.687
30
0.0
40
4.923
1
年　月　日
41
0.914
50
0.000
100
AcDbText
0
TEXT
5
6ed
100
AcDbEntity
8
F-F
62
3
370
-3
100
AcDbText
10
872.996
20
74.368
30
0.0
40
4.923
1
年　　月　　日
41
0.914
50
0.000
100
AcDbText
0
MTEXT
5
6ee
100
AcDbEntity
8
F-F
62
3
370
-3
100
AcDbMText
10
885.548
20
63.398
30
0.0
40
4.649
41
0.000
71
7
72
1
1
\W1.037;{\W0.747;.}　{\W0.747; }　{\W0.747;.}
7
STANDARD
11
1.00000
21
0.00000
31
0.0
0
TEXT
5
6ef
100
AcDbEntity
8
F-F
62
3
370
-3
100
AcDbText
10
815.825
20
45.323
30
0.0
40
4.923
1
受領　　日附
41
0.914
50
0.000
100
AcDbText
0
TEXT
5
6f0
100
AcDbEntity
8
F-F
62
3
370
-3
100
AcDbText
10
872.996
20
44.738
30
0.0
40
4.923
1
年　　月　　日
41
0.914
50
0.000
100
AcDbText
0
MTEXT
5
6f1
100
AcDbEntity
8
F-F
62
3
370
-3
100
AcDbMText
10
885.548
20
33.769
30
0.0
40
4.649
41
0.000
71
7
72
1
1
\W1.037;{\W0.747;.}　{\W0.747; }　{\W0.747;.}
7
STANDARD
11
1.00000
21
0.00000
31
0.0
0
MTEXT
5
6f2
100
AcDbEntity
8
F-F
62
3
370
-3
100
AcDbMText
10
1248.433
20
61.685
30
0.0
40
4.649
41
0.000
71
7
72
1
1
\W1.037;{\W0.747;.}　　{\W0.747;.}　
7
STANDARD
11
1.00000
21
0.00000
31
0.0
0
TEXT
5
6f3
100
AcDbEntity
8
F-F
62
3
370
-3
100
AcDbText
10
1543.695
20
45.508
30
0.0
40
4.923
1
縮　尺
41
0.914
50
0.000
100
AcDbText
0
TEXT
5
6f4
100
AcDbEntity
8
F-F
62
3
370
-3
100
AcDbText
10
1567.012
20
41.647
30
0.0
40
6.564
1
Ａ１－１／２　
41
0.921
50
0.000
100
AcDbText
0
TEXT
5
6f5
100
AcDbEntity
8
F-F
62
3
370
-3
100
AcDbText
10
1567.012
20
26.832
30
0.0
40
6.564
1
Ａ３－１／４　
41
0.921
50
0.000
100
AcDbText
0
TEXT
5
6f6
100
AcDbEntity
8
F-F
62
3
370
-3
100
AcDbText
10
166.668
20
28.767
30
0.0
40
6.564
1
電話（０５４）２６３－２２８０（代表）
41
0.921
50
0.000
100
AcDbText
0
TEXT
5
6f7
100
AcDbEntity
8
F-F
62
3
370
-3
100
AcDbText
10
122.770
20
61.158
30
0.0
40
13.127
1
小　池　弥　太　郎　商　店
41
0.963
50
0.000
100
AcDbText
0
TEXT
5
6f8
100
AcDbEntity
8
F-F
62
3
370
-3
100
AcDbText
10
166.664
20
43.600
30
0.0
40
6.564
1
静岡県静岡市葵区流通センター１６番
41
0.921
50
0.000
100
AcDbText
0
TEXT
5
6f9
100
AcDbEntity
8
F-F
62
3
370
-3
100
AcDbText
10
100.135
20
68.249
30
0.0
40
4.923
1
株
41
0.914
50
0.000
100
AcDbText
0
TEXT
5
6fa
100
AcDbEntity
8
F-F
62
3
370
-3
100
AcDbText
10
107.285
20
61.000
30
0.0
40
4.923
1
社
41
0.914
50
0.000
100
AcDbText
0
TEXT
5
6fb
100
AcDbEntity
8
F-F
62
3
370
-3
100
AcDbText
10
100.085
20
61.000
30
0.0
40
4.923
1
会
41
0.914
50
0.000
100
AcDbText
0
TEXT
5
6fc
100
AcDbEntity
8
F-F
62
3
370
-3
100
AcDbText
10
106.885
20
68.050
30
0.0
40
4.923
1
式
41
0.914
50
0.000
100
AcDbText
0
TEXT
5
6fd
100
AcDbEntity
8
0-0
62
3
370
-3
100
AcDbText
10
404.220
20
814.595
30
0.0
40
9.846
41
0.753
50
0.000
1
61.3
72
1
11
416.895
21
813.501
31
0.0
100
AcDbText
73
1
0
TEXT
5
6fe
100
AcDbEntity
8
0-0
62
3
370
-3
100
AcDbText
10
477.370
20
814.595
30
0.0
40
9.846
41
0.540
50
0.000
1
72
72
1
11
483.707
21
813.501
31
0.0
100
AcDbText
73
1
0
TEXT
5
6ff
100
AcDbEntity
8
0-0
62
3
370
-3
100
AcDbText
10
334.320
20
834.596
30
0.0
40
9.846
41
0.708
50
0.000
1
133.3
72
1
11
350.163
21
833.502
31
0.0
100
AcDbText
73
1
0
TEXT
5
700
100
AcDbEntity
8
0-0
62
3
370
-3
100
AcDbText
10
467.620
20
834.596
30
0.0
40
9.846
41
0.708
50
0.000
1
133.3
72
1
11
483.463
21
833.502
31
0.0
100
AcDbText
73
1
0
TEXT
5
701
100
AcDbEntity
8
0-0
62
3
370
-3
100
AcDbText
10
867.719
20
834.596
30
0.0
40
9.846
41
0.708
50
0.000
1
133.3
72
1
11
883.563
21
833.502
31
0.0
100
AcDbText
73
1
0
TEXT
5
702
100
AcDbEntity
8
0-0
62
3
370
-3
100
AcDbText
10
1001.020
20
834.596
30
0.0
40
9.846
41
0.708
50
0.000
1
133.3
72
1
11
1016.863
21
833.502
31
0.0
100
AcDbText
73
1
0
TEXT
5
703
100
AcDbEntity
8
0-0
62
3
370
-3
100
AcDbText
10
280.894
20
748.595
30
0.0
40
9.846
41
0.575
50
0.000
1
20
72
1
11
287.232
21
747.501
31
0.0
100
AcDbText
73
1
0
TEXT
5
704
100
AcDbEntity
8
0-0
62
3
370
-3
100
AcDbText
10
1077.419
20
748.595
30
0.0
40
9.846
41
0.540
50
0.000
1
27
72
1
11
1083.757
21
747.501
31
0.0
100
AcDbText
73
1
0
TEXT
5
705
100
AcDbEntity
8
0-0
62
3
370
-3
100
AcDbText
10
410.720
20
748.595
30
0.0
40
9.846
41
0.540
50
0.000
1
27
72
1
11
417.057
21
747.501
31
0.0
100
AcDbText
73
1
0
TEXT
5
706
100
AcDbEntity
8
0-0
62
3
370
-3
100
AcDbText
10
746.106
20
772.017
30
0.0
40
9.846
41
0.689
50
90.000
1
16
72
1
11
747.200
21
778.355
31
0.0
100
AcDbText
73
1
0
TEXT
5
707
100
AcDbEntity
8
0-0
62
3
370
-3
100
AcDbText
10
600.970
20
834.596
30
0.0
40
9.846
41
0.708
50
0.000
1
133.3
72
1
11
616.813
21
833.502
31
0.0
100
AcDbText
73
1
0
TEXT
5
708
100
AcDbEntity
8
0-0
62
3
370
-3
100
AcDbText
10
734.370
20
834.596
30
0.0
40
9.846
41
0.708
50
0.000
1
133.3
72
1
11
750.214
21
833.502
31
0.0
100
AcDbText
73
1
0
TEXT
5
709
100
AcDbEntity
8
0-0
62
3
370
-3
100
AcDbText
10
670.826
20
855.194
30
0.0
40
13.127
41
0.646
50
0.000
1
800
72
1
11
683.988
21
853.735
31
0.0
100
AcDbText
73
1
0
TEXT
5
70a
100
AcDbEntity
8
0-0
62
3
370
-3
100
AcDbText
10
467.620
20
748.595
30
0.0
40
9.846
41
0.737
50
0.000
1
106.3
72
1
11
483.463
21
747.501
31
0.0
100
AcDbText
73
1
0
TEXT
5
70b
100
AcDbEntity
8
0-0
62
3
370
-3
100
AcDbText
10
404.220
20
454.595
30
0.0
40
9.846
41
0.753
50
0.000
1
61.3
72
1
11
416.895
21
453.501
31
0.0
100
AcDbText
73
1
0
TEXT
5
70c
100
AcDbEntity
8
0-0
62
3
370
-3
100
AcDbText
10
477.370
20
454.595
30
0.0
40
9.846
41
0.540
50
0.000
1
72
72
1
11
483.707
21
453.501
31
0.0
100
AcDbText
73
1
0
TEXT
5
70d
100
AcDbEntity
8
0-0
62
3
370
-3
100
AcDbText
10
334.320
20
474.595
30
0.0
40
9.846
41
0.708
50
0.000
1
133.3
72
1
11
350.163
21
473.501
31
0.0
100
AcDbText
73
1
0
TEXT
5
70e
100
AcDbEntity
8
0-0
62
3
370
-3
100
AcDbText
10
467.620
20
474.595
30
0.0
40
9.846
41
0.708
50
0.000
1
133.3
72
1
11
483.463
21
473.501
31
0.0
100
AcDbText
73
1
0
TEXT
5
70f
100
AcDbEntity
8
0-0
62
3
370
-3
100
AcDbText
10
867.719
20
474.595
30
0.0
40
9.846
41
0.708
50
0.000
1
133.3
72
1
11
883.563
21
473.501
31
0.0
100
AcDbText
73
1
0
TEXT
5
710
100
AcDbEntity
8
0-0
62
3
370
-3
100
AcDbText
10
1001.020
20
474.595
30
0.0
40
9.846
41
0.708
50
0.000
1
133.3
72
1
11
1016.863
21
473.501
31
0.0
100
AcDbText
73
1
0
TEXT
5
711
100
AcDbEntity
8
0-0
62
3
370
-3
100
AcDbText
10
280.894
20
388.595
30
0.0
40
9.846
41
0.575
50
0.000
1
20
72
1
11
287.232
21
387.501
31
0.0
100
AcDbText
73
1
0
TEXT
5
712
100
AcDbEntity
8
0-0
62
3
370
-3
100
AcDbText
10
1077.419
20
388.595
30
0.0
40
9.846
41
0.540
50
0.000
1
27
72
1
11
1083.757
21
387.501
31
0.0
100
AcDbText
73
1
0
TEXT
5
713
100
AcDbEntity
8
0-0
62
3
370
-3
100
AcDbText
10
410.720
20
388.595
30
0.0
40
9.846
41
0.540
50
0.000
1
27
72
1
11
417.057
21
387.501
31
0.0
100
AcDbText
73
1
0
TEXT
5
714
100
AcDbEntity
8
0-0
62
3
370
-3
100
AcDbText
10
600.970
20
474.595
30
0.0
40
9.846
41
0.708
50
0.000
1
133.3
72
1
11
616.813
21
473.501
31
0.0
100
AcDbText
73
1
0
TEXT
5
715
100
AcDbEntity
8
0-0
62
3
370
-3
100
AcDbText
10
734.370
20
474.595
30
0.0
40
9.846
41
0.708
50
0.000
1
133.3
72
1
11
750.214
21
473.501
31
0.0
100
AcDbText
73
1
0
TEXT
5
716
100
AcDbEntity
8
0-0
62
3
370
-3
100
AcDbText
10
670.826
20
495.194
30
0.0
40
13.127
41
0.646
50
0.000
1
800
72
1
11
683.988
21
493.735
31
0.0
100
AcDbText
73
1
0
TEXT
5
717
100
AcDbEntity
8
0-0
62
3
370
-3
100
AcDbText
10
467.620
20
388.595
30
0.0
40
9.846
41
0.737
50
0.000
1
106.3
72
1
11
483.463
21
387.501
31
0.0
100
AcDbText
73
1
0
TEXT
5
718
100
AcDbEntity
8
0-0
62
3
370
-3
100
AcDbText
10
746.106
20
411.017
30
0.0
40
9.846
41
0.686
50
90.000
1
15
72
1
11
747.200
21
417.355
31
0.0
100
AcDbText
73
1
0
TEXT
5
719
100
AcDbEntity
8
0-0
62
3
370
-3
100
AcDbText
10
746.156
20
428.017
30
0.0
40
9.846
41
0.932
50
90.000
1
1
72
1
11
747.250
21
431.186
31
0.0
100
AcDbText
73
1
0
TEXT
5
71a
100
AcDbEntity
8
0-0
62
3
370
-3
100
AcDbText
10
582.270
20
454.595
30
0.0
40
9.846
41
0.686
50
0.000
1
15
72
1
11
588.607
21
453.501
31
0.0
100
AcDbText
73
1
0
TEXT
5
71b
100
AcDbEntity
8
0-0
62
3
370
-3
100
AcDbText
10
610.770
20
454.595
30
0.0
40
9.846
41
0.542
50
0.000
1
42
72
1
11
617.107
21
453.501
31
0.0
100
AcDbText
73
1
0
TEXT
5
71c
100
AcDbEntity
8
0-0
62
3
370
-3
100
AcDbText
10
639.270
20
454.595
30
0.0
40
9.846
41
0.686
50
0.000
1
15
72
1
11
645.607
21
453.501
31
0.0
100
AcDbText
73
1
0
TEXT
5
71d
100
AcDbEntity
8
0-0
62
3
370
-3
100
AcDbText
10
262.145
20
748.595
30
0.0
40
9.846
41
0.547
50
0.000
1
6
72
1
11
265.313
21
747.501
31
0.0
100
AcDbText
73
1
0
TEXT
5
71e
100
AcDbEntity
8
0-0
62
3
370
-3
100
AcDbText
10
278.420
20
814.595
30
0.0
40
9.846
41
0.522
50
0.000
1
26
72
1
11
284.757
21
813.501
31
0.0
100
AcDbText
73
1
0
TEXT
5
71f
100
AcDbEntity
8
0-0
62
3
370
-3
100
AcDbText
10
262.145
20
388.595
30
0.0
40
9.846
41
0.547
50
0.000
1
6
72
1
11
265.313
21
387.501
31
0.0
100
AcDbText
73
1
0
TEXT
5
720
100
AcDbEntity
8
0-0
62
3
370
-3
100
AcDbText
10
278.420
20
454.595
30
0.0
40
9.846
41
0.522
50
0.000
1
26
72
1
11
284.757
21
453.501
31
0.0
100
AcDbText
73
1
0
TEXT
5
721
100
AcDbEntity
8
0-0
62
3
370
-3
100
AcDbText
10
1121.259
20
741.673
30
0.0
40
9.846
41
0.785
50
42.107
1
10
72
1
11
1126.695
21
745.111
31
0.0
100
AcDbText
73
1
0
TEXT
5
722
100
AcDbEntity
8
0-0
62
3
370
-3
100
AcDbText
10
1135.152
20
755.653
30
0.0
40
9.846
41
0.785
50
56.942
1
10
72
1
11
1139.526
21
760.368
31
0.0
100
AcDbText
73
1
0
TEXT
5
723
100
AcDbEntity
8
0-0
62
3
370
-3
100
AcDbText
10
1121.259
20
381.673
30
0.0
40
9.846
41
0.785
50
42.107
1
10
72
1
11
1126.695
21
385.111
31
0.0
100
AcDbText
73
1
0
TEXT
5
724
100
AcDbEntity
8
0-0
62
3
370
-3
100
AcDbText
10
1135.152
20
395.653
30
0.0
40
9.846
41
0.785
50
56.942
1
10
72
1
11
1139.526
21
400.367
31
0.0
100
AcDbText
73
1
0
TEXT
5
725
100
AcDbEntity
8
F-F
62
3
370
-3
100
AcDbText
10
1274.845
20
1112.929
30
0.0
40
13.127
1
製　品　名
41
0.963
50
0.000
100
AcDbText
0
MTEXT
5
726
100
AcDbEntity
8
F-F
62
3
370
-3
100
AcDbMText
10
1274.845
20
1036.470
30
0.0
40
12.398
41
0.000
71
7
72
1
1
\W1.093;各種鋼板　０{\W0.787;.}４ｍｍ{\W0.787; }～{\W0.787; }０{\W0.787;.}６ｍｍ
7
STANDARD
11
1.00000
21
0.00000
31
0.0
0
TEXT
5
727
100
AcDbEntity
8
F-F
62
3
370
-3
100
AcDbText
10
1274.845
20
1012.929
30
0.0
40
13.127
1
板幅　：　９１４ｍｍ
41
0.963
50
0.000
100
AcDbText
0
TEXT
5
728
100
AcDbEntity
8
F-F
62
3
370
-3
100
AcDbText
10
1557.468
20
61.186
30
0.0
40
8.205
1
KW-800-01A
41
0.592
50
0.000
100
AcDbText
0
MTEXT
5
729
100
AcDbEntity
8
F-F
62
3
370
-3
100
AcDbMText
10
1274.845
20
1086.470
30
0.0
40
12.398
41
0.000
71
7
72
1
1
\W1.093;ＫＷ８００ {\fMS Gothic;Ⅰ}型（リブ無し）　
7
STANDARD
11
1.00000
21
0.00000
31
0.0
0
MTEXT
5
72a
100
AcDbEntity
8
F-F
62
3
370
-3
100
AcDbMText
10
1274.845
20
1061.470
30
0.0
40
12.398
41
0.000
71
7
72
1
1
\W1.093;ＫＷ８００ {\fMS Gothic;Ⅱ}型（リブ付）
7
STANDARD
11
1.00000
21
0.00000
31
0.0
0
MTEXT
5
72b
100
AcDbEntity
8
0-0
62
3
370
-3
100
AcDbMText
10
284.769
20
886.470
30
0.0
40
12.398
41
0.000
71
7
72
1
1
\W1.093;ＫＷ８００ {\fMS Gothic;Ⅰ}型（リブ無し）　縦張り
7
STANDARD
11
1.00000
21
0.00000
31
0.0
0
MTEXT
5
72c
100
AcDbEntity
8
0-0
62
3
370
-3
100
AcDbMText
10
284.769
20
526.470
30
0.0
40
12.398
41
0.000
71
7
72
1
1
\W1.093;ＫＷ８００ {\fMS Gothic;Ⅱ}型（リブ付）　縦張り
7
STANDARD
11
1.00000
21
0.00000
31
0.0
0
TEXT
5
72d
100
AcDbEntity
8
0-0
62
3
370
-3
100
AcDbText
10
1382.215
20
542.580
30
0.0
40
9.846
41
0.753
50
0.000
1
61.3
72
1
11
1394.890
21
541.486
31
0.0
100
AcDbText
73
1
0
TEXT
5
72e
100
AcDbEntity
8
0-0
62
3
370
-3
100
AcDbText
10
1388.715
20
476.580
30
0.0
40
9.846
41
0.540
50
0.000
1
27
72
1
11
1395.053
21
475.486
31
0.0
100
AcDbText
73
1
0
TEXT
5
72f
100
AcDbEntity
8
0-0
62
3
370
-3
100
AcDbText
10
1445.408
20
500.002
30
0.0
40
9.846
41
0.689
50
90.000
1
16
72
1
11
1446.502
21
506.340
31
0.0
100
AcDbText
73
1
0
TEXT
5
730
100
AcDbEntity
8
F-F
62
3
370
-3
100
AcDbText
10
1222.716
20
31.566
30
0.0
40
4.923
1
MA 2015-06-15
41
0.618
50
0.000
100
AcDbText
0
MTEXT
5
731
100
AcDbEntity
8
F-F
62
3
370
-3
100
AcDbMText
10
1317.846
20
33.561
30
0.0
40
6.199
41
0.000
71
7
72
1
1
\W1.045;ＫＷ８００　{\fMS Gothic;Ⅰ}型　・　{\fMS Gothic;Ⅱ}型　断面図
7
STANDARD
11
1.00000
21
0.00000
31
0.0
0
POLYLINE
5
732
100
AcDbEntity
  8
F-F
6
CONTINUOUS
62
3
100
AcDb2dPolyline
66
1
10
0
20
0
70
1
40
0.800
41
0.800
0
VERTEX
5
733
100
AcDbEntity
  8
F-F
6
CONTINUOUS
62
3
100
AcDbVertex
100
AcDb2dVertex
10
54.357
20
1143.641
30
0.0
42
1.000
0
VERTEX
5
734
100
AcDbEntity
  8
F-F
6
CONTINUOUS
62
3
100
AcDbVertex
100
AcDb2dVertex
10
55.157
20
1143.641
30
0.0
42
1.000
0
SEQEND
5
735
100
AcDbEntity
  8
F-F
0
POLYLINE
5
736
100
AcDbEntity
  8
0-0
6
CONTINUOUS
62
3
100
AcDb2dPolyline
66
1
10
0
20
0
70
1
40
0.800
41
0.800
0
VERTEX
5
737
100
AcDbEntity
  8
0-0
6
CONTINUOUS
62
3
100
AcDbVertex
100
AcDb2dVertex
10
270.302
20
810.799
30
0.0
42
1.000
0
VERTEX
5
738
100
AcDbEntity
  8
0-0
6
CONTINUOUS
62
3
100
AcDbVertex
100
AcDb2dVertex
10
271.102
20
810.799
30
0.0
42
1.000
0
SEQEND
5
739
100
AcDbEntity
  8
0-0
0
POLYLINE
5
73a
100
AcDbEntity
  8
0-0
6
CONTINUOUS
62
3
100
AcDb2dPolyline
66
1
10
0
20
0
70
1
40
0.800
41
0.800
0
VERTEX
5
73b
100
AcDbEntity
  8
0-0
6
CONTINUOUS
62
3
100
AcDbVertex
100
AcDb2dVertex
10
296.302
20
810.799
30
0.0
42
1.000
0
VERTEX
5
73c
100
AcDbEntity
  8
0-0
6
CONTINUOUS
62
3
100
AcDbVertex
100
AcDb2dVertex
10
297.102
20
810.799
30
0.0
42
1.000
0
SEQEND
5
73d
100
AcDbEntity
  8
0-0
0
POLYLINE
5
73e
100
AcDbEntity
  8
0-0
6
CONTINUOUS
62
3
100
AcDb2dPolyline
66
1
10
0
20
0
70
1
40
0.800
41
0.800
0
VERTEX
5
73f
100
AcDbEntity
  8
0-0
6
CONTINUOUS
62
3
100
AcDbVertex
100
AcDb2dVertex
10
385.452
20
810.799
30
0.0
42
1.000
0
VERTEX
5
740
100
AcDbEntity
  8
0-0
6
CONTINUOUS
62
3
100
AcDbVertex
100
AcDb2dVertex
10
386.252
20
810.799
30
0.0
42
1.000
0
SEQEND
5
741
100
AcDbEntity
  8
0-0
0
POLYLINE
5
742
100
AcDbEntity
  8
0-0
6
CONTINUOUS
62
3
100
AcDb2dPolyline
66
1
10
0
20
0
70
1
40
0.800
41
0.800
0
VERTEX
5
743
100
AcDbEntity
  8
0-0
6
CONTINUOUS
62
3
100
AcDbVertex
100
AcDb2dVertex
10
446.752
20
810.799
30
0.0
42
1.000
0
VERTEX
5
744
100
AcDbEntity
  8
0-0
6
CONTINUOUS
62
3
100
AcDbVertex
100
AcDb2dVertex
10
447.552
20
810.799
30
0.0
42
1.000
0
SEQEND
5
745
100
AcDbEntity
  8
0-0
0
POLYLINE
5
746
100
AcDbEntity
  8
0-0
6
CONTINUOUS
62
3
100
AcDb2dPolyline
66
1
10
0
20
0
70
1
40
0.800
41
0.800
0
VERTEX
5
747
100
AcDbEntity
  8
0-0
6
CONTINUOUS
62
3
100
AcDbVertex
100
AcDb2dVertex
10
518.752
20
810.799
30
0.0
42
1.000
0
VERTEX
5
748
100
AcDbEntity
  8
0-0
6
CONTINUOUS
62
3
100
AcDbVertex
100
AcDb2dVertex
10
519.552
20
810.799
30
0.0
42
1.000
0
SEQEND
5
749
100
AcDbEntity
  8
0-0
0
POLYLINE
5
74a
100
AcDbEntity
  8
0-0
6
CONTINUOUS
62
3
100
AcDb2dPolyline
66
1
10
0
20
0
70
1
40
0.800
41
0.800
0
VERTEX
5
74b
100
AcDbEntity
  8
0-0
6
CONTINUOUS
62
3
100
AcDbVertex
100
AcDb2dVertex
10
282.802
20
830.800
30
0.0
42
1.000
0
VERTEX
5
74c
100
AcDbEntity
  8
0-0
6
CONTINUOUS
62
3
100
AcDbVertex
100
AcDb2dVertex
10
283.602
20
830.800
30
0.0
42
1.000
0
SEQEND
5
74d
100
AcDbEntity
  8
0-0
0
POLYLINE
5
74e
100
AcDbEntity
  8
0-0
6
CONTINUOUS
62
3
100
AcDb2dPolyline
66
1
10
0
20
0
70
1
40
0.800
41
0.800
0
VERTEX
5
74f
100
AcDbEntity
  8
0-0
6
CONTINUOUS
62
3
100
AcDbVertex
100
AcDb2dVertex
10
416.102
20
830.800
30
0.0
42
1.000
0
VERTEX
5
750
100
AcDbEntity
  8
0-0
6
CONTINUOUS
62
3
100
AcDbVertex
100
AcDb2dVertex
10
416.902
20
830.800
30
0.0
42
1.000
0
SEQEND
5
751
100
AcDbEntity
  8
0-0
0
POLYLINE
5
752
100
AcDbEntity
  8
0-0
6
CONTINUOUS
62
3
100
AcDb2dPolyline
66
1
10
0
20
0
70
1
40
0.800
41
0.800
0
VERTEX
5
753
100
AcDbEntity
  8
0-0
6
CONTINUOUS
62
3
100
AcDbVertex
100
AcDb2dVertex
10
549.402
20
830.800
30
0.0
42
1.000
0
VERTEX
5
754
100
AcDbEntity
  8
0-0
6
CONTINUOUS
62
3
100
AcDbVertex
100
AcDb2dVertex
10
550.202
20
830.800
30
0.0
42
1.000
0
SEQEND
5
755
100
AcDbEntity
  8
0-0
0
POLYLINE
5
756
100
AcDbEntity
  8
0-0
6
CONTINUOUS
62
3
100
AcDb2dPolyline
66
1
10
0
20
0
70
1
40
0.800
41
0.800
0
VERTEX
5
757
100
AcDbEntity
  8
0-0
6
CONTINUOUS
62
3
100
AcDbVertex
100
AcDb2dVertex
10
682.802
20
830.800
30
0.0
42
1.000
0
VERTEX
5
758
100
AcDbEntity
  8
0-0
6
CONTINUOUS
62
3
100
AcDbVertex
100
AcDb2dVertex
10
683.602
20
830.800
30
0.0
42
1.000
0
SEQEND
5
759
100
AcDbEntity
  8
0-0
0
POLYLINE
5
75a
100
AcDbEntity
  8
0-0
6
CONTINUOUS
62
3
100
AcDb2dPolyline
66
1
10
0
20
0
70
1
40
0.800
41
0.800
0
VERTEX
5
75b
100
AcDbEntity
  8
0-0
6
CONTINUOUS
62
3
100
AcDbVertex
100
AcDb2dVertex
10
816.202
20
830.800
30
0.0
42
1.000
0
VERTEX
5
75c
100
AcDbEntity
  8
0-0
6
CONTINUOUS
62
3
100
AcDbVertex
100
AcDb2dVertex
10
817.002
20
830.800
30
0.0
42
1.000
0
SEQEND
5
75d
100
AcDbEntity
  8
0-0
0
POLYLINE
5
75e
100
AcDbEntity
  8
0-0
6
CONTINUOUS
62
3
100
AcDb2dPolyline
66
1
10
0
20
0
70
1
40
0.800
41
0.800
0
VERTEX
5
75f
100
AcDbEntity
  8
0-0
6
CONTINUOUS
62
3
100
AcDbVertex
100
AcDb2dVertex
10
949.502
20
830.800
30
0.0
42
1.000
0
VERTEX
5
760
100
AcDbEntity
  8
0-0
6
CONTINUOUS
62
3
100
AcDbVertex
100
AcDb2dVertex
10
950.302
20
830.800
30
0.0
42
1.000
0
SEQEND
5
761
100
AcDbEntity
  8
0-0
0
POLYLINE
5
762
100
AcDbEntity
  8
0-0
6
CONTINUOUS
62
3
100
AcDb2dPolyline
66
1
10
0
20
0
70
1
40
0.800
41
0.800
0
VERTEX
5
763
100
AcDbEntity
  8
0-0
6
CONTINUOUS
62
3
100
AcDbVertex
100
AcDb2dVertex
10
1082.801
20
830.800
30
0.0
42
1.000
0
VERTEX
5
764
100
AcDbEntity
  8
0-0
6
CONTINUOUS
62
3
100
AcDbVertex
100
AcDb2dVertex
10
1083.601
20
830.800
30
0.0
42
1.000
0
SEQEND
5
765
100
AcDbEntity
  8
0-0
0
POLYLINE
5
766
100
AcDbEntity
  8
0-0
6
CONTINUOUS
62
3
100
AcDb2dPolyline
66
1
10
0
20
0
70
1
40
0.800
41
0.800
0
VERTEX
5
767
100
AcDbEntity
  8
0-0
6
CONTINUOUS
62
3
100
AcDbVertex
100
AcDb2dVertex
10
282.802
20
850.799
30
0.0
42
1.000
0
VERTEX
5
768
100
AcDbEntity
  8
0-0
6
CONTINUOUS
62
3
100
AcDbVertex
100
AcDb2dVertex
10
283.602
20
850.799
30
0.0
42
1.000
0
SEQEND
5
769
100
AcDbEntity
  8
0-0
0
POLYLINE
5
76a
100
AcDbEntity
  8
0-0
6
CONTINUOUS
62
3
100
AcDb2dPolyline
66
1
10
0
20
0
70
1
40
0.800
41
0.800
0
VERTEX
5
76b
100
AcDbEntity
  8
0-0
6
CONTINUOUS
62
3
100
AcDbVertex
100
AcDb2dVertex
10
1082.801
20
850.799
30
0.0
42
1.000
0
VERTEX
5
76c
100
AcDbEntity
  8
0-0
6
CONTINUOUS
62
3
100
AcDbVertex
100
AcDb2dVertex
10
1083.601
20
850.799
30
0.0
42
1.000
0
SEQEND
5
76d
100
AcDbEntity
  8
0-0
0
POLYLINE
5
76e
100
AcDbEntity
  8
0-0
6
CONTINUOUS
62
3
100
AcDb2dPolyline
66
1
10
0
20
0
70
1
40
0.800
41
0.800
0
VERTEX
5
76f
100
AcDbEntity
  8
0-0
6
CONTINUOUS
62
3
100
AcDbVertex
100
AcDb2dVertex
10
270.302
20
744.799
30
0.0
42
1.000
0
VERTEX
5
770
100
AcDbEntity
  8
0-0
6
CONTINUOUS
62
3
100
AcDbVertex
100
AcDb2dVertex
10
271.102
20
744.799
30
0.0
42
1.000
0
SEQEND
5
771
100
AcDbEntity
  8
0-0
0
POLYLINE
5
772
100
AcDbEntity
  8
0-0
6
CONTINUOUS
62
3
100
AcDb2dPolyline
66
1
10
0
20
0
70
1
40
0.800
41
0.800
0
VERTEX
5
773
100
AcDbEntity
  8
0-0
6
CONTINUOUS
62
3
100
AcDbVertex
100
AcDb2dVertex
10
276.251
20
744.799
30
0.0
42
1.000
0
VERTEX
5
774
100
AcDbEntity
  8
0-0
6
CONTINUOUS
62
3
100
AcDbVertex
100
AcDb2dVertex
10
277.051
20
744.799
30
0.0
42
1.000
0
SEQEND
5
775
100
AcDbEntity
  8
0-0
0
POLYLINE
5
776
100
AcDbEntity
  8
0-0
6
CONTINUOUS
62
3
100
AcDb2dPolyline
66
1
10
0
20
0
70
1
40
0.800
41
0.800
0
VERTEX
5
777
100
AcDbEntity
  8
0-0
6
CONTINUOUS
62
3
100
AcDbVertex
100
AcDb2dVertex
10
296.302
20
744.799
30
0.0
42
1.000
0
VERTEX
5
778
100
AcDbEntity
  8
0-0
6
CONTINUOUS
62
3
100
AcDbVertex
100
AcDb2dVertex
10
297.102
20
744.799
30
0.0
42
1.000
0
SEQEND
5
779
100
AcDbEntity
  8
0-0
0
POLYLINE
5
77a
100
AcDbEntity
  8
0-0
6
CONTINUOUS
62
3
100
AcDb2dPolyline
66
1
10
0
20
0
70
1
40
0.800
41
0.800
0
VERTEX
5
77b
100
AcDbEntity
  8
0-0
6
CONTINUOUS
62
3
100
AcDbVertex
100
AcDb2dVertex
10
1069.302
20
744.799
30
0.0
42
1.000
0
VERTEX
5
77c
100
AcDbEntity
  8
0-0
6
CONTINUOUS
62
3
100
AcDbVertex
100
AcDb2dVertex
10
1070.102
20
744.799
30
0.0
42
1.000
0
SEQEND
5
77d
100
AcDbEntity
  8
0-0
0
POLYLINE
5
77e
100
AcDbEntity
  8
0-0
6
CONTINUOUS
62
3
100
AcDb2dPolyline
66
1
10
0
20
0
70
1
40
0.800
41
0.800
0
VERTEX
5
77f
100
AcDbEntity
  8
0-0
6
CONTINUOUS
62
3
100
AcDbVertex
100
AcDb2dVertex
10
1096.302
20
744.799
30
0.0
42
1.000
0
VERTEX
5
780
100
AcDbEntity
  8
0-0
6
CONTINUOUS
62
3
100
AcDbVertex
100
AcDb2dVertex
10
1097.102
20
744.799
30
0.0
42
1.000
0
SEQEND
5
781
100
AcDbEntity
  8
0-0
0
POLYLINE
5
782
100
AcDbEntity
  8
0-0
6
CONTINUOUS
62
3
100
AcDb2dPolyline
66
1
10
0
20
0
70
1
40
0.800
41
0.800
0
VERTEX
5
783
100
AcDbEntity
  8
0-0
6
CONTINUOUS
62
3
100
AcDbVertex
100
AcDb2dVertex
10
1113.257
20
751.252
30
0.0
42
1.000
0
VERTEX
5
784
100
AcDbEntity
  8
0-0
6
CONTINUOUS
62
3
100
AcDbVertex
100
AcDb2dVertex
10
1114.057
20
751.252
30
0.0
42
1.000
0
SEQEND
5
785
100
AcDbEntity
  8
0-0
0
POLYLINE
5
786
100
AcDbEntity
  8
0-0
6
CONTINUOUS
62
3
100
AcDb2dPolyline
66
1
10
0
20
0
70
1
40
0.800
41
0.800
0
VERTEX
5
787
100
AcDbEntity
  8
0-0
6
CONTINUOUS
62
3
100
AcDbVertex
100
AcDb2dVertex
10
402.602
20
744.799
30
0.0
42
1.000
0
VERTEX
5
788
100
AcDbEntity
  8
0-0
6
CONTINUOUS
62
3
100
AcDbVertex
100
AcDb2dVertex
10
403.402
20
744.799
30
0.0
42
1.000
0
SEQEND
5
789
100
AcDbEntity
  8
0-0
0
POLYLINE
5
78a
100
AcDbEntity
  8
0-0
6
CONTINUOUS
62
3
100
AcDb2dPolyline
66
1
10
0
20
0
70
1
40
0.800
41
0.800
0
VERTEX
5
78b
100
AcDbEntity
  8
0-0
6
CONTINUOUS
62
3
100
AcDbVertex
100
AcDb2dVertex
10
429.602
20
744.799
30
0.0
42
1.000
0
VERTEX
5
78c
100
AcDbEntity
  8
0-0
6
CONTINUOUS
62
3
100
AcDbVertex
100
AcDb2dVertex
10
430.402
20
744.799
30
0.0
42
1.000
0
SEQEND
5
78d
100
AcDbEntity
  8
0-0
0
POLYLINE
5
78e
100
AcDbEntity
  8
0-0
6
CONTINUOUS
62
3
100
AcDb2dPolyline
66
1
10
0
20
0
70
1
40
0.800
41
0.800
0
VERTEX
5
78f
100
AcDbEntity
  8
0-0
6
CONTINUOUS
62
3
100
AcDbVertex
100
AcDb2dVertex
10
749.502
20
769.799
30
0.0
42
1.000
0
VERTEX
5
790
100
AcDbEntity
  8
0-0
6
CONTINUOUS
62
3
100
AcDbVertex
100
AcDb2dVertex
10
750.302
20
769.799
30
0.0
42
1.000
0
SEQEND
5
791
100
AcDbEntity
  8
0-0
0
POLYLINE
5
792
100
AcDbEntity
  8
0-0
6
CONTINUOUS
62
3
100
AcDb2dPolyline
66
1
10
0
20
0
70
1
40
0.800
41
0.800
0
VERTEX
5
793
100
AcDbEntity
  8
0-0
6
CONTINUOUS
62
3
100
AcDbVertex
100
AcDb2dVertex
10
749.502
20
785.799
30
0.0
42
1.000
0
VERTEX
5
794
100
AcDbEntity
  8
0-0
6
CONTINUOUS
62
3
100
AcDbVertex
100
AcDb2dVertex
10
750.302
20
785.799
30
0.0
42
1.000
0
SEQEND
5
795
100
AcDbEntity
  8
0-0
0
POLYLINE
5
796
100
AcDbEntity
  8
0-0
6
CONTINUOUS
62
3
100
AcDb2dPolyline
66
1
10
0
20
0
70
1
40
0.800
41
0.800
0
VERTEX
5
797
100
AcDbEntity
  8
0-0
6
CONTINUOUS
62
3
100
AcDbVertex
100
AcDb2dVertex
10
535.902
20
744.799
30
0.0
42
1.000
0
VERTEX
5
798
100
AcDbEntity
  8
0-0
6
CONTINUOUS
62
3
100
AcDbVertex
100
AcDb2dVertex
10
536.702
20
744.799
30
0.0
42
1.000
0
SEQEND
5
799
100
AcDbEntity
  8
0-0
0
POLYLINE
5
79a
100
AcDbEntity
  8
0-0
6
CONTINUOUS
62
3
100
AcDb2dPolyline
66
1
10
0
20
0
70
1
40
0.800
41
0.800
0
VERTEX
5
79b
100
AcDbEntity
  8
0-0
6
CONTINUOUS
62
3
100
AcDbVertex
100
AcDb2dVertex
10
296.302
20
450.799
30
0.0
42
1.000
0
VERTEX
5
79c
100
AcDbEntity
  8
0-0
6
CONTINUOUS
62
3
100
AcDbVertex
100
AcDb2dVertex
10
297.102
20
450.799
30
0.0
42
1.000
0
SEQEND
5
79d
100
AcDbEntity
  8
0-0
0
POLYLINE
5
79e
100
AcDbEntity
  8
0-0
6
CONTINUOUS
62
3
100
AcDb2dPolyline
66
1
10
0
20
0
70
1
40
0.800
41
0.800
0
VERTEX
5
79f
100
AcDbEntity
  8
0-0
6
CONTINUOUS
62
3
100
AcDbVertex
100
AcDb2dVertex
10
385.452
20
450.799
30
0.0
42
1.000
0
VERTEX
5
7a0
100
AcDbEntity
  8
0-0
6
CONTINUOUS
62
3
100
AcDbVertex
100
AcDb2dVertex
10
386.252
20
450.799
30
0.0
42
1.000
0
SEQEND
5
7a1
100
AcDbEntity
  8
0-0
0
POLYLINE
5
7a2
100
AcDbEntity
  8
0-0
6
CONTINUOUS
62
3
100
AcDb2dPolyline
66
1
10
0
20
0
70
1
40
0.800
41
0.800
0
VERTEX
5
7a3
100
AcDbEntity
  8
0-0
6
CONTINUOUS
62
3
100
AcDbVertex
100
AcDb2dVertex
10
446.752
20
450.799
30
0.0
42
1.000
0
VERTEX
5
7a4
100
AcDbEntity
  8
0-0
6
CONTINUOUS
62
3
100
AcDbVertex
100
AcDb2dVertex
10
447.552
20
450.799
30
0.0
42
1.000
0
SEQEND
5
7a5
100
AcDbEntity
  8
0-0
0
POLYLINE
5
7a6
100
AcDbEntity
  8
0-0
6
CONTINUOUS
62
3
100
AcDb2dPolyline
66
1
10
0
20
0
70
1
40
0.800
41
0.800
0
VERTEX
5
7a7
100
AcDbEntity
  8
0-0
6
CONTINUOUS
62
3
100
AcDbVertex
100
AcDb2dVertex
10
518.752
20
450.799
30
0.0
42
1.000
0
VERTEX
5
7a8
100
AcDbEntity
  8
0-0
6
CONTINUOUS
62
3
100
AcDbVertex
100
AcDb2dVertex
10
519.552
20
450.799
30
0.0
42
1.000
0
SEQEND
5
7a9
100
AcDbEntity
  8
0-0
0
POLYLINE
5
7aa
100
AcDbEntity
  8
0-0
6
CONTINUOUS
62
3
100
AcDb2dPolyline
66
1
10
0
20
0
70
1
40
0.800
41
0.800
0
VERTEX
5
7ab
100
AcDbEntity
  8
0-0
6
CONTINUOUS
62
3
100
AcDbVertex
100
AcDb2dVertex
10
282.802
20
470.799
30
0.0
42
1.000
0
VERTEX
5
7ac
100
AcDbEntity
  8
0-0
6
CONTINUOUS
62
3
100
AcDbVertex
100
AcDb2dVertex
10
283.602
20
470.799
30
0.0
42
1.000
0
SEQEND
5
7ad
100
AcDbEntity
  8
0-0
0
POLYLINE
5
7ae
100
AcDbEntity
  8
0-0
6
CONTINUOUS
62
3
100
AcDb2dPolyline
66
1
10
0
20
0
70
1
40
0.800
41
0.800
0
VERTEX
5
7af
100
AcDbEntity
  8
0-0
6
CONTINUOUS
62
3
100
AcDbVertex
100
AcDb2dVertex
10
416.102
20
470.799
30
0.0
42
1.000
0
VERTEX
5
7b0
100
AcDbEntity
  8
0-0
6
CONTINUOUS
62
3
100
AcDbVertex
100
AcDb2dVertex
10
416.902
20
470.799
30
0.0
42
1.000
0
SEQEND
5
7b1
100
AcDbEntity
  8
0-0
0
POLYLINE
5
7b2
100
AcDbEntity
  8
0-0
6
CONTINUOUS
62
3
100
AcDb2dPolyline
66
1
10
0
20
0
70
1
40
0.800
41
0.800
0
VERTEX
5
7b3
100
AcDbEntity
  8
0-0
6
CONTINUOUS
62
3
100
AcDbVertex
100
AcDb2dVertex
10
549.402
20
470.799
30
0.0
42
1.000
0
VERTEX
5
7b4
100
AcDbEntity
  8
0-0
6
CONTINUOUS
62
3
100
AcDbVertex
100
AcDb2dVertex
10
550.202
20
470.799
30
0.0
42
1.000
0
SEQEND
5
7b5
100
AcDbEntity
  8
0-0
0
POLYLINE
5
7b6
100
AcDbEntity
  8
0-0
6
CONTINUOUS
62
3
100
AcDb2dPolyline
66
1
10
0
20
0
70
1
40
0.800
41
0.800
0
VERTEX
5
7b7
100
AcDbEntity
  8
0-0
6
CONTINUOUS
62
3
100
AcDbVertex
100
AcDb2dVertex
10
682.802
20
470.799
30
0.0
42
1.000
0
VERTEX
5
7b8
100
AcDbEntity
  8
0-0
6
CONTINUOUS
62
3
100
AcDbVertex
100
AcDb2dVertex
10
683.602
20
470.799
30
0.0
42
1.000
0
SEQEND
5
7b9
100
AcDbEntity
  8
0-0
0
POLYLINE
5
7ba
100
AcDbEntity
  8
0-0
6
CONTINUOUS
62
3
100
AcDb2dPolyline
66
1
10
0
20
0
70
1
40
0.800
41
0.800
0
VERTEX
5
7bb
100
AcDbEntity
  8
0-0
6
CONTINUOUS
62
3
100
AcDbVertex
100
AcDb2dVertex
10
816.202
20
470.799
30
0.0
42
1.000
0
VERTEX
5
7bc
100
AcDbEntity
  8
0-0
6
CONTINUOUS
62
3
100
AcDbVertex
100
AcDb2dVertex
10
817.002
20
470.799
30
0.0
42
1.000
0
SEQEND
5
7bd
100
AcDbEntity
  8
0-0
0
POLYLINE
5
7be
100
AcDbEntity
  8
0-0
6
CONTINUOUS
62
3
100
AcDb2dPolyline
66
1
10
0
20
0
70
1
40
0.800
41
0.800
0
VERTEX
5
7bf
100
AcDbEntity
  8
0-0
6
CONTINUOUS
62
3
100
AcDbVertex
100
AcDb2dVertex
10
949.502
20
470.799
30
0.0
42
1.000
0
VERTEX
5
7c0
100
AcDbEntity
  8
0-0
6
CONTINUOUS
62
3
100
AcDbVertex
100
AcDb2dVertex
10
950.302
20
470.799
30
0.0
42
1.000
0
SEQEND
5
7c1
100
AcDbEntity
  8
0-0
0
POLYLINE
5
7c2
100
AcDbEntity
  8
0-0
6
CONTINUOUS
62
3
100
AcDb2dPolyline
66
1
10
0
20
0
70
1
40
0.800
41
0.800
0
VERTEX
5
7c3
100
AcDbEntity
  8
0-0
6
CONTINUOUS
62
3
100
AcDbVertex
100
AcDb2dVertex
10
1082.801
20
470.799
30
0.0
42
1.000
0
VERTEX
5
7c4
100
AcDbEntity
  8
0-0
6
CONTINUOUS
62
3
100
AcDbVertex
100
AcDb2dVertex
10
1083.601
20
470.799
30
0.0
42
1.000
0
SEQEND
5
7c5
100
AcDbEntity
  8
0-0
0
POLYLINE
5
7c6
100
AcDbEntity
  8
0-0
6
CONTINUOUS
62
3
100
AcDb2dPolyline
66
1
10
0
20
0
70
1
40
0.800
41
0.800
0
VERTEX
5
7c7
100
AcDbEntity
  8
0-0
6
CONTINUOUS
62
3
100
AcDbVertex
100
AcDb2dVertex
10
282.802
20
490.799
30
0.0
42
1.000
0
VERTEX
5
7c8
100
AcDbEntity
  8
0-0
6
CONTINUOUS
62
3
100
AcDbVertex
100
AcDb2dVertex
10
283.602
20
490.799
30
0.0
42
1.000
0
SEQEND
5
7c9
100
AcDbEntity
  8
0-0
0
POLYLINE
5
7ca
100
AcDbEntity
  8
0-0
6
CONTINUOUS
62
3
100
AcDb2dPolyline
66
1
10
0
20
0
70
1
40
0.800
41
0.800
0
VERTEX
5
7cb
100
AcDbEntity
  8
0-0
6
CONTINUOUS
62
3
100
AcDbVertex
100
AcDb2dVertex
10
1082.801
20
490.799
30
0.0
42
1.000
0
VERTEX
5
7cc
100
AcDbEntity
  8
0-0
6
CONTINUOUS
62
3
100
AcDbVertex
100
AcDb2dVertex
10
1083.601
20
490.799
30
0.0
42
1.000
0
SEQEND
5
7cd
100
AcDbEntity
  8
0-0
0
POLYLINE
5
7ce
100
AcDbEntity
  8
0-0
6
CONTINUOUS
62
3
100
AcDb2dPolyline
66
1
10
0
20
0
70
1
40
0.800
41
0.800
0
VERTEX
5
7cf
100
AcDbEntity
  8
0-0
6
CONTINUOUS
62
3
100
AcDbVertex
100
AcDb2dVertex
10
276.251
20
384.799
30
0.0
42
1.000
0
VERTEX
5
7d0
100
AcDbEntity
  8
0-0
6
CONTINUOUS
62
3
100
AcDbVertex
100
AcDb2dVertex
10
277.051
20
384.799
30
0.0
42
1.000
0
SEQEND
5
7d1
100
AcDbEntity
  8
0-0
0
POLYLINE
5
7d2
100
AcDbEntity
  8
0-0
6
CONTINUOUS
62
3
100
AcDb2dPolyline
66
1
10
0
20
0
70
1
40
0.800
41
0.800
0
VERTEX
5
7d3
100
AcDbEntity
  8
0-0
6
CONTINUOUS
62
3
100
AcDbVertex
100
AcDb2dVertex
10
296.302
20
384.799
30
0.0
42
1.000
0
VERTEX
5
7d4
100
AcDbEntity
  8
0-0
6
CONTINUOUS
62
3
100
AcDbVertex
100
AcDb2dVertex
10
297.102
20
384.799
30
0.0
42
1.000
0
SEQEND
5
7d5
100
AcDbEntity
  8
0-0
0
POLYLINE
5
7d6
100
AcDbEntity
  8
0-0
6
CONTINUOUS
62
3
100
AcDb2dPolyline
66
1
10
0
20
0
70
1
40
0.800
41
0.800
0
VERTEX
5
7d7
100
AcDbEntity
  8
0-0
6
CONTINUOUS
62
3
100
AcDbVertex
100
AcDb2dVertex
10
1069.302
20
384.799
30
0.0
42
1.000
0
VERTEX
5
7d8
100
AcDbEntity
  8
0-0
6
CONTINUOUS
62
3
100
AcDbVertex
100
AcDb2dVertex
10
1070.102
20
384.799
30
0.0
42
1.000
0
SEQEND
5
7d9
100
AcDbEntity
  8
0-0
0
POLYLINE
5
7da
100
AcDbEntity
  8
0-0
6
CONTINUOUS
62
3
100
AcDb2dPolyline
66
1
10
0
20
0
70
1
40
0.800
41
0.800
0
VERTEX
5
7db
100
AcDbEntity
  8
0-0
6
CONTINUOUS
62
3
100
AcDbVertex
100
AcDb2dVertex
10
1096.302
20
384.799
30
0.0
42
1.000
0
VERTEX
5
7dc
100
AcDbEntity
  8
0-0
6
CONTINUOUS
62
3
100
AcDbVertex
100
AcDb2dVertex
10
1097.102
20
384.799
30
0.0
42
1.000
0
SEQEND
5
7dd
100
AcDbEntity
  8
0-0
0
POLYLINE
5
7de
100
AcDbEntity
  8
0-0
6
CONTINUOUS
62
3
100
AcDb2dPolyline
66
1
10
0
20
0
70
1
40
0.800
41
0.800
0
VERTEX
5
7df
100
AcDbEntity
  8
0-0
6
CONTINUOUS
62
3
100
AcDbVertex
100
AcDb2dVertex
10
402.602
20
384.799
30
0.0
42
1.000
0
VERTEX
5
7e0
100
AcDbEntity
  8
0-0
6
CONTINUOUS
62
3
100
AcDbVertex
100
AcDb2dVertex
10
403.402
20
384.799
30
0.0
42
1.000
0
SEQEND
5
7e1
100
AcDbEntity
  8
0-0
0
POLYLINE
5
7e2
100
AcDbEntity
  8
0-0
6
CONTINUOUS
62
3
100
AcDb2dPolyline
66
1
10
0
20
0
70
1
40
0.800
41
0.800
0
VERTEX
5
7e3
100
AcDbEntity
  8
0-0
6
CONTINUOUS
62
3
100
AcDbVertex
100
AcDb2dVertex
10
429.602
20
384.799
30
0.0
42
1.000
0
VERTEX
5
7e4
100
AcDbEntity
  8
0-0
6
CONTINUOUS
62
3
100
AcDbVertex
100
AcDb2dVertex
10
430.402
20
384.799
30
0.0
42
1.000
0
SEQEND
5
7e5
100
AcDbEntity
  8
0-0
0
POLYLINE
5
7e6
100
AcDbEntity
  8
0-0
6
CONTINUOUS
62
3
100
AcDb2dPolyline
66
1
10
0
20
0
70
1
40
0.800
41
0.800
0
VERTEX
5
7e7
100
AcDbEntity
  8
0-0
6
CONTINUOUS
62
3
100
AcDbVertex
100
AcDb2dVertex
10
749.502
20
409.799
30
0.0
42
1.000
0
VERTEX
5
7e8
100
AcDbEntity
  8
0-0
6
CONTINUOUS
62
3
100
AcDbVertex
100
AcDb2dVertex
10
750.302
20
409.799
30
0.0
42
1.000
0
SEQEND
5
7e9
100
AcDbEntity
  8
0-0
0
POLYLINE
5
7ea
100
AcDbEntity
  8
0-0
6
CONTINUOUS
62
3
100
AcDb2dPolyline
66
1
10
0
20
0
70
1
40
0.800
41
0.800
0
VERTEX
5
7eb
100
AcDbEntity
  8
0-0
6
CONTINUOUS
62
3
100
AcDbVertex
100
AcDb2dVertex
10
749.502
20
424.299
30
0.0
42
1.000
0
VERTEX
5
7ec
100
AcDbEntity
  8
0-0
6
CONTINUOUS
62
3
100
AcDbVertex
100
AcDb2dVertex
10
750.302
20
424.299
30
0.0
42
1.000
0
SEQEND
5
7ed
100
AcDbEntity
  8
0-0
0
POLYLINE
5
7ee
100
AcDbEntity
  8
0-0
6
CONTINUOUS
62
3
100
AcDb2dPolyline
66
1
10
0
20
0
70
1
40
0.800
41
0.800
0
VERTEX
5
7ef
100
AcDbEntity
  8
0-0
6
CONTINUOUS
62
3
100
AcDbVertex
100
AcDb2dVertex
10
535.902
20
384.799
30
0.0
42
1.000
0
VERTEX
5
7f0
100
AcDbEntity
  8
0-0
6
CONTINUOUS
62
3
100
AcDbVertex
100
AcDb2dVertex
10
536.702
20
384.799
30
0.0
42
1.000
0
SEQEND
5
7f1
100
AcDbEntity
  8
0-0
0
POLYLINE
5
7f2
100
AcDbEntity
  8
0-0
6
CONTINUOUS
62
3
100
AcDb2dPolyline
66
1
10
0
20
0
70
1
40
0.800
41
0.800
0
VERTEX
5
7f3
100
AcDbEntity
  8
0-0
6
CONTINUOUS
62
3
100
AcDbVertex
100
AcDb2dVertex
10
580.152
20
450.799
30
0.0
42
1.000
0
VERTEX
5
7f4
100
AcDbEntity
  8
0-0
6
CONTINUOUS
62
3
100
AcDbVertex
100
AcDb2dVertex
10
580.952
20
450.799
30
0.0
42
1.000
0
SEQEND
5
7f5
100
AcDbEntity
  8
0-0
0
POLYLINE
5
7f6
100
AcDbEntity
  8
0-0
6
CONTINUOUS
62
3
100
AcDb2dPolyline
66
1
10
0
20
0
70
1
40
0.800
41
0.800
0
VERTEX
5
7f7
100
AcDbEntity
  8
0-0
6
CONTINUOUS
62
3
100
AcDbVertex
100
AcDb2dVertex
10
652.152
20
450.799
30
0.0
42
1.000
0
VERTEX
5
7f8
100
AcDbEntity
  8
0-0
6
CONTINUOUS
62
3
100
AcDbVertex
100
AcDb2dVertex
10
652.952
20
450.799
30
0.0
42
1.000
0
SEQEND
5
7f9
100
AcDbEntity
  8
0-0
0
POLYLINE
5
7fa
100
AcDbEntity
  8
0-0
6
CONTINUOUS
62
3
100
AcDb2dPolyline
66
1
10
0
20
0
70
1
40
0.800
41
0.800
0
VERTEX
5
7fb
100
AcDbEntity
  8
0-0
6
CONTINUOUS
62
3
100
AcDbVertex
100
AcDb2dVertex
10
595.152
20
450.799
30
0.0
42
1.000
0
VERTEX
5
7fc
100
AcDbEntity
  8
0-0
6
CONTINUOUS
62
3
100
AcDbVertex
100
AcDb2dVertex
10
595.952
20
450.799
30
0.0
42
1.000
0
SEQEND
5
7fd
100
AcDbEntity
  8
0-0
0
POLYLINE
5
7fe
100
AcDbEntity
  8
0-0
6
CONTINUOUS
62
3
100
AcDb2dPolyline
66
1
10
0
20
0
70
1
40
0.800
41
0.800
0
VERTEX
5
7ff
100
AcDbEntity
  8
0-0
6
CONTINUOUS
62
3
100
AcDbVertex
100
AcDb2dVertex
10
637.152
20
450.799
30
0.0
42
1.000
0
VERTEX
5
800
100
AcDbEntity
  8
0-0
6
CONTINUOUS
62
3
100
AcDbVertex
100
AcDb2dVertex
10
637.952
20
450.799
30
0.0
42
1.000
0
SEQEND
5
801
100
AcDbEntity
  8
0-0
0
POLYLINE
5
802
100
AcDbEntity
  8
0-0
6
CONTINUOUS
62
3
100
AcDb2dPolyline
66
1
10
0
20
0
70
1
40
0.800
41
0.800
0
VERTEX
5
803
100
AcDbEntity
  8
0-0
6
CONTINUOUS
62
3
100
AcDbVertex
100
AcDb2dVertex
10
749.502
20
425.799
30
0.0
42
1.000
0
VERTEX
5
804
100
AcDbEntity
  8
0-0
6
CONTINUOUS
62
3
100
AcDbVertex
100
AcDb2dVertex
10
750.302
20
425.799
30
0.0
42
1.000
0
SEQEND
5
805
100
AcDbEntity
  8
0-0
0
POLYLINE
5
806
100
AcDbEntity
  8
0-0
6
CONTINUOUS
62
3
100
AcDb2dPolyline
66
1
10
0
20
0
70
1
40
0.800
41
0.800
0
VERTEX
5
807
100
AcDbEntity
  8
0-0
6
CONTINUOUS
62
3
100
AcDbVertex
100
AcDb2dVertex
10
270.302
20
450.799
30
0.0
42
1.000
0
VERTEX
5
808
100
AcDbEntity
  8
0-0
6
CONTINUOUS
62
3
100
AcDbVertex
100
AcDb2dVertex
10
271.102
20
450.799
30
0.0
42
1.000
0
SEQEND
5
809
100
AcDbEntity
  8
0-0
0
POLYLINE
5
80a
100
AcDbEntity
  8
0-0
6
CONTINUOUS
62
3
100
AcDb2dPolyline
66
1
10
0
20
0
70
1
40
0.800
41
0.800
0
VERTEX
5
80b
100
AcDbEntity
  8
0-0
6
CONTINUOUS
62
3
100
AcDbVertex
100
AcDb2dVertex
10
270.302
20
384.799
30
0.0
42
1.000
0
VERTEX
5
80c
100
AcDbEntity
  8
0-0
6
CONTINUOUS
62
3
100
AcDbVertex
100
AcDb2dVertex
10
271.102
20
384.799
30
0.0
42
1.000
0
SEQEND
5
80d
100
AcDbEntity
  8
0-0
0
POLYLINE
5
80e
100
AcDbEntity
  8
0-0
6
CONTINUOUS
62
3
100
AcDb2dPolyline
66
1
10
0
20
0
70
1
40
0.800
41
0.800
0
VERTEX
5
80f
100
AcDbEntity
  8
0-0
6
CONTINUOUS
62
3
100
AcDbVertex
100
AcDb2dVertex
10
1120.676
20
757.957
30
0.0
42
1.000
0
VERTEX
5
810
100
AcDbEntity
  8
0-0
6
CONTINUOUS
62
3
100
AcDbVertex
100
AcDb2dVertex
10
1121.476
20
757.957
30
0.0
42
1.000
0
SEQEND
5
811
100
AcDbEntity
  8
0-0
0
POLYLINE
5
812
100
AcDbEntity
  8
0-0
6
CONTINUOUS
62
3
100
AcDb2dPolyline
66
1
10
0
20
0
70
1
40
0.800
41
0.800
0
VERTEX
5
813
100
AcDbEntity
  8
0-0
6
CONTINUOUS
62
3
100
AcDbVertex
100
AcDb2dVertex
10
1124.950
20
762.966
30
0.0
42
1.000
0
VERTEX
5
814
100
AcDbEntity
  8
0-0
6
CONTINUOUS
62
3
100
AcDbVertex
100
AcDb2dVertex
10
1125.750
20
762.966
30
0.0
42
1.000
0
SEQEND
5
815
100
AcDbEntity
  8
0-0
0
POLYLINE
5
816
100
AcDbEntity
  8
0-0
6
CONTINUOUS
62
3
100
AcDb2dPolyline
66
1
10
0
20
0
70
1
40
0.800
41
0.800
0
VERTEX
5
817
100
AcDbEntity
  8
0-0
6
CONTINUOUS
62
3
100
AcDbVertex
100
AcDb2dVertex
10
1130.405
20
771.347
30
0.0
42
1.000
0
VERTEX
5
818
100
AcDbEntity
  8
0-0
6
CONTINUOUS
62
3
100
AcDbVertex
100
AcDb2dVertex
10
1131.205
20
771.347
30
0.0
42
1.000
0
SEQEND
5
819
100
AcDbEntity
  8
0-0
0
POLYLINE
5
81a
100
AcDbEntity
  8
0-0
6
CONTINUOUS
62
3
100
AcDb2dPolyline
66
1
10
0
20
0
70
1
40
0.800
41
0.800
0
VERTEX
5
81b
100
AcDbEntity
  8
0-0
6
CONTINUOUS
62
3
100
AcDbVertex
100
AcDb2dVertex
10
1113.257
20
391.252
30
0.0
42
1.000
0
VERTEX
5
81c
100
AcDbEntity
  8
0-0
6
CONTINUOUS
62
3
100
AcDbVertex
100
AcDb2dVertex
10
1114.057
20
391.252
30
0.0
42
1.000
0
SEQEND
5
81d
100
AcDbEntity
  8
0-0
0
POLYLINE
5
81e
100
AcDbEntity
  8
0-0
6
CONTINUOUS
62
3
100
AcDb2dPolyline
66
1
10
0
20
0
70
1
40
0.800
41
0.800
0
VERTEX
5
81f
100
AcDbEntity
  8
0-0
6
CONTINUOUS
62
3
100
AcDbVertex
100
AcDb2dVertex
10
1120.676
20
397.957
30
0.0
42
1.000
0
VERTEX
5
820
100
AcDbEntity
  8
0-0
6
CONTINUOUS
62
3
100
AcDbVertex
100
AcDb2dVertex
10
1121.476
20
397.957
30
0.0
42
1.000
0
SEQEND
5
821
100
AcDbEntity
  8
0-0
0
POLYLINE
5
822
100
AcDbEntity
  8
0-0
6
CONTINUOUS
62
3
100
AcDb2dPolyline
66
1
10
0
20
0
70
1
40
0.800
41
0.800
0
VERTEX
5
823
100
AcDbEntity
  8
0-0
6
CONTINUOUS
62
3
100
AcDbVertex
100
AcDb2dVertex
10
1124.950
20
402.965
30
0.0
42
1.000
0
VERTEX
5
824
100
AcDbEntity
  8
0-0
6
CONTINUOUS
62
3
100
AcDbVertex
100
AcDb2dVertex
10
1125.750
20
402.965
30
0.0
42
1.000
0
SEQEND
5
825
100
AcDbEntity
  8
0-0
0
POLYLINE
5
826
100
AcDbEntity
  8
0-0
6
CONTINUOUS
62
3
100
AcDb2dPolyline
66
1
10
0
20
0
70
1
40
0.800
41
0.800
0
VERTEX
5
827
100
AcDbEntity
  8
0-0
6
CONTINUOUS
62
3
100
AcDbVertex
100
AcDb2dVertex
10
1130.405
20
411.347
30
0.0
42
1.000
0
VERTEX
5
828
100
AcDbEntity
  8
0-0
6
CONTINUOUS
62
3
100
AcDbVertex
100
AcDb2dVertex
10
1131.205
20
411.347
30
0.0
42
1.000
0
SEQEND
5
829
100
AcDbEntity
  8
0-0
0
POLYLINE
5
82a
100
AcDbEntity
  8
0-0
6
CONTINUOUS
62
3
100
AcDb2dPolyline
66
1
10
0
20
0
70
1
40
0.800
41
0.800
0
VERTEX
5
82b
100
AcDbEntity
  8
0-0
6
CONTINUOUS
62
3
100
AcDbVertex
100
AcDb2dVertex
10
1363.447
20
538.784
30
0.0
42
1.000
0
VERTEX
5
82c
100
AcDbEntity
  8
0-0
6
CONTINUOUS
62
3
100
AcDbVertex
100
AcDb2dVertex
10
1364.247
20
538.784
30
0.0
42
1.000
0
SEQEND
5
82d
100
AcDbEntity
  8
0-0
0
POLYLINE
5
82e
100
AcDbEntity
  8
0-0
6
CONTINUOUS
62
3
100
AcDb2dPolyline
66
1
10
0
20
0
70
1
40
0.800
41
0.800
0
VERTEX
5
82f
100
AcDbEntity
  8
0-0
6
CONTINUOUS
62
3
100
AcDbVertex
100
AcDb2dVertex
10
1424.747
20
538.784
30
0.0
42
1.000
0
VERTEX
5
830
100
AcDbEntity
  8
0-0
6
CONTINUOUS
62
3
100
AcDbVertex
100
AcDb2dVertex
10
1425.547
20
538.784
30
0.0
42
1.000
0
SEQEND
5
831
100
AcDbEntity
  8
0-0
0
POLYLINE
5
832
100
AcDbEntity
  8
0-0
6
CONTINUOUS
62
3
100
AcDb2dPolyline
66
1
10
0
20
0
70
1
40
0.800
41
0.800
0
VERTEX
5
833
100
AcDbEntity
  8
0-0
6
CONTINUOUS
62
3
100
AcDbVertex
100
AcDb2dVertex
10
1380.597
20
472.784
30
0.0
42
1.000
0
VERTEX
5
834
100
AcDbEntity
  8
0-0
6
CONTINUOUS
62
3
100
AcDbVertex
100
AcDb2dVertex
10
1381.397
20
472.784
30
0.0
42
1.000
0
SEQEND
5
835
100
AcDbEntity
  8
0-0
0
POLYLINE
5
836
100
AcDbEntity
  8
0-0
6
CONTINUOUS
62
3
100
AcDb2dPolyline
66
1
10
0
20
0
70
1
40
0.800
41
0.800
0
VERTEX
5
837
100
AcDbEntity
  8
0-0
6
CONTINUOUS
62
3
100
AcDbVertex
100
AcDb2dVertex
10
1407.597
20
472.784
30
0.0
42
1.000
0
VERTEX
5
838
100
AcDbEntity
  8
0-0
6
CONTINUOUS
62
3
100
AcDbVertex
100
AcDb2dVertex
10
1408.397
20
472.784
30
0.0
42
1.000
0
SEQEND
5
839
100
AcDbEntity
  8
0-0
0
POLYLINE
5
83a
100
AcDbEntity
  8
0-0
6
CONTINUOUS
62
3
100
AcDb2dPolyline
66
1
10
0
20
0
70
1
40
0.800
41
0.800
0
VERTEX
5
83b
100
AcDbEntity
  8
0-0
6
CONTINUOUS
62
3
100
AcDbVertex
100
AcDb2dVertex
10
1448.804
20
497.784
30
0.0
42
1.000
0
VERTEX
5
83c
100
AcDbEntity
  8
0-0
6
CONTINUOUS
62
3
100
AcDbVertex
100
AcDb2dVertex
10
1449.604
20
497.784
30
0.0
42
1.000
0
SEQEND
5
83d
100
AcDbEntity
  8
0-0
0
POLYLINE
5
83e
100
AcDbEntity
  8
0-0
6
CONTINUOUS
62
3
100
AcDb2dPolyline
66
1
10
0
20
0
70
1
40
0.800
41
0.800
0
VERTEX
5
83f
100
AcDbEntity
  8
0-0
6
CONTINUOUS
62
3
100
AcDbVertex
100
AcDb2dVertex
10
1448.804
20
513.784
30
0.0
42
1.000
0
VERTEX
5
840
100
AcDbEntity
  8
0-0
6
CONTINUOUS
62
3
100
AcDbVertex
100
AcDb2dVertex
10
1449.604
20
513.784
30
0.0
42
1.000
0
SEQEND
5
841
100
AcDbEntity
  8
0-0
0
ENDSEC
 0
SECTION
  2
OBJECTS
 0
DICTIONARY
  5
C
100
AcDbDictionary
  3
ACAD_GROUP
350
D
  3
ACAD_MLINESTYLE
350
E
 0
DICTIONARY
  5
D
102
{ACAD_REACTORS
102
}
100
AcDbDictionary
 0
DICTIONARY
  5
E
102
{ACAD_REACTORS
102
}
100
AcDbDictionary
  3
STANDARD
350
13
0
MLINESTYLE
  5
13
102
{ACAD_REACTORS
102
}
100
AcDbMlineStyle
  2
STANDARD
 70
    0
3

62
256
51
90.0
52
90.0
71
0
0
ACDBPLACEHOLDER
  5
14
102
{ACAD_REACTORS
102
}
0
ENDSEC
0
EOF
