0
SECTION
2
HEADER
9
$ACADVER
1
AC1015
9
$ACADMAINTVER
 70
6
9
$DWGCODEPAGE
3
ANSI_932
9
$EXTMIN
10
0.000
20
0.000
30
0.0
9
$EXTMAX
10
1682.000
20
1188.000
30
0.0
9
$LIMMIN
10
0.000
20
0.000
9
$LIMMAX
10
1682.000
20
1188.000
9
$DIMSCALE
40
2.000000
9
$LTSCALE
40
2.000
9
$PDMODE
70
0
9
$PDSIZE
40
40.0
9
$HANDSEED
5
61e45
9
$UNITMODE
70
0
9
$VISRETAIN
70
0
9
$PLINEGEN
70
0
9
$PSLTSCALE
70
1
9
$TREEDEPTH
70
3020
9
$CMLSTYLE
2
STANDARD
9
$CMLJUST
70
0
9
$CMLSCALE
40
1.0
9
$PROXYGRAPHICS
70
1
9
$MEASUREMENT
70
0
9
$CELWEIGHT
370
-1
9
$ENDCAPS
280
0
9
$JOINSTYLE
280
0
9
$LWDISPLAY
290
0
9
$INSUNITS
70
0
9
$HYPERLINKBASE
1

9
$STYLESHEET
1

9
$XEDIT
290
1
9
$CEPSNTYPE
380
0
9
$PSTYLEMODE
290
1
9
$FINGERPRINTGUID
2
{5F082321-0195-11D3-BDFB-0060B0CD5109}
9
$VERSIONGUID
2
{12943756-294D-11D3-98C2-0060B087942D}
9
$EXTNAMES
290
1
9
$PSVPSCALE
40
0.0
9
$OLESTARTUP
290
0
0
ENDSEC
0
SECTION
  2
CLASSES
0
ENDSEC
0
SECTION
2
TABLES
0
TABLE
2
VPORT
5
190
100
AcDbSymbolTable
70
2
0
VPORT
5
191
100
AcDbSymbolTableRecord
100
AcDbViewportTableRecord
2
*ACTIVE
70
0
10
0.0
20
0.0
11
1.0
21
1.0
12
841.000
22
594.000
13
0.0
23
0.0
14
1.0
24
1.0
15
0.0
25
0.0
16
0.0
26
0.0
36
1.0
17
0.0
27
0.0
37
0.0
40
1218.841
41
2.0
42
50.0
43
0.0
44
0.0
50
0.0
51
0.0
71
0
72
1000
73
1
74
1
75
0
76
0
77
0
78
0
0
ENDTAB
0
TABLE
2
LTYPE
5
1f4
100
AcDbSymbolTable
70
9
0
LTYPE
5
1f5
100
AcDbSymbolTableRecord
100
AcDbLinetypeTableRecord
2
BYBLOCK
70
 64
3

72
 65
73
  0
40
0.0
0
LTYPE
5
1f6
100
AcDbSymbolTableRecord
100
AcDbLinetypeTableRecord
2
BYLAYER
70
 64
3

72
 65
73
  0
40
0.0
0
LTYPE
5
1f7
100
AcDbSymbolTableRecord
100
AcDbLinetypeTableRecord
2
CONTINUOUS
70
64
3
SolidLine
72
65
73
0
40
0.0
0
LTYPE
5
1f8
100
AcDbSymbolTableRecord
100
AcDbLinetypeTableRecord
2
DOT
70
64
3
--  --  --  --  --  --  --  --     
72
65
73
2
40
3.000
49
1.000
74
0
49
-2.000
74
0
0
LTYPE
5
1f9
100
AcDbSymbolTableRecord
100
AcDbLinetypeTableRecord
2
DASHED
70
64
3
----    ----    ----    ----    
72
65
73
2
40
5.000
49
2.000
74
0
49
-3.000
74
0
0
LTYPE
5
1fa
100
AcDbSymbolTableRecord
100
AcDbLinetypeTableRecord
2
DASHED2
70
64
3
------  ------  ------  ------ 
72
65
73
2
40
10.000
49
4.000
74
0
49
-6.000
74
0
0
LTYPE
5
1fb
100
AcDbSymbolTableRecord
100
AcDbLinetypeTableRecord
2
CENTER
70
64
3
----- - ----- - ----- - ----- - 
72
65
73
4
40
10.000
49
6.000
74
0
49
-3.000
74
0
49
1.000
74
0
49
-3.000
74
0
0
LTYPE
5
1fc
100
AcDbSymbolTableRecord
100
AcDbLinetypeTableRecord
2
CENTER2
70
64
3
----------  --  ----------  -- 
72
65
73
4
40
17.000
49
12.000
74
0
49
-5.000
74
0
49
2.000
74
0
49
-5.000
74
0
0
LTYPE
5
1fd
100
AcDbSymbolTableRecord
100
AcDbLinetypeTableRecord
2
PHANTOM
70
64
3
--- - - --- - - --- - - --- - -
72
65
73
6
40
13.000
49
5.000
74
0
49
-3.000
74
0
49
1.000
74
0
49
-3.000
74
0
49
1.000
74
0
49
-3.000
74
0
0
LTYPE
5
1fe
100
AcDbSymbolTableRecord
100
AcDbLinetypeTableRecord
2
PHANTOM2
70
64
3
--------  -  -  --------  -  -
72
65
73
6
40
20.000
49
6.000
74
0
49
-5.000
74
0
49
2.000
74
0
49
-5.000
74
0
49
2.000
74
0
49
-5.000
74
0
0
LTYPE
5
1ff
100
AcDbSymbolTableRecord
100
AcDbLinetypeTableRecord
2
HIDDEN
70
64
3
-   -   -   -   -   -   -   -   
72
65
73
2
40
3.000
49
0.500
74
0
49
-2.500
74
0
0
ENDTAB
0
TABLE
2
STYLE
5
200
100
AcDbSymbolTable
70
1
0
STYLE
5
201
100
AcDbSymbolTableRecord
100
AcDbTextStyleTableRecord
2
STANDARD
70
0
40
0.0
41
1.0
50
0.0
71
0
42
0.0
3
txt.shx
4
extfont.shx
0
STYLE
5
202
100
AcDbSymbolTableRecord
100
AcDbTextStyleTableRecord
2
TATEGAKI
70
4
40
0.0
41
1.0
50
0.0
71
0
42
0.0
3
txt.shx
4
extfont.shx
0
STYLE
5
203
100
AcDbSymbolTableRecord
100
AcDbTextStyleTableRecord
2
DIM
70
0
40
0.0
41
0.75
50
0.0
71
0
42
0.0
3
txt.shx
4
extfont.shx
0
STYLE
5
204
100
AcDbSymbolTableRecord
100
AcDbTextStyleTableRecord
2
_Gothic_
70
0
40
1.0
41
1.0
50
0.0
71
0
42
10.0
3

4

1001
ACAD
1000
MS Gothic
1071
32817
0
STYLE
5
205
100
AcDbSymbolTableRecord
100
AcDbTextStyleTableRecord
2
_TateGothic_
70
4
40
0.0
41
1.0
50
0.0
71
0
42
0.0
3
@MS Gothic
4

0
ENDTAB
0
TABLE
2
VIEW
5
206
100
AcDbSymbolTable
70
0
0
ENDTAB
0
TABLE
2
UCS
5
207
100
AcDbSymbolTable
70
0
0
ENDTAB
0
TABLE
2
APPID
5
208
100
AcDbSymbolTable
70
1
0
APPID
5
209
100
AcDbSymbolTableRecord
100
AcDbRegAppTableRecord
2
ACAD
70
0
0
ENDTAB
0
TABLE
2
DIMSTYLE
5
403
330
0
100
AcDbSymbolTable
70
1
100
AcDbDimStyleTable
71
0
0
DIMSTYLE
105
404
330
402
100
AcDbSymbolTableRecord
100
AcDbDimStyleTableRecord
2
JAC_DIM
70
0
41
4.000
42
0.000
44
0.0
73
0
74
0
77
1
78
8
79
2
140
0.000
170
0
171
2
172
0
173
0
174
0
175
0
176
0
177
0
178
0
270
2
271
0
272
0
273
2
274
2
340
201
275
0
280
0
281
0
282
0
283
0
284
0
285
0
286
0
287
3
288
0
0
ENDTAB
0
TABLE
2
BLOCK_RECORD
5
405
100
AcDbSymbolTable
70
0
0
BLOCK_RECORD
5
406
100
AcDbSymbolTableRecord
100
AcDbBlockTableRecord
2
*MODEL_SPACE
0
BLOCK_RECORD
5
407
100
AcDbSymbolTableRecord
100
AcDbBlockTableRecord
2
*PAPER_SPACE
0
BLOCK_RECORD
5
408
100
AcDbSymbolTableRecord
100
AcDbBlockTableRecord
2
_JACCONVERT_
0
ENDTAB
0
TABLE
2
LAYER
5
409
100
AcDbSymbolTable
70
10
0
LAYER
5
40a
100
AcDbSymbolTableRecord
100
AcDbLayerTableRecord
2
0
70
0
62
7
6
CONTINUOUS
370
-3
390
14
0
LAYER
5
40b
100
AcDbSymbolTableRecord
100
AcDbLayerTableRecord
2
0-0
70
0
62
7
6
CONTINUOUS
370
-3
390
14
0
LAYER
5
40c
100
AcDbSymbolTableRecord
100
AcDbLayerTableRecord
2
1-2
70
0
62
7
6
CONTINUOUS
370
-3
390
14
0
LAYER
5
40d
100
AcDbSymbolTableRecord
100
AcDbLayerTableRecord
2
F-E_J_ADD
70
0
62
-7
6
CONTINUOUS
290
0
370
-3
390
14
0
LAYER
5
40e
100
AcDbSymbolTableRecord
100
AcDbLayerTableRecord
2
F-F
70
0
62
7
6
CONTINUOUS
370
-3
390
14
0
ENDTAB
0
ENDSEC
0
SECTION
2
BLOCKS
0
BLOCK
5
40f
100
AcDbEntity
67
1
8
0
100
AcDbBlockBegin
2
*MODEL_SPACE
70
0
10
0.0
20
0.0
30
0.0
3
*MODEL_SPACE
1

0
ENDBLK
5
410
100
AcDbEntity
8
0
100
AcDbBlockEnd
0
BLOCK
5
411
100
AcDbEntity
67
1
8
0
100
AcDbBlockBegin
2
*PAPER_SPACE
70
0
10
0.0
20
0.0
30
0.0
3
*PAPER_SPACE
1

0
ENDBLK
5
412
100
AcDbEntity
67
1
8
0
100
AcDbBlockEnd
0
BLOCK
5
413
100
AcDbEntity
8
0
100
AcDbBlockBegin
2
_JACCONVERT_
70
2
10
0.0
20
0.0
30
0.0
3
_JACCONVERT_
1
_JACCONVERT_
0
ATTDEF
5
414
100
AcDbEntity
8
0
62
0
100
AcDbText
10
0.0
20
0.0
30
0.0
40
1.0
1
User:460950EB0890EC0964308A
100
AcDbAttributeDefinition
3

2
USER
70
8
0
ATTDEF
5
415
100
AcDbEntity
8
0
62
0
100
AcDbText
10
0.0
20
2.0
30
0.0
40
1.0
1
Date:15/06/15 14:42
100
AcDbAttributeDefinition
3

2
REVDATE
70
8
0
ATTDEF
5
416
100
AcDbEntity
8
0
62
0
100
AcDbText
10
0.0
20
4.0
30
0.0
40
1.0
1
File:KW750.dxf
100
AcDbAttributeDefinition
3

2
FNAME
70
8
0
ATTDEF
5
417
100
AcDbEntity
8
0
62
0
100
AcDbText
10
0.0
20
6.0
30
0.0
40
1.0
1
JacConvert Version3.09 copyright (c) 2001-2013 K.Nakahara
100
AcDbAttributeDefinition
3

2
VER
70
8
0
ENDBLK
5
418
100
AcDbEntity
67
1
8
0
100
AcDbBlockEnd
0
ENDSEC
0
SECTION
2
ENTITIES
0
LINE
5
419
100
AcDbEntity
8
F-F
6
CONTINUOUS
62
2
100
AcDbLine
10
54.760000000000
20
23.630000000000
30
0.0
11
54.760000000000
21
1143.640000000000
31
0.0
0
LINE
5
41a
100
AcDbEntity
8
F-F
6
CONTINUOUS
62
2
100
AcDbLine
10
1284.760000000000
20
82.890000000000
30
0.0
11
1284.760000000000
21
23.630000000000
31
0.0
0
LINE
5
41b
100
AcDbEntity
8
F-F
6
CONTINUOUS
62
2
100
AcDbLine
10
1214.540000000000
20
82.890000000000
30
0.0
11
1214.540000000000
21
23.630000000000
31
0.0
0
LINE
5
41c
100
AcDbEntity
8
F-F
6
CONTINUOUS
62
2
100
AcDbLine
10
1537.120000000000
20
23.630000000000
30
0.0
11
1537.120000000000
21
82.890000000000
31
0.0
0
LINE
5
41d
100
AcDbEntity
8
F-F
6
CONTINUOUS
62
2
100
AcDbLine
10
806.890000000000
20
82.890000000000
30
0.0
11
806.890000000000
21
23.630000000000
31
0.0
0
LINE
5
41e
100
AcDbEntity
8
F-F
6
CONTINUOUS
62
2
100
AcDbLine
10
1009.740000000000
20
82.890000000000
30
0.0
11
1009.740000000000
21
23.630000000000
31
0.0
0
LINE
5
41f
100
AcDbEntity
8
F-F
6
CONTINUOUS
62
2
100
AcDbLine
10
806.890000000000
20
63.140000000000
30
0.0
11
369.760000000000
21
63.140000000000
31
0.0
0
LINE
5
420
100
AcDbEntity
8
F-F
6
CONTINUOUS
62
2
100
AcDbLine
10
806.890000000000
20
43.390000000000
30
0.0
11
369.760000000000
21
43.390000000000
31
0.0
0
LINE
5
421
100
AcDbEntity
8
F-F
6
CONTINUOUS
62
2
100
AcDbLine
10
806.890000000000
20
33.510000000000
30
0.0
11
369.760000000000
21
33.510000000000
31
0.0
0
LINE
5
422
100
AcDbEntity
8
F-F
6
CONTINUOUS
62
2
100
AcDbLine
10
806.890000000000
20
73.020000000000
30
0.0
11
369.760000000000
21
73.020000000000
31
0.0
0
LINE
5
423
100
AcDbEntity
8
F-F
6
CONTINUOUS
62
2
100
AcDbLine
10
422.420000000000
20
82.890000000000
30
0.0
11
422.420000000000
21
23.630000000000
31
0.0
0
LINE
5
424
100
AcDbEntity
8
F-F
6
CONTINUOUS
62
2
100
AcDbLine
10
369.760000000000
20
82.890000000000
30
0.0
11
369.760000000000
21
23.630000000000
31
0.0
0
LINE
5
425
100
AcDbEntity
8
F-F
6
CONTINUOUS
62
2
100
AcDbLine
10
1631.650000000000
20
23.630000000000
30
0.0
11
1631.650000000000
21
1143.640000000000
31
0.0
0
LINE
5
426
100
AcDbEntity
8
F-F
6
CONTINUOUS
62
2
100
AcDbLine
10
54.760000000000
20
1143.640000000000
30
0.0
11
1631.650000000000
21
1143.640000000000
31
0.0
0
LINE
5
427
100
AcDbEntity
8
F-F
6
CONTINUOUS
62
2
100
AcDbLine
10
54.760000000000
20
23.630000000000
30
0.0
11
1631.650000000000
21
23.630000000000
31
0.0
0
LINE
5
428
100
AcDbEntity
8
F-F
6
CONTINUOUS
62
2
100
AcDbLine
10
1631.650000000000
20
82.890000000000
30
0.0
11
54.760000000000
21
82.890000000000
31
0.0
0
LINE
5
429
100
AcDbEntity
8
F-F
6
CONTINUOUS
62
2
100
AcDbLine
10
369.760000000000
20
53.260000000000
30
0.0
11
1631.650000000000
21
53.260000000000
31
0.0
0
LINE
5
42a
100
AcDbEntity
8
0-0
6
CONTINUOUS
62
7
100
AcDbLine
10
284.470000000000
20
832.030000000000
30
0.0
11
284.470000000000
21
817.030000000000
31
0.0
0
LINE
5
42b
100
AcDbEntity
8
0-0
6
CONTINUOUS
62
7
100
AcDbLine
10
505.470000000000
20
888.030000000000
30
0.0
11
505.470000000000
21
903.030000000000
31
0.0
0
LINE
5
42c
100
AcDbEntity
8
0-0
6
CONTINUOUS
62
7
100
AcDbLine
10
540.470000000000
20
888.030000000000
30
0.0
11
540.470000000000
21
903.030000000000
31
0.0
0
LINE
5
42d
100
AcDbEntity
8
0-0
6
CONTINUOUS
62
7
100
AcDbLine
10
510.970000000000
20
817.030000000000
30
0.0
11
534.970000000000
21
817.030000000000
31
0.0
0
LINE
5
42e
100
AcDbEntity
8
0-0
6
CONTINUOUS
62
7
100
AcDbLine
10
511.470000000000
20
832.030000000000
30
0.0
11
511.470000000000
21
817.030000000000
31
0.0
0
LINE
5
42f
100
AcDbEntity
8
0-0
6
CONTINUOUS
62
7
100
AcDbLine
10
534.470000000000
20
832.030000000000
30
0.0
11
534.470000000000
21
817.030000000000
31
0.0
0
POLYLINE
5
430
100
AcDbEntity
8
0-0
6
CONTINUOUS
62
  7
100
AcDb2dPolyline
66
1
10
0.0
20
0.0
30
0.0
70
0
0
VERTEX
5
431
100
AcDbEntity
8
0-0
6
CONTINUOUS
62
  7
100
AcDbVertex
100
AcDb2dVertex
10
272.970000000000
20
923.030000000000
30
0.0
0
VERTEX
5
432
100
AcDbEntity
8
0-0
6
CONTINUOUS
62
  7
100
AcDbVertex
100
AcDb2dVertex
10
392.970000000000
20
923.030000000000
30
0.0
0
VERTEX
5
433
100
AcDbEntity
8
0-0
6
CONTINUOUS
62
  7
100
AcDbVertex
100
AcDb2dVertex
10
512.970000000000
20
923.030000000000
30
0.0
0
VERTEX
5
434
100
AcDbEntity
8
0-0
6
CONTINUOUS
62
  7
100
AcDbVertex
100
AcDb2dVertex
10
632.970000000000
20
923.030000000000
30
0.0
0
VERTEX
5
435
100
AcDbEntity
8
0-0
6
CONTINUOUS
62
  7
100
AcDbVertex
100
AcDb2dVertex
10
752.970000000000
20
923.030000000000
30
0.0
0
VERTEX
5
436
100
AcDbEntity
8
0-0
6
CONTINUOUS
62
  7
100
AcDbVertex
100
AcDb2dVertex
10
872.970000000000
20
923.030000000000
30
0.0
0
SEQEND
5
437
100
AcDbEntity
8
0-0
0
LINE
5
438
100
AcDbEntity
8
0-0
6
CONTINUOUS
62
7
100
AcDbLine
10
397.970000000000
20
923.030000000000
30
0.0
11
397.970000000000
21
875.880000000000
31
0.0
0
LINE
5
439
100
AcDbEntity
8
0-0
6
CONTINUOUS
62
7
100
AcDbLine
10
522.970000000000
20
904.620000000000
30
0.0
11
522.970000000000
21
875.880000000000
31
0.0
0
LINE
5
43a
100
AcDbEntity
8
0-0
6
CONTINUOUS
62
7
100
AcDbLine
10
522.970000000000
20
923.030000000000
30
0.0
11
522.970000000000
21
917.810000000000
31
0.0
0
LINE
5
43b
100
AcDbEntity
8
0-0
6
CONTINUOUS
62
7
100
AcDbLine
10
1022.970000000000
20
943.030000000000
30
0.0
11
1022.970000000000
21
875.880000000000
31
0.0
0
LINE
5
43c
100
AcDbEntity
8
0-0
6
CONTINUOUS
62
7
100
AcDbLine
10
1040.470000000000
20
888.030000000000
30
0.0
11
1040.470000000000
21
903.030000000000
31
0.0
0
LINE
5
43d
100
AcDbEntity
8
0-0
6
CONTINUOUS
62
7
100
AcDbLine
10
272.970000000000
20
943.030000000000
30
0.0
11
272.970000000000
21
875.880000000000
31
0.0
0
LINE
5
43e
100
AcDbEntity
8
0-0
6
CONTINUOUS
62
7
100
AcDbLine
10
1034.970000000000
20
832.030000000000
30
0.0
11
1034.970000000000
21
817.030000000000
31
0.0
0
LINE
5
43f
100
AcDbEntity
8
0-0
6
CONTINUOUS
62
7
100
AcDbLine
10
582.970000000000
20
852.030000000000
30
0.0
11
582.970000000000
21
867.030000000000
31
0.0
0
LINE
5
440
100
AcDbEntity
8
0-0
6
CONTINUOUS
62
7
100
AcDbLine
10
552.150000000000
20
852.030000000000
30
0.0
11
582.970000000000
21
852.030000000000
31
0.0
0
LINE
5
441
100
AcDbEntity
8
1-2
6
CONTINUOUS
62
7
100
AcDbLine
10
1250.500000000000
20
317.810000000000
30
0.0
11
1250.500000000000
21
337.810000000000
31
0.0
0
LINE
5
442
100
AcDbEntity
8
1-2
6
CONTINUOUS
62
7
100
AcDbLine
10
1358.500000000000
20
317.810000000000
30
0.0
11
1358.500000000000
21
337.810000000000
31
0.0
0
LINE
5
443
100
AcDbEntity
8
1-2
6
CONTINUOUS
62
7
100
AcDbLine
10
1250.500000000000
20
317.810000000000
30
0.0
11
1250.500000000000
21
337.810000000000
31
0.0
0
LINE
5
444
100
AcDbEntity
8
1-2
6
CONTINUOUS
62
7
100
AcDbLine
10
1214.500000000000
20
317.810000000000
30
0.0
11
1214.500000000000
21
357.810000000000
31
0.0
0
LINE
5
445
100
AcDbEntity
8
1-2
6
CONTINUOUS
62
7
100
AcDbLine
10
1394.500000000000
20
317.810000000000
30
0.0
11
1394.500000000000
21
357.810000000000
31
0.0
0
LINE
5
446
100
AcDbEntity
8
1-2
6
CONTINUOUS
62
7
100
AcDbLine
10
1287.320000000000
20
266.310000000000
30
0.0
11
1287.320000000000
21
269.310000000000
31
0.0
0
LINE
5
447
100
AcDbEntity
8
1-2
6
CONTINUOUS
62
7
100
AcDbLine
10
1268.500000000000
20
269.310000000000
30
0.0
11
1287.320000000000
21
269.310000000000
31
0.0
0
LINE
5
448
100
AcDbEntity
8
0-0
6
CONTINUOUS
62
3
100
AcDbLine
10
534.260000000000
20
852.840000000000
30
0.0
11
539.880000000000
21
866.420000000000
31
0.0
0
LINE
5
449
100
AcDbEntity
8
0-0
6
CONTINUOUS
62
3
100
AcDbLine
10
540.340000000000
20
866.230000000000
30
0.0
11
534.730000000000
21
852.650000000000
31
0.0
0
LINE
5
44a
100
AcDbEntity
8
0-0
6
CONTINUOUS
62
3
100
AcDbLine
10
533.800000000000
20
852.030000000000
30
0.0
11
522.970000000000
21
852.030000000000
31
0.0
0
LINE
5
44b
100
AcDbEntity
8
0-0
6
CONTINUOUS
62
3
100
AcDbLine
10
533.800000000000
20
852.530000000000
30
0.0
11
522.970000000000
21
852.530000000000
31
0.0
0
LINE
5
44c
100
AcDbEntity
8
0-0
6
CONTINUOUS
62
3
100
AcDbLine
10
511.680000000000
20
852.840000000000
30
0.0
11
506.060000000000
21
866.420000000000
31
0.0
0
LINE
5
44d
100
AcDbEntity
8
0-0
6
CONTINUOUS
62
3
100
AcDbLine
10
505.600000000000
20
866.230000000000
30
0.0
11
511.220000000000
21
852.650000000000
31
0.0
0
LINE
5
44e
100
AcDbEntity
8
0-0
6
CONTINUOUS
62
3
100
AcDbLine
10
512.140000000000
20
852.030000000000
30
0.0
11
522.970000000000
21
852.030000000000
31
0.0
0
LINE
5
44f
100
AcDbEntity
8
0-0
6
CONTINUOUS
62
3
100
AcDbLine
10
512.140000000000
20
852.530000000000
30
0.0
11
522.970000000000
21
852.530000000000
31
0.0
0
LINE
5
450
100
AcDbEntity
8
0-0
6
CONTINUOUS
62
3
100
AcDbLine
10
505.140000000000
20
867.030000000000
30
0.0
11
460.470000000000
21
867.030000000000
31
0.0
0
LINE
5
451
100
AcDbEntity
8
0-0
6
CONTINUOUS
62
3
100
AcDbLine
10
505.140000000000
20
866.530000000000
30
0.0
11
460.470000000000
21
866.530000000000
31
0.0
0
LINE
5
452
100
AcDbEntity
8
0-0
6
CONTINUOUS
62
3
100
AcDbLine
10
386.680000000000
20
852.840000000000
30
0.0
11
381.060000000000
21
866.420000000000
31
0.0
0
LINE
5
453
100
AcDbEntity
8
0-0
6
CONTINUOUS
62
3
100
AcDbLine
10
380.600000000000
20
866.230000000000
30
0.0
11
386.220000000000
21
852.650000000000
31
0.0
0
LINE
5
454
100
AcDbEntity
8
0-0
6
CONTINUOUS
62
3
100
AcDbLine
10
387.140000000000
20
852.030000000000
30
0.0
11
397.970000000000
21
852.030000000000
31
0.0
0
LINE
5
455
100
AcDbEntity
8
0-0
6
CONTINUOUS
62
3
100
AcDbLine
10
387.140000000000
20
852.530000000000
30
0.0
11
397.970000000000
21
852.530000000000
31
0.0
0
LINE
5
456
100
AcDbEntity
8
0-0
6
CONTINUOUS
62
3
100
AcDbLine
10
409.260000000000
20
852.840000000000
30
0.0
11
414.880000000000
21
866.420000000000
31
0.0
0
LINE
5
457
100
AcDbEntity
8
0-0
6
CONTINUOUS
62
3
100
AcDbLine
10
415.340000000000
20
866.230000000000
30
0.0
11
409.730000000000
21
852.650000000000
31
0.0
0
LINE
5
458
100
AcDbEntity
8
0-0
6
CONTINUOUS
62
3
100
AcDbLine
10
408.800000000000
20
852.030000000000
30
0.0
11
397.970000000000
21
852.030000000000
31
0.0
0
LINE
5
459
100
AcDbEntity
8
0-0
6
CONTINUOUS
62
3
100
AcDbLine
10
408.800000000000
20
852.530000000000
30
0.0
11
397.970000000000
21
852.530000000000
31
0.0
0
LINE
5
45a
100
AcDbEntity
8
0-0
6
CONTINUOUS
62
3
100
AcDbLine
10
415.810000000000
20
867.030000000000
30
0.0
11
460.470000000000
21
867.030000000000
31
0.0
0
LINE
5
45b
100
AcDbEntity
8
0-0
6
CONTINUOUS
62
3
100
AcDbLine
10
415.810000000000
20
866.530000000000
30
0.0
11
460.470000000000
21
866.530000000000
31
0.0
0
LINE
5
45c
100
AcDbEntity
8
0-0
6
CONTINUOUS
62
3
100
AcDbLine
10
540.810000000000
20
867.030000000000
30
0.0
11
585.470000000000
21
867.030000000000
31
0.0
0
LINE
5
45d
100
AcDbEntity
8
0-0
6
CONTINUOUS
62
3
100
AcDbLine
10
540.810000000000
20
866.530000000000
30
0.0
11
585.470000000000
21
866.530000000000
31
0.0
0
LINE
5
45e
100
AcDbEntity
8
0-0
6
CONTINUOUS
62
3
100
AcDbLine
10
380.140000000000
20
867.030000000000
30
0.0
11
335.470000000000
21
867.030000000000
31
0.0
0
LINE
5
45f
100
AcDbEntity
8
0-0
6
CONTINUOUS
62
3
100
AcDbLine
10
380.140000000000
20
866.530000000000
30
0.0
11
335.470000000000
21
866.530000000000
31
0.0
0
LINE
5
460
100
AcDbEntity
8
0-0
6
CONTINUOUS
62
7
100
AcDbLine
10
647.970000000000
20
923.030000000000
30
0.0
11
647.970000000000
21
875.880000000000
31
0.0
0
LINE
5
461
100
AcDbEntity
8
0-0
6
CONTINUOUS
62
3
100
AcDbLine
10
636.680000000000
20
852.840000000000
30
0.0
11
631.060000000000
21
866.420000000000
31
0.0
0
LINE
5
462
100
AcDbEntity
8
0-0
6
CONTINUOUS
62
3
100
AcDbLine
10
630.600000000000
20
866.230000000000
30
0.0
11
636.220000000000
21
852.650000000000
31
0.0
0
LINE
5
463
100
AcDbEntity
8
0-0
6
CONTINUOUS
62
3
100
AcDbLine
10
637.140000000000
20
852.030000000000
30
0.0
11
647.970000000000
21
852.030000000000
31
0.0
0
LINE
5
464
100
AcDbEntity
8
0-0
6
CONTINUOUS
62
3
100
AcDbLine
10
637.140000000000
20
852.530000000000
30
0.0
11
647.970000000000
21
852.530000000000
31
0.0
0
LINE
5
465
100
AcDbEntity
8
0-0
6
CONTINUOUS
62
3
100
AcDbLine
10
659.260000000000
20
852.840000000000
30
0.0
11
664.880000000000
21
866.420000000000
31
0.0
0
LINE
5
466
100
AcDbEntity
8
0-0
6
CONTINUOUS
62
3
100
AcDbLine
10
665.340000000000
20
866.230000000000
30
0.0
11
659.730000000000
21
852.650000000000
31
0.0
0
LINE
5
467
100
AcDbEntity
8
0-0
6
CONTINUOUS
62
3
100
AcDbLine
10
658.800000000000
20
852.030000000000
30
0.0
11
647.970000000000
21
852.030000000000
31
0.0
0
LINE
5
468
100
AcDbEntity
8
0-0
6
CONTINUOUS
62
3
100
AcDbLine
10
658.800000000000
20
852.530000000000
30
0.0
11
647.970000000000
21
852.530000000000
31
0.0
0
LINE
5
469
100
AcDbEntity
8
0-0
6
CONTINUOUS
62
3
100
AcDbLine
10
665.810000000000
20
867.030000000000
30
0.0
11
710.470000000000
21
867.030000000000
31
0.0
0
LINE
5
46a
100
AcDbEntity
8
0-0
6
CONTINUOUS
62
3
100
AcDbLine
10
665.810000000000
20
866.530000000000
30
0.0
11
710.470000000000
21
866.530000000000
31
0.0
0
LINE
5
46b
100
AcDbEntity
8
0-0
6
CONTINUOUS
62
3
100
AcDbLine
10
630.140000000000
20
867.030000000000
30
0.0
11
585.470000000000
21
867.030000000000
31
0.0
0
LINE
5
46c
100
AcDbEntity
8
0-0
6
CONTINUOUS
62
3
100
AcDbLine
10
630.140000000000
20
866.530000000000
30
0.0
11
585.470000000000
21
866.530000000000
31
0.0
0
LINE
5
46d
100
AcDbEntity
8
0-0
6
CONTINUOUS
62
7
100
AcDbLine
10
772.970000000000
20
923.030000000000
30
0.0
11
772.970000000000
21
875.880000000000
31
0.0
0
LINE
5
46e
100
AcDbEntity
8
0-0
6
CONTINUOUS
62
3
100
AcDbLine
10
761.680000000000
20
852.840000000000
30
0.0
11
756.060000000000
21
866.420000000000
31
0.0
0
LINE
5
46f
100
AcDbEntity
8
0-0
6
CONTINUOUS
62
3
100
AcDbLine
10
755.600000000000
20
866.230000000000
30
0.0
11
761.220000000000
21
852.650000000000
31
0.0
0
LINE
5
470
100
AcDbEntity
8
0-0
6
CONTINUOUS
62
3
100
AcDbLine
10
762.140000000000
20
852.030000000000
30
0.0
11
772.970000000000
21
852.030000000000
31
0.0
0
LINE
5
471
100
AcDbEntity
8
0-0
6
CONTINUOUS
62
3
100
AcDbLine
10
762.140000000000
20
852.530000000000
30
0.0
11
772.970000000000
21
852.530000000000
31
0.0
0
LINE
5
472
100
AcDbEntity
8
0-0
6
CONTINUOUS
62
3
100
AcDbLine
10
784.260000000000
20
852.840000000000
30
0.0
11
789.880000000000
21
866.420000000000
31
0.0
0
LINE
5
473
100
AcDbEntity
8
0-0
6
CONTINUOUS
62
3
100
AcDbLine
10
790.340000000000
20
866.230000000000
30
0.0
11
784.730000000000
21
852.650000000000
31
0.0
0
LINE
5
474
100
AcDbEntity
8
0-0
6
CONTINUOUS
62
3
100
AcDbLine
10
783.800000000000
20
852.030000000000
30
0.0
11
772.970000000000
21
852.030000000000
31
0.0
0
LINE
5
475
100
AcDbEntity
8
0-0
6
CONTINUOUS
62
3
100
AcDbLine
10
783.800000000000
20
852.530000000000
30
0.0
11
772.970000000000
21
852.530000000000
31
0.0
0
LINE
5
476
100
AcDbEntity
8
0-0
6
CONTINUOUS
62
3
100
AcDbLine
10
790.810000000000
20
867.030000000000
30
0.0
11
835.470000000000
21
867.030000000000
31
0.0
0
LINE
5
477
100
AcDbEntity
8
0-0
6
CONTINUOUS
62
3
100
AcDbLine
10
790.810000000000
20
866.530000000000
30
0.0
11
835.470000000000
21
866.530000000000
31
0.0
0
LINE
5
478
100
AcDbEntity
8
0-0
6
CONTINUOUS
62
3
100
AcDbLine
10
755.140000000000
20
867.030000000000
30
0.0
11
710.470000000000
21
867.030000000000
31
0.0
0
LINE
5
479
100
AcDbEntity
8
0-0
6
CONTINUOUS
62
3
100
AcDbLine
10
755.140000000000
20
866.530000000000
30
0.0
11
710.470000000000
21
866.530000000000
31
0.0
0
LINE
5
47a
100
AcDbEntity
8
0-0
6
CONTINUOUS
62
7
100
AcDbLine
10
897.970000000000
20
923.030000000000
30
0.0
11
897.970000000000
21
875.880000000000
31
0.0
0
LINE
5
47b
100
AcDbEntity
8
0-0
6
CONTINUOUS
62
3
100
AcDbLine
10
886.680000000000
20
852.840000000000
30
0.0
11
881.060000000000
21
866.420000000000
31
0.0
0
LINE
5
47c
100
AcDbEntity
8
0-0
6
CONTINUOUS
62
3
100
AcDbLine
10
880.600000000000
20
866.230000000000
30
0.0
11
886.220000000000
21
852.650000000000
31
0.0
0
LINE
5
47d
100
AcDbEntity
8
0-0
6
CONTINUOUS
62
3
100
AcDbLine
10
887.140000000000
20
852.030000000000
30
0.0
11
897.970000000000
21
852.030000000000
31
0.0
0
LINE
5
47e
100
AcDbEntity
8
0-0
6
CONTINUOUS
62
3
100
AcDbLine
10
887.140000000000
20
852.530000000000
30
0.0
11
897.970000000000
21
852.530000000000
31
0.0
0
LINE
5
47f
100
AcDbEntity
8
0-0
6
CONTINUOUS
62
3
100
AcDbLine
10
909.260000000000
20
852.840000000000
30
0.0
11
914.880000000000
21
866.420000000000
31
0.0
0
LINE
5
480
100
AcDbEntity
8
0-0
6
CONTINUOUS
62
3
100
AcDbLine
10
915.340000000000
20
866.230000000000
30
0.0
11
909.730000000000
21
852.650000000000
31
0.0
0
LINE
5
481
100
AcDbEntity
8
0-0
6
CONTINUOUS
62
3
100
AcDbLine
10
908.800000000000
20
852.030000000000
30
0.0
11
897.970000000000
21
852.030000000000
31
0.0
0
LINE
5
482
100
AcDbEntity
8
0-0
6
CONTINUOUS
62
3
100
AcDbLine
10
908.800000000000
20
852.530000000000
30
0.0
11
897.970000000000
21
852.530000000000
31
0.0
0
LINE
5
483
100
AcDbEntity
8
0-0
6
CONTINUOUS
62
3
100
AcDbLine
10
915.810000000000
20
867.030000000000
30
0.0
11
960.470000000000
21
867.030000000000
31
0.0
0
LINE
5
484
100
AcDbEntity
8
0-0
6
CONTINUOUS
62
3
100
AcDbLine
10
915.810000000000
20
866.530000000000
30
0.0
11
960.470000000000
21
866.530000000000
31
0.0
0
LINE
5
485
100
AcDbEntity
8
0-0
6
CONTINUOUS
62
3
100
AcDbLine
10
880.140000000000
20
867.030000000000
30
0.0
11
835.470000000000
21
867.030000000000
31
0.0
0
LINE
5
486
100
AcDbEntity
8
0-0
6
CONTINUOUS
62
3
100
AcDbLine
10
880.140000000000
20
866.530000000000
30
0.0
11
835.470000000000
21
866.530000000000
31
0.0
0
LINE
5
487
100
AcDbEntity
8
0-0
6
CONTINUOUS
62
7
100
AcDbLine
10
272.970000000000
20
943.030000000000
30
0.0
11
1022.970000000000
21
943.030000000000
31
0.0
0
LINE
5
488
100
AcDbEntity
8
0-0
6
CONTINUOUS
62
7
100
AcDbLine
10
872.970000000000
20
923.030000000000
30
0.0
11
1022.970000000000
21
923.030000000000
31
0.0
0
LINE
5
489
100
AcDbEntity
8
0-0
6
CONTINUOUS
62
3
100
AcDbLine
10
290.700000000000
20
866.530000000000
30
0.0
11
335.470000000000
21
866.530000000000
31
0.0
0
LINE
5
48a
100
AcDbEntity
8
0-0
6
CONTINUOUS
62
3
100
AcDbLine
10
290.700000000000
20
867.030000000000
30
0.0
11
335.470000000000
21
867.030000000000
31
0.0
0
LINE
5
48b
100
AcDbEntity
8
0-0
6
CONTINUOUS
62
3
100
AcDbLine
10
283.980000000000
20
852.730000000000
30
0.0
11
272.970000000000
21
852.730000000000
31
0.0
0
LINE
5
48c
100
AcDbEntity
8
0-0
6
CONTINUOUS
62
3
100
AcDbLine
10
290.240000000000
20
866.230000000000
30
0.0
11
284.910000000000
21
853.350000000000
31
0.0
0
LINE
5
48d
100
AcDbEntity
8
0-0
6
CONTINUOUS
62
3
100
AcDbLine
10
283.980000000000
20
853.230000000000
30
0.0
11
272.970000000000
21
853.230000000000
31
0.0
0
LINE
5
48e
100
AcDbEntity
8
0-0
6
CONTINUOUS
62
3
100
AcDbLine
10
284.450000000000
20
853.540000000000
30
0.0
11
289.770000000000
21
866.420000000000
31
0.0
0
LINE
5
48f
100
AcDbEntity
8
0-0
6
CONTINUOUS
62
3
100
AcDbLine
10
1005.600000000000
20
866.230000000000
30
0.0
11
1011.220000000000
21
852.650000000000
31
0.0
0
LINE
5
490
100
AcDbEntity
8
0-0
6
CONTINUOUS
62
3
100
AcDbLine
10
1012.140000000000
20
852.030000000000
30
0.0
11
1022.970000000000
21
852.030000000000
31
0.0
0
LINE
5
491
100
AcDbEntity
8
0-0
6
CONTINUOUS
62
3
100
AcDbLine
10
1012.140000000000
20
852.530000000000
30
0.0
11
1022.970000000000
21
852.530000000000
31
0.0
0
LINE
5
492
100
AcDbEntity
8
0-0
6
CONTINUOUS
62
3
100
AcDbLine
10
1006.060000000000
20
866.420000000000
30
0.0
11
1011.680000000000
21
852.840000000000
31
0.0
0
LINE
5
493
100
AcDbEntity
8
0-0
6
CONTINUOUS
62
3
100
AcDbLine
10
1005.140000000000
20
866.530000000000
30
0.0
11
960.470000000000
21
866.530000000000
31
0.0
0
LINE
5
494
100
AcDbEntity
8
0-0
6
CONTINUOUS
62
3
100
AcDbLine
10
1005.140000000000
20
867.030000000000
30
0.0
11
960.470000000000
21
867.030000000000
31
0.0
0
LINE
5
495
100
AcDbEntity
8
0-0
6
CONTINUOUS
62
3
100
AcDbLine
10
1034.450000000000
20
852.530000000000
30
0.0
11
1022.970000000000
21
852.530000000000
31
0.0
0
LINE
5
496
100
AcDbEntity
8
0-0
6
CONTINUOUS
62
3
100
AcDbLine
10
1034.910000000000
20
852.840000000000
30
0.0
11
1040.240000000000
21
865.720000000000
31
0.0
0
LINE
5
497
100
AcDbEntity
8
0-0
6
CONTINUOUS
62
3
100
AcDbLine
10
1034.450000000000
20
852.030000000000
30
0.0
11
1022.970000000000
21
852.030000000000
31
0.0
0
LINE
5
498
100
AcDbEntity
8
0-0
6
CONTINUOUS
62
3
100
AcDbLine
10
1040.700000000000
20
865.530000000000
30
0.0
11
1035.380000000000
21
852.650000000000
31
0.0
0
LINE
5
499
100
AcDbEntity
8
1-2
6
CONTINUOUS
62
3
100
AcDbLine
10
1258.680000000000
20
266.310000000000
30
0.0
11
1304.500000000000
21
266.310000000000
31
0.0
0
LINE
5
49a
100
AcDbEntity
8
1-2
6
CONTINUOUS
62
3
100
AcDbLine
10
1250.490000000000
20
268.240000000000
30
0.0
11
1257.980000000000
21
265.430000000000
31
0.0
0
LINE
5
49b
100
AcDbEntity
8
1-2
6
CONTINUOUS
62
3
100
AcDbLine
10
1258.680000000000
20
265.310000000000
30
0.0
11
1304.500000000000
21
265.310000000000
31
0.0
0
LINE
5
49c
100
AcDbEntity
8
1-2
6
CONTINUOUS
62
3
100
AcDbLine
10
1258.330000000000
20
266.370000000000
30
0.0
11
1250.840000000000
21
269.180000000000
31
0.0
0
LINE
5
49d
100
AcDbEntity
8
1-2
6
CONTINUOUS
62
7
100
AcDbLine
10
1250.500000000000
20
337.810000000000
30
0.0
11
1358.500000000000
21
337.810000000000
31
0.0
0
POLYLINE
5
49e
100
AcDbEntity
8
1-2
6
CONTINUOUS
62
  7
100
AcDb2dPolyline
66
1
10
0.0
20
0.0
30
0.0
70
0
0
VERTEX
5
49f
100
AcDbEntity
8
1-2
6
CONTINUOUS
62
  7
100
AcDbVertex
100
AcDb2dVertex
10
1258.500000000000
20
226.810000000000
30
0.0
0
VERTEX
5
4a0
100
AcDbEntity
8
1-2
6
CONTINUOUS
62
  7
100
AcDbVertex
100
AcDb2dVertex
10
1258.500000000000
20
211.810000000000
30
0.0
0
VERTEX
5
4a1
100
AcDbEntity
8
1-2
6
CONTINUOUS
62
  7
100
AcDbVertex
100
AcDb2dVertex
10
1350.500000000000
20
211.810000000000
30
0.0
0
SEQEND
5
4a2
100
AcDbEntity
8
1-2
0
LINE
5
4a3
100
AcDbEntity
8
1-2
6
CONTINUOUS
62
7
100
AcDbLine
10
1350.500000000000
20
226.810000000000
30
0.0
11
1350.500000000000
21
211.810000000000
31
0.0
0
LINE
5
4a4
100
AcDbEntity
8
1-2
6
CONTINUOUS
62
3
100
AcDbLine
10
1202.080000000000
20
240.920000000000
30
0.0
11
1213.320000000000
21
268.070000000000
31
0.0
0
LINE
5
4a5
100
AcDbEntity
8
1-2
6
CONTINUOUS
62
3
100
AcDbLine
10
1214.240000000000
20
267.690000000000
30
0.0
11
1203.010000000000
21
240.540000000000
31
0.0
0
LINE
5
4a6
100
AcDbEntity
8
1-2
6
CONTINUOUS
62
3
100
AcDbLine
10
1201.160000000000
20
239.310000000000
30
0.0
11
1179.500000000000
21
239.310000000000
31
0.0
0
LINE
5
4a7
100
AcDbEntity
8
1-2
6
CONTINUOUS
62
3
100
AcDbLine
10
1201.160000000000
20
240.310000000000
30
0.0
11
1179.500000000000
21
240.310000000000
31
0.0
0
LINE
5
4a8
100
AcDbEntity
8
1-2
6
CONTINUOUS
62
3
100
AcDbLine
10
1215.170000000000
20
269.310000000000
30
0.0
11
1250.130000000000
21
269.310000000000
31
0.0
0
LINE
5
4a9
100
AcDbEntity
8
1-2
6
CONTINUOUS
62
3
100
AcDbLine
10
1250.130000000000
20
268.310000000000
30
0.0
11
1215.170000000000
21
268.310000000000
31
0.0
0
LINE
5
4aa
100
AcDbEntity
8
1-2
6
CONTINUOUS
62
3
100
AcDbLine
10
1100.320000000000
20
266.310000000000
30
0.0
11
1054.500000000000
21
266.310000000000
31
0.0
0
LINE
5
4ab
100
AcDbEntity
8
1-2
6
CONTINUOUS
62
3
100
AcDbLine
10
1108.510000000000
20
268.240000000000
30
0.0
11
1101.020000000000
21
265.430000000000
31
0.0
0
LINE
5
4ac
100
AcDbEntity
8
1-2
6
CONTINUOUS
62
3
100
AcDbLine
10
1100.320000000000
20
265.310000000000
30
0.0
11
1054.500000000000
21
265.310000000000
31
0.0
0
LINE
5
4ad
100
AcDbEntity
8
1-2
6
CONTINUOUS
62
3
100
AcDbLine
10
1100.670000000000
20
266.370000000000
30
0.0
11
1108.160000000000
21
269.180000000000
31
0.0
0
LINE
5
4ae
100
AcDbEntity
8
1-2
6
CONTINUOUS
62
3
100
AcDbLine
10
1156.910000000000
20
240.920000000000
30
0.0
11
1145.680000000000
21
268.070000000000
31
0.0
0
LINE
5
4af
100
AcDbEntity
8
1-2
6
CONTINUOUS
62
3
100
AcDbLine
10
1144.750000000000
20
267.690000000000
30
0.0
11
1155.990000000000
21
240.540000000000
31
0.0
0
LINE
5
4b0
100
AcDbEntity
8
1-2
6
CONTINUOUS
62
3
100
AcDbLine
10
1157.830000000000
20
240.310000000000
30
0.0
11
1179.500000000000
21
240.310000000000
31
0.0
0
LINE
5
4b1
100
AcDbEntity
8
1-2
6
CONTINUOUS
62
3
100
AcDbLine
10
1143.830000000000
20
269.310000000000
30
0.0
11
1108.860000000000
21
269.310000000000
31
0.0
0
LINE
5
4b2
100
AcDbEntity
8
1-2
6
CONTINUOUS
62
3
100
AcDbLine
10
1108.860000000000
20
268.310000000000
30
0.0
11
1143.830000000000
21
268.310000000000
31
0.0
0
LINE
5
4b3
100
AcDbEntity
8
1-2
6
CONTINUOUS
62
3
100
AcDbLine
10
1350.320000000000
20
266.310000000000
30
0.0
11
1304.500000000000
21
266.310000000000
31
0.0
0
LINE
5
4b4
100
AcDbEntity
8
1-2
6
CONTINUOUS
62
3
100
AcDbLine
10
1358.510000000000
20
268.240000000000
30
0.0
11
1351.020000000000
21
265.430000000000
31
0.0
0
LINE
5
4b5
100
AcDbEntity
8
1-2
6
CONTINUOUS
62
3
100
AcDbLine
10
1350.320000000000
20
265.310000000000
30
0.0
11
1304.500000000000
21
265.310000000000
31
0.0
0
LINE
5
4b6
100
AcDbEntity
8
1-2
6
CONTINUOUS
62
3
100
AcDbLine
10
1350.670000000000
20
266.370000000000
30
0.0
11
1358.160000000000
21
269.180000000000
31
0.0
0
LINE
5
4b7
100
AcDbEntity
8
1-2
6
CONTINUOUS
62
3
100
AcDbLine
10
1406.910000000000
20
240.920000000000
30
0.0
11
1395.680000000000
21
268.070000000000
31
0.0
0
LINE
5
4b8
100
AcDbEntity
8
1-2
6
CONTINUOUS
62
3
100
AcDbLine
10
1394.750000000000
20
267.690000000000
30
0.0
11
1405.990000000000
21
240.540000000000
31
0.0
0
LINE
5
4b9
100
AcDbEntity
8
1-2
6
CONTINUOUS
62
3
100
AcDbLine
10
1407.830000000000
20
239.310000000000
30
0.0
11
1429.500000000000
21
239.310000000000
31
0.0
0
LINE
5
4ba
100
AcDbEntity
8
1-2
6
CONTINUOUS
62
3
100
AcDbLine
10
1407.830000000000
20
240.310000000000
30
0.0
11
1429.500000000000
21
240.310000000000
31
0.0
0
LINE
5
4bb
100
AcDbEntity
8
1-2
6
CONTINUOUS
62
3
100
AcDbLine
10
1393.830000000000
20
269.310000000000
30
0.0
11
1358.860000000000
21
269.310000000000
31
0.0
0
LINE
5
4bc
100
AcDbEntity
8
1-2
6
CONTINUOUS
62
3
100
AcDbLine
10
1358.860000000000
20
268.310000000000
30
0.0
11
1393.830000000000
21
268.310000000000
31
0.0
0
LINE
5
4bd
100
AcDbEntity
8
1-2
6
CONTINUOUS
62
3
100
AcDbLine
10
1508.680000000000
20
266.310000000000
30
0.0
11
1554.500000000000
21
266.310000000000
31
0.0
0
LINE
5
4be
100
AcDbEntity
8
1-2
6
CONTINUOUS
62
3
100
AcDbLine
10
1500.490000000000
20
268.240000000000
30
0.0
11
1507.980000000000
21
265.430000000000
31
0.0
0
LINE
5
4bf
100
AcDbEntity
8
1-2
6
CONTINUOUS
62
3
100
AcDbLine
10
1508.680000000000
20
265.310000000000
30
0.0
11
1554.500000000000
21
265.310000000000
31
0.0
0
LINE
5
4c0
100
AcDbEntity
8
1-2
6
CONTINUOUS
62
3
100
AcDbLine
10
1508.330000000000
20
266.370000000000
30
0.0
11
1500.840000000000
21
269.180000000000
31
0.0
0
LINE
5
4c1
100
AcDbEntity
8
1-2
6
CONTINUOUS
62
3
100
AcDbLine
10
1452.080000000000
20
240.920000000000
30
0.0
11
1463.320000000000
21
268.070000000000
31
0.0
0
LINE
5
4c2
100
AcDbEntity
8
1-2
6
CONTINUOUS
62
3
100
AcDbLine
10
1464.240000000000
20
267.690000000000
30
0.0
11
1453.010000000000
21
240.540000000000
31
0.0
0
LINE
5
4c3
100
AcDbEntity
8
1-2
6
CONTINUOUS
62
3
100
AcDbLine
10
1451.160000000000
20
240.310000000000
30
0.0
11
1429.500000000000
21
240.310000000000
31
0.0
0
LINE
5
4c4
100
AcDbEntity
8
1-2
6
CONTINUOUS
62
3
100
AcDbLine
10
1465.170000000000
20
269.310000000000
30
0.0
11
1500.130000000000
21
269.310000000000
31
0.0
0
LINE
5
4c5
100
AcDbEntity
8
1-2
6
CONTINUOUS
62
3
100
AcDbLine
10
1500.130000000000
20
268.310000000000
30
0.0
11
1465.170000000000
21
268.310000000000
31
0.0
0
LINE
5
4c6
100
AcDbEntity
8
1-2
6
CONTINUOUS
62
3
100
AcDbLine
10
1157.830000000000
20
239.310000000000
30
0.0
11
1179.500000000000
21
239.310000000000
31
0.0
0
LINE
5
4c7
100
AcDbEntity
8
1-2
6
CONTINUOUS
62
3
100
AcDbLine
10
1451.160000000000
20
239.310000000000
30
0.0
11
1429.500000000000
21
239.310000000000
31
0.0
0
LINE
5
4c8
100
AcDbEntity
8
0-0
6
CONTINUOUS
62
7
100
AcDbLine
10
630.470000000000
20
888.030000000000
30
0.0
11
630.470000000000
21
903.030000000000
31
0.0
0
LINE
5
4c9
100
AcDbEntity
8
0-0
6
CONTINUOUS
62
7
100
AcDbLine
10
505.470000000000
20
903.030000000000
30
0.0
11
630.470000000000
21
903.030000000000
31
0.0
0
LINE
5
4ca
100
AcDbEntity
8
0-0
6
CONTINUOUS
62
7
100
AcDbLine
10
284.470000000000
20
382.040000000000
30
0.0
11
284.470000000000
21
367.040000000000
31
0.0
0
LINE
5
4cb
100
AcDbEntity
8
0-0
6
CONTINUOUS
62
7
100
AcDbLine
10
505.470000000000
20
438.040000000000
30
0.0
11
505.470000000000
21
453.040000000000
31
0.0
0
LINE
5
4cc
100
AcDbEntity
8
0-0
6
CONTINUOUS
62
7
100
AcDbLine
10
540.470000000000
20
438.040000000000
30
0.0
11
540.470000000000
21
453.040000000000
31
0.0
0
LINE
5
4cd
100
AcDbEntity
8
0-0
6
CONTINUOUS
62
7
100
AcDbLine
10
510.970000000000
20
367.040000000000
30
0.0
11
534.970000000000
21
367.040000000000
31
0.0
0
LINE
5
4ce
100
AcDbEntity
8
0-0
6
CONTINUOUS
62
7
100
AcDbLine
10
511.470000000000
20
382.040000000000
30
0.0
11
511.470000000000
21
367.040000000000
31
0.0
0
LINE
5
4cf
100
AcDbEntity
8
0-0
6
CONTINUOUS
62
7
100
AcDbLine
10
534.470000000000
20
382.040000000000
30
0.0
11
534.470000000000
21
367.040000000000
31
0.0
0
POLYLINE
5
4d0
100
AcDbEntity
8
0-0
6
CONTINUOUS
62
  7
100
AcDb2dPolyline
66
1
10
0.0
20
0.0
30
0.0
70
0
0
VERTEX
5
4d1
100
AcDbEntity
8
0-0
6
CONTINUOUS
62
  7
100
AcDbVertex
100
AcDb2dVertex
10
272.970000000000
20
473.040000000000
30
0.0
0
VERTEX
5
4d2
100
AcDbEntity
8
0-0
6
CONTINUOUS
62
  7
100
AcDbVertex
100
AcDb2dVertex
10
392.970000000000
20
473.040000000000
30
0.0
0
VERTEX
5
4d3
100
AcDbEntity
8
0-0
6
CONTINUOUS
62
  7
100
AcDbVertex
100
AcDb2dVertex
10
512.970000000000
20
473.040000000000
30
0.0
0
VERTEX
5
4d4
100
AcDbEntity
8
0-0
6
CONTINUOUS
62
  7
100
AcDbVertex
100
AcDb2dVertex
10
632.970000000000
20
473.040000000000
30
0.0
0
VERTEX
5
4d5
100
AcDbEntity
8
0-0
6
CONTINUOUS
62
  7
100
AcDbVertex
100
AcDb2dVertex
10
752.970000000000
20
473.040000000000
30
0.0
0
VERTEX
5
4d6
100
AcDbEntity
8
0-0
6
CONTINUOUS
62
  7
100
AcDbVertex
100
AcDb2dVertex
10
872.970000000000
20
473.040000000000
30
0.0
0
SEQEND
5
4d7
100
AcDbEntity
8
0-0
0
LINE
5
4d8
100
AcDbEntity
8
0-0
6
CONTINUOUS
62
7
100
AcDbLine
10
397.970000000000
20
473.040000000000
30
0.0
11
397.970000000000
21
425.880000000000
31
0.0
0
LINE
5
4d9
100
AcDbEntity
8
0-0
6
CONTINUOUS
62
7
100
AcDbLine
10
522.970000000000
20
454.620000000000
30
0.0
11
522.970000000000
21
425.880000000000
31
0.0
0
LINE
5
4da
100
AcDbEntity
8
0-0
6
CONTINUOUS
62
7
100
AcDbLine
10
522.970000000000
20
473.040000000000
30
0.0
11
522.970000000000
21
467.810000000000
31
0.0
0
LINE
5
4db
100
AcDbEntity
8
0-0
6
CONTINUOUS
62
7
100
AcDbLine
10
1022.970000000000
20
493.040000000000
30
0.0
11
1022.970000000000
21
425.880000000000
31
0.0
0
LINE
5
4dc
100
AcDbEntity
8
0-0
6
CONTINUOUS
62
7
100
AcDbLine
10
272.970000000000
20
493.040000000000
30
0.0
11
272.970000000000
21
425.880000000000
31
0.0
0
LINE
5
4dd
100
AcDbEntity
8
0-0
6
CONTINUOUS
62
7
100
AcDbLine
10
1034.970000000000
20
382.040000000000
30
0.0
11
1034.970000000000
21
367.040000000000
31
0.0
0
LINE
5
4de
100
AcDbEntity
8
0-0
6
CONTINUOUS
62
3
100
AcDbLine
10
534.260000000000
20
402.840000000000
30
0.0
11
539.880000000000
21
416.420000000000
31
0.0
0
LINE
5
4df
100
AcDbEntity
8
0-0
6
CONTINUOUS
62
3
100
AcDbLine
10
540.340000000000
20
416.230000000000
30
0.0
11
534.730000000000
21
402.650000000000
31
0.0
0
LINE
5
4e0
100
AcDbEntity
8
0-0
6
CONTINUOUS
62
3
100
AcDbLine
10
533.800000000000
20
402.040000000000
30
0.0
11
522.970000000000
21
402.040000000000
31
0.0
0
LINE
5
4e1
100
AcDbEntity
8
0-0
6
CONTINUOUS
62
3
100
AcDbLine
10
533.800000000000
20
402.540000000000
30
0.0
11
522.970000000000
21
402.540000000000
31
0.0
0
LINE
5
4e2
100
AcDbEntity
8
0-0
6
CONTINUOUS
62
3
100
AcDbLine
10
511.680000000000
20
402.840000000000
30
0.0
11
506.060000000000
21
416.420000000000
31
0.0
0
LINE
5
4e3
100
AcDbEntity
8
0-0
6
CONTINUOUS
62
3
100
AcDbLine
10
505.600000000000
20
416.230000000000
30
0.0
11
511.220000000000
21
402.650000000000
31
0.0
0
LINE
5
4e4
100
AcDbEntity
8
0-0
6
CONTINUOUS
62
3
100
AcDbLine
10
512.140000000000
20
402.040000000000
30
0.0
11
522.970000000000
21
402.040000000000
31
0.0
0
LINE
5
4e5
100
AcDbEntity
8
0-0
6
CONTINUOUS
62
3
100
AcDbLine
10
512.140000000000
20
402.540000000000
30
0.0
11
522.970000000000
21
402.540000000000
31
0.0
0
LINE
5
4e6
100
AcDbEntity
8
0-0
6
CONTINUOUS
62
3
100
AcDbLine
10
386.680000000000
20
402.840000000000
30
0.0
11
381.060000000000
21
416.420000000000
31
0.0
0
LINE
5
4e7
100
AcDbEntity
8
0-0
6
CONTINUOUS
62
3
100
AcDbLine
10
380.600000000000
20
416.230000000000
30
0.0
11
386.220000000000
21
402.650000000000
31
0.0
0
LINE
5
4e8
100
AcDbEntity
8
0-0
6
CONTINUOUS
62
3
100
AcDbLine
10
387.140000000000
20
402.040000000000
30
0.0
11
397.970000000000
21
402.040000000000
31
0.0
0
LINE
5
4e9
100
AcDbEntity
8
0-0
6
CONTINUOUS
62
3
100
AcDbLine
10
387.140000000000
20
402.540000000000
30
0.0
11
397.970000000000
21
402.540000000000
31
0.0
0
LINE
5
4ea
100
AcDbEntity
8
0-0
6
CONTINUOUS
62
3
100
AcDbLine
10
409.260000000000
20
402.840000000000
30
0.0
11
414.880000000000
21
416.420000000000
31
0.0
0
LINE
5
4eb
100
AcDbEntity
8
0-0
6
CONTINUOUS
62
3
100
AcDbLine
10
415.340000000000
20
416.230000000000
30
0.0
11
409.730000000000
21
402.650000000000
31
0.0
0
LINE
5
4ec
100
AcDbEntity
8
0-0
6
CONTINUOUS
62
3
100
AcDbLine
10
408.800000000000
20
402.040000000000
30
0.0
11
397.970000000000
21
402.040000000000
31
0.0
0
LINE
5
4ed
100
AcDbEntity
8
0-0
6
CONTINUOUS
62
3
100
AcDbLine
10
408.800000000000
20
402.540000000000
30
0.0
11
397.970000000000
21
402.540000000000
31
0.0
0
LINE
5
4ee
100
AcDbEntity
8
0-0
6
CONTINUOUS
62
3
100
AcDbLine
10
636.680000000000
20
402.840000000000
30
0.0
11
631.060000000000
21
416.420000000000
31
0.0
0
LINE
5
4ef
100
AcDbEntity
8
0-0
6
CONTINUOUS
62
3
100
AcDbLine
10
630.600000000000
20
416.230000000000
30
0.0
11
636.220000000000
21
402.650000000000
31
0.0
0
LINE
5
4f0
100
AcDbEntity
8
0-0
6
CONTINUOUS
62
3
100
AcDbLine
10
637.140000000000
20
402.040000000000
30
0.0
11
647.970000000000
21
402.040000000000
31
0.0
0
LINE
5
4f1
100
AcDbEntity
8
0-0
6
CONTINUOUS
62
3
100
AcDbLine
10
637.140000000000
20
402.540000000000
30
0.0
11
647.970000000000
21
402.540000000000
31
0.0
0
LINE
5
4f2
100
AcDbEntity
8
0-0
6
CONTINUOUS
62
3
100
AcDbLine
10
659.260000000000
20
402.840000000000
30
0.0
11
664.880000000000
21
416.420000000000
31
0.0
0
LINE
5
4f3
100
AcDbEntity
8
0-0
6
CONTINUOUS
62
3
100
AcDbLine
10
665.340000000000
20
416.230000000000
30
0.0
11
659.730000000000
21
402.650000000000
31
0.0
0
LINE
5
4f4
100
AcDbEntity
8
0-0
6
CONTINUOUS
62
3
100
AcDbLine
10
658.800000000000
20
402.040000000000
30
0.0
11
647.970000000000
21
402.040000000000
31
0.0
0
LINE
5
4f5
100
AcDbEntity
8
0-0
6
CONTINUOUS
62
3
100
AcDbLine
10
658.800000000000
20
402.540000000000
30
0.0
11
647.970000000000
21
402.540000000000
31
0.0
0
LINE
5
4f6
100
AcDbEntity
8
0-0
6
CONTINUOUS
62
7
100
AcDbLine
10
772.970000000000
20
473.040000000000
30
0.0
11
772.970000000000
21
425.880000000000
31
0.0
0
LINE
5
4f7
100
AcDbEntity
8
0-0
6
CONTINUOUS
62
3
100
AcDbLine
10
761.680000000000
20
402.840000000000
30
0.0
11
756.060000000000
21
416.420000000000
31
0.0
0
LINE
5
4f8
100
AcDbEntity
8
0-0
6
CONTINUOUS
62
3
100
AcDbLine
10
755.600000000000
20
416.230000000000
30
0.0
11
761.220000000000
21
402.650000000000
31
0.0
0
LINE
5
4f9
100
AcDbEntity
8
0-0
6
CONTINUOUS
62
3
100
AcDbLine
10
762.140000000000
20
402.040000000000
30
0.0
11
772.970000000000
21
402.040000000000
31
0.0
0
LINE
5
4fa
100
AcDbEntity
8
0-0
6
CONTINUOUS
62
3
100
AcDbLine
10
762.140000000000
20
402.540000000000
30
0.0
11
772.970000000000
21
402.540000000000
31
0.0
0
LINE
5
4fb
100
AcDbEntity
8
0-0
6
CONTINUOUS
62
3
100
AcDbLine
10
784.260000000000
20
402.840000000000
30
0.0
11
789.880000000000
21
416.420000000000
31
0.0
0
LINE
5
4fc
100
AcDbEntity
8
0-0
6
CONTINUOUS
62
3
100
AcDbLine
10
790.340000000000
20
416.230000000000
30
0.0
11
784.730000000000
21
402.650000000000
31
0.0
0
LINE
5
4fd
100
AcDbEntity
8
0-0
6
CONTINUOUS
62
3
100
AcDbLine
10
783.800000000000
20
402.040000000000
30
0.0
11
772.970000000000
21
402.040000000000
31
0.0
0
LINE
5
4fe
100
AcDbEntity
8
0-0
6
CONTINUOUS
62
3
100
AcDbLine
10
783.800000000000
20
402.540000000000
30
0.0
11
772.970000000000
21
402.540000000000
31
0.0
0
LINE
5
4ff
100
AcDbEntity
8
0-0
6
CONTINUOUS
62
7
100
AcDbLine
10
897.970000000000
20
473.040000000000
30
0.0
11
897.970000000000
21
425.880000000000
31
0.0
0
LINE
5
500
100
AcDbEntity
8
0-0
6
CONTINUOUS
62
3
100
AcDbLine
10
886.680000000000
20
402.840000000000
30
0.0
11
881.060000000000
21
416.420000000000
31
0.0
0
LINE
5
501
100
AcDbEntity
8
0-0
6
CONTINUOUS
62
3
100
AcDbLine
10
880.600000000000
20
416.230000000000
30
0.0
11
886.220000000000
21
402.650000000000
31
0.0
0
LINE
5
502
100
AcDbEntity
8
0-0
6
CONTINUOUS
62
3
100
AcDbLine
10
887.140000000000
20
402.040000000000
30
0.0
11
897.970000000000
21
402.040000000000
31
0.0
0
LINE
5
503
100
AcDbEntity
8
0-0
6
CONTINUOUS
62
3
100
AcDbLine
10
887.140000000000
20
402.540000000000
30
0.0
11
897.970000000000
21
402.540000000000
31
0.0
0
LINE
5
504
100
AcDbEntity
8
0-0
6
CONTINUOUS
62
3
100
AcDbLine
10
909.260000000000
20
402.840000000000
30
0.0
11
914.880000000000
21
416.420000000000
31
0.0
0
LINE
5
505
100
AcDbEntity
8
0-0
6
CONTINUOUS
62
3
100
AcDbLine
10
915.340000000000
20
416.230000000000
30
0.0
11
909.730000000000
21
402.650000000000
31
0.0
0
LINE
5
506
100
AcDbEntity
8
0-0
6
CONTINUOUS
62
3
100
AcDbLine
10
908.800000000000
20
402.040000000000
30
0.0
11
897.970000000000
21
402.040000000000
31
0.0
0
LINE
5
507
100
AcDbEntity
8
0-0
6
CONTINUOUS
62
3
100
AcDbLine
10
908.800000000000
20
402.540000000000
30
0.0
11
897.970000000000
21
402.540000000000
31
0.0
0
LINE
5
508
100
AcDbEntity
8
0-0
6
CONTINUOUS
62
7
100
AcDbLine
10
272.970000000000
20
493.040000000000
30
0.0
11
1022.970000000000
21
493.040000000000
31
0.0
0
LINE
5
509
100
AcDbEntity
8
0-0
6
CONTINUOUS
62
7
100
AcDbLine
10
872.970000000000
20
473.040000000000
30
0.0
11
1022.970000000000
21
473.040000000000
31
0.0
0
LINE
5
50a
100
AcDbEntity
8
0-0
6
CONTINUOUS
62
3
100
AcDbLine
10
283.980000000000
20
402.740000000000
30
0.0
11
272.970000000000
21
402.740000000000
31
0.0
0
LINE
5
50b
100
AcDbEntity
8
0-0
6
CONTINUOUS
62
3
100
AcDbLine
10
283.980000000000
20
403.240000000000
30
0.0
11
272.970000000000
21
403.240000000000
31
0.0
0
LINE
5
50c
100
AcDbEntity
8
0-0
6
CONTINUOUS
62
3
100
AcDbLine
10
284.450000000000
20
403.540000000000
30
0.0
11
289.770000000000
21
416.420000000000
31
0.0
0
LINE
5
50d
100
AcDbEntity
8
0-0
6
CONTINUOUS
62
3
100
AcDbLine
10
1005.600000000000
20
416.230000000000
30
0.0
11
1011.220000000000
21
402.650000000000
31
0.0
0
LINE
5
50e
100
AcDbEntity
8
0-0
6
CONTINUOUS
62
3
100
AcDbLine
10
1012.140000000000
20
402.040000000000
30
0.0
11
1022.970000000000
21
402.040000000000
31
0.0
0
LINE
5
50f
100
AcDbEntity
8
0-0
6
CONTINUOUS
62
3
100
AcDbLine
10
1012.140000000000
20
402.540000000000
30
0.0
11
1022.970000000000
21
402.540000000000
31
0.0
0
LINE
5
510
100
AcDbEntity
8
0-0
6
CONTINUOUS
62
3
100
AcDbLine
10
1006.060000000000
20
416.420000000000
30
0.0
11
1011.680000000000
21
402.840000000000
31
0.0
0
LINE
5
511
100
AcDbEntity
8
0-0
6
CONTINUOUS
62
3
100
AcDbLine
10
1034.450000000000
20
402.540000000000
30
0.0
11
1022.970000000000
21
402.540000000000
31
0.0
0
LINE
5
512
100
AcDbEntity
8
0-0
6
CONTINUOUS
62
3
100
AcDbLine
10
1034.910000000000
20
402.840000000000
30
0.0
11
1040.240000000000
21
415.720000000000
31
0.0
0
LINE
5
513
100
AcDbEntity
8
0-0
6
CONTINUOUS
62
3
100
AcDbLine
10
1034.450000000000
20
402.040000000000
30
0.0
11
1022.970000000000
21
402.040000000000
31
0.0
0
LINE
5
514
100
AcDbEntity
8
0-0
6
CONTINUOUS
62
3
100
AcDbLine
10
1040.700000000000
20
415.530000000000
30
0.0
11
1035.380000000000
21
402.650000000000
31
0.0
0
LINE
5
515
100
AcDbEntity
8
0-0
6
CONTINUOUS
62
7
100
AcDbLine
10
630.470000000000
20
438.040000000000
30
0.0
11
630.470000000000
21
453.040000000000
31
0.0
0
LINE
5
516
100
AcDbEntity
8
0-0
6
CONTINUOUS
62
3
100
AcDbLine
10
312.560000000000
20
415.540000000000
30
0.0
11
335.470000000000
21
415.540000000000
31
0.0
0
LINE
5
517
100
AcDbEntity
8
0-0
6
CONTINUOUS
62
3
100
AcDbLine
10
308.470000000000
20
416.500000000000
30
0.0
11
312.210000000000
21
415.100000000000
31
0.0
0
LINE
5
518
100
AcDbEntity
8
0-0
6
CONTINUOUS
62
3
100
AcDbLine
10
312.560000000000
20
415.040000000000
30
0.0
11
335.470000000000
21
415.040000000000
31
0.0
0
LINE
5
519
100
AcDbEntity
8
0-0
6
CONTINUOUS
62
3
100
AcDbLine
10
312.390000000000
20
415.570000000000
30
0.0
11
308.640000000000
21
416.970000000000
31
0.0
0
LINE
5
51a
100
AcDbEntity
8
0-0
6
CONTINUOUS
62
3
100
AcDbLine
10
358.380000000000
20
415.540000000000
30
0.0
11
335.470000000000
21
415.540000000000
31
0.0
0
LINE
5
51b
100
AcDbEntity
8
0-0
6
CONTINUOUS
62
3
100
AcDbLine
10
362.480000000000
20
416.500000000000
30
0.0
11
358.730000000000
21
415.100000000000
31
0.0
0
LINE
5
51c
100
AcDbEntity
8
0-0
6
CONTINUOUS
62
3
100
AcDbLine
10
358.380000000000
20
415.040000000000
30
0.0
11
335.470000000000
21
415.040000000000
31
0.0
0
LINE
5
51d
100
AcDbEntity
8
0-0
6
CONTINUOUS
62
3
100
AcDbLine
10
358.560000000000
20
415.570000000000
30
0.0
11
362.300000000000
21
416.970000000000
31
0.0
0
LINE
5
51e
100
AcDbEntity
8
0-0
6
CONTINUOUS
62
3
100
AcDbLine
10
380.140000000000
20
417.040000000000
30
0.0
11
362.650000000000
21
417.040000000000
31
0.0
0
LINE
5
51f
100
AcDbEntity
8
0-0
6
CONTINUOUS
62
3
100
AcDbLine
10
362.650000000000
20
416.540000000000
30
0.0
11
380.140000000000
21
416.540000000000
31
0.0
0
LINE
5
520
100
AcDbEntity
8
0-0
6
CONTINUOUS
62
3
100
AcDbLine
10
290.700000000000
20
416.540000000000
30
0.0
11
308.290000000000
21
416.540000000000
31
0.0
0
LINE
5
521
100
AcDbEntity
8
0-0
6
CONTINUOUS
62
3
100
AcDbLine
10
290.240000000000
20
416.230000000000
30
0.0
11
284.910000000000
21
403.350000000000
31
0.0
0
LINE
5
522
100
AcDbEntity
8
0-0
6
CONTINUOUS
62
3
100
AcDbLine
10
290.700000000000
20
417.040000000000
30
0.0
11
308.290000000000
21
417.040000000000
31
0.0
0
LINE
5
523
100
AcDbEntity
8
0-0
6
CONTINUOUS
62
3
100
AcDbLine
10
437.560000000000
20
415.540000000000
30
0.0
11
460.470000000000
21
415.540000000000
31
0.0
0
LINE
5
524
100
AcDbEntity
8
0-0
6
CONTINUOUS
62
3
100
AcDbLine
10
433.470000000000
20
416.500000000000
30
0.0
11
437.210000000000
21
415.100000000000
31
0.0
0
LINE
5
525
100
AcDbEntity
8
0-0
6
CONTINUOUS
62
3
100
AcDbLine
10
437.560000000000
20
415.040000000000
30
0.0
11
460.470000000000
21
415.040000000000
31
0.0
0
LINE
5
526
100
AcDbEntity
8
0-0
6
CONTINUOUS
62
3
100
AcDbLine
10
437.390000000000
20
415.570000000000
30
0.0
11
433.640000000000
21
416.970000000000
31
0.0
0
LINE
5
527
100
AcDbEntity
8
0-0
6
CONTINUOUS
62
3
100
AcDbLine
10
483.380000000000
20
415.540000000000
30
0.0
11
460.470000000000
21
415.540000000000
31
0.0
0
LINE
5
528
100
AcDbEntity
8
0-0
6
CONTINUOUS
62
3
100
AcDbLine
10
487.480000000000
20
416.500000000000
30
0.0
11
483.730000000000
21
415.100000000000
31
0.0
0
LINE
5
529
100
AcDbEntity
8
0-0
6
CONTINUOUS
62
3
100
AcDbLine
10
483.380000000000
20
415.040000000000
30
0.0
11
460.470000000000
21
415.040000000000
31
0.0
0
LINE
5
52a
100
AcDbEntity
8
0-0
6
CONTINUOUS
62
3
100
AcDbLine
10
483.560000000000
20
415.570000000000
30
0.0
11
487.300000000000
21
416.970000000000
31
0.0
0
LINE
5
52b
100
AcDbEntity
8
0-0
6
CONTINUOUS
62
3
100
AcDbLine
10
505.140000000000
20
417.040000000000
30
0.0
11
487.650000000000
21
417.040000000000
31
0.0
0
LINE
5
52c
100
AcDbEntity
8
0-0
6
CONTINUOUS
62
3
100
AcDbLine
10
487.650000000000
20
416.540000000000
30
0.0
11
505.140000000000
21
416.540000000000
31
0.0
0
LINE
5
52d
100
AcDbEntity
8
0-0
6
CONTINUOUS
62
3
100
AcDbLine
10
415.700000000000
20
416.540000000000
30
0.0
11
433.290000000000
21
416.540000000000
31
0.0
0
LINE
5
52e
100
AcDbEntity
8
0-0
6
CONTINUOUS
62
3
100
AcDbLine
10
415.700000000000
20
417.040000000000
30
0.0
11
433.290000000000
21
417.040000000000
31
0.0
0
LINE
5
52f
100
AcDbEntity
8
0-0
6
CONTINUOUS
62
3
100
AcDbLine
10
562.560000000000
20
415.540000000000
30
0.0
11
585.470000000000
21
415.540000000000
31
0.0
0
LINE
5
530
100
AcDbEntity
8
0-0
6
CONTINUOUS
62
3
100
AcDbLine
10
558.470000000000
20
416.500000000000
30
0.0
11
562.210000000000
21
415.100000000000
31
0.0
0
LINE
5
531
100
AcDbEntity
8
0-0
6
CONTINUOUS
62
3
100
AcDbLine
10
562.560000000000
20
415.040000000000
30
0.0
11
585.470000000000
21
415.040000000000
31
0.0
0
LINE
5
532
100
AcDbEntity
8
0-0
6
CONTINUOUS
62
3
100
AcDbLine
10
562.390000000000
20
415.570000000000
30
0.0
11
558.640000000000
21
416.970000000000
31
0.0
0
LINE
5
533
100
AcDbEntity
8
0-0
6
CONTINUOUS
62
3
100
AcDbLine
10
608.380000000000
20
415.540000000000
30
0.0
11
585.470000000000
21
415.540000000000
31
0.0
0
LINE
5
534
100
AcDbEntity
8
0-0
6
CONTINUOUS
62
3
100
AcDbLine
10
612.480000000000
20
416.500000000000
30
0.0
11
608.730000000000
21
415.100000000000
31
0.0
0
LINE
5
535
100
AcDbEntity
8
0-0
6
CONTINUOUS
62
3
100
AcDbLine
10
608.380000000000
20
415.040000000000
30
0.0
11
585.470000000000
21
415.040000000000
31
0.0
0
LINE
5
536
100
AcDbEntity
8
0-0
6
CONTINUOUS
62
3
100
AcDbLine
10
608.560000000000
20
415.570000000000
30
0.0
11
612.300000000000
21
416.970000000000
31
0.0
0
LINE
5
537
100
AcDbEntity
8
0-0
6
CONTINUOUS
62
3
100
AcDbLine
10
630.140000000000
20
417.040000000000
30
0.0
11
612.650000000000
21
417.040000000000
31
0.0
0
LINE
5
538
100
AcDbEntity
8
0-0
6
CONTINUOUS
62
3
100
AcDbLine
10
612.650000000000
20
416.540000000000
30
0.0
11
630.140000000000
21
416.540000000000
31
0.0
0
LINE
5
539
100
AcDbEntity
8
0-0
6
CONTINUOUS
62
3
100
AcDbLine
10
540.700000000000
20
416.540000000000
30
0.0
11
558.290000000000
21
416.540000000000
31
0.0
0
LINE
5
53a
100
AcDbEntity
8
0-0
6
CONTINUOUS
62
3
100
AcDbLine
10
540.700000000000
20
417.040000000000
30
0.0
11
558.290000000000
21
417.040000000000
31
0.0
0
LINE
5
53b
100
AcDbEntity
8
0-0
6
CONTINUOUS
62
3
100
AcDbLine
10
687.560000000000
20
415.540000000000
30
0.0
11
710.470000000000
21
415.540000000000
31
0.0
0
LINE
5
53c
100
AcDbEntity
8
0-0
6
CONTINUOUS
62
3
100
AcDbLine
10
683.470000000000
20
416.500000000000
30
0.0
11
687.210000000000
21
415.100000000000
31
0.0
0
LINE
5
53d
100
AcDbEntity
8
0-0
6
CONTINUOUS
62
3
100
AcDbLine
10
687.560000000000
20
415.040000000000
30
0.0
11
710.470000000000
21
415.040000000000
31
0.0
0
LINE
5
53e
100
AcDbEntity
8
0-0
6
CONTINUOUS
62
3
100
AcDbLine
10
687.390000000000
20
415.570000000000
30
0.0
11
683.640000000000
21
416.970000000000
31
0.0
0
LINE
5
53f
100
AcDbEntity
8
0-0
6
CONTINUOUS
62
3
100
AcDbLine
10
733.380000000000
20
415.540000000000
30
0.0
11
710.470000000000
21
415.540000000000
31
0.0
0
LINE
5
540
100
AcDbEntity
8
0-0
6
CONTINUOUS
62
3
100
AcDbLine
10
737.480000000000
20
416.500000000000
30
0.0
11
733.730000000000
21
415.100000000000
31
0.0
0
LINE
5
541
100
AcDbEntity
8
0-0
6
CONTINUOUS
62
3
100
AcDbLine
10
733.380000000000
20
415.040000000000
30
0.0
11
710.470000000000
21
415.040000000000
31
0.0
0
LINE
5
542
100
AcDbEntity
8
0-0
6
CONTINUOUS
62
3
100
AcDbLine
10
733.560000000000
20
415.570000000000
30
0.0
11
737.300000000000
21
416.970000000000
31
0.0
0
LINE
5
543
100
AcDbEntity
8
0-0
6
CONTINUOUS
62
3
100
AcDbLine
10
755.140000000000
20
417.040000000000
30
0.0
11
737.650000000000
21
417.040000000000
31
0.0
0
LINE
5
544
100
AcDbEntity
8
0-0
6
CONTINUOUS
62
3
100
AcDbLine
10
737.650000000000
20
416.540000000000
30
0.0
11
755.140000000000
21
416.540000000000
31
0.0
0
LINE
5
545
100
AcDbEntity
8
0-0
6
CONTINUOUS
62
3
100
AcDbLine
10
665.700000000000
20
416.540000000000
30
0.0
11
683.290000000000
21
416.540000000000
31
0.0
0
LINE
5
546
100
AcDbEntity
8
0-0
6
CONTINUOUS
62
3
100
AcDbLine
10
665.700000000000
20
417.040000000000
30
0.0
11
683.290000000000
21
417.040000000000
31
0.0
0
LINE
5
547
100
AcDbEntity
8
0-0
6
CONTINUOUS
62
3
100
AcDbLine
10
812.560000000000
20
415.540000000000
30
0.0
11
835.470000000000
21
415.540000000000
31
0.0
0
LINE
5
548
100
AcDbEntity
8
0-0
6
CONTINUOUS
62
3
100
AcDbLine
10
808.470000000000
20
416.500000000000
30
0.0
11
812.210000000000
21
415.100000000000
31
0.0
0
LINE
5
549
100
AcDbEntity
8
0-0
6
CONTINUOUS
62
3
100
AcDbLine
10
812.560000000000
20
415.040000000000
30
0.0
11
835.470000000000
21
415.040000000000
31
0.0
0
LINE
5
54a
100
AcDbEntity
8
0-0
6
CONTINUOUS
62
3
100
AcDbLine
10
812.390000000000
20
415.570000000000
30
0.0
11
808.640000000000
21
416.970000000000
31
0.0
0
LINE
5
54b
100
AcDbEntity
8
0-0
6
CONTINUOUS
62
3
100
AcDbLine
10
858.380000000000
20
415.540000000000
30
0.0
11
835.470000000000
21
415.540000000000
31
0.0
0
LINE
5
54c
100
AcDbEntity
8
0-0
6
CONTINUOUS
62
3
100
AcDbLine
10
862.480000000000
20
416.500000000000
30
0.0
11
858.730000000000
21
415.100000000000
31
0.0
0
LINE
5
54d
100
AcDbEntity
8
0-0
6
CONTINUOUS
62
3
100
AcDbLine
10
858.380000000000
20
415.040000000000
30
0.0
11
835.470000000000
21
415.040000000000
31
0.0
0
LINE
5
54e
100
AcDbEntity
8
0-0
6
CONTINUOUS
62
3
100
AcDbLine
10
858.560000000000
20
415.570000000000
30
0.0
11
862.300000000000
21
416.970000000000
31
0.0
0
LINE
5
54f
100
AcDbEntity
8
0-0
6
CONTINUOUS
62
3
100
AcDbLine
10
880.140000000000
20
417.040000000000
30
0.0
11
862.650000000000
21
417.040000000000
31
0.0
0
LINE
5
550
100
AcDbEntity
8
0-0
6
CONTINUOUS
62
3
100
AcDbLine
10
862.650000000000
20
416.540000000000
30
0.0
11
880.140000000000
21
416.540000000000
31
0.0
0
LINE
5
551
100
AcDbEntity
8
0-0
6
CONTINUOUS
62
3
100
AcDbLine
10
790.700000000000
20
416.540000000000
30
0.0
11
808.290000000000
21
416.540000000000
31
0.0
0
LINE
5
552
100
AcDbEntity
8
0-0
6
CONTINUOUS
62
3
100
AcDbLine
10
790.700000000000
20
417.040000000000
30
0.0
11
808.290000000000
21
417.040000000000
31
0.0
0
LINE
5
553
100
AcDbEntity
8
0-0
6
CONTINUOUS
62
3
100
AcDbLine
10
937.560000000000
20
415.540000000000
30
0.0
11
960.470000000000
21
415.540000000000
31
0.0
0
LINE
5
554
100
AcDbEntity
8
0-0
6
CONTINUOUS
62
3
100
AcDbLine
10
933.470000000000
20
416.500000000000
30
0.0
11
937.210000000000
21
415.100000000000
31
0.0
0
LINE
5
555
100
AcDbEntity
8
0-0
6
CONTINUOUS
62
3
100
AcDbLine
10
937.560000000000
20
415.040000000000
30
0.0
11
960.470000000000
21
415.040000000000
31
0.0
0
LINE
5
556
100
AcDbEntity
8
0-0
6
CONTINUOUS
62
3
100
AcDbLine
10
937.390000000000
20
415.570000000000
30
0.0
11
933.640000000000
21
416.970000000000
31
0.0
0
LINE
5
557
100
AcDbEntity
8
0-0
6
CONTINUOUS
62
3
100
AcDbLine
10
983.380000000000
20
415.540000000000
30
0.0
11
960.470000000000
21
415.540000000000
31
0.0
0
LINE
5
558
100
AcDbEntity
8
0-0
6
CONTINUOUS
62
3
100
AcDbLine
10
987.480000000000
20
416.500000000000
30
0.0
11
983.730000000000
21
415.100000000000
31
0.0
0
LINE
5
559
100
AcDbEntity
8
0-0
6
CONTINUOUS
62
3
100
AcDbLine
10
983.380000000000
20
415.040000000000
30
0.0
11
960.470000000000
21
415.040000000000
31
0.0
0
LINE
5
55a
100
AcDbEntity
8
0-0
6
CONTINUOUS
62
3
100
AcDbLine
10
983.560000000000
20
415.570000000000
30
0.0
11
987.300000000000
21
416.970000000000
31
0.0
0
LINE
5
55b
100
AcDbEntity
8
0-0
6
CONTINUOUS
62
3
100
AcDbLine
10
1005.140000000000
20
417.040000000000
30
0.0
11
987.650000000000
21
417.040000000000
31
0.0
0
LINE
5
55c
100
AcDbEntity
8
0-0
6
CONTINUOUS
62
3
100
AcDbLine
10
987.650000000000
20
416.540000000000
30
0.0
11
1005.140000000000
21
416.540000000000
31
0.0
0
LINE
5
55d
100
AcDbEntity
8
0-0
6
CONTINUOUS
62
3
100
AcDbLine
10
915.700000000000
20
416.540000000000
30
0.0
11
933.290000000000
21
416.540000000000
31
0.0
0
LINE
5
55e
100
AcDbEntity
8
0-0
6
CONTINUOUS
62
3
100
AcDbLine
10
915.700000000000
20
417.040000000000
30
0.0
11
933.290000000000
21
417.040000000000
31
0.0
0
LINE
5
55f
100
AcDbEntity
8
0-0
6
CONTINUOUS
62
7
100
AcDbLine
10
487.470000000000
20
438.040000000000
30
0.0
11
487.470000000000
21
453.040000000000
31
0.0
0
LINE
5
560
100
AcDbEntity
8
0-0
6
CONTINUOUS
62
7
100
AcDbLine
10
433.470000000000
20
438.040000000000
30
0.0
11
433.470000000000
21
453.040000000000
31
0.0
0
LINE
5
561
100
AcDbEntity
8
0-0
6
CONTINUOUS
62
7
100
AcDbLine
10
415.470000000000
20
438.040000000000
30
0.0
11
415.470000000000
21
453.040000000000
31
0.0
0
LINE
5
562
100
AcDbEntity
8
0-0
6
CONTINUOUS
62
7
100
AcDbLine
10
483.470000000000
20
382.040000000000
30
0.0
11
483.470000000000
21
367.040000000000
31
0.0
0
LINE
5
563
100
AcDbEntity
8
0-0
6
CONTINUOUS
62
7
100
AcDbLine
10
415.470000000000
20
453.040000000000
30
0.0
11
630.470000000000
21
453.040000000000
31
0.0
0
POLYLINE
5
564
100
AcDbEntity
8
0-0
6
CONTINUOUS
62
  7
100
AcDb2dPolyline
66
1
10
0.0
20
0.0
30
0.0
70
0
0
VERTEX
5
565
100
AcDbEntity
8
0-0
6
CONTINUOUS
62
  7
100
AcDbVertex
100
AcDb2dVertex
10
437.470000000000
20
382.040000000000
30
0.0
0
VERTEX
5
566
100
AcDbEntity
8
0-0
6
CONTINUOUS
62
  7
100
AcDbVertex
100
AcDb2dVertex
10
437.470000000000
20
367.040000000000
30
0.0
0
VERTEX
5
567
100
AcDbEntity
8
0-0
6
CONTINUOUS
62
  7
100
AcDbVertex
100
AcDb2dVertex
10
483.970000000000
20
367.040000000000
30
0.0
0
SEQEND
5
568
100
AcDbEntity
8
0-0
0
POLYLINE
5
569
100
AcDbEntity
8
0-0
6
CONTINUOUS
62
  7
100
AcDb2dPolyline
66
1
10
0.0
20
0.0
30
0.0
70
0
0
VERTEX
5
56a
100
AcDbEntity
8
0-0
6
CONTINUOUS
62
  7
100
AcDbVertex
100
AcDb2dVertex
10
542.170000000000
20
402.040000000000
30
0.0
0
VERTEX
5
56b
100
AcDbEntity
8
0-0
6
CONTINUOUS
62
  7
100
AcDbVertex
100
AcDb2dVertex
10
556.380000000000
20
402.040000000000
30
0.0
0
VERTEX
5
56c
100
AcDbEntity
8
0-0
6
CONTINUOUS
62
  7
100
AcDbVertex
100
AcDb2dVertex
10
556.380000000000
20
417.040000000000
30
0.0
0
SEQEND
5
56d
100
AcDbEntity
8
0-0
0
LINE
5
56e
100
AcDbEntity
8
0-0
6
CONTINUOUS
62
7
100
AcDbLine
10
575.880000000000
20
415.540000000000
30
0.0
11
575.880000000000
21
417.040000000000
31
0.0
0
LINE
5
56f
100
AcDbEntity
8
0-0
6
CONTINUOUS
62
7
100
AcDbLine
10
566.470000000000
20
417.040000000000
30
0.0
11
575.880000000000
21
417.040000000000
31
0.0
0
LINE
5
570
100
AcDbEntity
8
1-2
6
CONTINUOUS
62
3
100
AcDbLine
10
1270.110000000000
20
617.690000000000
30
0.0
11
1281.340000000000
21
590.540000000000
31
0.0
0
LINE
5
571
100
AcDbEntity
8
1-2
6
CONTINUOUS
62
3
100
AcDbLine
10
1283.190000000000
20
589.310000000000
30
0.0
11
1304.850000000000
21
589.310000000000
31
0.0
0
LINE
5
572
100
AcDbEntity
8
1-2
6
CONTINUOUS
62
3
100
AcDbLine
10
1283.190000000000
20
590.310000000000
30
0.0
11
1304.850000000000
21
590.310000000000
31
0.0
0
LINE
5
573
100
AcDbEntity
8
1-2
6
CONTINUOUS
62
3
100
AcDbLine
10
1271.030000000000
20
618.070000000000
30
0.0
11
1282.260000000000
21
590.920000000000
31
0.0
0
LINE
5
574
100
AcDbEntity
8
1-2
6
CONTINUOUS
62
3
100
AcDbLine
10
1269.180000000000
20
618.310000000000
30
0.0
11
1179.850000000000
21
618.310000000000
31
0.0
0
LINE
5
575
100
AcDbEntity
8
1-2
6
CONTINUOUS
62
3
100
AcDbLine
10
1269.180000000000
20
619.310000000000
30
0.0
11
1179.850000000000
21
619.310000000000
31
0.0
0
LINE
5
576
100
AcDbEntity
8
1-2
6
CONTINUOUS
62
3
100
AcDbLine
10
1341.240000000000
20
616.910000000000
30
0.0
11
1381.450000000000
21
616.910000000000
31
0.0
0
LINE
5
577
100
AcDbEntity
8
1-2
6
CONTINUOUS
62
3
100
AcDbLine
10
1340.300000000000
20
618.310000000000
30
0.0
11
1429.850000000000
21
618.310000000000
31
0.0
0
LINE
5
578
100
AcDbEntity
8
1-2
6
CONTINUOUS
62
3
100
AcDbLine
10
1340.300000000000
20
619.310000000000
30
0.0
11
1429.850000000000
21
619.310000000000
31
0.0
0
LINE
5
579
100
AcDbEntity
8
1-2
6
CONTINUOUS
62
3
100
AcDbLine
10
1341.240000000000
20
617.910000000000
30
0.0
11
1381.450000000000
21
617.910000000000
31
0.0
0
LINE
5
57a
100
AcDbEntity
8
1-2
6
CONTINUOUS
62
3
100
AcDbLine
10
1327.810000000000
20
590.310000000000
30
0.0
11
1304.850000000000
21
590.310000000000
31
0.0
0
LINE
5
57b
100
AcDbEntity
8
1-2
6
CONTINUOUS
62
3
100
AcDbLine
10
1328.740000000000
20
590.920000000000
30
0.0
11
1339.390000000000
21
616.670000000000
31
0.0
0
LINE
5
57c
100
AcDbEntity
8
1-2
6
CONTINUOUS
62
3
100
AcDbLine
10
1327.810000000000
20
589.310000000000
30
0.0
11
1304.850000000000
21
589.310000000000
31
0.0
0
LINE
5
57d
100
AcDbEntity
8
1-2
6
CONTINUOUS
62
3
100
AcDbLine
10
1340.320000000000
20
616.290000000000
30
0.0
11
1329.660000000000
21
590.540000000000
31
0.0
0
LINE
5
57e
100
AcDbEntity
8
1-2
6
CONTINUOUS
62
3
100
AcDbLine
10
1326.880000000000
20
590.710000000000
30
0.0
11
1304.850000000000
21
590.710000000000
31
0.0
0
LINE
5
57f
100
AcDbEntity
8
1-2
6
CONTINUOUS
62
3
100
AcDbLine
10
1339.380000000000
20
617.690000000000
30
0.0
11
1328.730000000000
21
591.940000000000
31
0.0
0
LINE
5
580
100
AcDbEntity
8
1-2
6
CONTINUOUS
62
3
100
AcDbLine
10
1326.880000000000
20
591.710000000000
30
0.0
11
1304.850000000000
21
591.710000000000
31
0.0
0
LINE
5
581
100
AcDbEntity
8
1-2
6
CONTINUOUS
62
3
100
AcDbLine
10
1327.800000000000
20
592.320000000000
30
0.0
11
1338.460000000000
21
618.070000000000
31
0.0
0
POLYLINE
5
582
100
AcDbEntity
8
F-F
6
CONTINUOUS
62
  3
100
AcDb2dPolyline
66
1
10
0.0
20
0.0
30
0.0
70
0
0
VERTEX
5
583
100
AcDbEntity
8
F-F
6
CONTINUOUS
62
  3
100
AcDbVertex
100
AcDb2dVertex
10
71.720000000000
20
59.100000000000
30
0.0
0
VERTEX
5
584
100
AcDbEntity
8
F-F
6
CONTINUOUS
62
  3
100
AcDbVertex
100
AcDb2dVertex
10
71.720000000000
20
75.100000000000
30
0.0
0
VERTEX
5
585
100
AcDbEntity
8
F-F
6
CONTINUOUS
62
  3
100
AcDbVertex
100
AcDb2dVertex
10
87.720000000000
20
75.100000000000
30
0.0
0
VERTEX
5
586
100
AcDbEntity
8
F-F
6
CONTINUOUS
62
  3
100
AcDbVertex
100
AcDb2dVertex
10
87.720000000000
20
59.100000000000
30
0.0
0
VERTEX
5
587
100
AcDbEntity
8
F-F
6
CONTINUOUS
62
  3
100
AcDbVertex
100
AcDb2dVertex
10
71.720000000000
20
59.100000000000
30
0.0
0
SEQEND
5
588
100
AcDbEntity
8
F-F
0
LINE
5
589
100
AcDbEntity
8
F-F
6
CONTINUOUS
62
3
100
AcDbLine
10
73.320000000000
20
61.260000000000
30
0.0
11
73.320000000000
21
73.500000000000
31
0.0
0
LINE
5
58a
100
AcDbEntity
8
F-F
6
CONTINUOUS
62
3
100
AcDbLine
10
86.120000000000
20
60.700000000000
30
0.0
11
73.880000000000
21
60.700000000000
31
0.0
0
POLYLINE
5
58b
100
AcDbEntity
8
F-F
6
CONTINUOUS
62
  3
100
AcDb2dPolyline
66
1
10
0.0
20
0.0
30
0.0
70
0
0
VERTEX
5
58c
100
AcDbEntity
8
F-F
6
CONTINUOUS
62
  3
100
AcDbVertex
100
AcDb2dVertex
10
73.320000000000
20
73.500000000000
30
0.0
0
VERTEX
5
58d
100
AcDbEntity
8
F-F
6
CONTINUOUS
62
  3
100
AcDbVertex
100
AcDb2dVertex
10
85.550000000000
20
73.500000000000
30
0.0
0
VERTEX
5
58e
100
AcDbEntity
8
F-F
6
CONTINUOUS
62
  3
100
AcDbVertex
100
AcDb2dVertex
10
73.320000000000
20
61.260000000000
30
0.0
0
SEQEND
5
58f
100
AcDbEntity
8
F-F
0
LINE
5
590
100
AcDbEntity
8
F-F
6
CONTINUOUS
62
3
100
AcDbLine
10
86.120000000000
20
72.930000000000
30
0.0
11
73.880000000000
21
60.700000000000
31
0.0
0
LINE
5
591
100
AcDbEntity
8
F-F
6
CONTINUOUS
62
3
100
AcDbLine
10
86.120000000000
20
72.930000000000
30
0.0
11
86.120000000000
21
60.700000000000
31
0.0
0
LINE
5
592
100
AcDbEntity
8
F-F
6
CONTINUOUS
62
4
100
AcDbLine
10
71.720000000000
20
74.940000000000
30
0.0
11
87.720000000000
21
74.940000000000
31
0.0
0
LINE
5
593
100
AcDbEntity
8
F-F
6
CONTINUOUS
62
4
100
AcDbLine
10
71.720000000000
20
74.620000000000
30
0.0
11
87.720000000000
21
74.620000000000
31
0.0
0
LINE
5
594
100
AcDbEntity
8
F-F
6
CONTINUOUS
62
4
100
AcDbLine
10
71.720000000000
20
74.300000000000
30
0.0
11
87.720000000000
21
74.300000000000
31
0.0
0
LINE
5
595
100
AcDbEntity
8
F-F
6
CONTINUOUS
62
4
100
AcDbLine
10
71.720000000000
20
73.980000000000
30
0.0
11
87.720000000000
21
73.980000000000
31
0.0
0
LINE
5
596
100
AcDbEntity
8
F-F
6
CONTINUOUS
62
4
100
AcDbLine
10
71.720000000000
20
73.660000000000
30
0.0
11
87.720000000000
21
73.660000000000
31
0.0
0
LINE
5
597
100
AcDbEntity
8
F-F
6
CONTINUOUS
62
4
100
AcDbLine
10
71.720000000000
20
60.540000000000
30
0.0
11
87.720000000000
21
60.540000000000
31
0.0
0
LINE
5
598
100
AcDbEntity
8
F-F
6
CONTINUOUS
62
4
100
AcDbLine
10
71.720000000000
20
60.220000000000
30
0.0
11
87.720000000000
21
60.220000000000
31
0.0
0
LINE
5
599
100
AcDbEntity
8
F-F
6
CONTINUOUS
62
4
100
AcDbLine
10
71.720000000000
20
59.900000000000
30
0.0
11
87.720000000000
21
59.900000000000
31
0.0
0
LINE
5
59a
100
AcDbEntity
8
F-F
6
CONTINUOUS
62
4
100
AcDbLine
10
71.720000000000
20
59.580000000000
30
0.0
11
87.720000000000
21
59.580000000000
31
0.0
0
LINE
5
59b
100
AcDbEntity
8
F-F
6
CONTINUOUS
62
4
100
AcDbLine
10
71.720000000000
20
59.260000000000
30
0.0
11
87.720000000000
21
59.260000000000
31
0.0
0
LINE
5
59c
100
AcDbEntity
8
F-F
6
CONTINUOUS
62
4
100
AcDbLine
10
71.720000000000
20
61.500000000000
30
0.0
11
73.320000000000
21
61.500000000000
31
0.0
0
LINE
5
59d
100
AcDbEntity
8
F-F
6
CONTINUOUS
62
4
100
AcDbLine
10
71.720000000000
20
61.820000000000
30
0.0
11
73.320000000000
21
61.820000000000
31
0.0
0
LINE
5
59e
100
AcDbEntity
8
F-F
6
CONTINUOUS
62
4
100
AcDbLine
10
71.720000000000
20
62.140000000000
30
0.0
11
73.320000000000
21
62.140000000000
31
0.0
0
LINE
5
59f
100
AcDbEntity
8
F-F
6
CONTINUOUS
62
4
100
AcDbLine
10
71.720000000000
20
62.460000000000
30
0.0
11
73.320000000000
21
62.460000000000
31
0.0
0
LINE
5
5a0
100
AcDbEntity
8
F-F
6
CONTINUOUS
62
4
100
AcDbLine
10
71.720000000000
20
62.780000000000
30
0.0
11
73.320000000000
21
62.780000000000
31
0.0
0
LINE
5
5a1
100
AcDbEntity
8
F-F
6
CONTINUOUS
62
4
100
AcDbLine
10
71.720000000000
20
63.100000000000
30
0.0
11
73.320000000000
21
63.100000000000
31
0.0
0
LINE
5
5a2
100
AcDbEntity
8
F-F
6
CONTINUOUS
62
4
100
AcDbLine
10
71.720000000000
20
63.420000000000
30
0.0
11
73.320000000000
21
63.420000000000
31
0.0
0
LINE
5
5a3
100
AcDbEntity
8
F-F
6
CONTINUOUS
62
4
100
AcDbLine
10
71.720000000000
20
63.740000000000
30
0.0
11
73.320000000000
21
63.740000000000
31
0.0
0
LINE
5
5a4
100
AcDbEntity
8
F-F
6
CONTINUOUS
62
4
100
AcDbLine
10
71.720000000000
20
64.060000000000
30
0.0
11
73.320000000000
21
64.060000000000
31
0.0
0
LINE
5
5a5
100
AcDbEntity
8
F-F
6
CONTINUOUS
62
4
100
AcDbLine
10
71.720000000000
20
64.380000000000
30
0.0
11
73.320000000000
21
64.380000000000
31
0.0
0
LINE
5
5a6
100
AcDbEntity
8
F-F
6
CONTINUOUS
62
4
100
AcDbLine
10
71.720000000000
20
64.700000000000
30
0.0
11
73.320000000000
21
64.700000000000
31
0.0
0
LINE
5
5a7
100
AcDbEntity
8
F-F
6
CONTINUOUS
62
4
100
AcDbLine
10
71.720000000000
20
65.020000000000
30
0.0
11
73.320000000000
21
65.020000000000
31
0.0
0
LINE
5
5a8
100
AcDbEntity
8
F-F
6
CONTINUOUS
62
4
100
AcDbLine
10
71.720000000000
20
65.340000000000
30
0.0
11
73.320000000000
21
65.340000000000
31
0.0
0
LINE
5
5a9
100
AcDbEntity
8
F-F
6
CONTINUOUS
62
4
100
AcDbLine
10
71.720000000000
20
65.660000000000
30
0.0
11
73.320000000000
21
65.660000000000
31
0.0
0
LINE
5
5aa
100
AcDbEntity
8
F-F
6
CONTINUOUS
62
4
100
AcDbLine
10
71.720000000000
20
65.980000000000
30
0.0
11
73.320000000000
21
65.980000000000
31
0.0
0
LINE
5
5ab
100
AcDbEntity
8
F-F
6
CONTINUOUS
62
4
100
AcDbLine
10
71.720000000000
20
66.300000000000
30
0.0
11
73.320000000000
21
66.300000000000
31
0.0
0
LINE
5
5ac
100
AcDbEntity
8
F-F
6
CONTINUOUS
62
4
100
AcDbLine
10
71.720000000000
20
66.620000000000
30
0.0
11
73.320000000000
21
66.620000000000
31
0.0
0
LINE
5
5ad
100
AcDbEntity
8
F-F
6
CONTINUOUS
62
4
100
AcDbLine
10
71.720000000000
20
66.940000000000
30
0.0
11
73.320000000000
21
66.940000000000
31
0.0
0
LINE
5
5ae
100
AcDbEntity
8
F-F
6
CONTINUOUS
62
4
100
AcDbLine
10
71.720000000000
20
67.260000000000
30
0.0
11
73.320000000000
21
67.260000000000
31
0.0
0
LINE
5
5af
100
AcDbEntity
8
F-F
6
CONTINUOUS
62
4
100
AcDbLine
10
71.720000000000
20
67.580000000000
30
0.0
11
73.320000000000
21
67.580000000000
31
0.0
0
LINE
5
5b0
100
AcDbEntity
8
F-F
6
CONTINUOUS
62
4
100
AcDbLine
10
71.720000000000
20
67.900000000000
30
0.0
11
73.320000000000
21
67.900000000000
31
0.0
0
LINE
5
5b1
100
AcDbEntity
8
F-F
6
CONTINUOUS
62
4
100
AcDbLine
10
71.720000000000
20
68.220000000000
30
0.0
11
73.320000000000
21
68.220000000000
31
0.0
0
LINE
5
5b2
100
AcDbEntity
8
F-F
6
CONTINUOUS
62
4
100
AcDbLine
10
71.720000000000
20
68.540000000000
30
0.0
11
73.320000000000
21
68.540000000000
31
0.0
0
LINE
5
5b3
100
AcDbEntity
8
F-F
6
CONTINUOUS
62
4
100
AcDbLine
10
71.720000000000
20
68.860000000000
30
0.0
11
73.320000000000
21
68.860000000000
31
0.0
0
LINE
5
5b4
100
AcDbEntity
8
F-F
6
CONTINUOUS
62
4
100
AcDbLine
10
71.720000000000
20
69.820000000000
30
0.0
11
73.320000000000
21
69.820000000000
31
0.0
0
LINE
5
5b5
100
AcDbEntity
8
F-F
6
CONTINUOUS
62
4
100
AcDbLine
10
71.720000000000
20
70.780000000000
30
0.0
11
73.320000000000
21
70.780000000000
31
0.0
0
LINE
5
5b6
100
AcDbEntity
8
F-F
6
CONTINUOUS
62
4
100
AcDbLine
10
71.720000000000
20
71.100000000000
30
0.0
11
73.320000000000
21
71.100000000000
31
0.0
0
LINE
5
5b7
100
AcDbEntity
8
F-F
6
CONTINUOUS
62
4
100
AcDbLine
10
71.720000000000
20
71.420000000000
30
0.0
11
73.320000000000
21
71.420000000000
31
0.0
0
LINE
5
5b8
100
AcDbEntity
8
F-F
6
CONTINUOUS
62
4
100
AcDbLine
10
71.720000000000
20
71.740000000000
30
0.0
11
73.320000000000
21
71.740000000000
31
0.0
0
LINE
5
5b9
100
AcDbEntity
8
F-F
6
CONTINUOUS
62
4
100
AcDbLine
10
71.720000000000
20
73.340000000000
30
0.0
11
73.320000000000
21
73.340000000000
31
0.0
0
LINE
5
5ba
100
AcDbEntity
8
F-F
6
CONTINUOUS
62
4
100
AcDbLine
10
71.720000000000
20
73.020000000000
30
0.0
11
73.320000000000
21
73.020000000000
31
0.0
0
LINE
5
5bb
100
AcDbEntity
8
F-F
6
CONTINUOUS
62
4
100
AcDbLine
10
71.720000000000
20
72.700000000000
30
0.0
11
73.320000000000
21
72.700000000000
31
0.0
0
LINE
5
5bc
100
AcDbEntity
8
F-F
6
CONTINUOUS
62
4
100
AcDbLine
10
71.720000000000
20
72.380000000000
30
0.0
11
73.320000000000
21
72.380000000000
31
0.0
0
LINE
5
5bd
100
AcDbEntity
8
F-F
6
CONTINUOUS
62
4
100
AcDbLine
10
71.720000000000
20
72.060000000000
30
0.0
11
73.320000000000
21
72.060000000000
31
0.0
0
LINE
5
5be
100
AcDbEntity
8
F-F
6
CONTINUOUS
62
4
100
AcDbLine
10
71.720000000000
20
70.140000000000
30
0.0
11
73.320000000000
21
70.140000000000
31
0.0
0
LINE
5
5bf
100
AcDbEntity
8
F-F
6
CONTINUOUS
62
4
100
AcDbLine
10
71.720000000000
20
70.460000000000
30
0.0
11
73.320000000000
21
70.460000000000
31
0.0
0
LINE
5
5c0
100
AcDbEntity
8
F-F
6
CONTINUOUS
62
4
100
AcDbLine
10
71.720000000000
20
69.500000000000
30
0.0
11
73.320000000000
21
69.500000000000
31
0.0
0
LINE
5
5c1
100
AcDbEntity
8
F-F
6
CONTINUOUS
62
4
100
AcDbLine
10
71.720000000000
20
69.180000000000
30
0.0
11
73.320000000000
21
69.180000000000
31
0.0
0
LINE
5
5c2
100
AcDbEntity
8
F-F
6
CONTINUOUS
62
4
100
AcDbLine
10
73.870000000000
20
61.820000000000
30
0.0
11
75.000000000000
21
61.820000000000
31
0.0
0
LINE
5
5c3
100
AcDbEntity
8
F-F
6
CONTINUOUS
62
4
100
AcDbLine
10
73.550000000000
20
61.500000000000
30
0.0
11
74.680000000000
21
61.500000000000
31
0.0
0
LINE
5
5c4
100
AcDbEntity
8
F-F
6
CONTINUOUS
62
4
100
AcDbLine
10
71.720000000000
20
61.180000000000
30
0.0
11
74.360000000000
21
61.180000000000
31
0.0
0
LINE
5
5c5
100
AcDbEntity
8
F-F
6
CONTINUOUS
62
4
100
AcDbLine
10
71.720000000000
20
60.860000000000
30
0.0
11
74.040000000000
21
60.860000000000
31
0.0
0
LINE
5
5c6
100
AcDbEntity
8
F-F
6
CONTINUOUS
62
4
100
AcDbLine
10
75.790000000000
20
63.740000000000
30
0.0
11
76.920000000000
21
63.740000000000
31
0.0
0
LINE
5
5c7
100
AcDbEntity
8
F-F
6
CONTINUOUS
62
4
100
AcDbLine
10
75.470000000000
20
63.420000000000
30
0.0
11
76.600000000000
21
63.420000000000
31
0.0
0
LINE
5
5c8
100
AcDbEntity
8
F-F
6
CONTINUOUS
62
4
100
AcDbLine
10
75.150000000000
20
63.100000000000
30
0.0
11
76.280000000000
21
63.100000000000
31
0.0
0
LINE
5
5c9
100
AcDbEntity
8
F-F
6
CONTINUOUS
62
4
100
AcDbLine
10
74.830000000000
20
62.780000000000
30
0.0
11
75.960000000000
21
62.780000000000
31
0.0
0
LINE
5
5ca
100
AcDbEntity
8
F-F
6
CONTINUOUS
62
4
100
AcDbLine
10
74.510000000000
20
62.460000000000
30
0.0
11
75.640000000000
21
62.460000000000
31
0.0
0
LINE
5
5cb
100
AcDbEntity
8
F-F
6
CONTINUOUS
62
4
100
AcDbLine
10
74.190000000000
20
62.140000000000
30
0.0
11
75.320000000000
21
62.140000000000
31
0.0
0
LINE
5
5cc
100
AcDbEntity
8
F-F
6
CONTINUOUS
62
4
100
AcDbLine
10
73.320000000000
20
73.500000000000
30
0.0
11
73.320000000000
21
73.820000000000
31
0.0
0
LINE
5
5cd
100
AcDbEntity
8
F-F
6
CONTINUOUS
62
4
100
AcDbLine
10
86.120000000000
20
61.500000000000
30
0.0
11
87.720000000000
21
61.500000000000
31
0.0
0
LINE
5
5ce
100
AcDbEntity
8
F-F
6
CONTINUOUS
62
4
100
AcDbLine
10
86.120000000000
20
61.820000000000
30
0.0
11
87.720000000000
21
61.820000000000
31
0.0
0
LINE
5
5cf
100
AcDbEntity
8
F-F
6
CONTINUOUS
62
4
100
AcDbLine
10
86.120000000000
20
62.140000000000
30
0.0
11
87.720000000000
21
62.140000000000
31
0.0
0
LINE
5
5d0
100
AcDbEntity
8
F-F
6
CONTINUOUS
62
4
100
AcDbLine
10
86.120000000000
20
62.460000000000
30
0.0
11
87.720000000000
21
62.460000000000
31
0.0
0
LINE
5
5d1
100
AcDbEntity
8
F-F
6
CONTINUOUS
62
4
100
AcDbLine
10
86.120000000000
20
62.780000000000
30
0.0
11
87.720000000000
21
62.780000000000
31
0.0
0
LINE
5
5d2
100
AcDbEntity
8
F-F
6
CONTINUOUS
62
4
100
AcDbLine
10
86.120000000000
20
63.100000000000
30
0.0
11
87.720000000000
21
63.100000000000
31
0.0
0
LINE
5
5d3
100
AcDbEntity
8
F-F
6
CONTINUOUS
62
4
100
AcDbLine
10
86.120000000000
20
63.420000000000
30
0.0
11
87.720000000000
21
63.420000000000
31
0.0
0
LINE
5
5d4
100
AcDbEntity
8
F-F
6
CONTINUOUS
62
4
100
AcDbLine
10
86.120000000000
20
63.740000000000
30
0.0
11
87.720000000000
21
63.740000000000
31
0.0
0
LINE
5
5d5
100
AcDbEntity
8
F-F
6
CONTINUOUS
62
4
100
AcDbLine
10
86.120000000000
20
64.060000000000
30
0.0
11
87.720000000000
21
64.060000000000
31
0.0
0
LINE
5
5d6
100
AcDbEntity
8
F-F
6
CONTINUOUS
62
4
100
AcDbLine
10
86.120000000000
20
64.380000000000
30
0.0
11
87.720000000000
21
64.380000000000
31
0.0
0
LINE
5
5d7
100
AcDbEntity
8
F-F
6
CONTINUOUS
62
4
100
AcDbLine
10
86.120000000000
20
64.700000000000
30
0.0
11
87.720000000000
21
64.700000000000
31
0.0
0
LINE
5
5d8
100
AcDbEntity
8
F-F
6
CONTINUOUS
62
4
100
AcDbLine
10
86.120000000000
20
65.020000000000
30
0.0
11
87.720000000000
21
65.020000000000
31
0.0
0
LINE
5
5d9
100
AcDbEntity
8
F-F
6
CONTINUOUS
62
4
100
AcDbLine
10
86.120000000000
20
65.340000000000
30
0.0
11
87.720000000000
21
65.340000000000
31
0.0
0
LINE
5
5da
100
AcDbEntity
8
F-F
6
CONTINUOUS
62
4
100
AcDbLine
10
86.120000000000
20
65.980000000000
30
0.0
11
87.720000000000
21
65.980000000000
31
0.0
0
LINE
5
5db
100
AcDbEntity
8
F-F
6
CONTINUOUS
62
4
100
AcDbLine
10
86.120000000000
20
66.300000000000
30
0.0
11
87.720000000000
21
66.300000000000
31
0.0
0
LINE
5
5dc
100
AcDbEntity
8
F-F
6
CONTINUOUS
62
4
100
AcDbLine
10
86.120000000000
20
66.620000000000
30
0.0
11
87.720000000000
21
66.620000000000
31
0.0
0
LINE
5
5dd
100
AcDbEntity
8
F-F
6
CONTINUOUS
62
4
100
AcDbLine
10
86.120000000000
20
66.940000000000
30
0.0
11
87.720000000000
21
66.940000000000
31
0.0
0
LINE
5
5de
100
AcDbEntity
8
F-F
6
CONTINUOUS
62
4
100
AcDbLine
10
86.120000000000
20
67.260000000000
30
0.0
11
87.720000000000
21
67.260000000000
31
0.0
0
LINE
5
5df
100
AcDbEntity
8
F-F
6
CONTINUOUS
62
4
100
AcDbLine
10
86.120000000000
20
67.580000000000
30
0.0
11
87.720000000000
21
67.580000000000
31
0.0
0
LINE
5
5e0
100
AcDbEntity
8
F-F
6
CONTINUOUS
62
4
100
AcDbLine
10
86.120000000000
20
67.900000000000
30
0.0
11
87.720000000000
21
67.900000000000
31
0.0
0
LINE
5
5e1
100
AcDbEntity
8
F-F
6
CONTINUOUS
62
4
100
AcDbLine
10
86.120000000000
20
68.220000000000
30
0.0
11
87.720000000000
21
68.220000000000
31
0.0
0
LINE
5
5e2
100
AcDbEntity
8
F-F
6
CONTINUOUS
62
4
100
AcDbLine
10
86.120000000000
20
68.540000000000
30
0.0
11
87.720000000000
21
68.540000000000
31
0.0
0
LINE
5
5e3
100
AcDbEntity
8
F-F
6
CONTINUOUS
62
4
100
AcDbLine
10
86.120000000000
20
68.860000000000
30
0.0
11
87.720000000000
21
68.860000000000
31
0.0
0
LINE
5
5e4
100
AcDbEntity
8
F-F
6
CONTINUOUS
62
4
100
AcDbLine
10
86.120000000000
20
69.820000000000
30
0.0
11
87.720000000000
21
69.820000000000
31
0.0
0
LINE
5
5e5
100
AcDbEntity
8
F-F
6
CONTINUOUS
62
4
100
AcDbLine
10
86.120000000000
20
70.780000000000
30
0.0
11
87.720000000000
21
70.780000000000
31
0.0
0
LINE
5
5e6
100
AcDbEntity
8
F-F
6
CONTINUOUS
62
4
100
AcDbLine
10
86.120000000000
20
71.100000000000
30
0.0
11
87.720000000000
21
71.100000000000
31
0.0
0
LINE
5
5e7
100
AcDbEntity
8
F-F
6
CONTINUOUS
62
4
100
AcDbLine
10
86.120000000000
20
71.420000000000
30
0.0
11
87.720000000000
21
71.420000000000
31
0.0
0
LINE
5
5e8
100
AcDbEntity
8
F-F
6
CONTINUOUS
62
4
100
AcDbLine
10
86.120000000000
20
71.740000000000
30
0.0
11
87.720000000000
21
71.740000000000
31
0.0
0
LINE
5
5e9
100
AcDbEntity
8
F-F
6
CONTINUOUS
62
4
100
AcDbLine
10
86.120000000000
20
72.700000000000
30
0.0
11
87.720000000000
21
72.700000000000
31
0.0
0
LINE
5
5ea
100
AcDbEntity
8
F-F
6
CONTINUOUS
62
4
100
AcDbLine
10
86.120000000000
20
72.380000000000
30
0.0
11
87.720000000000
21
72.380000000000
31
0.0
0
LINE
5
5eb
100
AcDbEntity
8
F-F
6
CONTINUOUS
62
4
100
AcDbLine
10
86.120000000000
20
72.060000000000
30
0.0
11
87.720000000000
21
72.060000000000
31
0.0
0
LINE
5
5ec
100
AcDbEntity
8
F-F
6
CONTINUOUS
62
4
100
AcDbLine
10
86.120000000000
20
70.140000000000
30
0.0
11
87.720000000000
21
70.140000000000
31
0.0
0
LINE
5
5ed
100
AcDbEntity
8
F-F
6
CONTINUOUS
62
4
100
AcDbLine
10
86.120000000000
20
70.460000000000
30
0.0
11
87.720000000000
21
70.460000000000
31
0.0
0
LINE
5
5ee
100
AcDbEntity
8
F-F
6
CONTINUOUS
62
4
100
AcDbLine
10
86.120000000000
20
69.500000000000
30
0.0
11
87.720000000000
21
69.500000000000
31
0.0
0
LINE
5
5ef
100
AcDbEntity
8
F-F
6
CONTINUOUS
62
4
100
AcDbLine
10
86.120000000000
20
69.180000000000
30
0.0
11
87.720000000000
21
69.180000000000
31
0.0
0
LINE
5
5f0
100
AcDbEntity
8
F-F
6
CONTINUOUS
62
4
100
AcDbLine
10
86.120000000000
20
60.860000000000
30
0.0
11
87.720000000000
21
60.860000000000
31
0.0
0
LINE
5
5f1
100
AcDbEntity
8
F-F
6
CONTINUOUS
62
4
100
AcDbLine
10
86.120000000000
20
61.180000000000
30
0.0
11
87.720000000000
21
61.180000000000
31
0.0
0
LINE
5
5f2
100
AcDbEntity
8
F-F
6
CONTINUOUS
62
4
100
AcDbLine
10
85.390000000000
20
73.340000000000
30
0.0
11
87.720000000000
21
73.340000000000
31
0.0
0
LINE
5
5f3
100
AcDbEntity
8
F-F
6
CONTINUOUS
62
4
100
AcDbLine
10
85.070000000000
20
73.020000000000
30
0.0
11
87.720000000000
21
73.020000000000
31
0.0
0
LINE
5
5f4
100
AcDbEntity
8
F-F
6
CONTINUOUS
62
4
100
AcDbLine
10
77.070000000000
20
65.020000000000
30
0.0
11
78.200000000000
21
65.020000000000
31
0.0
0
LINE
5
5f5
100
AcDbEntity
8
F-F
6
CONTINUOUS
62
4
100
AcDbLine
10
76.750000000000
20
64.700000000000
30
0.0
11
77.880000000000
21
64.700000000000
31
0.0
0
LINE
5
5f6
100
AcDbEntity
8
F-F
6
CONTINUOUS
62
4
100
AcDbLine
10
76.430000000000
20
64.380000000000
30
0.0
11
77.560000000000
21
64.380000000000
31
0.0
0
LINE
5
5f7
100
AcDbEntity
8
F-F
6
CONTINUOUS
62
4
100
AcDbLine
10
76.110000000000
20
64.060000000000
30
0.0
11
77.240000000000
21
64.060000000000
31
0.0
0
LINE
5
5f8
100
AcDbEntity
8
F-F
6
CONTINUOUS
62
4
100
AcDbLine
10
78.350000000000
20
66.300000000000
30
0.0
11
79.480000000000
21
66.300000000000
31
0.0
0
LINE
5
5f9
100
AcDbEntity
8
F-F
6
CONTINUOUS
62
4
100
AcDbLine
10
78.030000000000
20
65.980000000000
30
0.0
11
79.160000000000
21
65.980000000000
31
0.0
0
LINE
5
5fa
100
AcDbEntity
8
F-F
6
CONTINUOUS
62
4
100
AcDbLine
10
77.710000000000
20
65.660000000000
30
0.0
11
78.840000000000
21
65.660000000000
31
0.0
0
LINE
5
5fb
100
AcDbEntity
8
F-F
6
CONTINUOUS
62
4
100
AcDbLine
10
77.390000000000
20
65.340000000000
30
0.0
11
78.520000000000
21
65.340000000000
31
0.0
0
LINE
5
5fc
100
AcDbEntity
8
F-F
6
CONTINUOUS
62
4
100
AcDbLine
10
79.630000000000
20
67.580000000000
30
0.0
11
80.760000000000
21
67.580000000000
31
0.0
0
LINE
5
5fd
100
AcDbEntity
8
F-F
6
CONTINUOUS
62
4
100
AcDbLine
10
79.310000000000
20
67.260000000000
30
0.0
11
80.440000000000
21
67.260000000000
31
0.0
0
LINE
5
5fe
100
AcDbEntity
8
F-F
6
CONTINUOUS
62
4
100
AcDbLine
10
78.990000000000
20
66.940000000000
30
0.0
11
80.120000000000
21
66.940000000000
31
0.0
0
LINE
5
5ff
100
AcDbEntity
8
F-F
6
CONTINUOUS
62
4
100
AcDbLine
10
78.670000000000
20
66.620000000000
30
0.0
11
79.800000000000
21
66.620000000000
31
0.0
0
LINE
5
600
100
AcDbEntity
8
F-F
6
CONTINUOUS
62
4
100
AcDbLine
10
80.910000000000
20
68.860000000000
30
0.0
11
82.040000000000
21
68.860000000000
31
0.0
0
LINE
5
601
100
AcDbEntity
8
F-F
6
CONTINUOUS
62
4
100
AcDbLine
10
80.590000000000
20
68.540000000000
30
0.0
11
81.720000000000
21
68.540000000000
31
0.0
0
LINE
5
602
100
AcDbEntity
8
F-F
6
CONTINUOUS
62
4
100
AcDbLine
10
80.270000000000
20
68.220000000000
30
0.0
11
81.400000000000
21
68.220000000000
31
0.0
0
LINE
5
603
100
AcDbEntity
8
F-F
6
CONTINUOUS
62
4
100
AcDbLine
10
79.950000000000
20
67.900000000000
30
0.0
11
81.080000000000
21
67.900000000000
31
0.0
0
LINE
5
604
100
AcDbEntity
8
F-F
6
CONTINUOUS
62
4
100
AcDbLine
10
82.190000000000
20
70.140000000000
30
0.0
11
83.320000000000
21
70.140000000000
31
0.0
0
LINE
5
605
100
AcDbEntity
8
F-F
6
CONTINUOUS
62
4
100
AcDbLine
10
81.870000000000
20
69.820000000000
30
0.0
11
83.000000000000
21
69.820000000000
31
0.0
0
LINE
5
606
100
AcDbEntity
8
F-F
6
CONTINUOUS
62
4
100
AcDbLine
10
81.550000000000
20
69.500000000000
30
0.0
11
82.680000000000
21
69.500000000000
31
0.0
0
LINE
5
607
100
AcDbEntity
8
F-F
6
CONTINUOUS
62
4
100
AcDbLine
10
81.230000000000
20
69.180000000000
30
0.0
11
82.360000000000
21
69.180000000000
31
0.0
0
LINE
5
608
100
AcDbEntity
8
F-F
6
CONTINUOUS
62
4
100
AcDbLine
10
83.470000000000
20
71.420000000000
30
0.0
11
84.600000000000
21
71.420000000000
31
0.0
0
LINE
5
609
100
AcDbEntity
8
F-F
6
CONTINUOUS
62
4
100
AcDbLine
10
83.150000000000
20
71.100000000000
30
0.0
11
84.280000000000
21
71.100000000000
31
0.0
0
LINE
5
60a
100
AcDbEntity
8
F-F
6
CONTINUOUS
62
4
100
AcDbLine
10
82.830000000000
20
70.780000000000
30
0.0
11
83.960000000000
21
70.780000000000
31
0.0
0
LINE
5
60b
100
AcDbEntity
8
F-F
6
CONTINUOUS
62
4
100
AcDbLine
10
82.510000000000
20
70.460000000000
30
0.0
11
83.640000000000
21
70.460000000000
31
0.0
0
LINE
5
60c
100
AcDbEntity
8
F-F
6
CONTINUOUS
62
4
100
AcDbLine
10
84.750000000000
20
72.700000000000
30
0.0
11
85.880000000000
21
72.700000000000
31
0.0
0
LINE
5
60d
100
AcDbEntity
8
F-F
6
CONTINUOUS
62
4
100
AcDbLine
10
84.430000000000
20
72.380000000000
30
0.0
11
85.560000000000
21
72.380000000000
31
0.0
0
LINE
5
60e
100
AcDbEntity
8
F-F
6
CONTINUOUS
62
4
100
AcDbLine
10
84.110000000000
20
72.060000000000
30
0.0
11
85.240000000000
21
72.060000000000
31
0.0
0
LINE
5
60f
100
AcDbEntity
8
F-F
6
CONTINUOUS
62
4
100
AcDbLine
10
83.790000000000
20
71.740000000000
30
0.0
11
84.920000000000
21
71.740000000000
31
0.0
0
LINE
5
610
100
AcDbEntity
8
F-F
6
CONTINUOUS
62
4
100
AcDbLine
10
86.120000000000
20
65.660000000000
30
0.0
11
87.720000000000
21
65.660000000000
31
0.0
0
LINE
5
611
100
AcDbEntity
8
0-0
6
CONTINUOUS
62
3
100
AcDbLine
10
262.470000000000
20
853.230000000000
30
0.0
11
272.970000000000
21
853.230000000000
31
0.0
0
LINE
5
612
100
AcDbEntity
8
0-0
6
CONTINUOUS
62
3
100
AcDbLine
10
262.470000000000
20
852.730000000000
30
0.0
11
272.970000000000
21
852.730000000000
31
0.0
0
LINE
5
613
100
AcDbEntity
8
0-0
6
CONTINUOUS
62
3
100
AcDbLine
10
262.470000000000
20
853.230000000000
30
0.0
11
262.470000000000
21
852.730000000000
31
0.0
0
LINE
5
614
100
AcDbEntity
8
0-0
6
CONTINUOUS
62
7
100
AcDbLine
10
1040.470000000000
20
903.030000000000
30
0.0
11
1063.470000000000
21
903.030000000000
31
0.0
0
LINE
5
615
100
AcDbEntity
8
0-0
6
CONTINUOUS
62
7
100
AcDbLine
10
1063.470000000000
20
888.030000000000
30
0.0
11
1063.470000000000
21
903.030000000000
31
0.0
0
POLYLINE
5
616
100
AcDbEntity
8
0-0
6
CONTINUOUS
62
  7
100
AcDb2dPolyline
66
1
10
0.0
20
0.0
30
0.0
70
0
0
VERTEX
5
617
100
AcDbEntity
8
0-0
6
CONTINUOUS
62
  7
100
AcDbVertex
100
AcDb2dVertex
10
1011.970000000000
20
832.030000000000
30
0.0
0
VERTEX
5
618
100
AcDbEntity
8
0-0
6
CONTINUOUS
62
  7
100
AcDbVertex
100
AcDb2dVertex
10
1011.970000000000
20
817.030000000000
30
0.0
0
VERTEX
5
619
100
AcDbEntity
8
0-0
6
CONTINUOUS
62
  7
100
AcDbVertex
100
AcDb2dVertex
10
1034.970000000000
20
817.030000000000
30
0.0
0
SEQEND
5
61a
100
AcDbEntity
8
0-0
0
LINE
5
61b
100
AcDbEntity
8
1-2
6
CONTINUOUS
62
3
100
AcDbLine
10
1283.850000000000
20
591.710000000000
30
0.0
11
1304.850000000000
21
591.710000000000
31
0.0
0
POLYLINE
5
61c
100
AcDbEntity
8
1-2
6
CONTINUOUS
62
  3
100
AcDb2dPolyline
66
1
10
0.0
20
0.0
30
0.0
70
0
0
VERTEX
5
61d
100
AcDbEntity
8
1-2
6
CONTINUOUS
62
  3
100
AcDbVertex
100
AcDb2dVertex
10
1283.850000000000
20
591.710000000000
30
0.0
0
VERTEX
5
61e
100
AcDbEntity
8
1-2
6
CONTINUOUS
62
  3
100
AcDbVertex
100
AcDb2dVertex
10
1283.850000000000
20
590.710000000000
30
0.0
0
VERTEX
5
61f
100
AcDbEntity
8
1-2
6
CONTINUOUS
62
  3
100
AcDbVertex
100
AcDb2dVertex
10
1304.850000000000
20
590.710000000000
30
0.0
0
SEQEND
5
620
100
AcDbEntity
8
1-2
0
LINE
5
621
100
AcDbEntity
8
1-2
6
CONTINUOUS
62
3
100
AcDbLine
10
1381.450000000000
20
617.910000000000
30
0.0
11
1381.450000000000
21
616.910000000000
31
0.0
0
POLYLINE
5
622
100
AcDbEntity
8
0-0
6
CONTINUOUS
62
  7
100
AcDb2dPolyline
66
1
10
0.0
20
0.0
30
0.0
70
0
0
VERTEX
5
623
100
AcDbEntity
8
0-0
6
CONTINUOUS
62
  7
100
AcDbVertex
100
AcDb2dVertex
10
1011.970000000000
20
382.030000000000
30
0.0
0
VERTEX
5
624
100
AcDbEntity
8
0-0
6
CONTINUOUS
62
  7
100
AcDbVertex
100
AcDb2dVertex
10
1011.970000000000
20
367.040000000000
30
0.0
0
VERTEX
5
625
100
AcDbEntity
8
0-0
6
CONTINUOUS
62
  7
100
AcDbVertex
100
AcDb2dVertex
10
1034.970000000000
20
367.040000000000
30
0.0
0
SEQEND
5
626
100
AcDbEntity
8
0-0
0
LINE
5
627
100
AcDbEntity
8
0-0
6
CONTINUOUS
62
3
100
AcDbLine
10
262.470000000000
20
403.240000000000
30
0.0
11
272.970000000000
21
403.240000000000
31
0.0
0
POLYLINE
5
628
100
AcDbEntity
8
0-0
6
CONTINUOUS
62
  3
100
AcDb2dPolyline
66
1
10
0.0
20
0.0
30
0.0
70
0
0
VERTEX
5
629
100
AcDbEntity
8
0-0
6
CONTINUOUS
62
  3
100
AcDbVertex
100
AcDb2dVertex
10
262.470000000000
20
403.240000000000
30
0.0
0
VERTEX
5
62a
100
AcDbEntity
8
0-0
6
CONTINUOUS
62
  3
100
AcDbVertex
100
AcDb2dVertex
10
262.470000000000
20
402.740000000000
30
0.0
0
VERTEX
5
62b
100
AcDbEntity
8
0-0
6
CONTINUOUS
62
  3
100
AcDbVertex
100
AcDb2dVertex
10
272.970000000000
20
402.740000000000
30
0.0
0
SEQEND
5
62c
100
AcDbEntity
8
0-0
0
POLYLINE
5
62d
100
AcDbEntity
8
0-0
6
CONTINUOUS
62
  7
100
AcDb2dPolyline
66
1
10
0.0
20
0.0
30
0.0
70
0
0
VERTEX
5
62e
100
AcDbEntity
8
0-0
6
CONTINUOUS
62
  7
100
AcDbVertex
100
AcDb2dVertex
10
262.470000000000
20
382.040000000000
30
0.0
0
VERTEX
5
62f
100
AcDbEntity
8
0-0
6
CONTINUOUS
62
  7
100
AcDbVertex
100
AcDb2dVertex
10
262.470000000000
20
367.040000000000
30
0.0
0
VERTEX
5
630
100
AcDbEntity
8
0-0
6
CONTINUOUS
62
  7
100
AcDbVertex
100
AcDb2dVertex
10
284.470000000000
20
367.040000000000
30
0.0
0
SEQEND
5
631
100
AcDbEntity
8
0-0
0
LINE
5
632
100
AcDbEntity
8
0-0
6
CONTINUOUS
62
7
100
AcDbLine
10
1022.970000000000
20
903.030000000000
30
0.0
11
1040.470000000000
21
903.030000000000
31
0.0
0
POLYLINE
5
633
100
AcDbEntity
8
0-0
6
CONTINUOUS
62
  3
100
AcDb2dPolyline
66
1
10
0.0
20
0.0
30
0.0
70
0
0
VERTEX
5
634
100
AcDbEntity
8
0-0
6
CONTINUOUS
62
  3
100
AcDbVertex
100
AcDb2dVertex
10
1041.170000000000
20
866.330000000000
30
0.0
0
VERTEX
5
635
100
AcDbEntity
8
0-0
6
CONTINUOUS
62
  3
100
AcDbVertex
100
AcDb2dVertex
10
1063.470000000000
20
866.330000000000
30
0.0
0
VERTEX
5
636
100
AcDbEntity
8
0-0
6
CONTINUOUS
62
  3
100
AcDbVertex
100
AcDb2dVertex
10
1063.470000000000
20
865.830000000000
30
0.0
0
SEQEND
5
637
100
AcDbEntity
8
0-0
0
LINE
5
638
100
AcDbEntity
8
0-0
6
CONTINUOUS
62
3
100
AcDbLine
10
1041.170000000000
20
865.830000000000
30
0.0
11
1063.470000000000
21
865.830000000000
31
0.0
0
POLYLINE
5
639
100
AcDbEntity
8
0-0
6
CONTINUOUS
62
  7
100
AcDb2dPolyline
66
1
10
0.0
20
0.0
30
0.0
70
0
0
VERTEX
5
63a
100
AcDbEntity
8
0-0
6
CONTINUOUS
62
  7
100
AcDbVertex
100
AcDb2dVertex
10
1040.470000000000
20
438.040000000000
30
0.0
0
VERTEX
5
63b
100
AcDbEntity
8
0-0
6
CONTINUOUS
62
  7
100
AcDbVertex
100
AcDb2dVertex
10
1040.470000000000
20
453.040000000000
30
0.0
0
VERTEX
5
63c
100
AcDbEntity
8
0-0
6
CONTINUOUS
62
  7
100
AcDbVertex
100
AcDb2dVertex
10
1063.470000000000
20
453.040000000000
30
0.0
0
SEQEND
5
63d
100
AcDbEntity
8
0-0
0
LINE
5
63e
100
AcDbEntity
8
0-0
6
CONTINUOUS
62
7
100
AcDbLine
10
1063.470000000000
20
438.040000000000
30
0.0
11
1063.470000000000
21
453.040000000000
31
0.0
0
POLYLINE
5
63f
100
AcDbEntity
8
0-0
6
CONTINUOUS
62
  3
100
AcDb2dPolyline
66
1
10
0.0
20
0.0
30
0.0
70
0
0
VERTEX
5
640
100
AcDbEntity
8
0-0
6
CONTINUOUS
62
  3
100
AcDbVertex
100
AcDb2dVertex
10
1041.170000000000
20
416.340000000000
30
0.0
0
VERTEX
5
641
100
AcDbEntity
8
0-0
6
CONTINUOUS
62
  3
100
AcDbVertex
100
AcDb2dVertex
10
1063.470000000000
20
416.340000000000
30
0.0
0
VERTEX
5
642
100
AcDbEntity
8
0-0
6
CONTINUOUS
62
  3
100
AcDbVertex
100
AcDb2dVertex
10
1063.470000000000
20
415.840000000000
30
0.0
0
SEQEND
5
643
100
AcDbEntity
8
0-0
0
LINE
5
644
100
AcDbEntity
8
0-0
6
CONTINUOUS
62
3
100
AcDbLine
10
1041.170000000000
20
415.840000000000
30
0.0
11
1063.470000000000
21
415.840000000000
31
0.0
0
POLYLINE
5
645
100
AcDbEntity
8
0-0
6
CONTINUOUS
62
  7
100
AcDb2dPolyline
66
1
10
0.0
20
0.0
30
0.0
70
0
0
VERTEX
5
646
100
AcDbEntity
8
0-0
6
CONTINUOUS
62
  7
100
AcDbVertex
100
AcDb2dVertex
10
262.470000000000
20
832.030000000000
30
0.0
0
VERTEX
5
647
100
AcDbEntity
8
0-0
6
CONTINUOUS
62
  7
100
AcDbVertex
100
AcDb2dVertex
10
262.470000000000
20
817.030000000000
30
0.0
0
VERTEX
5
648
100
AcDbEntity
8
0-0
6
CONTINUOUS
62
  7
100
AcDbVertex
100
AcDb2dVertex
10
284.470000000000
20
817.030000000000
30
0.0
0
SEQEND
5
649
100
AcDbEntity
8
0-0
0
LINE
5
64a
100
AcDbEntity
8
0-0
6
CONTINUOUS
62
7
100
AcDbLine
10
262.470000000000
20
903.030000000000
30
0.0
11
272.970000000000
21
903.030000000000
31
0.0
0
LINE
5
64b
100
AcDbEntity
8
0-0
6
CONTINUOUS
62
7
100
AcDbLine
10
262.470000000000
20
888.030000000000
30
0.0
11
262.470000000000
21
903.030000000000
31
0.0
0
LINE
5
64c
100
AcDbEntity
8
0-0
6
CONTINUOUS
62
7
100
AcDbLine
10
262.470000000000
20
453.040000000000
30
0.0
11
272.970000000000
21
453.040000000000
31
0.0
0
LINE
5
64d
100
AcDbEntity
8
0-0
6
CONTINUOUS
62
7
100
AcDbLine
10
262.470000000000
20
438.040000000000
30
0.0
11
262.470000000000
21
453.040000000000
31
0.0
0
LINE
5
64e
100
AcDbEntity
8
0-0
6
CONTINUOUS
62
7
100
AcDbLine
10
1022.970000000000
20
453.040000000000
30
0.0
11
1040.470000000000
21
453.040000000000
31
0.0
0
POLYLINE
5
64f
100
AcDbEntity
8
F-F
6
CONTINUOUS
62
  2
100
AcDb2dPolyline
66
1
10
0.0
20
0.0
30
0.0
70
0
0
VERTEX
5
650
100
AcDbEntity
8
F-F
6
CONTINUOUS
62
  2
100
AcDbVertex
100
AcDb2dVertex
10
1224.220000000000
20
1143.640000000000
30
0.0
0
VERTEX
5
651
100
AcDbEntity
8
F-F
6
CONTINUOUS
62
  2
100
AcDbVertex
100
AcDb2dVertex
10
1224.220000000000
20
977.430000000000
30
0.0
0
VERTEX
5
652
100
AcDbEntity
8
F-F
6
CONTINUOUS
62
  2
100
AcDbVertex
100
AcDb2dVertex
10
1631.650000000000
20
977.430000000000
30
0.0
0
SEQEND
5
653
100
AcDbEntity
8
F-F
0
LINE
5
654
100
AcDbEntity
8
1-2
6
CONTINUOUS
62
7
100
AcDbLine
10
1214.500000000000
20
357.810000000000
30
0.0
11
1464.500000000000
21
357.810000000000
31
0.0
0
LINE
5
655
100
AcDbEntity
8
1-2
6
CONTINUOUS
62
7
100
AcDbLine
10
1464.500000000000
20
317.810000000000
30
0.0
11
1464.500000000000
21
357.810000000000
31
0.0
0
LINE
5
656
100
AcDbEntity
8
1-2
6
CONTINUOUS
62
7
100
AcDbLine
10
1424.850000000000
20
589.310000000000
30
0.0
11
1424.850000000000
21
619.310000000000
31
0.0
0
POLYLINE
5
657
100
AcDbEntity
8
1-2
6
CONTINUOUS
62
  7
100
AcDb2dPolyline
66
1
10
0.0
20
0.0
30
0.0
70
0
0
VERTEX
5
658
100
AcDbEntity
8
1-2
6
CONTINUOUS
62
  7
100
AcDbVertex
100
AcDb2dVertex
10
1269.850000000000
20
661.310000000000
30
0.0
0
VERTEX
5
659
100
AcDbEntity
8
1-2
6
CONTINUOUS
62
  7
100
AcDbVertex
100
AcDb2dVertex
10
1269.850000000000
20
691.310000000000
30
0.0
0
VERTEX
5
65a
100
AcDbEntity
8
1-2
6
CONTINUOUS
62
  7
100
AcDbVertex
100
AcDb2dVertex
10
1339.850000000000
20
691.310000000000
30
0.0
0
SEQEND
5
65b
100
AcDbEntity
8
1-2
0
LINE
5
65c
100
AcDbEntity
8
1-2
6
CONTINUOUS
62
7
100
AcDbLine
10
1339.850000000000
20
661.310000000000
30
0.0
11
1339.850000000000
21
691.310000000000
31
0.0
0
POLYLINE
5
65d
100
AcDbEntity
8
1-2
6
CONTINUOUS
62
  7
100
AcDb2dPolyline
66
1
10
0.0
20
0.0
30
0.0
70
0
0
VERTEX
5
65e
100
AcDbEntity
8
1-2
6
CONTINUOUS
62
  7
100
AcDbVertex
100
AcDb2dVertex
10
1281.850000000000
20
549.310000000000
30
0.0
0
VERTEX
5
65f
100
AcDbEntity
8
1-2
6
CONTINUOUS
62
  7
100
AcDbVertex
100
AcDb2dVertex
10
1281.850000000000
20
519.310000000000
30
0.0
0
VERTEX
5
660
100
AcDbEntity
8
1-2
6
CONTINUOUS
62
  7
100
AcDbVertex
100
AcDb2dVertex
10
1327.850000000000
20
519.310000000000
30
0.0
0
SEQEND
5
661
100
AcDbEntity
8
1-2
0
LINE
5
662
100
AcDbEntity
8
1-2
6
CONTINUOUS
62
7
100
AcDbLine
10
1327.850000000000
20
549.310000000000
30
0.0
11
1327.850000000000
21
519.310000000000
31
0.0
0
LINE
5
663
100
AcDbEntity
8
1-2
6
CONTINUOUS
62
7
100
AcDbLine
10
1363.210000000000
20
589.310000000000
30
0.0
11
1424.850000000000
21
589.310000000000
31
0.0
0
LINE
5
664
100
AcDbEntity
8
0-0
6
CONTINUOUS
62
3
100
AcDbLine
10
1415.530000000000
20
865.530000000000
30
0.0
11
1421.150000000000
21
851.950000000000
31
0.0
0
LINE
5
665
100
AcDbEntity
8
0-0
6
CONTINUOUS
62
3
100
AcDbLine
10
1422.070000000000
20
851.330000000000
30
0.0
11
1432.900000000000
21
851.330000000000
31
0.0
0
LINE
5
666
100
AcDbEntity
8
0-0
6
CONTINUOUS
62
3
100
AcDbLine
10
1422.070000000000
20
851.830000000000
30
0.0
11
1432.900000000000
21
851.830000000000
31
0.0
0
LINE
5
667
100
AcDbEntity
8
0-0
6
CONTINUOUS
62
3
100
AcDbLine
10
1415.990000000000
20
865.720000000000
30
0.0
11
1421.610000000000
21
852.140000000000
31
0.0
0
LINE
5
668
100
AcDbEntity
8
0-0
6
CONTINUOUS
62
3
100
AcDbLine
10
1415.070000000000
20
865.830000000000
30
0.0
11
1370.400000000000
21
865.830000000000
31
0.0
0
LINE
5
669
100
AcDbEntity
8
0-0
6
CONTINUOUS
62
3
100
AcDbLine
10
1415.070000000000
20
866.330000000000
30
0.0
11
1370.400000000000
21
866.330000000000
31
0.0
0
LINE
5
66a
100
AcDbEntity
8
0-0
6
CONTINUOUS
62
3
100
AcDbLine
10
1451.100000000000
20
865.130000000000
30
0.0
11
1471.200000000000
21
865.130000000000
31
0.0
0
LINE
5
66b
100
AcDbEntity
8
0-0
6
CONTINUOUS
62
3
100
AcDbLine
10
1450.630000000000
20
865.830000000000
30
0.0
11
1495.400000000000
21
865.830000000000
31
0.0
0
LINE
5
66c
100
AcDbEntity
8
0-0
6
CONTINUOUS
62
3
100
AcDbLine
10
1450.630000000000
20
866.330000000000
30
0.0
11
1495.400000000000
21
866.330000000000
31
0.0
0
LINE
5
66d
100
AcDbEntity
8
0-0
6
CONTINUOUS
62
3
100
AcDbLine
10
1451.100000000000
20
865.630000000000
30
0.0
11
1471.200000000000
21
865.630000000000
31
0.0
0
LINE
5
66e
100
AcDbEntity
8
0-0
6
CONTINUOUS
62
3
100
AcDbLine
10
1444.390000000000
20
851.830000000000
30
0.0
11
1432.900000000000
21
851.830000000000
31
0.0
0
LINE
5
66f
100
AcDbEntity
8
0-0
6
CONTINUOUS
62
3
100
AcDbLine
10
1444.850000000000
20
852.140000000000
30
0.0
11
1450.170000000000
21
865.020000000000
31
0.0
0
LINE
5
670
100
AcDbEntity
8
0-0
6
CONTINUOUS
62
3
100
AcDbLine
10
1444.390000000000
20
851.330000000000
30
0.0
11
1432.900000000000
21
851.330000000000
31
0.0
0
LINE
5
671
100
AcDbEntity
8
0-0
6
CONTINUOUS
62
3
100
AcDbLine
10
1450.640000000000
20
864.830000000000
30
0.0
11
1445.310000000000
21
851.950000000000
31
0.0
0
LINE
5
672
100
AcDbEntity
8
0-0
6
CONTINUOUS
62
3
100
AcDbLine
10
1443.920000000000
20
852.030000000000
30
0.0
11
1432.900000000000
21
852.030000000000
31
0.0
0
LINE
5
673
100
AcDbEntity
8
0-0
6
CONTINUOUS
62
3
100
AcDbLine
10
1450.170000000000
20
865.530000000000
30
0.0
11
1444.840000000000
21
852.650000000000
31
0.0
0
LINE
5
674
100
AcDbEntity
8
0-0
6
CONTINUOUS
62
3
100
AcDbLine
10
1443.920000000000
20
852.530000000000
30
0.0
11
1432.900000000000
21
852.530000000000
31
0.0
0
LINE
5
675
100
AcDbEntity
8
0-0
6
CONTINUOUS
62
3
100
AcDbLine
10
1444.380000000000
20
852.840000000000
30
0.0
11
1449.710000000000
21
865.720000000000
31
0.0
0
LINE
5
676
100
AcDbEntity
8
0-0
6
CONTINUOUS
62
3
100
AcDbLine
10
1422.400000000000
20
852.530000000000
30
0.0
11
1432.900000000000
21
852.530000000000
31
0.0
0
POLYLINE
5
677
100
AcDbEntity
8
0-0
6
CONTINUOUS
62
  3
100
AcDb2dPolyline
66
1
10
0.0
20
0.0
30
0.0
70
0
0
VERTEX
5
678
100
AcDbEntity
8
0-0
6
CONTINUOUS
62
  3
100
AcDbVertex
100
AcDb2dVertex
10
1422.400000000000
20
852.530000000000
30
0.0
0
VERTEX
5
679
100
AcDbEntity
8
0-0
6
CONTINUOUS
62
  3
100
AcDbVertex
100
AcDb2dVertex
10
1422.400000000000
20
852.030000000000
30
0.0
0
VERTEX
5
67a
100
AcDbEntity
8
0-0
6
CONTINUOUS
62
  3
100
AcDbVertex
100
AcDb2dVertex
10
1432.900000000000
20
852.030000000000
30
0.0
0
SEQEND
5
67b
100
AcDbEntity
8
0-0
0
LINE
5
67c
100
AcDbEntity
8
0-0
6
CONTINUOUS
62
3
100
AcDbLine
10
1471.200000000000
20
865.630000000000
30
0.0
11
1471.200000000000
21
865.130000000000
31
0.0
0
LINE
5
67d
100
AcDbEntity
8
0-0
6
CONTINUOUS
62
7
100
AcDbLine
10
1490.400000000000
20
851.330000000000
30
0.0
11
1490.400000000000
21
866.330000000000
31
0.0
0
LINE
5
67e
100
AcDbEntity
8
0-0
6
CONTINUOUS
62
7
100
AcDbLine
10
1444.900000000000
20
840.330000000000
30
0.0
11
1444.900000000000
21
825.330000000000
31
0.0
0
POLYLINE
5
67f
100
AcDbEntity
8
0-0
6
CONTINUOUS
62
  7
100
AcDb2dPolyline
66
1
10
0.0
20
0.0
30
0.0
70
0
0
VERTEX
5
680
100
AcDbEntity
8
0-0
6
CONTINUOUS
62
  7
100
AcDbVertex
100
AcDb2dVertex
10
1421.900000000000
20
840.330000000000
30
0.0
0
VERTEX
5
681
100
AcDbEntity
8
0-0
6
CONTINUOUS
62
  7
100
AcDbVertex
100
AcDb2dVertex
10
1421.900000000000
20
825.330000000000
30
0.0
0
VERTEX
5
682
100
AcDbEntity
8
0-0
6
CONTINUOUS
62
  7
100
AcDbVertex
100
AcDb2dVertex
10
1444.900000000000
20
825.330000000000
30
0.0
0
SEQEND
5
683
100
AcDbEntity
8
0-0
0
POLYLINE
5
684
100
AcDbEntity
8
0-0
6
CONTINUOUS
62
  7
100
AcDb2dPolyline
66
1
10
0.0
20
0.0
30
0.0
70
0
0
VERTEX
5
685
100
AcDbEntity
8
0-0
6
CONTINUOUS
62
  7
100
AcDbVertex
100
AcDb2dVertex
10
1415.400000000000
20
876.330000000000
30
0.0
0
VERTEX
5
686
100
AcDbEntity
8
0-0
6
CONTINUOUS
62
  7
100
AcDbVertex
100
AcDb2dVertex
10
1415.400000000000
20
891.330000000000
30
0.0
0
VERTEX
5
687
100
AcDbEntity
8
0-0
6
CONTINUOUS
62
  7
100
AcDbVertex
100
AcDb2dVertex
10
1450.400000000000
20
891.330000000000
30
0.0
0
SEQEND
5
688
100
AcDbEntity
8
0-0
0
LINE
5
689
100
AcDbEntity
8
0-0
6
CONTINUOUS
62
7
100
AcDbLine
10
1450.400000000000
20
876.330000000000
30
0.0
11
1450.400000000000
21
891.330000000000
31
0.0
0
LINE
5
68a
100
AcDbEntity
8
0-0
6
CONTINUOUS
62
7
100
AcDbLine
10
1475.400000000000
20
851.330000000000
30
0.0
11
1490.400000000000
21
851.330000000000
31
0.0
0
LINE
5
68b
100
AcDbEntity
8
0-0
6
CONTINUOUS
62
7
100
AcDbLine
10
630.470000000000
20
453.040000000000
30
0.0
11
665.470000000000
21
453.040000000000
31
0.0
0
LINE
5
68c
100
AcDbEntity
8
0-0
6
CONTINUOUS
62
7
100
AcDbLine
10
665.470000000000
20
438.040000000000
30
0.0
11
665.470000000000
21
453.040000000000
31
0.0
0
LINE
5
68d
100
AcDbEntity
8
0-0
6
CONTINUOUS
62
7
100
AcDbLine
10
647.970000000000
20
473.040000000000
30
0.0
11
647.970000000000
21
466.990000000000
31
0.0
0
LINE
5
68e
100
AcDbEntity
8
0-0
6
CONTINUOUS
62
7
100
AcDbLine
10
647.970000000000
20
448.650000000000
30
0.0
11
647.970000000000
21
425.880000000000
31
0.0
0
ARC
5
68f
100
AcDbEntity
8
0-0
6
CONTINUOUS
62
3
100
AcDbCircle
10
540.810000000000
20
866.030000000000
30
0.0
40
0.499999992412
100
AcDbArc
50
90.000000000000
51
157.513336181641
0
ARC
5
690
100
AcDbEntity
8
0-0
6
CONTINUOUS
62
3
100
AcDbCircle
10
533.800000000000
20
853.030000000000
30
0.0
40
0.499999992412
100
AcDbArc
50
270.005676269531
51
337.523818969727
0
ARC
5
691
100
AcDbEntity
8
0-0
6
CONTINUOUS
62
3
100
AcDbCircle
10
540.810000000000
20
866.030000000000
30
0.0
40
0.999999984825
100
AcDbArc
50
90.000000000000
51
157.513336181641
0
ARC
5
692
100
AcDbEntity
8
0-0
6
CONTINUOUS
62
3
100
AcDbCircle
10
533.800000000000
20
853.030000000000
30
0.0
40
0.999999984825
100
AcDbArc
50
270.005676269531
51
337.523818969727
0
ARC
5
693
100
AcDbEntity
8
0-0
6
CONTINUOUS
62
3
100
AcDbCircle
10
505.140000000000
20
866.030000000000
30
0.0
40
0.499999992412
100
AcDbArc
50
22.486663818359
51
90.000000000000
0
ARC
5
694
100
AcDbEntity
8
0-0
6
CONTINUOUS
62
3
100
AcDbCircle
10
512.140000000000
20
853.030000000000
30
0.0
40
0.499999992412
100
AcDbArc
50
202.476181030273
51
269.994323730469
0
ARC
5
695
100
AcDbEntity
8
0-0
6
CONTINUOUS
62
3
100
AcDbCircle
10
505.140000000000
20
866.030000000000
30
0.0
40
0.999999984825
100
AcDbArc
50
22.486663818359
51
90.000000000000
0
ARC
5
696
100
AcDbEntity
8
0-0
6
CONTINUOUS
62
3
100
AcDbCircle
10
512.140000000000
20
853.030000000000
30
0.0
40
0.999999984825
100
AcDbArc
50
202.476181030273
51
269.994323730469
0
ARC
5
697
100
AcDbEntity
8
0-0
6
CONTINUOUS
62
3
100
AcDbCircle
10
380.140000000000
20
866.030000000000
30
0.0
40
0.499999992412
100
AcDbArc
50
22.486663818359
51
90.000000000000
0
ARC
5
698
100
AcDbEntity
8
0-0
6
CONTINUOUS
62
3
100
AcDbCircle
10
387.140000000000
20
853.030000000000
30
0.0
40
0.499999992412
100
AcDbArc
50
202.476181030273
51
269.994323730469
0
ARC
5
699
100
AcDbEntity
8
0-0
6
CONTINUOUS
62
3
100
AcDbCircle
10
380.140000000000
20
866.030000000000
30
0.0
40
0.999999984825
100
AcDbArc
50
22.486663818359
51
90.000000000000
0
ARC
5
69a
100
AcDbEntity
8
0-0
6
CONTINUOUS
62
3
100
AcDbCircle
10
387.140000000000
20
853.030000000000
30
0.0
40
0.999999984825
100
AcDbArc
50
202.476181030273
51
269.994323730469
0
ARC
5
69b
100
AcDbEntity
8
0-0
6
CONTINUOUS
62
3
100
AcDbCircle
10
415.810000000000
20
866.030000000000
30
0.0
40
0.499999992412
100
AcDbArc
50
90.000000000000
51
157.513336181641
0
ARC
5
69c
100
AcDbEntity
8
0-0
6
CONTINUOUS
62
3
100
AcDbCircle
10
408.800000000000
20
853.030000000000
30
0.0
40
0.499999992412
100
AcDbArc
50
270.005676269531
51
337.523818969727
0
ARC
5
69d
100
AcDbEntity
8
0-0
6
CONTINUOUS
62
3
100
AcDbCircle
10
415.810000000000
20
866.030000000000
30
0.0
40
0.999999984825
100
AcDbArc
50
90.000000000000
51
157.513336181641
0
ARC
5
69e
100
AcDbEntity
8
0-0
6
CONTINUOUS
62
3
100
AcDbCircle
10
408.800000000000
20
853.030000000000
30
0.0
40
0.999999984825
100
AcDbArc
50
270.005676269531
51
337.523818969727
0
ARC
5
69f
100
AcDbEntity
8
0-0
6
CONTINUOUS
62
3
100
AcDbCircle
10
630.140000000000
20
866.030000000000
30
0.0
40
0.499999992412
100
AcDbArc
50
22.486663818359
51
90.000000000000
0
ARC
5
6a0
100
AcDbEntity
8
0-0
6
CONTINUOUS
62
3
100
AcDbCircle
10
637.140000000000
20
853.030000000000
30
0.0
40
0.499999992412
100
AcDbArc
50
202.476181030273
51
269.994323730469
0
ARC
5
6a1
100
AcDbEntity
8
0-0
6
CONTINUOUS
62
3
100
AcDbCircle
10
630.140000000000
20
866.030000000000
30
0.0
40
0.999999984825
100
AcDbArc
50
22.486663818359
51
90.000000000000
0
ARC
5
6a2
100
AcDbEntity
8
0-0
6
CONTINUOUS
62
3
100
AcDbCircle
10
637.140000000000
20
853.030000000000
30
0.0
40
0.999999984825
100
AcDbArc
50
202.476181030273
51
269.994323730469
0
ARC
5
6a3
100
AcDbEntity
8
0-0
6
CONTINUOUS
62
3
100
AcDbCircle
10
665.810000000000
20
866.030000000000
30
0.0
40
0.499999992412
100
AcDbArc
50
90.000000000000
51
157.513336181641
0
ARC
5
6a4
100
AcDbEntity
8
0-0
6
CONTINUOUS
62
3
100
AcDbCircle
10
658.800000000000
20
853.030000000000
30
0.0
40
0.499999992412
100
AcDbArc
50
270.005676269531
51
337.523818969727
0
ARC
5
6a5
100
AcDbEntity
8
0-0
6
CONTINUOUS
62
3
100
AcDbCircle
10
665.810000000000
20
866.030000000000
30
0.0
40
0.999999984825
100
AcDbArc
50
90.000000000000
51
157.513336181641
0
ARC
5
6a6
100
AcDbEntity
8
0-0
6
CONTINUOUS
62
3
100
AcDbCircle
10
658.800000000000
20
853.030000000000
30
0.0
40
0.999999984825
100
AcDbArc
50
270.005676269531
51
337.523818969727
0
ARC
5
6a7
100
AcDbEntity
8
0-0
6
CONTINUOUS
62
3
100
AcDbCircle
10
755.140000000000
20
866.030000000000
30
0.0
40
0.499999992412
100
AcDbArc
50
22.486663818359
51
90.000000000000
0
ARC
5
6a8
100
AcDbEntity
8
0-0
6
CONTINUOUS
62
3
100
AcDbCircle
10
762.140000000000
20
853.030000000000
30
0.0
40
0.499999992412
100
AcDbArc
50
202.476181030273
51
269.994323730469
0
ARC
5
6a9
100
AcDbEntity
8
0-0
6
CONTINUOUS
62
3
100
AcDbCircle
10
755.140000000000
20
866.030000000000
30
0.0
40
0.999999984825
100
AcDbArc
50
22.486663818359
51
90.000000000000
0
ARC
5
6aa
100
AcDbEntity
8
0-0
6
CONTINUOUS
62
3
100
AcDbCircle
10
762.140000000000
20
853.030000000000
30
0.0
40
0.999999984825
100
AcDbArc
50
202.476181030273
51
269.994323730469
0
ARC
5
6ab
100
AcDbEntity
8
0-0
6
CONTINUOUS
62
3
100
AcDbCircle
10
790.810000000000
20
866.030000000000
30
0.0
40
0.499999992412
100
AcDbArc
50
90.000000000000
51
157.513336181641
0
ARC
5
6ac
100
AcDbEntity
8
0-0
6
CONTINUOUS
62
3
100
AcDbCircle
10
783.800000000000
20
853.030000000000
30
0.0
40
0.499999992412
100
AcDbArc
50
270.005676269531
51
337.523818969727
0
ARC
5
6ad
100
AcDbEntity
8
0-0
6
CONTINUOUS
62
3
100
AcDbCircle
10
790.810000000000
20
866.030000000000
30
0.0
40
0.999999984825
100
AcDbArc
50
90.000000000000
51
157.513336181641
0
ARC
5
6ae
100
AcDbEntity
8
0-0
6
CONTINUOUS
62
3
100
AcDbCircle
10
783.800000000000
20
853.030000000000
30
0.0
40
0.999999984825
100
AcDbArc
50
270.005676269531
51
337.523818969727
0
ARC
5
6af
100
AcDbEntity
8
0-0
6
CONTINUOUS
62
3
100
AcDbCircle
10
880.140000000000
20
866.030000000000
30
0.0
40
0.499999992412
100
AcDbArc
50
22.486663818359
51
90.000000000000
0
ARC
5
6b0
100
AcDbEntity
8
0-0
6
CONTINUOUS
62
3
100
AcDbCircle
10
887.140000000000
20
853.030000000000
30
0.0
40
0.499999992412
100
AcDbArc
50
202.476181030273
51
269.994323730469
0
ARC
5
6b1
100
AcDbEntity
8
0-0
6
CONTINUOUS
62
3
100
AcDbCircle
10
880.140000000000
20
866.030000000000
30
0.0
40
0.999999984825
100
AcDbArc
50
22.486663818359
51
90.000000000000
0
ARC
5
6b2
100
AcDbEntity
8
0-0
6
CONTINUOUS
62
3
100
AcDbCircle
10
887.140000000000
20
853.030000000000
30
0.0
40
0.999999984825
100
AcDbArc
50
202.476181030273
51
269.994323730469
0
ARC
5
6b3
100
AcDbEntity
8
0-0
6
CONTINUOUS
62
3
100
AcDbCircle
10
915.810000000000
20
866.030000000000
30
0.0
40
0.499999992412
100
AcDbArc
50
90.000000000000
51
157.513336181641
0
ARC
5
6b4
100
AcDbEntity
8
0-0
6
CONTINUOUS
62
3
100
AcDbCircle
10
908.800000000000
20
853.030000000000
30
0.0
40
0.499999992412
100
AcDbArc
50
270.005676269531
51
337.523818969727
0
ARC
5
6b5
100
AcDbEntity
8
0-0
6
CONTINUOUS
62
3
100
AcDbCircle
10
915.810000000000
20
866.030000000000
30
0.0
40
0.999999984825
100
AcDbArc
50
90.000000000000
51
157.513336181641
0
ARC
5
6b6
100
AcDbEntity
8
0-0
6
CONTINUOUS
62
3
100
AcDbCircle
10
908.800000000000
20
853.030000000000
30
0.0
40
0.999999984825
100
AcDbArc
50
270.005676269531
51
337.523818969727
0
ARC
5
6b7
100
AcDbEntity
8
0-0
6
CONTINUOUS
62
3
100
AcDbCircle
10
283.980000000000
20
853.730000000000
30
0.0
40
0.499999992412
100
AcDbArc
50
270.000000000000
51
337.522735595703
0
ARC
5
6b8
100
AcDbEntity
8
0-0
6
CONTINUOUS
62
3
100
AcDbCircle
10
283.980000000000
20
853.730000000000
30
0.0
40
0.999999984825
100
AcDbArc
50
270.000000000000
51
337.522735595703
0
ARC
5
6b9
100
AcDbEntity
8
0-0
6
CONTINUOUS
62
3
100
AcDbCircle
10
290.700000000000
20
866.030000000000
30
0.0
40
0.499999992412
100
AcDbArc
50
90.000000000000
51
157.513336181641
0
ARC
5
6ba
100
AcDbEntity
8
0-0
6
CONTINUOUS
62
3
100
AcDbCircle
10
290.700000000000
20
866.030000000000
30
0.0
40
0.999999984825
100
AcDbArc
50
90.000000000000
51
157.513336181641
0
ARC
5
6bb
100
AcDbEntity
8
0-0
6
CONTINUOUS
62
3
100
AcDbCircle
10
1005.140000000000
20
866.030000000000
30
0.0
40
0.499999992412
100
AcDbArc
50
22.486663818359
51
90.000000000000
0
ARC
5
6bc
100
AcDbEntity
8
0-0
6
CONTINUOUS
62
3
100
AcDbCircle
10
1012.140000000000
20
853.030000000000
30
0.0
40
0.499999992412
100
AcDbArc
50
202.476181030273
51
269.994323730469
0
ARC
5
6bd
100
AcDbEntity
8
0-0
6
CONTINUOUS
62
3
100
AcDbCircle
10
1005.140000000000
20
866.030000000000
30
0.0
40
0.999999984825
100
AcDbArc
50
22.486663818359
51
90.000000000000
0
ARC
5
6be
100
AcDbEntity
8
0-0
6
CONTINUOUS
62
3
100
AcDbCircle
10
1012.140000000000
20
853.030000000000
30
0.0
40
0.999999984825
100
AcDbArc
50
202.476181030273
51
269.994323730469
0
ARC
5
6bf
100
AcDbEntity
8
0-0
6
CONTINUOUS
62
3
100
AcDbCircle
10
1041.170000000000
20
865.330000000000
30
0.0
40
0.499999992412
100
AcDbArc
50
90.000000000000
51
157.512237548828
0
ARC
5
6c0
100
AcDbEntity
8
0-0
6
CONTINUOUS
62
3
100
AcDbCircle
10
1041.170000000000
20
865.330000000000
30
0.0
40
0.999999984825
100
AcDbArc
50
90.000000000000
51
157.512237548828
0
ARC
5
6c1
100
AcDbEntity
8
0-0
6
CONTINUOUS
62
3
100
AcDbCircle
10
1034.450000000000
20
853.030000000000
30
0.0
40
0.499999992412
100
AcDbArc
50
270.000000000000
51
337.513336181641
0
ARC
5
6c2
100
AcDbEntity
8
0-0
6
CONTINUOUS
62
3
100
AcDbCircle
10
1034.450000000000
20
853.030000000000
30
0.0
40
0.999999984825
100
AcDbArc
50
270.000000000000
51
337.513336181641
0
ARC
5
6c3
100
AcDbEntity
8
1-2
6
CONTINUOUS
62
3
100
AcDbCircle
10
1250.130000000000
20
267.310000000000
30
0.0
40
0.999999984825
100
AcDbArc
50
69.445953369141
51
90.000000000000
0
ARC
5
6c4
100
AcDbEntity
8
1-2
6
CONTINUOUS
62
3
100
AcDbCircle
10
1258.680000000000
20
267.310000000000
30
0.0
40
0.999999984825
100
AcDbArc
50
249.445953369141
51
270.000000000000
0
ARC
5
6c5
100
AcDbEntity
8
1-2
6
CONTINUOUS
62
3
100
AcDbCircle
10
1250.130000000000
20
267.310000000000
30
0.0
40
1.999999969650
100
AcDbArc
50
69.445953369141
51
90.000000000000
0
ARC
5
6c6
100
AcDbEntity
8
1-2
6
CONTINUOUS
62
3
100
AcDbCircle
10
1258.680000000000
20
267.310000000000
30
0.0
40
1.999999969650
100
AcDbArc
50
249.445953369141
51
270.000000000000
0
ARC
5
6c7
100
AcDbEntity
8
1-2
6
CONTINUOUS
62
3
100
AcDbCircle
10
1215.170000000000
20
267.310000000000
30
0.0
40
0.999999984825
100
AcDbArc
50
90.000000000000
51
157.513336181641
0
ARC
5
6c8
100
AcDbEntity
8
1-2
6
CONTINUOUS
62
3
100
AcDbCircle
10
1201.160000000000
20
241.310000000000
30
0.0
40
0.999999984825
100
AcDbArc
50
270.005676269531
51
337.523818969727
0
ARC
5
6c9
100
AcDbEntity
8
1-2
6
CONTINUOUS
62
3
100
AcDbCircle
10
1215.170000000000
20
267.310000000000
30
0.0
40
1.999999969650
100
AcDbArc
50
90.000000000000
51
157.513336181641
0
ARC
5
6ca
100
AcDbEntity
8
1-2
6
CONTINUOUS
62
3
100
AcDbCircle
10
1201.160000000000
20
241.310000000000
30
0.0
40
1.999999969650
100
AcDbArc
50
270.005676269531
51
337.523818969727
0
ARC
5
6cb
100
AcDbEntity
8
1-2
6
CONTINUOUS
62
3
100
AcDbCircle
10
1108.860000000000
20
267.310000000000
30
0.0
40
0.999999984825
100
AcDbArc
50
90.000000000000
51
110.554046630859
0
ARC
5
6cc
100
AcDbEntity
8
1-2
6
CONTINUOUS
62
3
100
AcDbCircle
10
1100.320000000000
20
267.310000000000
30
0.0
40
0.999999984825
100
AcDbArc
50
270.000000000000
51
290.554046630859
0
ARC
5
6cd
100
AcDbEntity
8
1-2
6
CONTINUOUS
62
3
100
AcDbCircle
10
1108.860000000000
20
267.310000000000
30
0.0
40
1.999999969650
100
AcDbArc
50
90.000000000000
51
110.554046630859
0
ARC
5
6ce
100
AcDbEntity
8
1-2
6
CONTINUOUS
62
3
100
AcDbCircle
10
1100.320000000000
20
267.310000000000
30
0.0
40
1.999999969650
100
AcDbArc
50
270.000000000000
51
290.554046630859
0
ARC
5
6cf
100
AcDbEntity
8
1-2
6
CONTINUOUS
62
3
100
AcDbCircle
10
1143.830000000000
20
267.310000000000
30
0.0
40
0.999999984825
100
AcDbArc
50
22.486663818359
51
90.000000000000
0
ARC
5
6d0
100
AcDbEntity
8
1-2
6
CONTINUOUS
62
3
100
AcDbCircle
10
1157.830000000000
20
241.310000000000
30
0.0
40
0.999999984825
100
AcDbArc
50
202.476181030273
51
269.994323730469
0
ARC
5
6d1
100
AcDbEntity
8
1-2
6
CONTINUOUS
62
3
100
AcDbCircle
10
1143.830000000000
20
267.310000000000
30
0.0
40
1.999999969650
100
AcDbArc
50
22.486663818359
51
90.000000000000
0
ARC
5
6d2
100
AcDbEntity
8
1-2
6
CONTINUOUS
62
3
100
AcDbCircle
10
1358.860000000000
20
267.310000000000
30
0.0
40
0.999999984825
100
AcDbArc
50
90.000000000000
51
110.554046630859
0
ARC
5
6d3
100
AcDbEntity
8
1-2
6
CONTINUOUS
62
3
100
AcDbCircle
10
1350.320000000000
20
267.310000000000
30
0.0
40
0.999999984825
100
AcDbArc
50
270.000000000000
51
290.554046630859
0
ARC
5
6d4
100
AcDbEntity
8
1-2
6
CONTINUOUS
62
3
100
AcDbCircle
10
1358.860000000000
20
267.310000000000
30
0.0
40
1.999999969650
100
AcDbArc
50
90.000000000000
51
110.554046630859
0
ARC
5
6d5
100
AcDbEntity
8
1-2
6
CONTINUOUS
62
3
100
AcDbCircle
10
1350.320000000000
20
267.310000000000
30
0.0
40
1.999999969650
100
AcDbArc
50
270.000000000000
51
290.554046630859
0
ARC
5
6d6
100
AcDbEntity
8
1-2
6
CONTINUOUS
62
3
100
AcDbCircle
10
1393.830000000000
20
267.310000000000
30
0.0
40
0.999999984825
100
AcDbArc
50
22.486663818359
51
90.000000000000
0
ARC
5
6d7
100
AcDbEntity
8
1-2
6
CONTINUOUS
62
3
100
AcDbCircle
10
1407.830000000000
20
241.310000000000
30
0.0
40
0.999999984825
100
AcDbArc
50
202.476181030273
51
269.994323730469
0
ARC
5
6d8
100
AcDbEntity
8
1-2
6
CONTINUOUS
62
3
100
AcDbCircle
10
1393.830000000000
20
267.310000000000
30
0.0
40
1.999999969650
100
AcDbArc
50
22.486663818359
51
90.000000000000
0
ARC
5
6d9
100
AcDbEntity
8
1-2
6
CONTINUOUS
62
3
100
AcDbCircle
10
1407.830000000000
20
241.310000000000
30
0.0
40
1.999999969650
100
AcDbArc
50
202.476181030273
51
269.994323730469
0
ARC
5
6da
100
AcDbEntity
8
1-2
6
CONTINUOUS
62
3
100
AcDbCircle
10
1500.130000000000
20
267.310000000000
30
0.0
40
0.999999984825
100
AcDbArc
50
69.445953369141
51
90.000000000000
0
ARC
5
6db
100
AcDbEntity
8
1-2
6
CONTINUOUS
62
3
100
AcDbCircle
10
1508.680000000000
20
267.310000000000
30
0.0
40
0.999999984825
100
AcDbArc
50
249.445953369141
51
270.000000000000
0
ARC
5
6dc
100
AcDbEntity
8
1-2
6
CONTINUOUS
62
3
100
AcDbCircle
10
1500.130000000000
20
267.310000000000
30
0.0
40
1.999999969650
100
AcDbArc
50
69.445953369141
51
90.000000000000
0
ARC
5
6dd
100
AcDbEntity
8
1-2
6
CONTINUOUS
62
3
100
AcDbCircle
10
1508.680000000000
20
267.310000000000
30
0.0
40
1.999999969650
100
AcDbArc
50
249.445953369141
51
270.000000000000
0
ARC
5
6de
100
AcDbEntity
8
1-2
6
CONTINUOUS
62
3
100
AcDbCircle
10
1465.170000000000
20
267.310000000000
30
0.0
40
0.999999984825
100
AcDbArc
50
90.000000000000
51
157.513336181641
0
ARC
5
6df
100
AcDbEntity
8
1-2
6
CONTINUOUS
62
3
100
AcDbCircle
10
1451.160000000000
20
241.310000000000
30
0.0
40
0.999999984825
100
AcDbArc
50
270.005676269531
51
337.523818969727
0
ARC
5
6e0
100
AcDbEntity
8
1-2
6
CONTINUOUS
62
3
100
AcDbCircle
10
1465.170000000000
20
267.310000000000
30
0.0
40
1.999999969650
100
AcDbArc
50
90.000000000000
51
157.513336181641
0
ARC
5
6e1
100
AcDbEntity
8
1-2
6
CONTINUOUS
62
3
100
AcDbCircle
10
1157.830000000000
20
241.310000000000
30
0.0
40
1.999999969650
100
AcDbArc
50
202.476181030273
51
269.994323730469
0
ARC
5
6e2
100
AcDbEntity
8
1-2
6
CONTINUOUS
62
3
100
AcDbCircle
10
1451.160000000000
20
241.310000000000
30
0.0
40
1.999999969650
100
AcDbArc
50
270.005676269531
51
337.523818969727
0
ARC
5
6e3
100
AcDbEntity
8
0-0
6
CONTINUOUS
62
3
100
AcDbCircle
10
533.800000000000
20
403.040000000000
30
0.0
40
0.499999992412
100
AcDbArc
50
270.005676269531
51
337.523818969727
0
ARC
5
6e4
100
AcDbEntity
8
0-0
6
CONTINUOUS
62
3
100
AcDbCircle
10
533.800000000000
20
403.040000000000
30
0.0
40
0.999999984825
100
AcDbArc
50
270.005676269531
51
337.523818969727
0
ARC
5
6e5
100
AcDbEntity
8
0-0
6
CONTINUOUS
62
3
100
AcDbCircle
10
512.140000000000
20
403.040000000000
30
0.0
40
0.499999992412
100
AcDbArc
50
202.476181030273
51
269.994323730469
0
ARC
5
6e6
100
AcDbEntity
8
0-0
6
CONTINUOUS
62
3
100
AcDbCircle
10
512.140000000000
20
403.040000000000
30
0.0
40
0.999999984825
100
AcDbArc
50
202.476181030273
51
269.994323730469
0
ARC
5
6e7
100
AcDbEntity
8
0-0
6
CONTINUOUS
62
3
100
AcDbCircle
10
387.140000000000
20
403.040000000000
30
0.0
40
0.499999992412
100
AcDbArc
50
202.476181030273
51
269.994323730469
0
ARC
5
6e8
100
AcDbEntity
8
0-0
6
CONTINUOUS
62
3
100
AcDbCircle
10
387.140000000000
20
403.040000000000
30
0.0
40
0.999999984825
100
AcDbArc
50
202.476181030273
51
269.994323730469
0
ARC
5
6e9
100
AcDbEntity
8
0-0
6
CONTINUOUS
62
3
100
AcDbCircle
10
408.800000000000
20
403.040000000000
30
0.0
40
0.499999992412
100
AcDbArc
50
270.005676269531
51
337.523818969727
0
ARC
5
6ea
100
AcDbEntity
8
0-0
6
CONTINUOUS
62
3
100
AcDbCircle
10
408.800000000000
20
403.040000000000
30
0.0
40
0.999999984825
100
AcDbArc
50
270.005676269531
51
337.523818969727
0
ARC
5
6eb
100
AcDbEntity
8
0-0
6
CONTINUOUS
62
3
100
AcDbCircle
10
637.140000000000
20
403.040000000000
30
0.0
40
0.499999992412
100
AcDbArc
50
202.476181030273
51
269.994323730469
0
ARC
5
6ec
100
AcDbEntity
8
0-0
6
CONTINUOUS
62
3
100
AcDbCircle
10
637.140000000000
20
403.040000000000
30
0.0
40
0.999999984825
100
AcDbArc
50
202.476181030273
51
269.994323730469
0
ARC
5
6ed
100
AcDbEntity
8
0-0
6
CONTINUOUS
62
3
100
AcDbCircle
10
658.800000000000
20
403.040000000000
30
0.0
40
0.499999992412
100
AcDbArc
50
270.005676269531
51
337.523818969727
0
ARC
5
6ee
100
AcDbEntity
8
0-0
6
CONTINUOUS
62
3
100
AcDbCircle
10
658.800000000000
20
403.040000000000
30
0.0
40
0.999999984825
100
AcDbArc
50
270.005676269531
51
337.523818969727
0
ARC
5
6ef
100
AcDbEntity
8
0-0
6
CONTINUOUS
62
3
100
AcDbCircle
10
762.140000000000
20
403.040000000000
30
0.0
40
0.499999992412
100
AcDbArc
50
202.476181030273
51
269.994323730469
0
ARC
5
6f0
100
AcDbEntity
8
0-0
6
CONTINUOUS
62
3
100
AcDbCircle
10
762.140000000000
20
403.040000000000
30
0.0
40
0.999999984825
100
AcDbArc
50
202.476181030273
51
269.994323730469
0
ARC
5
6f1
100
AcDbEntity
8
0-0
6
CONTINUOUS
62
3
100
AcDbCircle
10
783.800000000000
20
403.040000000000
30
0.0
40
0.499999992412
100
AcDbArc
50
270.005676269531
51
337.523818969727
0
ARC
5
6f2
100
AcDbEntity
8
0-0
6
CONTINUOUS
62
3
100
AcDbCircle
10
783.800000000000
20
403.040000000000
30
0.0
40
0.999999984825
100
AcDbArc
50
270.005676269531
51
337.523818969727
0
ARC
5
6f3
100
AcDbEntity
8
0-0
6
CONTINUOUS
62
3
100
AcDbCircle
10
887.140000000000
20
403.040000000000
30
0.0
40
0.499999992412
100
AcDbArc
50
202.476181030273
51
269.994323730469
0
ARC
5
6f4
100
AcDbEntity
8
0-0
6
CONTINUOUS
62
3
100
AcDbCircle
10
887.140000000000
20
403.040000000000
30
0.0
40
0.999999984825
100
AcDbArc
50
202.476181030273
51
269.994323730469
0
ARC
5
6f5
100
AcDbEntity
8
0-0
6
CONTINUOUS
62
3
100
AcDbCircle
10
908.800000000000
20
403.040000000000
30
0.0
40
0.499999992412
100
AcDbArc
50
270.005676269531
51
337.523818969727
0
ARC
5
6f6
100
AcDbEntity
8
0-0
6
CONTINUOUS
62
3
100
AcDbCircle
10
908.800000000000
20
403.040000000000
30
0.0
40
0.999999984825
100
AcDbArc
50
270.005676269531
51
337.523818969727
0
ARC
5
6f7
100
AcDbEntity
8
0-0
6
CONTINUOUS
62
3
100
AcDbCircle
10
283.980000000000
20
403.740000000000
30
0.0
40
0.499999992412
100
AcDbArc
50
270.000000000000
51
337.522735595703
0
ARC
5
6f8
100
AcDbEntity
8
0-0
6
CONTINUOUS
62
3
100
AcDbCircle
10
283.980000000000
20
403.740000000000
30
0.0
40
0.999999984825
100
AcDbArc
50
270.000000000000
51
337.522735595703
0
ARC
5
6f9
100
AcDbEntity
8
0-0
6
CONTINUOUS
62
3
100
AcDbCircle
10
1012.140000000000
20
403.040000000000
30
0.0
40
0.499999992412
100
AcDbArc
50
202.476181030273
51
269.994323730469
0
ARC
5
6fa
100
AcDbEntity
8
0-0
6
CONTINUOUS
62
3
100
AcDbCircle
10
1012.140000000000
20
403.040000000000
30
0.0
40
0.999999984825
100
AcDbArc
50
202.476181030273
51
269.994323730469
0
ARC
5
6fb
100
AcDbEntity
8
0-0
6
CONTINUOUS
62
3
100
AcDbCircle
10
1041.170000000000
20
415.330000000000
30
0.0
40
0.499999992412
100
AcDbArc
50
90.000000000000
51
157.512237548828
0
ARC
5
6fc
100
AcDbEntity
8
0-0
6
CONTINUOUS
62
3
100
AcDbCircle
10
1041.170000000000
20
415.330000000000
30
0.0
40
0.999999984825
100
AcDbArc
50
90.000000000000
51
157.512237548828
0
ARC
5
6fd
100
AcDbEntity
8
0-0
6
CONTINUOUS
62
3
100
AcDbCircle
10
1034.450000000000
20
403.040000000000
30
0.0
40
0.499999992412
100
AcDbArc
50
270.000000000000
51
337.513336181641
0
ARC
5
6fe
100
AcDbEntity
8
0-0
6
CONTINUOUS
62
3
100
AcDbCircle
10
1034.450000000000
20
403.040000000000
30
0.0
40
0.999999984825
100
AcDbArc
50
270.000000000000
51
337.513336181641
0
ARC
5
6ff
100
AcDbEntity
8
0-0
6
CONTINUOUS
62
3
100
AcDbCircle
10
308.290000000000
20
416.040000000000
30
0.0
40
0.499999992412
100
AcDbArc
50
69.445953369141
51
90.000000000000
0
ARC
5
700
100
AcDbEntity
8
0-0
6
CONTINUOUS
62
3
100
AcDbCircle
10
312.560000000000
20
416.040000000000
30
0.0
40
0.499999992412
100
AcDbArc
50
249.445953369141
51
270.000000000000
0
ARC
5
701
100
AcDbEntity
8
0-0
6
CONTINUOUS
62
3
100
AcDbCircle
10
308.290000000000
20
416.040000000000
30
0.0
40
0.999999984825
100
AcDbArc
50
69.445953369141
51
90.000000000000
0
ARC
5
702
100
AcDbEntity
8
0-0
6
CONTINUOUS
62
3
100
AcDbCircle
10
312.560000000000
20
416.040000000000
30
0.0
40
0.999999984825
100
AcDbArc
50
249.445953369141
51
270.000000000000
0
ARC
5
703
100
AcDbEntity
8
0-0
6
CONTINUOUS
62
3
100
AcDbCircle
10
362.650000000000
20
416.040000000000
30
0.0
40
0.499999992412
100
AcDbArc
50
90.000000000000
51
110.554046630859
0
ARC
5
704
100
AcDbEntity
8
0-0
6
CONTINUOUS
62
3
100
AcDbCircle
10
358.380000000000
20
416.040000000000
30
0.0
40
0.499999992412
100
AcDbArc
50
270.000000000000
51
290.554046630859
0
ARC
5
705
100
AcDbEntity
8
0-0
6
CONTINUOUS
62
3
100
AcDbCircle
10
362.650000000000
20
416.040000000000
30
0.0
40
0.999999984825
100
AcDbArc
50
90.000000000000
51
110.554046630859
0
ARC
5
706
100
AcDbEntity
8
0-0
6
CONTINUOUS
62
3
100
AcDbCircle
10
358.380000000000
20
416.040000000000
30
0.0
40
0.999999984825
100
AcDbArc
50
270.000000000000
51
290.554046630859
0
ARC
5
707
100
AcDbEntity
8
0-0
6
CONTINUOUS
62
3
100
AcDbCircle
10
380.140000000000
20
416.040000000000
30
0.0
40
0.499999992412
100
AcDbArc
50
22.486663818359
51
90.000000000000
0
ARC
5
708
100
AcDbEntity
8
0-0
6
CONTINUOUS
62
3
100
AcDbCircle
10
380.140000000000
20
416.040000000000
30
0.0
40
0.999999984825
100
AcDbArc
50
22.486663818359
51
90.000000000000
0
ARC
5
709
100
AcDbEntity
8
0-0
6
CONTINUOUS
62
3
100
AcDbCircle
10
290.700000000000
20
416.040000000000
30
0.0
40
0.499999992412
100
AcDbArc
50
90.000000000000
51
157.522735595703
0
ARC
5
70a
100
AcDbEntity
8
0-0
6
CONTINUOUS
62
3
100
AcDbCircle
10
290.700000000000
20
416.040000000000
30
0.0
40
0.999999984825
100
AcDbArc
50
90.000000000000
51
157.522735595703
0
ARC
5
70b
100
AcDbEntity
8
0-0
6
CONTINUOUS
62
3
100
AcDbCircle
10
433.290000000000
20
416.040000000000
30
0.0
40
0.499999992412
100
AcDbArc
50
69.445953369141
51
90.000000000000
0
ARC
5
70c
100
AcDbEntity
8
0-0
6
CONTINUOUS
62
3
100
AcDbCircle
10
437.560000000000
20
416.040000000000
30
0.0
40
0.499999992412
100
AcDbArc
50
249.445953369141
51
270.000000000000
0
ARC
5
70d
100
AcDbEntity
8
0-0
6
CONTINUOUS
62
3
100
AcDbCircle
10
433.290000000000
20
416.040000000000
30
0.0
40
0.999999984825
100
AcDbArc
50
69.445953369141
51
90.000000000000
0
ARC
5
70e
100
AcDbEntity
8
0-0
6
CONTINUOUS
62
3
100
AcDbCircle
10
437.560000000000
20
416.040000000000
30
0.0
40
0.999999984825
100
AcDbArc
50
249.445953369141
51
270.000000000000
0
ARC
5
70f
100
AcDbEntity
8
0-0
6
CONTINUOUS
62
3
100
AcDbCircle
10
487.650000000000
20
416.040000000000
30
0.0
40
0.499999992412
100
AcDbArc
50
90.000000000000
51
110.554046630859
0
ARC
5
710
100
AcDbEntity
8
0-0
6
CONTINUOUS
62
3
100
AcDbCircle
10
483.380000000000
20
416.040000000000
30
0.0
40
0.499999992412
100
AcDbArc
50
270.000000000000
51
290.554046630859
0
ARC
5
711
100
AcDbEntity
8
0-0
6
CONTINUOUS
62
3
100
AcDbCircle
10
487.650000000000
20
416.040000000000
30
0.0
40
0.999999984825
100
AcDbArc
50
90.000000000000
51
110.554046630859
0
ARC
5
712
100
AcDbEntity
8
0-0
6
CONTINUOUS
62
3
100
AcDbCircle
10
483.380000000000
20
416.040000000000
30
0.0
40
0.999999984825
100
AcDbArc
50
270.000000000000
51
290.554046630859
0
ARC
5
713
100
AcDbEntity
8
0-0
6
CONTINUOUS
62
3
100
AcDbCircle
10
505.140000000000
20
416.040000000000
30
0.0
40
0.499999992412
100
AcDbArc
50
22.486663818359
51
90.000000000000
0
ARC
5
714
100
AcDbEntity
8
0-0
6
CONTINUOUS
62
3
100
AcDbCircle
10
505.140000000000
20
416.040000000000
30
0.0
40
0.999999984825
100
AcDbArc
50
22.486663818359
51
90.000000000000
0
ARC
5
715
100
AcDbEntity
8
0-0
6
CONTINUOUS
62
3
100
AcDbCircle
10
415.700000000000
20
416.040000000000
30
0.0
40
0.499999992412
100
AcDbArc
50
90.000000000000
51
157.522735595703
0
ARC
5
716
100
AcDbEntity
8
0-0
6
CONTINUOUS
62
3
100
AcDbCircle
10
415.700000000000
20
416.040000000000
30
0.0
40
0.999999984825
100
AcDbArc
50
90.000000000000
51
157.522735595703
0
ARC
5
717
100
AcDbEntity
8
0-0
6
CONTINUOUS
62
3
100
AcDbCircle
10
558.290000000000
20
416.040000000000
30
0.0
40
0.499999992412
100
AcDbArc
50
69.445953369141
51
90.000000000000
0
ARC
5
718
100
AcDbEntity
8
0-0
6
CONTINUOUS
62
3
100
AcDbCircle
10
562.560000000000
20
416.040000000000
30
0.0
40
0.499999992412
100
AcDbArc
50
249.445953369141
51
270.000000000000
0
ARC
5
719
100
AcDbEntity
8
0-0
6
CONTINUOUS
62
3
100
AcDbCircle
10
558.290000000000
20
416.040000000000
30
0.0
40
0.999999984825
100
AcDbArc
50
69.445953369141
51
90.000000000000
0
ARC
5
71a
100
AcDbEntity
8
0-0
6
CONTINUOUS
62
3
100
AcDbCircle
10
562.560000000000
20
416.040000000000
30
0.0
40
0.999999984825
100
AcDbArc
50
249.445953369141
51
270.000000000000
0
ARC
5
71b
100
AcDbEntity
8
0-0
6
CONTINUOUS
62
3
100
AcDbCircle
10
612.650000000000
20
416.040000000000
30
0.0
40
0.499999992412
100
AcDbArc
50
90.000000000000
51
110.554046630859
0
ARC
5
71c
100
AcDbEntity
8
0-0
6
CONTINUOUS
62
3
100
AcDbCircle
10
608.380000000000
20
416.040000000000
30
0.0
40
0.499999992412
100
AcDbArc
50
270.000000000000
51
290.554046630859
0
ARC
5
71d
100
AcDbEntity
8
0-0
6
CONTINUOUS
62
3
100
AcDbCircle
10
612.650000000000
20
416.040000000000
30
0.0
40
0.999999984825
100
AcDbArc
50
90.000000000000
51
110.554046630859
0
ARC
5
71e
100
AcDbEntity
8
0-0
6
CONTINUOUS
62
3
100
AcDbCircle
10
608.380000000000
20
416.040000000000
30
0.0
40
0.999999984825
100
AcDbArc
50
270.000000000000
51
290.554046630859
0
ARC
5
71f
100
AcDbEntity
8
0-0
6
CONTINUOUS
62
3
100
AcDbCircle
10
630.140000000000
20
416.040000000000
30
0.0
40
0.499999992412
100
AcDbArc
50
22.486663818359
51
90.000000000000
0
ARC
5
720
100
AcDbEntity
8
0-0
6
CONTINUOUS
62
3
100
AcDbCircle
10
630.140000000000
20
416.040000000000
30
0.0
40
0.999999984825
100
AcDbArc
50
22.486663818359
51
90.000000000000
0
ARC
5
721
100
AcDbEntity
8
0-0
6
CONTINUOUS
62
3
100
AcDbCircle
10
540.700000000000
20
416.040000000000
30
0.0
40
0.499999992412
100
AcDbArc
50
90.000000000000
51
157.522735595703
0
ARC
5
722
100
AcDbEntity
8
0-0
6
CONTINUOUS
62
3
100
AcDbCircle
10
540.700000000000
20
416.040000000000
30
0.0
40
0.999999984825
100
AcDbArc
50
90.000000000000
51
157.522735595703
0
ARC
5
723
100
AcDbEntity
8
0-0
6
CONTINUOUS
62
3
100
AcDbCircle
10
683.290000000000
20
416.040000000000
30
0.0
40
0.499999992412
100
AcDbArc
50
69.445953369141
51
90.000000000000
0
ARC
5
724
100
AcDbEntity
8
0-0
6
CONTINUOUS
62
3
100
AcDbCircle
10
687.560000000000
20
416.040000000000
30
0.0
40
0.499999992412
100
AcDbArc
50
249.445953369141
51
270.000000000000
0
ARC
5
725
100
AcDbEntity
8
0-0
6
CONTINUOUS
62
3
100
AcDbCircle
10
683.290000000000
20
416.040000000000
30
0.0
40
0.999999984825
100
AcDbArc
50
69.445953369141
51
90.000000000000
0
ARC
5
726
100
AcDbEntity
8
0-0
6
CONTINUOUS
62
3
100
AcDbCircle
10
687.560000000000
20
416.040000000000
30
0.0
40
0.999999984825
100
AcDbArc
50
249.445953369141
51
270.000000000000
0
ARC
5
727
100
AcDbEntity
8
0-0
6
CONTINUOUS
62
3
100
AcDbCircle
10
737.650000000000
20
416.040000000000
30
0.0
40
0.499999992412
100
AcDbArc
50
90.000000000000
51
110.554046630859
0
ARC
5
728
100
AcDbEntity
8
0-0
6
CONTINUOUS
62
3
100
AcDbCircle
10
733.380000000000
20
416.040000000000
30
0.0
40
0.499999992412
100
AcDbArc
50
270.000000000000
51
290.554046630859
0
ARC
5
729
100
AcDbEntity
8
0-0
6
CONTINUOUS
62
3
100
AcDbCircle
10
737.650000000000
20
416.040000000000
30
0.0
40
0.999999984825
100
AcDbArc
50
90.000000000000
51
110.554046630859
0
ARC
5
72a
100
AcDbEntity
8
0-0
6
CONTINUOUS
62
3
100
AcDbCircle
10
733.380000000000
20
416.040000000000
30
0.0
40
0.999999984825
100
AcDbArc
50
270.000000000000
51
290.554046630859
0
ARC
5
72b
100
AcDbEntity
8
0-0
6
CONTINUOUS
62
3
100
AcDbCircle
10
755.140000000000
20
416.040000000000
30
0.0
40
0.499999992412
100
AcDbArc
50
22.486663818359
51
90.000000000000
0
ARC
5
72c
100
AcDbEntity
8
0-0
6
CONTINUOUS
62
3
100
AcDbCircle
10
755.140000000000
20
416.040000000000
30
0.0
40
0.999999984825
100
AcDbArc
50
22.486663818359
51
90.000000000000
0
ARC
5
72d
100
AcDbEntity
8
0-0
6
CONTINUOUS
62
3
100
AcDbCircle
10
665.700000000000
20
416.040000000000
30
0.0
40
0.499999992412
100
AcDbArc
50
90.000000000000
51
157.522735595703
0
ARC
5
72e
100
AcDbEntity
8
0-0
6
CONTINUOUS
62
3
100
AcDbCircle
10
665.700000000000
20
416.040000000000
30
0.0
40
0.999999984825
100
AcDbArc
50
90.000000000000
51
157.522735595703
0
ARC
5
72f
100
AcDbEntity
8
0-0
6
CONTINUOUS
62
3
100
AcDbCircle
10
808.290000000000
20
416.040000000000
30
0.0
40
0.499999992412
100
AcDbArc
50
69.445953369141
51
90.000000000000
0
ARC
5
730
100
AcDbEntity
8
0-0
6
CONTINUOUS
62
3
100
AcDbCircle
10
812.560000000000
20
416.040000000000
30
0.0
40
0.499999992412
100
AcDbArc
50
249.445953369141
51
270.000000000000
0
ARC
5
731
100
AcDbEntity
8
0-0
6
CONTINUOUS
62
3
100
AcDbCircle
10
808.290000000000
20
416.040000000000
30
0.0
40
0.999999984825
100
AcDbArc
50
69.445953369141
51
90.000000000000
0
ARC
5
732
100
AcDbEntity
8
0-0
6
CONTINUOUS
62
3
100
AcDbCircle
10
812.560000000000
20
416.040000000000
30
0.0
40
0.999999984825
100
AcDbArc
50
249.445953369141
51
270.000000000000
0
ARC
5
733
100
AcDbEntity
8
0-0
6
CONTINUOUS
62
3
100
AcDbCircle
10
862.650000000000
20
416.040000000000
30
0.0
40
0.499999992412
100
AcDbArc
50
90.000000000000
51
110.554046630859
0
ARC
5
734
100
AcDbEntity
8
0-0
6
CONTINUOUS
62
3
100
AcDbCircle
10
858.380000000000
20
416.040000000000
30
0.0
40
0.499999992412
100
AcDbArc
50
270.000000000000
51
290.554046630859
0
ARC
5
735
100
AcDbEntity
8
0-0
6
CONTINUOUS
62
3
100
AcDbCircle
10
862.650000000000
20
416.040000000000
30
0.0
40
0.999999984825
100
AcDbArc
50
90.000000000000
51
110.554046630859
0
ARC
5
736
100
AcDbEntity
8
0-0
6
CONTINUOUS
62
3
100
AcDbCircle
10
858.380000000000
20
416.040000000000
30
0.0
40
0.999999984825
100
AcDbArc
50
270.000000000000
51
290.554046630859
0
ARC
5
737
100
AcDbEntity
8
0-0
6
CONTINUOUS
62
3
100
AcDbCircle
10
880.140000000000
20
416.040000000000
30
0.0
40
0.499999992412
100
AcDbArc
50
22.486663818359
51
90.000000000000
0
ARC
5
738
100
AcDbEntity
8
0-0
6
CONTINUOUS
62
3
100
AcDbCircle
10
880.140000000000
20
416.040000000000
30
0.0
40
0.999999984825
100
AcDbArc
50
22.486663818359
51
90.000000000000
0
ARC
5
739
100
AcDbEntity
8
0-0
6
CONTINUOUS
62
3
100
AcDbCircle
10
790.700000000000
20
416.040000000000
30
0.0
40
0.499999992412
100
AcDbArc
50
90.000000000000
51
157.522735595703
0
ARC
5
73a
100
AcDbEntity
8
0-0
6
CONTINUOUS
62
3
100
AcDbCircle
10
790.700000000000
20
416.040000000000
30
0.0
40
0.999999984825
100
AcDbArc
50
90.000000000000
51
157.522735595703
0
ARC
5
73b
100
AcDbEntity
8
0-0
6
CONTINUOUS
62
3
100
AcDbCircle
10
933.290000000000
20
416.040000000000
30
0.0
40
0.499999992412
100
AcDbArc
50
69.445953369141
51
90.000000000000
0
ARC
5
73c
100
AcDbEntity
8
0-0
6
CONTINUOUS
62
3
100
AcDbCircle
10
937.560000000000
20
416.040000000000
30
0.0
40
0.499999992412
100
AcDbArc
50
249.445953369141
51
270.000000000000
0
ARC
5
73d
100
AcDbEntity
8
0-0
6
CONTINUOUS
62
3
100
AcDbCircle
10
933.290000000000
20
416.040000000000
30
0.0
40
0.999999984825
100
AcDbArc
50
69.445953369141
51
90.000000000000
0
ARC
5
73e
100
AcDbEntity
8
0-0
6
CONTINUOUS
62
3
100
AcDbCircle
10
937.560000000000
20
416.040000000000
30
0.0
40
0.999999984825
100
AcDbArc
50
249.445953369141
51
270.000000000000
0
ARC
5
73f
100
AcDbEntity
8
0-0
6
CONTINUOUS
62
3
100
AcDbCircle
10
987.650000000000
20
416.040000000000
30
0.0
40
0.499999992412
100
AcDbArc
50
90.000000000000
51
110.554046630859
0
ARC
5
740
100
AcDbEntity
8
0-0
6
CONTINUOUS
62
3
100
AcDbCircle
10
983.380000000000
20
416.040000000000
30
0.0
40
0.499999992412
100
AcDbArc
50
270.000000000000
51
290.554046630859
0
ARC
5
741
100
AcDbEntity
8
0-0
6
CONTINUOUS
62
3
100
AcDbCircle
10
987.650000000000
20
416.040000000000
30
0.0
40
0.999999984825
100
AcDbArc
50
90.000000000000
51
110.554046630859
0
ARC
5
742
100
AcDbEntity
8
0-0
6
CONTINUOUS
62
3
100
AcDbCircle
10
983.380000000000
20
416.040000000000
30
0.0
40
0.999999984825
100
AcDbArc
50
270.000000000000
51
290.554046630859
0
ARC
5
743
100
AcDbEntity
8
0-0
6
CONTINUOUS
62
3
100
AcDbCircle
10
1005.140000000000
20
416.040000000000
30
0.0
40
0.499999992412
100
AcDbArc
50
22.486663818359
51
90.000000000000
0
ARC
5
744
100
AcDbEntity
8
0-0
6
CONTINUOUS
62
3
100
AcDbCircle
10
1005.140000000000
20
416.040000000000
30
0.0
40
0.999999984825
100
AcDbArc
50
22.486663818359
51
90.000000000000
0
ARC
5
745
100
AcDbEntity
8
0-0
6
CONTINUOUS
62
3
100
AcDbCircle
10
915.700000000000
20
416.040000000000
30
0.0
40
0.499999992412
100
AcDbArc
50
90.000000000000
51
157.522735595703
0
ARC
5
746
100
AcDbEntity
8
0-0
6
CONTINUOUS
62
3
100
AcDbCircle
10
915.700000000000
20
416.040000000000
30
0.0
40
0.999999984825
100
AcDbArc
50
90.000000000000
51
157.522735595703
0
ARC
5
747
100
AcDbEntity
8
1-2
6
CONTINUOUS
62
3
100
AcDbCircle
10
1269.180000000000
20
617.310000000000
30
0.0
40
0.999999984825
100
AcDbArc
50
22.486663818359
51
90.000000000000
0
ARC
5
748
100
AcDbEntity
8
1-2
6
CONTINUOUS
62
3
100
AcDbCircle
10
1283.190000000000
20
591.310000000000
30
0.0
40
0.999999984825
100
AcDbArc
50
202.476181030273
51
269.994323730469
0
ARC
5
749
100
AcDbEntity
8
1-2
6
CONTINUOUS
62
3
100
AcDbCircle
10
1269.180000000000
20
617.310000000000
30
0.0
40
1.999999969650
100
AcDbArc
50
22.486663818359
51
90.000000000000
0
ARC
5
74a
100
AcDbEntity
8
1-2
6
CONTINUOUS
62
3
100
AcDbCircle
10
1283.190000000000
20
591.310000000000
30
0.0
40
1.999999969650
100
AcDbArc
50
202.476181030273
51
269.994323730469
0
ARC
5
74b
100
AcDbEntity
8
1-2
6
CONTINUOUS
62
3
100
AcDbCircle
10
1326.880000000000
20
592.710000000000
30
0.0
40
0.999999984825
100
AcDbArc
50
270.000000000000
51
337.522735595703
0
ARC
5
74c
100
AcDbEntity
8
1-2
6
CONTINUOUS
62
3
100
AcDbCircle
10
1326.880000000000
20
592.710000000000
30
0.0
40
1.999999969650
100
AcDbArc
50
270.000000000000
51
337.522735595703
0
ARC
5
74d
100
AcDbEntity
8
1-2
6
CONTINUOUS
62
3
100
AcDbCircle
10
1341.240000000000
20
615.910000000000
30
0.0
40
0.999999984825
100
AcDbArc
50
90.000000000000
51
157.512237548828
0
ARC
5
74e
100
AcDbEntity
8
1-2
6
CONTINUOUS
62
3
100
AcDbCircle
10
1340.300000000000
20
617.310000000000
30
0.0
40
0.999999984825
100
AcDbArc
50
90.000000000000
51
157.513336181641
0
ARC
5
74f
100
AcDbEntity
8
1-2
6
CONTINUOUS
62
3
100
AcDbCircle
10
1341.240000000000
20
615.910000000000
30
0.0
40
1.999999969650
100
AcDbArc
50
90.000000000000
51
157.512237548828
0
ARC
5
750
100
AcDbEntity
8
1-2
6
CONTINUOUS
62
3
100
AcDbCircle
10
1340.300000000000
20
617.310000000000
30
0.0
40
1.999999969650
100
AcDbArc
50
90.000000000000
51
157.513336181641
0
ARC
5
751
100
AcDbEntity
8
1-2
6
CONTINUOUS
62
3
100
AcDbCircle
10
1327.810000000000
20
591.310000000000
30
0.0
40
0.999999984825
100
AcDbArc
50
270.000000000000
51
337.513336181641
0
ARC
5
752
100
AcDbEntity
8
1-2
6
CONTINUOUS
62
3
100
AcDbCircle
10
1327.810000000000
20
591.310000000000
30
0.0
40
1.999999969650
100
AcDbArc
50
270.000000000000
51
337.513336181641
0
CIRCLE
5
753
100
AcDbEntity
8
F-F
6
CONTINUOUS
62
3
100
AcDbCircle
10
79.720000000000
20
67.100000000000
30
0.0
40
11.313709759210
0
CIRCLE
5
754
100
AcDbEntity
8
F-F
6
CONTINUOUS
62
3
100
AcDbCircle
10
79.720000000000
20
67.100000000000
30
0.0
40
12.913709270428
0
CIRCLE
5
755
100
AcDbEntity
8
F-F
6
CONTINUOUS
62
4
100
AcDbCircle
10
79.720000000000
20
67.100000000000
30
0.0
40
11.473710561919
0
CIRCLE
5
756
100
AcDbEntity
8
F-F
6
CONTINUOUS
62
4
100
AcDbCircle
10
79.720000000000
20
67.100000000000
30
0.0
40
11.793707522317
0
CIRCLE
5
757
100
AcDbEntity
8
F-F
6
CONTINUOUS
62
4
100
AcDbCircle
10
79.720000000000
20
67.100000000000
30
0.0
40
12.113709127734
0
CIRCLE
5
758
100
AcDbEntity
8
F-F
6
CONTINUOUS
62
4
100
AcDbCircle
10
79.720000000000
20
67.100000000000
30
0.0
40
12.433706862302
0
CIRCLE
5
759
100
AcDbEntity
8
F-F
6
CONTINUOUS
62
4
100
AcDbCircle
10
79.720000000000
20
67.100000000000
30
0.0
40
12.753706145210
0
ARC
5
75a
100
AcDbEntity
8
0-0
6
CONTINUOUS
62
3
100
AcDbCircle
10
1415.070000000000
20
865.330000000000
30
0.0
40
0.499999992412
100
AcDbArc
50
22.486663818359
51
90.000000000000
0
ARC
5
75b
100
AcDbEntity
8
0-0
6
CONTINUOUS
62
3
100
AcDbCircle
10
1422.070000000000
20
852.330000000000
30
0.0
40
0.499999992412
100
AcDbArc
50
202.476181030273
51
269.994323730469
0
ARC
5
75c
100
AcDbEntity
8
0-0
6
CONTINUOUS
62
3
100
AcDbCircle
10
1415.070000000000
20
865.330000000000
30
0.0
40
0.999999984825
100
AcDbArc
50
22.486663818359
51
90.000000000000
0
ARC
5
75d
100
AcDbEntity
8
0-0
6
CONTINUOUS
62
3
100
AcDbCircle
10
1422.070000000000
20
852.330000000000
30
0.0
40
0.999999984825
100
AcDbArc
50
202.476181030273
51
269.994323730469
0
ARC
5
75e
100
AcDbEntity
8
0-0
6
CONTINUOUS
62
3
100
AcDbCircle
10
1443.920000000000
20
853.030000000000
30
0.0
40
0.499999992412
100
AcDbArc
50
270.000000000000
51
337.522735595703
0
ARC
5
75f
100
AcDbEntity
8
0-0
6
CONTINUOUS
62
3
100
AcDbCircle
10
1443.920000000000
20
853.030000000000
30
0.0
40
0.999999984825
100
AcDbArc
50
270.000000000000
51
337.522735595703
0
ARC
5
760
100
AcDbEntity
8
0-0
6
CONTINUOUS
62
3
100
AcDbCircle
10
1451.100000000000
20
864.630000000000
30
0.0
40
0.499999992412
100
AcDbArc
50
90.000000000000
51
157.512237548828
0
ARC
5
761
100
AcDbEntity
8
0-0
6
CONTINUOUS
62
3
100
AcDbCircle
10
1450.630000000000
20
865.330000000000
30
0.0
40
0.499999992412
100
AcDbArc
50
90.000000000000
51
157.513336181641
0
ARC
5
762
100
AcDbEntity
8
0-0
6
CONTINUOUS
62
3
100
AcDbCircle
10
1451.100000000000
20
864.630000000000
30
0.0
40
0.999999984825
100
AcDbArc
50
90.000000000000
51
157.512237548828
0
ARC
5
763
100
AcDbEntity
8
0-0
6
CONTINUOUS
62
3
100
AcDbCircle
10
1450.630000000000
20
865.330000000000
30
0.0
40
0.999999984825
100
AcDbArc
50
90.000000000000
51
157.513336181641
0
ARC
5
764
100
AcDbEntity
8
0-0
6
CONTINUOUS
62
3
100
AcDbCircle
10
1444.390000000000
20
852.330000000000
30
0.0
40
0.499999992412
100
AcDbArc
50
270.000000000000
51
337.513336181641
0
ARC
5
765
100
AcDbEntity
8
0-0
6
CONTINUOUS
62
3
100
AcDbCircle
10
1444.390000000000
20
852.330000000000
30
0.0
40
0.999999984825
100
AcDbArc
50
270.000000000000
51
337.513336181641
0
TEXT
5
766
100
AcDbEntity
8
F-F
62
3
370
-3
100
AcDbText
10
532.090
20
75.752
30
0.0
40
4.923
1
変　　　　　　更　　　　　　記　　　　　　事
41
0.914
50
0.000
100
AcDbText
0
TEXT
5
767
100
AcDbEntity
8
F-F
62
3
370
-3
100
AcDbText
10
815.825
20
74.952
30
0.0
40
4.923
1
受領　　日附
41
0.914
50
0.000
100
AcDbText
0
TEXT
5
768
100
AcDbEntity
8
F-F
62
3
370
-3
100
AcDbText
10
1014.042
20
45.520
30
0.0
40
4.923
1
施工者
41
0.914
50
0.000
100
AcDbText
0
TEXT
5
769
100
AcDbEntity
8
F-F
62
3
370
-3
100
AcDbText
10
1014.042
20
75.150
30
0.0
40
4.923
1
設計者
41
0.914
50
0.000
100
AcDbText
0
TEXT
5
76a
100
AcDbEntity
8
F-F
62
3
370
-3
100
AcDbText
10
1219.525
20
44.977
30
0.0
40
4.923
1
作図
41
0.914
50
0.000
100
AcDbText
0
TEXT
5
76b
100
AcDbEntity
8
F-F
62
3
370
-3
100
AcDbText
10
1291.352
20
45.508
30
0.0
40
4.923
1
図面名
41
0.914
50
0.000
100
AcDbText
0
TEXT
5
76c
100
AcDbEntity
8
F-F
62
3
370
-3
100
AcDbText
10
1219.525
20
74.607
30
0.0
40
4.923
1
日附
41
0.914
50
0.000
100
AcDbText
0
TEXT
5
76d
100
AcDbEntity
8
F-F
62
3
370
-3
100
AcDbText
10
1291.352
20
75.137
30
0.0
40
4.923
1
工事件名
41
0.914
50
0.000
100
AcDbText
0
TEXT
5
76e
100
AcDbEntity
8
F-F
62
3
370
-3
100
AcDbText
10
1241.661
20
74.355
30
0.0
40
4.923
1
年　月　日
41
0.914
50
0.000
100
AcDbText
0
TEXT
5
76f
100
AcDbEntity
8
F-F
62
3
370
-3
100
AcDbText
10
1241.661
20
44.726
30
0.0
40
4.923
1
年　月　日
41
0.914
50
0.000
100
AcDbText
0
TEXT
5
770
100
AcDbEntity
8
F-F
62
3
370
-3
100
AcDbText
10
1543.695
20
75.137
30
0.0
40
4.923
1
設計番号
41
0.914
50
0.000
100
AcDbText
0
MTEXT
5
771
100
AcDbEntity
8
F-F
62
3
370
-3
100
AcDbMText
10
387.012
20
67.821
30
0.0
40
4.649
41
0.000
71
7
72
1
1
\W1.037;{\W0.747;. }　{\W0.747;.}　{\W0.747; }
7
STANDARD
11
1.00000
21
0.00000
31
0.0
0
MTEXT
5
772
100
AcDbEntity
8
F-F
62
3
370
-3
100
AcDbMText
10
387.012
20
57.945
30
0.0
40
4.649
41
0.000
71
7
72
1
1
\W1.037;{\W0.747;. }　{\W0.747;.}　{\W0.747; }
7
STANDARD
11
1.00000
21
0.00000
31
0.0
0
MTEXT
5
773
100
AcDbEntity
8
F-F
62
3
370
-3
100
AcDbMText
10
387.012
20
48.068
30
0.0
40
4.649
41
0.000
71
7
72
1
1
\W1.037;{\W0.747;. }　{\W0.747;.}　{\W0.747; }
7
STANDARD
11
1.00000
21
0.00000
31
0.0
0
MTEXT
5
774
100
AcDbEntity
8
F-F
62
3
370
-3
100
AcDbMText
10
387.012
20
38.191
30
0.0
40
4.649
41
0.000
71
7
72
1
1
\W1.037;{\W0.747;. }　{\W0.747;.}　{\W0.747; }
7
STANDARD
11
1.00000
21
0.00000
31
0.0
0
MTEXT
5
775
100
AcDbEntity
8
F-F
62
3
370
-3
100
AcDbMText
10
387.012
20
28.314
30
0.0
40
4.649
41
0.000
71
7
72
1
1
\W1.037;{\W0.747;. }　{\W0.747;.}　{\W0.747; }
7
STANDARD
11
1.00000
21
0.00000
31
0.0
0
TEXT
5
776
100
AcDbEntity
8
F-F
62
3
370
-3
100
AcDbText
10
1034.383
20
62.373
30
0.0
40
6.564
1
　　　　　　　　　　
41
0.921
50
0.000
100
AcDbText
0
TEXT
5
777
100
AcDbEntity
8
F-F
62
3
370
-3
100
AcDbText
10
1034.383
20
32.743
30
0.0
40
6.564
1
　　　　　　　　　　
41
0.921
50
0.000
100
AcDbText
0
TEXT
5
778
100
AcDbEntity
8
F-F
62
3
370
-3
100
AcDbText
10
1317.846
20
63.920
30
0.0
40
6.564
1
　　　　　　　　　　　　　
41
0.921
50
0.000
100
AcDbText
0
TEXT
5
779
100
AcDbEntity
8
F-F
62
3
370
-3
100
AcDbText
10
378.040
20
75.687
30
0.0
40
4.923
1
年　月　日
41
0.914
50
0.000
100
AcDbText
0
TEXT
5
77a
100
AcDbEntity
8
F-F
62
3
370
-3
100
AcDbText
10
872.996
20
74.368
30
0.0
40
4.923
1
年　　月　　日
41
0.914
50
0.000
100
AcDbText
0
MTEXT
5
77b
100
AcDbEntity
8
F-F
62
3
370
-3
100
AcDbMText
10
885.548
20
63.398
30
0.0
40
4.649
41
0.000
71
7
72
1
1
\W1.037;{\W0.747;.}　{\W0.747; }　{\W0.747;.}
7
STANDARD
11
1.00000
21
0.00000
31
0.0
0
TEXT
5
77c
100
AcDbEntity
8
F-F
62
3
370
-3
100
AcDbText
10
815.825
20
45.323
30
0.0
40
4.923
1
受領　　日附
41
0.914
50
0.000
100
AcDbText
0
TEXT
5
77d
100
AcDbEntity
8
F-F
62
3
370
-3
100
AcDbText
10
872.996
20
44.738
30
0.0
40
4.923
1
年　　月　　日
41
0.914
50
0.000
100
AcDbText
0
MTEXT
5
77e
100
AcDbEntity
8
F-F
62
3
370
-3
100
AcDbMText
10
885.548
20
33.769
30
0.0
40
4.649
41
0.000
71
7
72
1
1
\W1.037;{\W0.747;.}　{\W0.747; }　{\W0.747;.}
7
STANDARD
11
1.00000
21
0.00000
31
0.0
0
MTEXT
5
77f
100
AcDbEntity
8
F-F
62
3
370
-3
100
AcDbMText
10
1248.433
20
61.685
30
0.0
40
4.649
41
0.000
71
7
72
1
1
\W1.037;{\W0.747;.}　　{\W0.747;.}　
7
STANDARD
11
1.00000
21
0.00000
31
0.0
0
TEXT
5
780
100
AcDbEntity
8
F-F
62
3
370
-3
100
AcDbText
10
1543.695
20
45.508
30
0.0
40
4.923
1
縮　尺
41
0.914
50
0.000
100
AcDbText
0
TEXT
5
781
100
AcDbEntity
8
F-F
62
3
370
-3
100
AcDbText
10
1567.012
20
41.647
30
0.0
40
6.564
1
Ａ１－１／２　
41
0.921
50
0.000
100
AcDbText
0
TEXT
5
782
100
AcDbEntity
8
F-F
62
3
370
-3
100
AcDbText
10
1567.012
20
26.832
30
0.0
40
6.564
1
Ａ３－１／４　
41
0.921
50
0.000
100
AcDbText
0
TEXT
5
783
100
AcDbEntity
8
0-0
62
3
370
-3
100
AcDbText
10
259.689
20
906.831
30
0.0
40
9.846
41
0.932
50
0.000
1
11
72
1
11
266.027
21
905.737
31
0.0
100
AcDbText
73
1
0
TEXT
5
784
100
AcDbEntity
8
0-0
62
3
370
-3
100
AcDbText
10
579.175
20
853.753
30
0.0
40
9.846
41
0.686
50
90.000
1
15
72
1
11
580.269
21
860.090
31
0.0
100
AcDbText
73
1
0
TEXT
5
785
100
AcDbEntity
8
1-2
62
3
370
-3
100
AcDbText
10
1298.715
20
361.603
30
0.0
40
9.846
41
0.633
50
0.000
1
90
72
1
11
1305.053
21
360.509
31
0.0
100
AcDbText
73
1
0
TEXT
5
786
100
AcDbEntity
8
1-2
62
3
370
-3
100
AcDbText
10
1283.528
20
274.775
30
0.0
40
9.846
41
0.849
50
90.000
1
1.5
72
1
11
1284.622
21
284.282
31
0.0
100
AcDbText
73
1
0
TEXT
5
787
100
AcDbEntity
8
0-0
62
3
370
-3
100
AcDbText
10
517.189
20
804.831
30
0.0
40
9.846
41
0.527
50
0.000
1
23
72
1
11
523.527
21
803.737
31
0.0
100
AcDbText
73
1
0
TEXT
5
788
100
AcDbEntity
8
0-0
62
3
370
-3
100
AcDbText
10
517.189
20
906.831
30
0.0
40
9.846
41
0.551
50
0.000
1
35
72
1
11
523.527
21
905.737
31
0.0
100
AcDbText
73
1
0
TEXT
5
789
100
AcDbEntity
8
0-0
62
3
370
-3
100
AcDbText
10
326.439
20
926.831
30
0.0
40
9.846
41
0.610
50
0.000
1
125
72
1
11
335.945
21
925.737
31
0.0
100
AcDbText
73
1
0
TEXT
5
78a
100
AcDbEntity
8
0-0
62
3
370
-3
100
AcDbText
10
451.439
20
926.831
30
0.0
40
9.846
41
0.610
50
0.000
1
125
72
1
11
460.945
21
925.737
31
0.0
100
AcDbText
73
1
0
TEXT
5
78b
100
AcDbEntity
8
0-0
62
3
370
-3
100
AcDbText
10
576.439
20
926.831
30
0.0
40
9.846
41
0.610
50
0.000
1
125
72
1
11
585.945
21
925.737
31
0.0
100
AcDbText
73
1
0
TEXT
5
78c
100
AcDbEntity
8
0-0
62
3
370
-3
100
AcDbText
10
701.439
20
926.831
30
0.0
40
9.846
41
0.610
50
0.000
1
125
72
1
11
710.945
21
925.737
31
0.0
100
AcDbText
73
1
0
TEXT
5
78d
100
AcDbEntity
8
0-0
62
3
370
-3
100
AcDbText
10
826.439
20
926.831
30
0.0
40
9.846
41
0.610
50
0.000
1
125
72
1
11
835.945
21
925.737
31
0.0
100
AcDbText
73
1
0
TEXT
5
78e
100
AcDbEntity
8
0-0
62
3
370
-3
100
AcDbText
10
951.439
20
926.831
30
0.0
40
9.846
41
0.610
50
0.000
1
125
72
1
11
960.945
21
925.737
31
0.0
100
AcDbText
73
1
0
TEXT
5
78f
100
AcDbEntity
8
0-0
62
3
370
-3
100
AcDbText
10
638.939
20
946.831
30
0.0
40
9.846
41
0.598
50
0.000
1
750
72
1
11
648.445
21
945.737
31
0.0
100
AcDbText
73
1
0
TEXT
5
790
100
AcDbEntity
8
1-2
62
3
370
-3
100
AcDbText
10
1298.715
20
341.603
30
0.0
40
9.846
41
0.567
50
0.000
1
54
72
1
11
1305.052
21
340.509
31
0.0
100
AcDbText
73
1
0
TEXT
5
791
100
AcDbEntity
8
0-0
62
3
370
-3
100
AcDbText
10
579.689
20
906.831
30
0.0
40
9.846
41
0.633
50
0.000
1
90
72
1
11
586.027
21
905.737
31
0.0
100
AcDbText
73
1
0
TEXT
5
792
100
AcDbEntity
8
0-0
62
3
370
-3
100
AcDbText
10
259.689
20
456.831
30
0.0
40
9.846
41
0.932
50
0.000
1
11
72
1
11
266.027
21
455.737
31
0.0
100
AcDbText
73
1
0
TEXT
5
793
100
AcDbEntity
8
0-0
62
3
370
-3
100
AcDbText
10
552.585
20
403.753
30
0.0
40
9.846
41
0.686
50
90.000
1
15
72
1
11
553.679
21
410.090
31
0.0
100
AcDbText
73
1
0
TEXT
5
794
100
AcDbEntity
8
0-0
62
3
370
-3
100
AcDbText
10
517.189
20
354.831
30
0.0
40
9.846
41
0.527
50
0.000
1
23
72
1
11
523.527
21
353.737
31
0.0
100
AcDbText
73
1
0
TEXT
5
795
100
AcDbEntity
8
0-0
62
3
370
-3
100
AcDbText
10
517.189
20
456.831
30
0.0
40
9.846
41
0.551
50
0.000
1
35
72
1
11
523.527
21
455.737
31
0.0
100
AcDbText
73
1
0
TEXT
5
796
100
AcDbEntity
8
0-0
62
3
370
-3
100
AcDbText
10
326.439
20
476.831
30
0.0
40
9.846
41
0.610
50
0.000
1
125
72
1
11
335.945
21
475.737
31
0.0
100
AcDbText
73
1
0
TEXT
5
797
100
AcDbEntity
8
0-0
62
3
370
-3
100
AcDbText
10
451.439
20
476.831
30
0.0
40
9.846
41
0.610
50
0.000
1
125
72
1
11
460.945
21
475.737
31
0.0
100
AcDbText
73
1
0
TEXT
5
798
100
AcDbEntity
8
0-0
62
3
370
-3
100
AcDbText
10
576.439
20
476.831
30
0.0
40
9.846
41
0.610
50
0.000
1
125
72
1
11
585.945
21
475.737
31
0.0
100
AcDbText
73
1
0
TEXT
5
799
100
AcDbEntity
8
0-0
62
3
370
-3
100
AcDbText
10
701.439
20
476.831
30
0.0
40
9.846
41
0.610
50
0.000
1
125
72
1
11
710.945
21
475.737
31
0.0
100
AcDbText
73
1
0
TEXT
5
79a
100
AcDbEntity
8
0-0
62
3
370
-3
100
AcDbText
10
826.439
20
476.831
30
0.0
40
9.846
41
0.610
50
0.000
1
125
72
1
11
835.945
21
475.737
31
0.0
100
AcDbText
73
1
0
TEXT
5
79b
100
AcDbEntity
8
0-0
62
3
370
-3
100
AcDbText
10
951.439
20
476.831
30
0.0
40
9.846
41
0.610
50
0.000
1
125
72
1
11
960.945
21
475.737
31
0.0
100
AcDbText
73
1
0
TEXT
5
79c
100
AcDbEntity
8
0-0
62
3
370
-3
100
AcDbText
10
638.939
20
496.831
30
0.0
40
9.846
41
0.598
50
0.000
1
750
72
1
11
648.445
21
495.737
31
0.0
100
AcDbText
73
1
0
TEXT
5
79d
100
AcDbEntity
8
0-0
62
3
370
-3
100
AcDbText
10
579.689
20
456.831
30
0.0
40
9.846
41
0.633
50
0.000
1
90
72
1
11
586.027
21
455.737
31
0.0
100
AcDbText
73
1
0
TEXT
5
79e
100
AcDbEntity
8
0-0
62
3
370
-3
100
AcDbText
10
418.689
20
456.831
30
0.0
40
9.846
41
0.679
50
0.000
1
18
72
1
11
425.027
21
455.737
31
0.0
100
AcDbText
73
1
0
TEXT
5
79f
100
AcDbEntity
8
0-0
62
3
370
-3
100
AcDbText
10
454.689
20
456.831
30
0.0
40
9.846
41
0.567
50
0.000
1
54
72
1
11
461.027
21
455.737
31
0.0
100
AcDbText
73
1
0
TEXT
5
7a0
100
AcDbEntity
8
0-0
62
3
370
-3
100
AcDbText
10
490.689
20
456.831
30
0.0
40
9.846
41
0.679
50
0.000
1
18
72
1
11
497.027
21
455.737
31
0.0
100
AcDbText
73
1
0
TEXT
5
7a1
100
AcDbEntity
8
0-0
62
3
370
-3
100
AcDbText
10
578.655
20
419.761
30
0.0
40
9.846
41
0.849
50
90.000
1
1.5
72
1
11
579.749
21
429.267
31
0.0
100
AcDbText
73
1
0
TEXT
5
7a2
100
AcDbEntity
8
F-F
62
3
370
-3
100
AcDbText
10
166.668
20
28.767
30
0.0
40
6.564
1
電話（０５４）２６３－２２８０（代表）
41
0.921
50
0.000
100
AcDbText
0
TEXT
5
7a3
100
AcDbEntity
8
F-F
62
3
370
-3
100
AcDbText
10
122.770
20
61.158
30
0.0
40
13.127
1
小　池　弥　太　郎　商　店
41
0.963
50
0.000
100
AcDbText
0
TEXT
5
7a4
100
AcDbEntity
8
F-F
62
3
370
-3
100
AcDbText
10
166.664
20
43.600
30
0.0
40
6.564
1
静岡県静岡市葵区流通センター１６番
41
0.921
50
0.000
100
AcDbText
0
TEXT
5
7a5
100
AcDbEntity
8
F-F
62
3
370
-3
100
AcDbText
10
100.135
20
68.250
30
0.0
40
4.923
1
株
41
0.914
50
0.000
100
AcDbText
0
TEXT
5
7a6
100
AcDbEntity
8
F-F
62
3
370
-3
100
AcDbText
10
107.285
20
61.000
30
0.0
40
4.923
1
社
41
0.914
50
0.000
100
AcDbText
0
TEXT
5
7a7
100
AcDbEntity
8
F-F
62
3
370
-3
100
AcDbText
10
100.085
20
61.000
30
0.0
40
4.923
1
会
41
0.914
50
0.000
100
AcDbText
0
TEXT
5
7a8
100
AcDbEntity
8
F-F
62
3
370
-3
100
AcDbText
10
106.885
20
68.049
30
0.0
40
4.923
1
式
41
0.914
50
0.000
100
AcDbText
0
TEXT
5
7a9
100
AcDbEntity
8
0-0
62
3
370
-3
100
AcDbText
10
1046.189
20
890.831
30
0.0
40
9.846
41
0.527
50
0.000
1
23
72
1
11
1052.526
21
889.737
31
0.0
100
AcDbText
73
1
0
TEXT
5
7aa
100
AcDbEntity
8
0-0
62
3
370
-3
100
AcDbText
10
261.189
20
804.831
30
0.0
40
9.846
41
0.618
50
0.000
1
22.5
72
1
11
273.864
21
803.737
31
0.0
100
AcDbText
73
1
0
TEXT
5
7ab
100
AcDbEntity
8
0-0
62
3
370
-3
100
AcDbText
10
1017.189
20
804.831
30
0.0
40
9.846
41
0.527
50
0.000
1
23
72
1
11
1023.527
21
803.737
31
0.0
100
AcDbText
73
1
0
TEXT
5
7ac
100
AcDbEntity
8
0-0
62
3
370
-3
100
AcDbText
10
1017.189
20
354.831
30
0.0
40
9.846
41
0.527
50
0.000
1
23
72
1
11
1023.527
21
353.737
31
0.0
100
AcDbText
73
1
0
TEXT
5
7ad
100
AcDbEntity
8
0-0
62
3
370
-3
100
AcDbText
10
261.189
20
354.831
30
0.0
40
9.846
41
0.618
50
0.000
1
22.5
72
1
11
273.864
21
353.737
31
0.0
100
AcDbText
73
1
0
TEXT
5
7ae
100
AcDbEntity
8
0-0
62
3
370
-3
100
AcDbText
10
454.689
20
354.831
30
0.0
40
9.846
41
0.590
50
0.000
1
47
72
1
11
461.027
21
353.737
31
0.0
100
AcDbText
73
1
0
TEXT
5
7af
100
AcDbEntity
8
1-2
62
3
370
-3
100
AcDbText
10
1298.715
20
215.603
30
0.0
40
9.846
41
0.590
50
0.000
1
47
72
1
11
1305.053
21
214.509
31
0.0
100
AcDbText
73
1
0
TEXT
5
7b0
100
AcDbEntity
8
0-0
62
3
370
-3
100
AcDbText
10
1025.439
20
906.831
30
0.0
40
9.846
41
0.764
50
0.000
1
17.5
72
1
11
1038.114
21
905.737
31
0.0
100
AcDbText
73
1
0
TEXT
5
7b1
100
AcDbEntity
8
0-0
62
3
370
-3
100
AcDbText
10
1046.189
20
440.831
30
0.0
40
9.846
41
0.527
50
0.000
1
23
72
1
11
1052.526
21
439.737
31
0.0
100
AcDbText
73
1
0
TEXT
5
7b2
100
AcDbEntity
8
0-0
62
3
370
-3
100
AcDbText
10
1025.439
20
456.831
30
0.0
40
9.846
41
0.764
50
0.000
1
17.5
72
1
11
1038.114
21
455.737
31
0.0
100
AcDbText
73
1
0
TEXT
5
7b3
100
AcDbEntity
8
1-2
62
3
370
-3
100
AcDbText
10
1250.064
20
384.936
30
0.0
40
13.127
1
リブ付き形状
41
0.963
50
0.000
100
AcDbText
0
TEXT
5
7b4
100
AcDbEntity
8
0-0
62
3
370
-3
100
AcDbText
10
106.965
20
945.429
30
0.0
40
13.127
1
（リブ無し）
41
0.963
50
0.000
100
AcDbText
0
TEXT
5
7b5
100
AcDbEntity
8
0-0
62
3
370
-3
100
AcDbText
10
106.965
20
495.430
30
0.0
40
13.127
1
（リブ付）
41
0.963
50
0.000
100
AcDbText
0
MTEXT
5
7b6
100
AcDbEntity
8
0-0
62
3
370
-3
100
AcDbMText
10
106.965
20
968.971
30
0.0
40
12.398
41
0.000
71
7
72
1
1
\W1.093;ＫＷ７５０ {\fMS Gothic;Ⅰ}型
7
STANDARD
11
1.00000
21
0.00000
31
0.0
0
MTEXT
5
7b7
100
AcDbEntity
8
0-0
62
3
370
-3
100
AcDbMText
10
106.965
20
518.971
30
0.0
40
12.398
41
0.000
71
7
72
1
1
\W1.093;ＫＷ７５０ {\fMS Gothic;Ⅱ}型
7
STANDARD
11
1.00000
21
0.00000
31
0.0
0
TEXT
5
7b8
100
AcDbEntity
8
F-F
62
3
370
-3
100
AcDbText
10
1274.845
20
1112.929
30
0.0
40
13.127
1
製　品　名
41
0.963
50
0.000
100
AcDbText
0
TEXT
5
7b9
100
AcDbEntity
8
F-F
62
3
370
-3
100
AcDbText
10
1274.845
20
1012.929
30
0.0
40
13.127
1
板幅　：　９１４ｍｍ
41
0.963
50
0.000
100
AcDbText
0
MTEXT
5
7ba
100
AcDbEntity
8
F-F
62
3
370
-3
100
AcDbMText
10
1274.845
20
1036.470
30
0.0
40
12.398
41
0.000
71
7
72
1
1
\W1.093;各種鋼板　０{\W0.787;.}４ｍｍ{\W0.787; }～{\W0.787; }０{\W0.787;.}５ｍｍ
7
STANDARD
11
1.00000
21
0.00000
31
0.0
0
MTEXT
5
7bb
100
AcDbEntity
8
F-F
62
3
370
-3
100
AcDbMText
10
1274.845
20
1086.470
30
0.0
40
12.398
41
0.000
71
7
72
1
1
\W1.093;ＫＷ７５０ {\fMS Gothic;Ⅰ}型（リブ無し）　
7
STANDARD
11
1.00000
21
0.00000
31
0.0
0
MTEXT
5
7bc
100
AcDbEntity
8
F-F
62
3
370
-3
100
AcDbMText
10
1274.845
20
1061.470
30
0.0
40
12.398
41
0.000
71
7
72
1
1
\W1.093;ＫＷ７５０ {\fMS Gothic;Ⅱ}型（リブ付）
7
STANDARD
11
1.00000
21
0.00000
31
0.0
0
TEXT
5
7bd
100
AcDbEntity
8
F-F
62
3
370
-3
100
AcDbText
10
1557.468
20
61.186
30
0.0
40
8.205
1
KW-750-01A
41
0.585
50
0.000
100
AcDbText
0
TEXT
5
7be
100
AcDbEntity
8
1-2
62
3
370
-3
100
AcDbText
10
1423.715
20
361.603
30
0.0
40
9.846
41
0.551
50
0.000
1
35
72
1
11
1430.052
21
360.509
31
0.0
100
AcDbText
73
1
0
TEXT
5
7bf
100
AcDbEntity
8
1-2
62
3
370
-3
100
AcDbText
10
1173.134
20
738.399
30
0.0
40
13.127
1
重ね部形状
41
0.963
50
0.000
100
AcDbText
0
TEXT
5
7c0
100
AcDbEntity
8
1-2
62
3
370
-3
100
AcDbText
10
1296.976
20
695.702
30
0.0
40
13.127
41
0.572
50
0.000
1
35
72
1
11
1305.751
21
694.243
31
0.0
100
AcDbText
73
1
0
TEXT
5
7c1
100
AcDbEntity
8
1-2
62
3
370
-3
100
AcDbText
10
1296.976
20
523.702
30
0.0
40
13.127
41
0.548
50
0.000
1
23
72
1
11
1305.751
21
522.243
31
0.0
100
AcDbText
73
1
0
TEXT
5
7c2
100
AcDbEntity
8
1-2
62
3
370
-3
100
AcDbText
10
1420.457
20
596.431
30
0.0
40
13.127
41
0.712
50
90.000
1
15
72
1
11
1421.916
21
605.206
31
0.0
100
AcDbText
73
1
0
TEXT
5
7c3
100
AcDbEntity
8
0-0
62
3
370
-3
100
AcDbText
10
1427.122
20
895.131
30
0.0
40
9.846
41
0.551
50
0.000
1
35
72
1
11
1433.460
21
894.037
31
0.0
100
AcDbText
73
1
0
TEXT
5
7c4
100
AcDbEntity
8
0-0
62
3
370
-3
100
AcDbText
10
1427.622
20
829.131
30
0.0
40
9.846
41
0.527
50
0.000
1
23
72
1
11
1433.960
21
828.037
31
0.0
100
AcDbText
73
1
0
TEXT
5
7c5
100
AcDbEntity
8
0-0
62
3
370
-3
100
AcDbText
10
1486.608
20
853.053
30
0.0
40
9.846
41
0.686
50
90.000
1
15
72
1
11
1487.702
21
859.390
31
0.0
100
AcDbText
73
1
0
TEXT
5
7c6
100
AcDbEntity
8
0-0
62
3
370
-3
100
AcDbText
10
642.189
20
456.831
30
0.0
40
9.846
41
0.551
50
0.000
1
35
72
1
11
648.527
21
455.737
31
0.0
100
AcDbText
73
1
0
TEXT
5
7c7
100
AcDbEntity
8
F-F
62
3
370
-3
100
AcDbText
10
1222.716
20
31.566
30
0.0
40
4.923
1
MA 2015-06-15
41
0.618
50
0.000
100
AcDbText
0
MTEXT
5
7c8
100
AcDbEntity
8
F-F
62
3
370
-3
100
AcDbMText
10
1317.846
20
33.561
30
0.0
40
6.199
41
0.000
71
7
72
1
1
\W1.045;ＫＷ７５０　{\fMS Gothic;Ⅰ}型　・　{\fMS Gothic;Ⅱ}型　断面図
7
STANDARD
11
1.00000
21
0.00000
31
0.0
0
POLYLINE
5
7c9
100
AcDbEntity
  8
0-0
6
CONTINUOUS
62
3
100
AcDb2dPolyline
66
1
10
0
20
0
70
1
40
0.800
41
0.800
0
VERTEX
5
7ca
100
AcDbEntity
  8
0-0
6
CONTINUOUS
62
3
100
AcDbVertex
100
AcDb2dVertex
10
262.071
20
903.035
30
0.0
42
1.000
0
VERTEX
5
7cb
100
AcDbEntity
  8
0-0
6
CONTINUOUS
62
3
100
AcDbVertex
100
AcDb2dVertex
10
262.871
20
903.035
30
0.0
42
1.000
0
SEQEND
5
7cc
100
AcDbEntity
  8
0-0
0
POLYLINE
5
7cd
100
AcDbEntity
  8
0-0
6
CONTINUOUS
62
3
100
AcDb2dPolyline
66
1
10
0
20
0
70
1
40
0.800
41
0.800
0
VERTEX
5
7ce
100
AcDbEntity
  8
0-0
6
CONTINUOUS
62
3
100
AcDbVertex
100
AcDb2dVertex
10
272.571
20
923.035
30
0.0
42
1.000
0
VERTEX
5
7cf
100
AcDbEntity
  8
0-0
6
CONTINUOUS
62
3
100
AcDbVertex
100
AcDb2dVertex
10
273.371
20
923.035
30
0.0
42
1.000
0
SEQEND
5
7d0
100
AcDbEntity
  8
0-0
0
POLYLINE
5
7d1
100
AcDbEntity
  8
0-0
6
CONTINUOUS
62
3
100
AcDb2dPolyline
66
1
10
0
20
0
70
1
40
0.800
41
0.800
0
VERTEX
5
7d2
100
AcDbEntity
  8
0-0
6
CONTINUOUS
62
3
100
AcDbVertex
100
AcDb2dVertex
10
272.571
20
943.035
30
0.0
42
1.000
0
VERTEX
5
7d3
100
AcDbEntity
  8
0-0
6
CONTINUOUS
62
3
100
AcDbVertex
100
AcDb2dVertex
10
273.371
20
943.035
30
0.0
42
1.000
0
SEQEND
5
7d4
100
AcDbEntity
  8
0-0
0
POLYLINE
5
7d5
100
AcDbEntity
  8
0-0
6
CONTINUOUS
62
3
100
AcDb2dPolyline
66
1
10
0
20
0
70
1
40
0.800
41
0.800
0
VERTEX
5
7d6
100
AcDbEntity
  8
0-0
6
CONTINUOUS
62
3
100
AcDbVertex
100
AcDb2dVertex
10
262.071
20
817.035
30
0.0
42
1.000
0
VERTEX
5
7d7
100
AcDbEntity
  8
0-0
6
CONTINUOUS
62
3
100
AcDbVertex
100
AcDb2dVertex
10
262.871
20
817.035
30
0.0
42
1.000
0
SEQEND
5
7d8
100
AcDbEntity
  8
0-0
0
POLYLINE
5
7d9
100
AcDbEntity
  8
0-0
6
CONTINUOUS
62
3
100
AcDb2dPolyline
66
1
10
0
20
0
70
1
40
0.800
41
0.800
0
VERTEX
5
7da
100
AcDbEntity
  8
0-0
6
CONTINUOUS
62
3
100
AcDbVertex
100
AcDb2dVertex
10
284.071
20
817.035
30
0.0
42
1.000
0
VERTEX
5
7db
100
AcDbEntity
  8
0-0
6
CONTINUOUS
62
3
100
AcDbVertex
100
AcDb2dVertex
10
284.871
20
817.035
30
0.0
42
1.000
0
SEQEND
5
7dc
100
AcDbEntity
  8
0-0
0
POLYLINE
5
7dd
100
AcDbEntity
  8
0-0
6
CONTINUOUS
62
3
100
AcDb2dPolyline
66
1
10
0
20
0
70
1
40
0.800
41
0.800
0
VERTEX
5
7de
100
AcDbEntity
  8
0-0
6
CONTINUOUS
62
3
100
AcDbVertex
100
AcDb2dVertex
10
505.071
20
903.035
30
0.0
42
1.000
0
VERTEX
5
7df
100
AcDbEntity
  8
0-0
6
CONTINUOUS
62
3
100
AcDbVertex
100
AcDb2dVertex
10
505.871
20
903.035
30
0.0
42
1.000
0
SEQEND
5
7e0
100
AcDbEntity
  8
0-0
0
POLYLINE
5
7e1
100
AcDbEntity
  8
0-0
6
CONTINUOUS
62
3
100
AcDb2dPolyline
66
1
10
0
20
0
70
1
40
0.800
41
0.800
0
VERTEX
5
7e2
100
AcDbEntity
  8
0-0
6
CONTINUOUS
62
3
100
AcDbVertex
100
AcDb2dVertex
10
540.071
20
903.035
30
0.0
42
1.000
0
VERTEX
5
7e3
100
AcDbEntity
  8
0-0
6
CONTINUOUS
62
3
100
AcDbVertex
100
AcDb2dVertex
10
540.871
20
903.035
30
0.0
42
1.000
0
SEQEND
5
7e4
100
AcDbEntity
  8
0-0
0
POLYLINE
5
7e5
100
AcDbEntity
  8
0-0
6
CONTINUOUS
62
3
100
AcDb2dPolyline
66
1
10
0
20
0
70
1
40
0.800
41
0.800
0
VERTEX
5
7e6
100
AcDbEntity
  8
0-0
6
CONTINUOUS
62
3
100
AcDbVertex
100
AcDb2dVertex
10
511.071
20
817.035
30
0.0
42
1.000
0
VERTEX
5
7e7
100
AcDbEntity
  8
0-0
6
CONTINUOUS
62
3
100
AcDbVertex
100
AcDb2dVertex
10
511.871
20
817.035
30
0.0
42
1.000
0
SEQEND
5
7e8
100
AcDbEntity
  8
0-0
0
POLYLINE
5
7e9
100
AcDbEntity
  8
0-0
6
CONTINUOUS
62
3
100
AcDb2dPolyline
66
1
10
0
20
0
70
1
40
0.800
41
0.800
0
VERTEX
5
7ea
100
AcDbEntity
  8
0-0
6
CONTINUOUS
62
3
100
AcDbVertex
100
AcDb2dVertex
10
534.071
20
817.035
30
0.0
42
1.000
0
VERTEX
5
7eb
100
AcDbEntity
  8
0-0
6
CONTINUOUS
62
3
100
AcDbVertex
100
AcDb2dVertex
10
534.871
20
817.035
30
0.0
42
1.000
0
SEQEND
5
7ec
100
AcDbEntity
  8
0-0
0
POLYLINE
5
7ed
100
AcDbEntity
  8
0-0
6
CONTINUOUS
62
3
100
AcDb2dPolyline
66
1
10
0
20
0
70
1
40
0.800
41
0.800
0
VERTEX
5
7ee
100
AcDbEntity
  8
0-0
6
CONTINUOUS
62
3
100
AcDbVertex
100
AcDb2dVertex
10
272.571
20
923.035
30
0.0
42
1.000
0
VERTEX
5
7ef
100
AcDbEntity
  8
0-0
6
CONTINUOUS
62
3
100
AcDbVertex
100
AcDb2dVertex
10
273.371
20
923.035
30
0.0
42
1.000
0
SEQEND
5
7f0
100
AcDbEntity
  8
0-0
0
POLYLINE
5
7f1
100
AcDbEntity
  8
0-0
6
CONTINUOUS
62
3
100
AcDb2dPolyline
66
1
10
0
20
0
70
1
40
0.800
41
0.800
0
VERTEX
5
7f2
100
AcDbEntity
  8
0-0
6
CONTINUOUS
62
3
100
AcDbVertex
100
AcDb2dVertex
10
397.571
20
923.035
30
0.0
42
1.000
0
VERTEX
5
7f3
100
AcDbEntity
  8
0-0
6
CONTINUOUS
62
3
100
AcDbVertex
100
AcDb2dVertex
10
398.371
20
923.035
30
0.0
42
1.000
0
SEQEND
5
7f4
100
AcDbEntity
  8
0-0
0
POLYLINE
5
7f5
100
AcDbEntity
  8
0-0
6
CONTINUOUS
62
3
100
AcDb2dPolyline
66
1
10
0
20
0
70
1
40
0.800
41
0.800
0
VERTEX
5
7f6
100
AcDbEntity
  8
0-0
6
CONTINUOUS
62
3
100
AcDbVertex
100
AcDb2dVertex
10
522.571
20
923.035
30
0.0
42
1.000
0
VERTEX
5
7f7
100
AcDbEntity
  8
0-0
6
CONTINUOUS
62
3
100
AcDbVertex
100
AcDb2dVertex
10
523.371
20
923.035
30
0.0
42
1.000
0
SEQEND
5
7f8
100
AcDbEntity
  8
0-0
0
POLYLINE
5
7f9
100
AcDbEntity
  8
0-0
6
CONTINUOUS
62
3
100
AcDb2dPolyline
66
1
10
0
20
0
70
1
40
0.800
41
0.800
0
VERTEX
5
7fa
100
AcDbEntity
  8
0-0
6
CONTINUOUS
62
3
100
AcDbVertex
100
AcDb2dVertex
10
1022.571
20
923.035
30
0.0
42
1.000
0
VERTEX
5
7fb
100
AcDbEntity
  8
0-0
6
CONTINUOUS
62
3
100
AcDbVertex
100
AcDb2dVertex
10
1023.371
20
923.035
30
0.0
42
1.000
0
SEQEND
5
7fc
100
AcDbEntity
  8
0-0
0
POLYLINE
5
7fd
100
AcDbEntity
  8
0-0
6
CONTINUOUS
62
3
100
AcDb2dPolyline
66
1
10
0
20
0
70
1
40
0.800
41
0.800
0
VERTEX
5
7fe
100
AcDbEntity
  8
0-0
6
CONTINUOUS
62
3
100
AcDbVertex
100
AcDb2dVertex
10
272.571
20
943.035
30
0.0
42
1.000
0
VERTEX
5
7ff
100
AcDbEntity
  8
0-0
6
CONTINUOUS
62
3
100
AcDbVertex
100
AcDb2dVertex
10
273.371
20
943.035
30
0.0
42
1.000
0
SEQEND
5
800
100
AcDbEntity
  8
0-0
0
POLYLINE
5
801
100
AcDbEntity
  8
0-0
6
CONTINUOUS
62
3
100
AcDb2dPolyline
66
1
10
0
20
0
70
1
40
0.800
41
0.800
0
VERTEX
5
802
100
AcDbEntity
  8
0-0
6
CONTINUOUS
62
3
100
AcDbVertex
100
AcDb2dVertex
10
1022.571
20
943.035
30
0.0
42
1.000
0
VERTEX
5
803
100
AcDbEntity
  8
0-0
6
CONTINUOUS
62
3
100
AcDbVertex
100
AcDb2dVertex
10
1023.371
20
943.035
30
0.0
42
1.000
0
SEQEND
5
804
100
AcDbEntity
  8
0-0
0
POLYLINE
5
805
100
AcDbEntity
  8
0-0
6
CONTINUOUS
62
3
100
AcDb2dPolyline
66
1
10
0
20
0
70
1
40
0.800
41
0.800
0
VERTEX
5
806
100
AcDbEntity
  8
0-0
6
CONTINUOUS
62
3
100
AcDbVertex
100
AcDb2dVertex
10
1022.571
20
903.035
30
0.0
42
1.000
0
VERTEX
5
807
100
AcDbEntity
  8
0-0
6
CONTINUOUS
62
3
100
AcDbVertex
100
AcDb2dVertex
10
1023.371
20
903.035
30
0.0
42
1.000
0
SEQEND
5
808
100
AcDbEntity
  8
0-0
0
POLYLINE
5
809
100
AcDbEntity
  8
0-0
6
CONTINUOUS
62
3
100
AcDb2dPolyline
66
1
10
0
20
0
70
1
40
0.800
41
0.800
0
VERTEX
5
80a
100
AcDbEntity
  8
0-0
6
CONTINUOUS
62
3
100
AcDbVertex
100
AcDb2dVertex
10
1040.071
20
903.035
30
0.0
42
1.000
0
VERTEX
5
80b
100
AcDbEntity
  8
0-0
6
CONTINUOUS
62
3
100
AcDbVertex
100
AcDb2dVertex
10
1040.871
20
903.035
30
0.0
42
1.000
0
SEQEND
5
80c
100
AcDbEntity
  8
0-0
0
POLYLINE
5
80d
100
AcDbEntity
  8
0-0
6
CONTINUOUS
62
3
100
AcDb2dPolyline
66
1
10
0
20
0
70
1
40
0.800
41
0.800
0
VERTEX
5
80e
100
AcDbEntity
  8
0-0
6
CONTINUOUS
62
3
100
AcDbVertex
100
AcDb2dVertex
10
1063.071
20
903.035
30
0.0
42
1.000
0
VERTEX
5
80f
100
AcDbEntity
  8
0-0
6
CONTINUOUS
62
3
100
AcDbVertex
100
AcDb2dVertex
10
1063.871
20
903.035
30
0.0
42
1.000
0
SEQEND
5
810
100
AcDbEntity
  8
0-0
0
POLYLINE
5
811
100
AcDbEntity
  8
0-0
6
CONTINUOUS
62
3
100
AcDb2dPolyline
66
1
10
0
20
0
70
1
40
0.800
41
0.800
0
VERTEX
5
812
100
AcDbEntity
  8
0-0
6
CONTINUOUS
62
3
100
AcDbVertex
100
AcDb2dVertex
10
272.571
20
903.035
30
0.0
42
1.000
0
VERTEX
5
813
100
AcDbEntity
  8
0-0
6
CONTINUOUS
62
3
100
AcDbVertex
100
AcDb2dVertex
10
273.371
20
903.035
30
0.0
42
1.000
0
SEQEND
5
814
100
AcDbEntity
  8
0-0
0
POLYLINE
5
815
100
AcDbEntity
  8
0-0
6
CONTINUOUS
62
3
100
AcDb2dPolyline
66
1
10
0
20
0
70
1
40
0.800
41
0.800
0
VERTEX
5
816
100
AcDbEntity
  8
0-0
6
CONTINUOUS
62
3
100
AcDbVertex
100
AcDb2dVertex
10
1011.571
20
817.035
30
0.0
42
1.000
0
VERTEX
5
817
100
AcDbEntity
  8
0-0
6
CONTINUOUS
62
3
100
AcDbVertex
100
AcDb2dVertex
10
1012.371
20
817.035
30
0.0
42
1.000
0
SEQEND
5
818
100
AcDbEntity
  8
0-0
0
POLYLINE
5
819
100
AcDbEntity
  8
0-0
6
CONTINUOUS
62
3
100
AcDb2dPolyline
66
1
10
0
20
0
70
1
40
0.800
41
0.800
0
VERTEX
5
81a
100
AcDbEntity
  8
0-0
6
CONTINUOUS
62
3
100
AcDbVertex
100
AcDb2dVertex
10
1034.571
20
817.035
30
0.0
42
1.000
0
VERTEX
5
81b
100
AcDbEntity
  8
0-0
6
CONTINUOUS
62
3
100
AcDbVertex
100
AcDb2dVertex
10
1035.371
20
817.035
30
0.0
42
1.000
0
SEQEND
5
81c
100
AcDbEntity
  8
0-0
0
POLYLINE
5
81d
100
AcDbEntity
  8
0-0
6
CONTINUOUS
62
3
100
AcDb2dPolyline
66
1
10
0
20
0
70
1
40
0.800
41
0.800
0
VERTEX
5
81e
100
AcDbEntity
  8
0-0
6
CONTINUOUS
62
3
100
AcDbVertex
100
AcDb2dVertex
10
582.571
20
852.035
30
0.0
42
1.000
0
VERTEX
5
81f
100
AcDbEntity
  8
0-0
6
CONTINUOUS
62
3
100
AcDbVertex
100
AcDb2dVertex
10
583.371
20
852.035
30
0.0
42
1.000
0
SEQEND
5
820
100
AcDbEntity
  8
0-0
0
POLYLINE
5
821
100
AcDbEntity
  8
0-0
6
CONTINUOUS
62
3
100
AcDb2dPolyline
66
1
10
0
20
0
70
1
40
0.800
41
0.800
0
VERTEX
5
822
100
AcDbEntity
  8
0-0
6
CONTINUOUS
62
3
100
AcDbVertex
100
AcDb2dVertex
10
582.571
20
867.035
30
0.0
42
1.000
0
VERTEX
5
823
100
AcDbEntity
  8
0-0
6
CONTINUOUS
62
3
100
AcDbVertex
100
AcDb2dVertex
10
583.371
20
867.035
30
0.0
42
1.000
0
SEQEND
5
824
100
AcDbEntity
  8
0-0
0
POLYLINE
5
825
100
AcDbEntity
  8
1-2
6
CONTINUOUS
62
3
100
AcDb2dPolyline
66
1
10
0
20
0
70
1
40
0.800
41
0.800
0
VERTEX
5
826
100
AcDbEntity
  8
1-2
6
CONTINUOUS
62
3
100
AcDbVertex
100
AcDb2dVertex
10
1258.097
20
211.807
30
0.0
42
1.000
0
VERTEX
5
827
100
AcDbEntity
  8
1-2
6
CONTINUOUS
62
3
100
AcDbVertex
100
AcDb2dVertex
10
1258.897
20
211.807
30
0.0
42
1.000
0
SEQEND
5
828
100
AcDbEntity
  8
1-2
0
POLYLINE
5
829
100
AcDbEntity
  8
1-2
6
CONTINUOUS
62
3
100
AcDb2dPolyline
66
1
10
0
20
0
70
1
40
0.800
41
0.800
0
VERTEX
5
82a
100
AcDbEntity
  8
1-2
6
CONTINUOUS
62
3
100
AcDbVertex
100
AcDb2dVertex
10
1350.097
20
211.807
30
0.0
42
1.000
0
VERTEX
5
82b
100
AcDbEntity
  8
1-2
6
CONTINUOUS
62
3
100
AcDbVertex
100
AcDb2dVertex
10
1350.897
20
211.807
30
0.0
42
1.000
0
SEQEND
5
82c
100
AcDbEntity
  8
1-2
0
POLYLINE
5
82d
100
AcDbEntity
  8
1-2
6
CONTINUOUS
62
3
100
AcDb2dPolyline
66
1
10
0
20
0
70
1
40
0.800
41
0.800
0
VERTEX
5
82e
100
AcDbEntity
  8
1-2
6
CONTINUOUS
62
3
100
AcDbVertex
100
AcDb2dVertex
10
1250.097
20
337.807
30
0.0
42
1.000
0
VERTEX
5
82f
100
AcDbEntity
  8
1-2
6
CONTINUOUS
62
3
100
AcDbVertex
100
AcDb2dVertex
10
1250.897
20
337.807
30
0.0
42
1.000
0
SEQEND
5
830
100
AcDbEntity
  8
1-2
0
POLYLINE
5
831
100
AcDbEntity
  8
1-2
6
CONTINUOUS
62
3
100
AcDb2dPolyline
66
1
10
0
20
0
70
1
40
0.800
41
0.800
0
VERTEX
5
832
100
AcDbEntity
  8
1-2
6
CONTINUOUS
62
3
100
AcDbVertex
100
AcDb2dVertex
10
1358.097
20
337.807
30
0.0
42
1.000
0
VERTEX
5
833
100
AcDbEntity
  8
1-2
6
CONTINUOUS
62
3
100
AcDbVertex
100
AcDb2dVertex
10
1358.897
20
337.807
30
0.0
42
1.000
0
SEQEND
5
834
100
AcDbEntity
  8
1-2
0
POLYLINE
5
835
100
AcDbEntity
  8
1-2
6
CONTINUOUS
62
3
100
AcDb2dPolyline
66
1
10
0
20
0
70
1
40
0.800
41
0.800
0
VERTEX
5
836
100
AcDbEntity
  8
1-2
6
CONTINUOUS
62
3
100
AcDbVertex
100
AcDb2dVertex
10
1214.097
20
357.807
30
0.0
42
1.000
0
VERTEX
5
837
100
AcDbEntity
  8
1-2
6
CONTINUOUS
62
3
100
AcDbVertex
100
AcDb2dVertex
10
1214.897
20
357.807
30
0.0
42
1.000
0
SEQEND
5
838
100
AcDbEntity
  8
1-2
0
POLYLINE
5
839
100
AcDbEntity
  8
1-2
6
CONTINUOUS
62
3
100
AcDb2dPolyline
66
1
10
0
20
0
70
1
40
0.800
41
0.800
0
VERTEX
5
83a
100
AcDbEntity
  8
1-2
6
CONTINUOUS
62
3
100
AcDbVertex
100
AcDb2dVertex
10
1394.097
20
357.807
30
0.0
42
1.000
0
VERTEX
5
83b
100
AcDbEntity
  8
1-2
6
CONTINUOUS
62
3
100
AcDbVertex
100
AcDb2dVertex
10
1394.897
20
357.807
30
0.0
42
1.000
0
SEQEND
5
83c
100
AcDbEntity
  8
1-2
0
POLYLINE
5
83d
100
AcDbEntity
  8
1-2
6
CONTINUOUS
62
3
100
AcDb2dPolyline
66
1
10
0
20
0
70
1
40
0.800
41
0.800
0
VERTEX
5
83e
100
AcDbEntity
  8
1-2
6
CONTINUOUS
62
3
100
AcDbVertex
100
AcDb2dVertex
10
1286.924
20
266.307
30
0.0
42
1.000
0
VERTEX
5
83f
100
AcDbEntity
  8
1-2
6
CONTINUOUS
62
3
100
AcDbVertex
100
AcDb2dVertex
10
1287.724
20
266.307
30
0.0
42
1.000
0
SEQEND
5
840
100
AcDbEntity
  8
1-2
0
POLYLINE
5
841
100
AcDbEntity
  8
1-2
6
CONTINUOUS
62
3
100
AcDb2dPolyline
66
1
10
0
20
0
70
1
40
0.800
41
0.800
0
VERTEX
5
842
100
AcDbEntity
  8
1-2
6
CONTINUOUS
62
3
100
AcDbVertex
100
AcDb2dVertex
10
1286.924
20
269.307
30
0.0
42
1.000
0
VERTEX
5
843
100
AcDbEntity
  8
1-2
6
CONTINUOUS
62
3
100
AcDbVertex
100
AcDb2dVertex
10
1287.724
20
269.307
30
0.0
42
1.000
0
SEQEND
5
844
100
AcDbEntity
  8
1-2
0
POLYLINE
5
845
100
AcDbEntity
  8
0-0
6
CONTINUOUS
62
3
100
AcDb2dPolyline
66
1
10
0
20
0
70
1
40
0.800
41
0.800
0
VERTEX
5
846
100
AcDbEntity
  8
0-0
6
CONTINUOUS
62
3
100
AcDbVertex
100
AcDb2dVertex
10
647.571
20
923.035
30
0.0
42
1.000
0
VERTEX
5
847
100
AcDbEntity
  8
0-0
6
CONTINUOUS
62
3
100
AcDbVertex
100
AcDb2dVertex
10
648.371
20
923.035
30
0.0
42
1.000
0
SEQEND
5
848
100
AcDbEntity
  8
0-0
0
POLYLINE
5
849
100
AcDbEntity
  8
0-0
6
CONTINUOUS
62
3
100
AcDb2dPolyline
66
1
10
0
20
0
70
1
40
0.800
41
0.800
0
VERTEX
5
84a
100
AcDbEntity
  8
0-0
6
CONTINUOUS
62
3
100
AcDbVertex
100
AcDb2dVertex
10
772.571
20
923.035
30
0.0
42
1.000
0
VERTEX
5
84b
100
AcDbEntity
  8
0-0
6
CONTINUOUS
62
3
100
AcDbVertex
100
AcDb2dVertex
10
773.371
20
923.035
30
0.0
42
1.000
0
SEQEND
5
84c
100
AcDbEntity
  8
0-0
0
POLYLINE
5
84d
100
AcDbEntity
  8
0-0
6
CONTINUOUS
62
3
100
AcDb2dPolyline
66
1
10
0
20
0
70
1
40
0.800
41
0.800
0
VERTEX
5
84e
100
AcDbEntity
  8
0-0
6
CONTINUOUS
62
3
100
AcDbVertex
100
AcDb2dVertex
10
897.571
20
923.035
30
0.0
42
1.000
0
VERTEX
5
84f
100
AcDbEntity
  8
0-0
6
CONTINUOUS
62
3
100
AcDbVertex
100
AcDb2dVertex
10
898.371
20
923.035
30
0.0
42
1.000
0
SEQEND
5
850
100
AcDbEntity
  8
0-0
0
POLYLINE
5
851
100
AcDbEntity
  8
0-0
6
CONTINUOUS
62
3
100
AcDb2dPolyline
66
1
10
0
20
0
70
1
40
0.800
41
0.800
0
VERTEX
5
852
100
AcDbEntity
  8
0-0
6
CONTINUOUS
62
3
100
AcDbVertex
100
AcDb2dVertex
10
272.571
20
923.035
30
0.0
42
1.000
0
VERTEX
5
853
100
AcDbEntity
  8
0-0
6
CONTINUOUS
62
3
100
AcDbVertex
100
AcDb2dVertex
10
273.371
20
923.035
30
0.0
42
1.000
0
SEQEND
5
854
100
AcDbEntity
  8
0-0
0
POLYLINE
5
855
100
AcDbEntity
  8
0-0
6
CONTINUOUS
62
3
100
AcDb2dPolyline
66
1
10
0
20
0
70
1
40
0.800
41
0.800
0
VERTEX
5
856
100
AcDbEntity
  8
0-0
6
CONTINUOUS
62
3
100
AcDbVertex
100
AcDb2dVertex
10
1022.571
20
923.035
30
0.0
42
1.000
0
VERTEX
5
857
100
AcDbEntity
  8
0-0
6
CONTINUOUS
62
3
100
AcDbVertex
100
AcDb2dVertex
10
1023.371
20
923.035
30
0.0
42
1.000
0
SEQEND
5
858
100
AcDbEntity
  8
0-0
0
POLYLINE
5
859
100
AcDbEntity
  8
0-0
6
CONTINUOUS
62
3
100
AcDb2dPolyline
66
1
10
0
20
0
70
1
40
0.800
41
0.800
0
VERTEX
5
85a
100
AcDbEntity
  8
0-0
6
CONTINUOUS
62
3
100
AcDbVertex
100
AcDb2dVertex
10
630.071
20
903.035
30
0.0
42
1.000
0
VERTEX
5
85b
100
AcDbEntity
  8
0-0
6
CONTINUOUS
62
3
100
AcDbVertex
100
AcDb2dVertex
10
630.871
20
903.035
30
0.0
42
1.000
0
SEQEND
5
85c
100
AcDbEntity
  8
0-0
0
POLYLINE
5
85d
100
AcDbEntity
  8
0-0
6
CONTINUOUS
62
3
100
AcDb2dPolyline
66
1
10
0
20
0
70
1
40
0.800
41
0.800
0
VERTEX
5
85e
100
AcDbEntity
  8
0-0
6
CONTINUOUS
62
3
100
AcDbVertex
100
AcDb2dVertex
10
262.071
20
453.035
30
0.0
42
1.000
0
VERTEX
5
85f
100
AcDbEntity
  8
0-0
6
CONTINUOUS
62
3
100
AcDbVertex
100
AcDb2dVertex
10
262.871
20
453.035
30
0.0
42
1.000
0
SEQEND
5
860
100
AcDbEntity
  8
0-0
0
POLYLINE
5
861
100
AcDbEntity
  8
0-0
6
CONTINUOUS
62
3
100
AcDb2dPolyline
66
1
10
0
20
0
70
1
40
0.800
41
0.800
0
VERTEX
5
862
100
AcDbEntity
  8
0-0
6
CONTINUOUS
62
3
100
AcDbVertex
100
AcDb2dVertex
10
272.571
20
473.035
30
0.0
42
1.000
0
VERTEX
5
863
100
AcDbEntity
  8
0-0
6
CONTINUOUS
62
3
100
AcDbVertex
100
AcDb2dVertex
10
273.371
20
473.035
30
0.0
42
1.000
0
SEQEND
5
864
100
AcDbEntity
  8
0-0
0
POLYLINE
5
865
100
AcDbEntity
  8
0-0
6
CONTINUOUS
62
3
100
AcDb2dPolyline
66
1
10
0
20
0
70
1
40
0.800
41
0.800
0
VERTEX
5
866
100
AcDbEntity
  8
0-0
6
CONTINUOUS
62
3
100
AcDbVertex
100
AcDb2dVertex
10
272.571
20
493.035
30
0.0
42
1.000
0
VERTEX
5
867
100
AcDbEntity
  8
0-0
6
CONTINUOUS
62
3
100
AcDbVertex
100
AcDb2dVertex
10
273.371
20
493.035
30
0.0
42
1.000
0
SEQEND
5
868
100
AcDbEntity
  8
0-0
0
POLYLINE
5
869
100
AcDbEntity
  8
0-0
6
CONTINUOUS
62
3
100
AcDb2dPolyline
66
1
10
0
20
0
70
1
40
0.800
41
0.800
0
VERTEX
5
86a
100
AcDbEntity
  8
0-0
6
CONTINUOUS
62
3
100
AcDbVertex
100
AcDb2dVertex
10
262.071
20
367.035
30
0.0
42
1.000
0
VERTEX
5
86b
100
AcDbEntity
  8
0-0
6
CONTINUOUS
62
3
100
AcDbVertex
100
AcDb2dVertex
10
262.871
20
367.035
30
0.0
42
1.000
0
SEQEND
5
86c
100
AcDbEntity
  8
0-0
0
POLYLINE
5
86d
100
AcDbEntity
  8
0-0
6
CONTINUOUS
62
3
100
AcDb2dPolyline
66
1
10
0
20
0
70
1
40
0.800
41
0.800
0
VERTEX
5
86e
100
AcDbEntity
  8
0-0
6
CONTINUOUS
62
3
100
AcDbVertex
100
AcDb2dVertex
10
284.071
20
367.035
30
0.0
42
1.000
0
VERTEX
5
86f
100
AcDbEntity
  8
0-0
6
CONTINUOUS
62
3
100
AcDbVertex
100
AcDb2dVertex
10
284.871
20
367.035
30
0.0
42
1.000
0
SEQEND
5
870
100
AcDbEntity
  8
0-0
0
POLYLINE
5
871
100
AcDbEntity
  8
0-0
6
CONTINUOUS
62
3
100
AcDb2dPolyline
66
1
10
0
20
0
70
1
40
0.800
41
0.800
0
VERTEX
5
872
100
AcDbEntity
  8
0-0
6
CONTINUOUS
62
3
100
AcDbVertex
100
AcDb2dVertex
10
505.071
20
453.035
30
0.0
42
1.000
0
VERTEX
5
873
100
AcDbEntity
  8
0-0
6
CONTINUOUS
62
3
100
AcDbVertex
100
AcDb2dVertex
10
505.871
20
453.035
30
0.0
42
1.000
0
SEQEND
5
874
100
AcDbEntity
  8
0-0
0
POLYLINE
5
875
100
AcDbEntity
  8
0-0
6
CONTINUOUS
62
3
100
AcDb2dPolyline
66
1
10
0
20
0
70
1
40
0.800
41
0.800
0
VERTEX
5
876
100
AcDbEntity
  8
0-0
6
CONTINUOUS
62
3
100
AcDbVertex
100
AcDb2dVertex
10
540.071
20
453.035
30
0.0
42
1.000
0
VERTEX
5
877
100
AcDbEntity
  8
0-0
6
CONTINUOUS
62
3
100
AcDbVertex
100
AcDb2dVertex
10
540.871
20
453.035
30
0.0
42
1.000
0
SEQEND
5
878
100
AcDbEntity
  8
0-0
0
POLYLINE
5
879
100
AcDbEntity
  8
0-0
6
CONTINUOUS
62
3
100
AcDb2dPolyline
66
1
10
0
20
0
70
1
40
0.800
41
0.800
0
VERTEX
5
87a
100
AcDbEntity
  8
0-0
6
CONTINUOUS
62
3
100
AcDbVertex
100
AcDb2dVertex
10
511.071
20
367.035
30
0.0
42
1.000
0
VERTEX
5
87b
100
AcDbEntity
  8
0-0
6
CONTINUOUS
62
3
100
AcDbVertex
100
AcDb2dVertex
10
511.871
20
367.035
30
0.0
42
1.000
0
SEQEND
5
87c
100
AcDbEntity
  8
0-0
0
POLYLINE
5
87d
100
AcDbEntity
  8
0-0
6
CONTINUOUS
62
3
100
AcDb2dPolyline
66
1
10
0
20
0
70
1
40
0.800
41
0.800
0
VERTEX
5
87e
100
AcDbEntity
  8
0-0
6
CONTINUOUS
62
3
100
AcDbVertex
100
AcDb2dVertex
10
534.071
20
367.035
30
0.0
42
1.000
0
VERTEX
5
87f
100
AcDbEntity
  8
0-0
6
CONTINUOUS
62
3
100
AcDbVertex
100
AcDb2dVertex
10
534.871
20
367.035
30
0.0
42
1.000
0
SEQEND
5
880
100
AcDbEntity
  8
0-0
0
POLYLINE
5
881
100
AcDbEntity
  8
0-0
6
CONTINUOUS
62
3
100
AcDb2dPolyline
66
1
10
0
20
0
70
1
40
0.800
41
0.800
0
VERTEX
5
882
100
AcDbEntity
  8
0-0
6
CONTINUOUS
62
3
100
AcDbVertex
100
AcDb2dVertex
10
272.571
20
473.035
30
0.0
42
1.000
0
VERTEX
5
883
100
AcDbEntity
  8
0-0
6
CONTINUOUS
62
3
100
AcDbVertex
100
AcDb2dVertex
10
273.371
20
473.035
30
0.0
42
1.000
0
SEQEND
5
884
100
AcDbEntity
  8
0-0
0
POLYLINE
5
885
100
AcDbEntity
  8
0-0
6
CONTINUOUS
62
3
100
AcDb2dPolyline
66
1
10
0
20
0
70
1
40
0.800
41
0.800
0
VERTEX
5
886
100
AcDbEntity
  8
0-0
6
CONTINUOUS
62
3
100
AcDbVertex
100
AcDb2dVertex
10
397.571
20
473.035
30
0.0
42
1.000
0
VERTEX
5
887
100
AcDbEntity
  8
0-0
6
CONTINUOUS
62
3
100
AcDbVertex
100
AcDb2dVertex
10
398.371
20
473.035
30
0.0
42
1.000
0
SEQEND
5
888
100
AcDbEntity
  8
0-0
0
POLYLINE
5
889
100
AcDbEntity
  8
0-0
6
CONTINUOUS
62
3
100
AcDb2dPolyline
66
1
10
0
20
0
70
1
40
0.800
41
0.800
0
VERTEX
5
88a
100
AcDbEntity
  8
0-0
6
CONTINUOUS
62
3
100
AcDbVertex
100
AcDb2dVertex
10
522.571
20
473.035
30
0.0
42
1.000
0
VERTEX
5
88b
100
AcDbEntity
  8
0-0
6
CONTINUOUS
62
3
100
AcDbVertex
100
AcDb2dVertex
10
523.371
20
473.035
30
0.0
42
1.000
0
SEQEND
5
88c
100
AcDbEntity
  8
0-0
0
POLYLINE
5
88d
100
AcDbEntity
  8
0-0
6
CONTINUOUS
62
3
100
AcDb2dPolyline
66
1
10
0
20
0
70
1
40
0.800
41
0.800
0
VERTEX
5
88e
100
AcDbEntity
  8
0-0
6
CONTINUOUS
62
3
100
AcDbVertex
100
AcDb2dVertex
10
1022.571
20
473.035
30
0.0
42
1.000
0
VERTEX
5
88f
100
AcDbEntity
  8
0-0
6
CONTINUOUS
62
3
100
AcDbVertex
100
AcDb2dVertex
10
1023.371
20
473.035
30
0.0
42
1.000
0
SEQEND
5
890
100
AcDbEntity
  8
0-0
0
POLYLINE
5
891
100
AcDbEntity
  8
0-0
6
CONTINUOUS
62
3
100
AcDb2dPolyline
66
1
10
0
20
0
70
1
40
0.800
41
0.800
0
VERTEX
5
892
100
AcDbEntity
  8
0-0
6
CONTINUOUS
62
3
100
AcDbVertex
100
AcDb2dVertex
10
272.571
20
493.035
30
0.0
42
1.000
0
VERTEX
5
893
100
AcDbEntity
  8
0-0
6
CONTINUOUS
62
3
100
AcDbVertex
100
AcDb2dVertex
10
273.371
20
493.035
30
0.0
42
1.000
0
SEQEND
5
894
100
AcDbEntity
  8
0-0
0
POLYLINE
5
895
100
AcDbEntity
  8
0-0
6
CONTINUOUS
62
3
100
AcDb2dPolyline
66
1
10
0
20
0
70
1
40
0.800
41
0.800
0
VERTEX
5
896
100
AcDbEntity
  8
0-0
6
CONTINUOUS
62
3
100
AcDbVertex
100
AcDb2dVertex
10
1022.571
20
493.035
30
0.0
42
1.000
0
VERTEX
5
897
100
AcDbEntity
  8
0-0
6
CONTINUOUS
62
3
100
AcDbVertex
100
AcDb2dVertex
10
1023.371
20
493.035
30
0.0
42
1.000
0
SEQEND
5
898
100
AcDbEntity
  8
0-0
0
POLYLINE
5
899
100
AcDbEntity
  8
0-0
6
CONTINUOUS
62
3
100
AcDb2dPolyline
66
1
10
0
20
0
70
1
40
0.800
41
0.800
0
VERTEX
5
89a
100
AcDbEntity
  8
0-0
6
CONTINUOUS
62
3
100
AcDbVertex
100
AcDb2dVertex
10
1022.571
20
453.035
30
0.0
42
1.000
0
VERTEX
5
89b
100
AcDbEntity
  8
0-0
6
CONTINUOUS
62
3
100
AcDbVertex
100
AcDb2dVertex
10
1023.371
20
453.035
30
0.0
42
1.000
0
SEQEND
5
89c
100
AcDbEntity
  8
0-0
0
POLYLINE
5
89d
100
AcDbEntity
  8
0-0
6
CONTINUOUS
62
3
100
AcDb2dPolyline
66
1
10
0
20
0
70
1
40
0.800
41
0.800
0
VERTEX
5
89e
100
AcDbEntity
  8
0-0
6
CONTINUOUS
62
3
100
AcDbVertex
100
AcDb2dVertex
10
272.571
20
453.035
30
0.0
42
1.000
0
VERTEX
5
89f
100
AcDbEntity
  8
0-0
6
CONTINUOUS
62
3
100
AcDbVertex
100
AcDb2dVertex
10
273.371
20
453.035
30
0.0
42
1.000
0
SEQEND
5
8a0
100
AcDbEntity
  8
0-0
0
POLYLINE
5
8a1
100
AcDbEntity
  8
0-0
6
CONTINUOUS
62
3
100
AcDb2dPolyline
66
1
10
0
20
0
70
1
40
0.800
41
0.800
0
VERTEX
5
8a2
100
AcDbEntity
  8
0-0
6
CONTINUOUS
62
3
100
AcDbVertex
100
AcDb2dVertex
10
1034.571
20
367.035
30
0.0
42
1.000
0
VERTEX
5
8a3
100
AcDbEntity
  8
0-0
6
CONTINUOUS
62
3
100
AcDbVertex
100
AcDb2dVertex
10
1035.371
20
367.035
30
0.0
42
1.000
0
SEQEND
5
8a4
100
AcDbEntity
  8
0-0
0
POLYLINE
5
8a5
100
AcDbEntity
  8
0-0
6
CONTINUOUS
62
3
100
AcDb2dPolyline
66
1
10
0
20
0
70
1
40
0.800
41
0.800
0
VERTEX
5
8a6
100
AcDbEntity
  8
0-0
6
CONTINUOUS
62
3
100
AcDbVertex
100
AcDb2dVertex
10
555.981
20
402.035
30
0.0
42
1.000
0
VERTEX
5
8a7
100
AcDbEntity
  8
0-0
6
CONTINUOUS
62
3
100
AcDbVertex
100
AcDb2dVertex
10
556.781
20
402.035
30
0.0
42
1.000
0
SEQEND
5
8a8
100
AcDbEntity
  8
0-0
0
POLYLINE
5
8a9
100
AcDbEntity
  8
0-0
6
CONTINUOUS
62
3
100
AcDb2dPolyline
66
1
10
0
20
0
70
1
40
0.800
41
0.800
0
VERTEX
5
8aa
100
AcDbEntity
  8
0-0
6
CONTINUOUS
62
3
100
AcDbVertex
100
AcDb2dVertex
10
555.981
20
417.035
30
0.0
42
1.000
0
VERTEX
5
8ab
100
AcDbEntity
  8
0-0
6
CONTINUOUS
62
3
100
AcDbVertex
100
AcDb2dVertex
10
556.781
20
417.035
30
0.0
42
1.000
0
SEQEND
5
8ac
100
AcDbEntity
  8
0-0
0
POLYLINE
5
8ad
100
AcDbEntity
  8
0-0
6
CONTINUOUS
62
3
100
AcDb2dPolyline
66
1
10
0
20
0
70
1
40
0.800
41
0.800
0
VERTEX
5
8ae
100
AcDbEntity
  8
0-0
6
CONTINUOUS
62
3
100
AcDbVertex
100
AcDb2dVertex
10
647.571
20
473.035
30
0.0
42
1.000
0
VERTEX
5
8af
100
AcDbEntity
  8
0-0
6
CONTINUOUS
62
3
100
AcDbVertex
100
AcDb2dVertex
10
648.371
20
473.035
30
0.0
42
1.000
0
SEQEND
5
8b0
100
AcDbEntity
  8
0-0
0
POLYLINE
5
8b1
100
AcDbEntity
  8
0-0
6
CONTINUOUS
62
3
100
AcDb2dPolyline
66
1
10
0
20
0
70
1
40
0.800
41
0.800
0
VERTEX
5
8b2
100
AcDbEntity
  8
0-0
6
CONTINUOUS
62
3
100
AcDbVertex
100
AcDb2dVertex
10
772.571
20
473.035
30
0.0
42
1.000
0
VERTEX
5
8b3
100
AcDbEntity
  8
0-0
6
CONTINUOUS
62
3
100
AcDbVertex
100
AcDb2dVertex
10
773.371
20
473.035
30
0.0
42
1.000
0
SEQEND
5
8b4
100
AcDbEntity
  8
0-0
0
POLYLINE
5
8b5
100
AcDbEntity
  8
0-0
6
CONTINUOUS
62
3
100
AcDb2dPolyline
66
1
10
0
20
0
70
1
40
0.800
41
0.800
0
VERTEX
5
8b6
100
AcDbEntity
  8
0-0
6
CONTINUOUS
62
3
100
AcDbVertex
100
AcDb2dVertex
10
897.571
20
473.035
30
0.0
42
1.000
0
VERTEX
5
8b7
100
AcDbEntity
  8
0-0
6
CONTINUOUS
62
3
100
AcDbVertex
100
AcDb2dVertex
10
898.371
20
473.035
30
0.0
42
1.000
0
SEQEND
5
8b8
100
AcDbEntity
  8
0-0
0
POLYLINE
5
8b9
100
AcDbEntity
  8
0-0
6
CONTINUOUS
62
3
100
AcDb2dPolyline
66
1
10
0
20
0
70
1
40
0.800
41
0.800
0
VERTEX
5
8ba
100
AcDbEntity
  8
0-0
6
CONTINUOUS
62
3
100
AcDbVertex
100
AcDb2dVertex
10
630.071
20
453.035
30
0.0
42
1.000
0
VERTEX
5
8bb
100
AcDbEntity
  8
0-0
6
CONTINUOUS
62
3
100
AcDbVertex
100
AcDb2dVertex
10
630.871
20
453.035
30
0.0
42
1.000
0
SEQEND
5
8bc
100
AcDbEntity
  8
0-0
0
POLYLINE
5
8bd
100
AcDbEntity
  8
0-0
6
CONTINUOUS
62
3
100
AcDb2dPolyline
66
1
10
0
20
0
70
1
40
0.800
41
0.800
0
VERTEX
5
8be
100
AcDbEntity
  8
0-0
6
CONTINUOUS
62
3
100
AcDbVertex
100
AcDb2dVertex
10
487.071
20
453.035
30
0.0
42
1.000
0
VERTEX
5
8bf
100
AcDbEntity
  8
0-0
6
CONTINUOUS
62
3
100
AcDbVertex
100
AcDb2dVertex
10
487.871
20
453.035
30
0.0
42
1.000
0
SEQEND
5
8c0
100
AcDbEntity
  8
0-0
0
POLYLINE
5
8c1
100
AcDbEntity
  8
0-0
6
CONTINUOUS
62
3
100
AcDb2dPolyline
66
1
10
0
20
0
70
1
40
0.800
41
0.800
0
VERTEX
5
8c2
100
AcDbEntity
  8
0-0
6
CONTINUOUS
62
3
100
AcDbVertex
100
AcDb2dVertex
10
433.071
20
453.035
30
0.0
42
1.000
0
VERTEX
5
8c3
100
AcDbEntity
  8
0-0
6
CONTINUOUS
62
3
100
AcDbVertex
100
AcDb2dVertex
10
433.871
20
453.035
30
0.0
42
1.000
0
SEQEND
5
8c4
100
AcDbEntity
  8
0-0
0
POLYLINE
5
8c5
100
AcDbEntity
  8
0-0
6
CONTINUOUS
62
3
100
AcDb2dPolyline
66
1
10
0
20
0
70
1
40
0.800
41
0.800
0
VERTEX
5
8c6
100
AcDbEntity
  8
0-0
6
CONTINUOUS
62
3
100
AcDbVertex
100
AcDb2dVertex
10
415.071
20
453.035
30
0.0
42
1.000
0
VERTEX
5
8c7
100
AcDbEntity
  8
0-0
6
CONTINUOUS
62
3
100
AcDbVertex
100
AcDb2dVertex
10
415.871
20
453.035
30
0.0
42
1.000
0
SEQEND
5
8c8
100
AcDbEntity
  8
0-0
0
POLYLINE
5
8c9
100
AcDbEntity
  8
0-0
6
CONTINUOUS
62
3
100
AcDb2dPolyline
66
1
10
0
20
0
70
1
40
0.800
41
0.800
0
VERTEX
5
8ca
100
AcDbEntity
  8
0-0
6
CONTINUOUS
62
3
100
AcDbVertex
100
AcDb2dVertex
10
483.071
20
367.035
30
0.0
42
1.000
0
VERTEX
5
8cb
100
AcDbEntity
  8
0-0
6
CONTINUOUS
62
3
100
AcDbVertex
100
AcDb2dVertex
10
483.871
20
367.035
30
0.0
42
1.000
0
SEQEND
5
8cc
100
AcDbEntity
  8
0-0
0
POLYLINE
5
8cd
100
AcDbEntity
  8
0-0
6
CONTINUOUS
62
3
100
AcDb2dPolyline
66
1
10
0
20
0
70
1
40
0.800
41
0.800
0
VERTEX
5
8ce
100
AcDbEntity
  8
0-0
6
CONTINUOUS
62
3
100
AcDbVertex
100
AcDb2dVertex
10
437.071
20
367.035
30
0.0
42
1.000
0
VERTEX
5
8cf
100
AcDbEntity
  8
0-0
6
CONTINUOUS
62
3
100
AcDbVertex
100
AcDb2dVertex
10
437.871
20
367.035
30
0.0
42
1.000
0
SEQEND
5
8d0
100
AcDbEntity
  8
0-0
0
POLYLINE
5
8d1
100
AcDbEntity
  8
0-0
6
CONTINUOUS
62
3
100
AcDb2dPolyline
66
1
10
0
20
0
70
1
40
0.800
41
0.800
0
VERTEX
5
8d2
100
AcDbEntity
  8
0-0
6
CONTINUOUS
62
3
100
AcDbVertex
100
AcDb2dVertex
10
575.485
20
415.535
30
0.0
42
1.000
0
VERTEX
5
8d3
100
AcDbEntity
  8
0-0
6
CONTINUOUS
62
3
100
AcDbVertex
100
AcDb2dVertex
10
576.285
20
415.535
30
0.0
42
1.000
0
SEQEND
5
8d4
100
AcDbEntity
  8
0-0
0
POLYLINE
5
8d5
100
AcDbEntity
  8
0-0
6
CONTINUOUS
62
3
100
AcDb2dPolyline
66
1
10
0
20
0
70
1
40
0.800
41
0.800
0
VERTEX
5
8d6
100
AcDbEntity
  8
0-0
6
CONTINUOUS
62
3
100
AcDbVertex
100
AcDb2dVertex
10
575.485
20
417.035
30
0.0
42
1.000
0
VERTEX
5
8d7
100
AcDbEntity
  8
0-0
6
CONTINUOUS
62
3
100
AcDbVertex
100
AcDb2dVertex
10
576.285
20
417.035
30
0.0
42
1.000
0
SEQEND
5
8d8
100
AcDbEntity
  8
0-0
0
POLYLINE
5
8d9
100
AcDbEntity
  8
F-F
6
CONTINUOUS
62
3
100
AcDb2dPolyline
66
1
10
0
20
0
70
1
40
0.800
41
0.800
0
VERTEX
5
8da
100
AcDbEntity
  8
F-F
6
CONTINUOUS
62
3
100
AcDbVertex
100
AcDb2dVertex
10
54.357
20
1143.641
30
0.0
42
1.000
0
VERTEX
5
8db
100
AcDbEntity
  8
F-F
6
CONTINUOUS
62
3
100
AcDbVertex
100
AcDb2dVertex
10
55.157
20
1143.641
30
0.0
42
1.000
0
SEQEND
5
8dc
100
AcDbEntity
  8
F-F
0
POLYLINE
5
8dd
100
AcDbEntity
  8
0-0
6
CONTINUOUS
62
3
100
AcDb2dPolyline
66
1
10
0
20
0
70
1
40
0.800
41
0.800
0
VERTEX
5
8de
100
AcDbEntity
  8
0-0
6
CONTINUOUS
62
3
100
AcDbVertex
100
AcDb2dVertex
10
1011.571
20
367.035
30
0.0
42
1.000
0
VERTEX
5
8df
100
AcDbEntity
  8
0-0
6
CONTINUOUS
62
3
100
AcDbVertex
100
AcDb2dVertex
10
1012.371
20
367.035
30
0.0
42
1.000
0
SEQEND
5
8e0
100
AcDbEntity
  8
0-0
0
POLYLINE
5
8e1
100
AcDbEntity
  8
0-0
6
CONTINUOUS
62
3
100
AcDb2dPolyline
66
1
10
0
20
0
70
1
40
0.800
41
0.800
0
VERTEX
5
8e2
100
AcDbEntity
  8
0-0
6
CONTINUOUS
62
3
100
AcDbVertex
100
AcDb2dVertex
10
262.071
20
367.035
30
0.0
42
1.000
0
VERTEX
5
8e3
100
AcDbEntity
  8
0-0
6
CONTINUOUS
62
3
100
AcDbVertex
100
AcDb2dVertex
10
262.871
20
367.035
30
0.0
42
1.000
0
SEQEND
5
8e4
100
AcDbEntity
  8
0-0
0
POLYLINE
5
8e5
100
AcDbEntity
  8
0-0
6
CONTINUOUS
62
3
100
AcDb2dPolyline
66
1
10
0
20
0
70
1
40
0.800
41
0.800
0
VERTEX
5
8e6
100
AcDbEntity
  8
0-0
6
CONTINUOUS
62
3
100
AcDbVertex
100
AcDb2dVertex
10
1040.071
20
453.035
30
0.0
42
1.000
0
VERTEX
5
8e7
100
AcDbEntity
  8
0-0
6
CONTINUOUS
62
3
100
AcDbVertex
100
AcDb2dVertex
10
1040.871
20
453.035
30
0.0
42
1.000
0
SEQEND
5
8e8
100
AcDbEntity
  8
0-0
0
POLYLINE
5
8e9
100
AcDbEntity
  8
0-0
6
CONTINUOUS
62
3
100
AcDb2dPolyline
66
1
10
0
20
0
70
1
40
0.800
41
0.800
0
VERTEX
5
8ea
100
AcDbEntity
  8
0-0
6
CONTINUOUS
62
3
100
AcDbVertex
100
AcDb2dVertex
10
1063.071
20
453.035
30
0.0
42
1.000
0
VERTEX
5
8eb
100
AcDbEntity
  8
0-0
6
CONTINUOUS
62
3
100
AcDbVertex
100
AcDb2dVertex
10
1063.871
20
453.035
30
0.0
42
1.000
0
SEQEND
5
8ec
100
AcDbEntity
  8
0-0
0
POLYLINE
5
8ed
100
AcDbEntity
  8
1-2
6
CONTINUOUS
62
3
100
AcDb2dPolyline
66
1
10
0
20
0
70
1
40
0.800
41
0.800
0
VERTEX
5
8ee
100
AcDbEntity
  8
1-2
6
CONTINUOUS
62
3
100
AcDbVertex
100
AcDb2dVertex
10
1464.097
20
357.807
30
0.0
42
1.000
0
VERTEX
5
8ef
100
AcDbEntity
  8
1-2
6
CONTINUOUS
62
3
100
AcDbVertex
100
AcDb2dVertex
10
1464.897
20
357.807
30
0.0
42
1.000
0
SEQEND
5
8f0
100
AcDbEntity
  8
1-2
0
POLYLINE
5
8f1
100
AcDbEntity
  8
1-2
6
CONTINUOUS
62
3
100
AcDb2dPolyline
66
1
10
0
20
0
70
1
40
0.800
41
0.800
0
VERTEX
5
8f2
100
AcDbEntity
  8
1-2
6
CONTINUOUS
62
3
100
AcDbVertex
100
AcDb2dVertex
10
1269.452
20
691.307
30
0.0
42
1.000
0
VERTEX
5
8f3
100
AcDbEntity
  8
1-2
6
CONTINUOUS
62
3
100
AcDbVertex
100
AcDb2dVertex
10
1270.252
20
691.307
30
0.0
42
1.000
0
SEQEND
5
8f4
100
AcDbEntity
  8
1-2
0
POLYLINE
5
8f5
100
AcDbEntity
  8
1-2
6
CONTINUOUS
62
3
100
AcDb2dPolyline
66
1
10
0
20
0
70
1
40
0.800
41
0.800
0
VERTEX
5
8f6
100
AcDbEntity
  8
1-2
6
CONTINUOUS
62
3
100
AcDbVertex
100
AcDb2dVertex
10
1339.452
20
691.307
30
0.0
42
1.000
0
VERTEX
5
8f7
100
AcDbEntity
  8
1-2
6
CONTINUOUS
62
3
100
AcDbVertex
100
AcDb2dVertex
10
1340.252
20
691.307
30
0.0
42
1.000
0
SEQEND
5
8f8
100
AcDbEntity
  8
1-2
0
POLYLINE
5
8f9
100
AcDbEntity
  8
1-2
6
CONTINUOUS
62
3
100
AcDb2dPolyline
66
1
10
0
20
0
70
1
40
0.800
41
0.800
0
VERTEX
5
8fa
100
AcDbEntity
  8
1-2
6
CONTINUOUS
62
3
100
AcDbVertex
100
AcDb2dVertex
10
1281.452
20
519.307
30
0.0
42
1.000
0
VERTEX
5
8fb
100
AcDbEntity
  8
1-2
6
CONTINUOUS
62
3
100
AcDbVertex
100
AcDb2dVertex
10
1282.252
20
519.307
30
0.0
42
1.000
0
SEQEND
5
8fc
100
AcDbEntity
  8
1-2
0
POLYLINE
5
8fd
100
AcDbEntity
  8
1-2
6
CONTINUOUS
62
3
100
AcDb2dPolyline
66
1
10
0
20
0
70
1
40
0.800
41
0.800
0
VERTEX
5
8fe
100
AcDbEntity
  8
1-2
6
CONTINUOUS
62
3
100
AcDbVertex
100
AcDb2dVertex
10
1327.452
20
519.307
30
0.0
42
1.000
0
VERTEX
5
8ff
100
AcDbEntity
  8
1-2
6
CONTINUOUS
62
3
100
AcDbVertex
100
AcDb2dVertex
10
1328.252
20
519.307
30
0.0
42
1.000
0
SEQEND
5
900
100
AcDbEntity
  8
1-2
0
POLYLINE
5
901
100
AcDbEntity
  8
1-2
6
CONTINUOUS
62
3
100
AcDb2dPolyline
66
1
10
0
20
0
70
1
40
0.800
41
0.800
0
VERTEX
5
902
100
AcDbEntity
  8
1-2
6
CONTINUOUS
62
3
100
AcDbVertex
100
AcDb2dVertex
10
1424.452
20
589.307
30
0.0
42
1.000
0
VERTEX
5
903
100
AcDbEntity
  8
1-2
6
CONTINUOUS
62
3
100
AcDbVertex
100
AcDb2dVertex
10
1425.252
20
589.307
30
0.0
42
1.000
0
SEQEND
5
904
100
AcDbEntity
  8
1-2
0
POLYLINE
5
905
100
AcDbEntity
  8
1-2
6
CONTINUOUS
62
3
100
AcDb2dPolyline
66
1
10
0
20
0
70
1
40
0.800
41
0.800
0
VERTEX
5
906
100
AcDbEntity
  8
1-2
6
CONTINUOUS
62
3
100
AcDbVertex
100
AcDb2dVertex
10
1424.452
20
619.307
30
0.0
42
1.000
0
VERTEX
5
907
100
AcDbEntity
  8
1-2
6
CONTINUOUS
62
3
100
AcDbVertex
100
AcDb2dVertex
10
1425.252
20
619.307
30
0.0
42
1.000
0
SEQEND
5
908
100
AcDbEntity
  8
1-2
0
POLYLINE
5
909
100
AcDbEntity
  8
0-0
6
CONTINUOUS
62
3
100
AcDb2dPolyline
66
1
10
0
20
0
70
1
40
0.800
41
0.800
0
VERTEX
5
90a
100
AcDbEntity
  8
0-0
6
CONTINUOUS
62
3
100
AcDbVertex
100
AcDb2dVertex
10
1421.504
20
825.335
30
0.0
42
1.000
0
VERTEX
5
90b
100
AcDbEntity
  8
0-0
6
CONTINUOUS
62
3
100
AcDbVertex
100
AcDb2dVertex
10
1422.304
20
825.335
30
0.0
42
1.000
0
SEQEND
5
90c
100
AcDbEntity
  8
0-0
0
POLYLINE
5
90d
100
AcDbEntity
  8
0-0
6
CONTINUOUS
62
3
100
AcDb2dPolyline
66
1
10
0
20
0
70
1
40
0.800
41
0.800
0
VERTEX
5
90e
100
AcDbEntity
  8
0-0
6
CONTINUOUS
62
3
100
AcDbVertex
100
AcDb2dVertex
10
1444.504
20
825.335
30
0.0
42
1.000
0
VERTEX
5
90f
100
AcDbEntity
  8
0-0
6
CONTINUOUS
62
3
100
AcDbVertex
100
AcDb2dVertex
10
1445.304
20
825.335
30
0.0
42
1.000
0
SEQEND
5
910
100
AcDbEntity
  8
0-0
0
POLYLINE
5
911
100
AcDbEntity
  8
0-0
6
CONTINUOUS
62
3
100
AcDb2dPolyline
66
1
10
0
20
0
70
1
40
0.800
41
0.800
0
VERTEX
5
912
100
AcDbEntity
  8
0-0
6
CONTINUOUS
62
3
100
AcDbVertex
100
AcDb2dVertex
10
1415.004
20
891.335
30
0.0
42
1.000
0
VERTEX
5
913
100
AcDbEntity
  8
0-0
6
CONTINUOUS
62
3
100
AcDbVertex
100
AcDb2dVertex
10
1415.804
20
891.335
30
0.0
42
1.000
0
SEQEND
5
914
100
AcDbEntity
  8
0-0
0
POLYLINE
5
915
100
AcDbEntity
  8
0-0
6
CONTINUOUS
62
3
100
AcDb2dPolyline
66
1
10
0
20
0
70
1
40
0.800
41
0.800
0
VERTEX
5
916
100
AcDbEntity
  8
0-0
6
CONTINUOUS
62
3
100
AcDbVertex
100
AcDb2dVertex
10
1450.004
20
891.335
30
0.0
42
1.000
0
VERTEX
5
917
100
AcDbEntity
  8
0-0
6
CONTINUOUS
62
3
100
AcDbVertex
100
AcDb2dVertex
10
1450.804
20
891.335
30
0.0
42
1.000
0
SEQEND
5
918
100
AcDbEntity
  8
0-0
0
POLYLINE
5
919
100
AcDbEntity
  8
0-0
6
CONTINUOUS
62
3
100
AcDb2dPolyline
66
1
10
0
20
0
70
1
40
0.800
41
0.800
0
VERTEX
5
91a
100
AcDbEntity
  8
0-0
6
CONTINUOUS
62
3
100
AcDbVertex
100
AcDb2dVertex
10
1490.004
20
866.335
30
0.0
42
1.000
0
VERTEX
5
91b
100
AcDbEntity
  8
0-0
6
CONTINUOUS
62
3
100
AcDbVertex
100
AcDb2dVertex
10
1490.804
20
866.335
30
0.0
42
1.000
0
SEQEND
5
91c
100
AcDbEntity
  8
0-0
0
POLYLINE
5
91d
100
AcDbEntity
  8
0-0
6
CONTINUOUS
62
3
100
AcDb2dPolyline
66
1
10
0
20
0
70
1
40
0.800
41
0.800
0
VERTEX
5
91e
100
AcDbEntity
  8
0-0
6
CONTINUOUS
62
3
100
AcDbVertex
100
AcDb2dVertex
10
1490.004
20
851.335
30
0.0
42
1.000
0
VERTEX
5
91f
100
AcDbEntity
  8
0-0
6
CONTINUOUS
62
3
100
AcDbVertex
100
AcDb2dVertex
10
1490.804
20
851.335
30
0.0
42
1.000
0
SEQEND
5
920
100
AcDbEntity
  8
0-0
0
POLYLINE
5
921
100
AcDbEntity
  8
0-0
6
CONTINUOUS
62
3
100
AcDb2dPolyline
66
1
10
0
20
0
70
1
40
0.800
41
0.800
0
VERTEX
5
922
100
AcDbEntity
  8
0-0
6
CONTINUOUS
62
3
100
AcDbVertex
100
AcDb2dVertex
10
665.071
20
453.035
30
0.0
42
1.000
0
VERTEX
5
923
100
AcDbEntity
  8
0-0
6
CONTINUOUS
62
3
100
AcDbVertex
100
AcDb2dVertex
10
665.871
20
453.035
30
0.0
42
1.000
0
SEQEND
5
924
100
AcDbEntity
  8
0-0
0
ENDSEC
 0
SECTION
  2
OBJECTS
 0
DICTIONARY
  5
C
100
AcDbDictionary
  3
ACAD_GROUP
350
D
  3
ACAD_MLINESTYLE
350
E
 0
DICTIONARY
  5
D
102
{ACAD_REACTORS
102
}
100
AcDbDictionary
 0
DICTIONARY
  5
E
102
{ACAD_REACTORS
102
}
100
AcDbDictionary
  3
STANDARD
350
13
0
MLINESTYLE
  5
13
102
{ACAD_REACTORS
102
}
100
AcDbMlineStyle
  2
STANDARD
 70
    0
3

62
256
51
90.0
52
90.0
71
0
0
ACDBPLACEHOLDER
  5
14
102
{ACAD_REACTORS
102
}
0
ENDSEC
0
EOF
