0
SECTION
2
HEADER
9
$ACADVER
1
AC1015
9
$ACADMAINTVER
 70
6
9
$DWGCODEPAGE
3
ANSI_932
9
$EXTMIN
10
0.000
20
0.000
30
0.0
9
$EXTMAX
10
1682.000
20
1188.000
30
0.0
9
$LIMMIN
10
0.000
20
0.000
9
$LIMMAX
10
1682.000
20
1188.000
9
$DIMSCALE
40
2.000000
9
$LTSCALE
40
2.000
9
$PDMODE
70
0
9
$PDSIZE
40
40.0
9
$HANDSEED
5
61c2f
9
$UNITMODE
70
0
9
$VISRETAIN
70
0
9
$PLINEGEN
70
0
9
$PSLTSCALE
70
1
9
$TREEDEPTH
70
3020
9
$CMLSTYLE
2
STANDARD
9
$CMLJUST
70
0
9
$CMLSCALE
40
1.0
9
$PROXYGRAPHICS
70
1
9
$MEASUREMENT
70
0
9
$CELWEIGHT
370
-1
9
$ENDCAPS
280
0
9
$JOINSTYLE
280
0
9
$LWDISPLAY
290
0
9
$INSUNITS
70
0
9
$HYPERLINKBASE
1

9
$STYLESHEET
1

9
$XEDIT
290
1
9
$CEPSNTYPE
380
0
9
$PSTYLEMODE
290
1
9
$FINGERPRINTGUID
2
{5F082321-0195-11D3-BDFB-0060B0CD5109}
9
$VERSIONGUID
2
{12943756-294D-11D3-98C2-0060B087942D}
9
$EXTNAMES
290
1
9
$PSVPSCALE
40
0.0
9
$OLESTARTUP
290
0
0
ENDSEC
0
SECTION
  2
CLASSES
0
ENDSEC
0
SECTION
2
TABLES
0
TABLE
2
VPORT
5
190
100
AcDbSymbolTable
70
2
0
VPORT
5
191
100
AcDbSymbolTableRecord
100
AcDbViewportTableRecord
2
*ACTIVE
70
0
10
0.0
20
0.0
11
1.0
21
1.0
12
841.000
22
594.000
13
0.0
23
0.0
14
1.0
24
1.0
15
0.0
25
0.0
16
0.0
26
0.0
36
1.0
17
0.0
27
0.0
37
0.0
40
1218.841
41
2.0
42
50.0
43
0.0
44
0.0
50
0.0
51
0.0
71
0
72
1000
73
1
74
1
75
0
76
0
77
0
78
0
0
ENDTAB
0
TABLE
2
LTYPE
5
1f4
100
AcDbSymbolTable
70
9
0
LTYPE
5
1f5
100
AcDbSymbolTableRecord
100
AcDbLinetypeTableRecord
2
BYBLOCK
70
 64
3

72
 65
73
  0
40
0.0
0
LTYPE
5
1f6
100
AcDbSymbolTableRecord
100
AcDbLinetypeTableRecord
2
BYLAYER
70
 64
3

72
 65
73
  0
40
0.0
0
LTYPE
5
1f7
100
AcDbSymbolTableRecord
100
AcDbLinetypeTableRecord
2
CONTINUOUS
70
64
3
SolidLine
72
65
73
0
40
0.0
0
LTYPE
5
1f8
100
AcDbSymbolTableRecord
100
AcDbLinetypeTableRecord
2
DOT
70
64
3
--  --  --  --  --  --  --  --     
72
65
73
2
40
3.000
49
1.000
74
0
49
-2.000
74
0
0
LTYPE
5
1f9
100
AcDbSymbolTableRecord
100
AcDbLinetypeTableRecord
2
DASHED
70
64
3
----    ----    ----    ----    
72
65
73
2
40
5.000
49
2.000
74
0
49
-3.000
74
0
0
LTYPE
5
1fa
100
AcDbSymbolTableRecord
100
AcDbLinetypeTableRecord
2
DASHED2
70
64
3
------  ------  ------  ------ 
72
65
73
2
40
10.000
49
4.000
74
0
49
-6.000
74
0
0
LTYPE
5
1fb
100
AcDbSymbolTableRecord
100
AcDbLinetypeTableRecord
2
CENTER
70
64
3
----- - ----- - ----- - ----- - 
72
65
73
4
40
10.000
49
6.000
74
0
49
-3.000
74
0
49
1.000
74
0
49
-3.000
74
0
0
LTYPE
5
1fc
100
AcDbSymbolTableRecord
100
AcDbLinetypeTableRecord
2
CENTER2
70
64
3
----------  --  ----------  -- 
72
65
73
4
40
17.000
49
12.000
74
0
49
-5.000
74
0
49
2.000
74
0
49
-5.000
74
0
0
LTYPE
5
1fd
100
AcDbSymbolTableRecord
100
AcDbLinetypeTableRecord
2
PHANTOM
70
64
3
--- - - --- - - --- - - --- - -
72
65
73
6
40
13.000
49
5.000
74
0
49
-3.000
74
0
49
1.000
74
0
49
-3.000
74
0
49
1.000
74
0
49
-3.000
74
0
0
LTYPE
5
1fe
100
AcDbSymbolTableRecord
100
AcDbLinetypeTableRecord
2
PHANTOM2
70
64
3
--------  -  -  --------  -  -
72
65
73
6
40
20.000
49
6.000
74
0
49
-5.000
74
0
49
2.000
74
0
49
-5.000
74
0
49
2.000
74
0
49
-5.000
74
0
0
LTYPE
5
1ff
100
AcDbSymbolTableRecord
100
AcDbLinetypeTableRecord
2
HIDDEN
70
64
3
-   -   -   -   -   -   -   -   
72
65
73
2
40
3.000
49
0.500
74
0
49
-2.500
74
0
0
ENDTAB
0
TABLE
2
STYLE
5
200
100
AcDbSymbolTable
70
1
0
STYLE
5
201
100
AcDbSymbolTableRecord
100
AcDbTextStyleTableRecord
2
STANDARD
70
0
40
0.0
41
1.0
50
0.0
71
0
42
0.0
3
txt.shx
4
extfont.shx
0
STYLE
5
202
100
AcDbSymbolTableRecord
100
AcDbTextStyleTableRecord
2
TATEGAKI
70
4
40
0.0
41
1.0
50
0.0
71
0
42
0.0
3
txt.shx
4
extfont.shx
0
STYLE
5
203
100
AcDbSymbolTableRecord
100
AcDbTextStyleTableRecord
2
DIM
70
0
40
0.0
41
0.75
50
0.0
71
0
42
0.0
3
txt.shx
4
extfont.shx
0
STYLE
5
204
100
AcDbSymbolTableRecord
100
AcDbTextStyleTableRecord
2
_Gothic_
70
0
40
1.0
41
1.0
50
0.0
71
0
42
10.0
3

4

1001
ACAD
1000
MS Gothic
1071
32817
0
STYLE
5
205
100
AcDbSymbolTableRecord
100
AcDbTextStyleTableRecord
2
_TateGothic_
70
4
40
0.0
41
1.0
50
0.0
71
0
42
0.0
3
@MS Gothic
4

0
ENDTAB
0
TABLE
2
VIEW
5
206
100
AcDbSymbolTable
70
0
0
ENDTAB
0
TABLE
2
UCS
5
207
100
AcDbSymbolTable
70
0
0
ENDTAB
0
TABLE
2
APPID
5
208
100
AcDbSymbolTable
70
1
0
APPID
5
209
100
AcDbSymbolTableRecord
100
AcDbRegAppTableRecord
2
ACAD
70
0
0
ENDTAB
0
TABLE
2
DIMSTYLE
5
403
330
0
100
AcDbSymbolTable
70
1
100
AcDbDimStyleTable
71
0
0
DIMSTYLE
105
404
330
402
100
AcDbSymbolTableRecord
100
AcDbDimStyleTableRecord
2
JAC_DIM
70
0
41
4.000
42
0.000
44
0.0
73
0
74
0
77
1
78
8
79
2
140
0.000
170
0
171
2
172
0
173
0
174
0
175
0
176
0
177
0
178
0
270
2
271
0
272
0
273
2
274
2
340
201
275
0
280
0
281
0
282
0
283
0
284
0
285
0
286
0
287
3
288
0
0
ENDTAB
0
TABLE
2
BLOCK_RECORD
5
405
100
AcDbSymbolTable
70
0
0
BLOCK_RECORD
5
406
100
AcDbSymbolTableRecord
100
AcDbBlockTableRecord
2
*MODEL_SPACE
0
BLOCK_RECORD
5
407
100
AcDbSymbolTableRecord
100
AcDbBlockTableRecord
2
*PAPER_SPACE
0
BLOCK_RECORD
5
408
100
AcDbSymbolTableRecord
100
AcDbBlockTableRecord
2
_JACCONVERT_
0
ENDTAB
0
TABLE
2
LAYER
5
409
100
AcDbSymbolTable
70
10
0
LAYER
5
40a
100
AcDbSymbolTableRecord
100
AcDbLayerTableRecord
2
0
70
0
62
7
6
CONTINUOUS
370
-3
390
14
0
LAYER
5
40b
100
AcDbSymbolTableRecord
100
AcDbLayerTableRecord
2
0-0
70
0
62
7
6
CONTINUOUS
370
-3
390
14
0
LAYER
5
40c
100
AcDbSymbolTableRecord
100
AcDbLayerTableRecord
2
F-E_J_ADD
70
0
62
-7
6
CONTINUOUS
290
0
370
-3
390
14
0
LAYER
5
40d
100
AcDbSymbolTableRecord
100
AcDbLayerTableRecord
2
F-F
70
0
62
7
6
CONTINUOUS
370
-3
390
14
0
ENDTAB
0
ENDSEC
0
SECTION
2
BLOCKS
0
BLOCK
5
40e
100
AcDbEntity
67
1
8
0
100
AcDbBlockBegin
2
*MODEL_SPACE
70
0
10
0.0
20
0.0
30
0.0
3
*MODEL_SPACE
1

0
ENDBLK
5
40f
100
AcDbEntity
8
0
100
AcDbBlockEnd
0
BLOCK
5
410
100
AcDbEntity
67
1
8
0
100
AcDbBlockBegin
2
*PAPER_SPACE
70
0
10
0.0
20
0.0
30
0.0
3
*PAPER_SPACE
1

0
ENDBLK
5
411
100
AcDbEntity
67
1
8
0
100
AcDbBlockEnd
0
BLOCK
5
412
100
AcDbEntity
8
0
100
AcDbBlockBegin
2
_JACCONVERT_
70
2
10
0.0
20
0.0
30
0.0
3
_JACCONVERT_
1
_JACCONVERT_
0
ATTDEF
5
413
100
AcDbEntity
8
0
62
0
100
AcDbText
10
0.0
20
0.0
30
0.0
40
1.0
1
User:460950EB0890EC0964308A
100
AcDbAttributeDefinition
3

2
USER
70
8
0
ATTDEF
5
414
100
AcDbEntity
8
0
62
0
100
AcDbText
10
0.0
20
2.0
30
0.0
40
1.0
1
Date:15/06/15 16:28
100
AcDbAttributeDefinition
3

2
REVDATE
70
8
0
ATTDEF
5
415
100
AcDbEntity
8
0
62
0
100
AcDbText
10
0.0
20
4.0
30
0.0
40
1.0
1
File:KW700.dxf
100
AcDbAttributeDefinition
3

2
FNAME
70
8
0
ATTDEF
5
416
100
AcDbEntity
8
0
62
0
100
AcDbText
10
0.0
20
6.0
30
0.0
40
1.0
1
JacConvert Version3.09 copyright (c) 2001-2013 K.Nakahara
100
AcDbAttributeDefinition
3

2
VER
70
8
0
ENDBLK
5
417
100
AcDbEntity
67
1
8
0
100
AcDbBlockEnd
0
ENDSEC
0
SECTION
2
ENTITIES
0
LINE
5
418
100
AcDbEntity
8
F-F
6
CONTINUOUS
62
2
100
AcDbLine
10
54.760000000000
20
23.630000000000
30
0.0
11
54.760000000000
21
1143.640000000000
31
0.0
0
LINE
5
419
100
AcDbEntity
8
F-F
6
CONTINUOUS
62
2
100
AcDbLine
10
1284.760000000000
20
82.890000000000
30
0.0
11
1284.760000000000
21
23.630000000000
31
0.0
0
LINE
5
41a
100
AcDbEntity
8
F-F
6
CONTINUOUS
62
2
100
AcDbLine
10
1214.540000000000
20
82.890000000000
30
0.0
11
1214.540000000000
21
23.630000000000
31
0.0
0
LINE
5
41b
100
AcDbEntity
8
F-F
6
CONTINUOUS
62
2
100
AcDbLine
10
1537.120000000000
20
23.630000000000
30
0.0
11
1537.120000000000
21
82.890000000000
31
0.0
0
LINE
5
41c
100
AcDbEntity
8
F-F
6
CONTINUOUS
62
2
100
AcDbLine
10
806.890000000000
20
82.890000000000
30
0.0
11
806.890000000000
21
23.630000000000
31
0.0
0
LINE
5
41d
100
AcDbEntity
8
F-F
6
CONTINUOUS
62
2
100
AcDbLine
10
1009.740000000000
20
82.890000000000
30
0.0
11
1009.740000000000
21
23.630000000000
31
0.0
0
LINE
5
41e
100
AcDbEntity
8
F-F
6
CONTINUOUS
62
2
100
AcDbLine
10
806.890000000000
20
63.140000000000
30
0.0
11
369.760000000000
21
63.140000000000
31
0.0
0
LINE
5
41f
100
AcDbEntity
8
F-F
6
CONTINUOUS
62
2
100
AcDbLine
10
806.890000000000
20
43.390000000000
30
0.0
11
369.760000000000
21
43.390000000000
31
0.0
0
LINE
5
420
100
AcDbEntity
8
F-F
6
CONTINUOUS
62
2
100
AcDbLine
10
806.890000000000
20
33.510000000000
30
0.0
11
369.760000000000
21
33.510000000000
31
0.0
0
LINE
5
421
100
AcDbEntity
8
F-F
6
CONTINUOUS
62
2
100
AcDbLine
10
806.890000000000
20
73.020000000000
30
0.0
11
369.760000000000
21
73.020000000000
31
0.0
0
LINE
5
422
100
AcDbEntity
8
F-F
6
CONTINUOUS
62
2
100
AcDbLine
10
422.420000000000
20
82.890000000000
30
0.0
11
422.420000000000
21
23.630000000000
31
0.0
0
LINE
5
423
100
AcDbEntity
8
F-F
6
CONTINUOUS
62
2
100
AcDbLine
10
369.760000000000
20
82.890000000000
30
0.0
11
369.760000000000
21
23.630000000000
31
0.0
0
LINE
5
424
100
AcDbEntity
8
F-F
6
CONTINUOUS
62
2
100
AcDbLine
10
1631.650000000000
20
23.630000000000
30
0.0
11
1631.650000000000
21
1143.640000000000
31
0.0
0
LINE
5
425
100
AcDbEntity
8
F-F
6
CONTINUOUS
62
2
100
AcDbLine
10
54.760000000000
20
1143.640000000000
30
0.0
11
1631.650000000000
21
1143.640000000000
31
0.0
0
LINE
5
426
100
AcDbEntity
8
F-F
6
CONTINUOUS
62
2
100
AcDbLine
10
54.760000000000
20
23.630000000000
30
0.0
11
1631.650000000000
21
23.630000000000
31
0.0
0
LINE
5
427
100
AcDbEntity
8
F-F
6
CONTINUOUS
62
2
100
AcDbLine
10
1631.650000000000
20
82.890000000000
30
0.0
11
54.760000000000
21
82.890000000000
31
0.0
0
LINE
5
428
100
AcDbEntity
8
F-F
6
CONTINUOUS
62
2
100
AcDbLine
10
369.760000000000
20
53.260000000000
30
0.0
11
1631.650000000000
21
53.260000000000
31
0.0
0
POLYLINE
5
429
100
AcDbEntity
8
F-F
6
CONTINUOUS
62
  3
100
AcDb2dPolyline
66
1
10
0.0
20
0.0
30
0.0
70
0
0
VERTEX
5
42a
100
AcDbEntity
8
F-F
6
CONTINUOUS
62
  3
100
AcDbVertex
100
AcDb2dVertex
10
80.840000000000
20
58.090000000000
30
0.0
0
VERTEX
5
42b
100
AcDbEntity
8
F-F
6
CONTINUOUS
62
  3
100
AcDbVertex
100
AcDb2dVertex
10
80.840000000000
20
74.090000000000
30
0.0
0
VERTEX
5
42c
100
AcDbEntity
8
F-F
6
CONTINUOUS
62
  3
100
AcDbVertex
100
AcDb2dVertex
10
96.840000000000
20
74.090000000000
30
0.0
0
VERTEX
5
42d
100
AcDbEntity
8
F-F
6
CONTINUOUS
62
  3
100
AcDbVertex
100
AcDb2dVertex
10
96.840000000000
20
58.090000000000
30
0.0
0
VERTEX
5
42e
100
AcDbEntity
8
F-F
6
CONTINUOUS
62
  3
100
AcDbVertex
100
AcDb2dVertex
10
80.840000000000
20
58.090000000000
30
0.0
0
SEQEND
5
42f
100
AcDbEntity
8
F-F
0
LINE
5
430
100
AcDbEntity
8
F-F
6
CONTINUOUS
62
3
100
AcDbLine
10
82.440000000000
20
60.260000000000
30
0.0
11
82.440000000000
21
72.490000000000
31
0.0
0
LINE
5
431
100
AcDbEntity
8
F-F
6
CONTINUOUS
62
3
100
AcDbLine
10
95.240000000000
20
59.690000000000
30
0.0
11
83.000000000000
21
59.690000000000
31
0.0
0
POLYLINE
5
432
100
AcDbEntity
8
F-F
6
CONTINUOUS
62
  3
100
AcDb2dPolyline
66
1
10
0.0
20
0.0
30
0.0
70
0
0
VERTEX
5
433
100
AcDbEntity
8
F-F
6
CONTINUOUS
62
  3
100
AcDbVertex
100
AcDb2dVertex
10
82.440000000000
20
72.490000000000
30
0.0
0
VERTEX
5
434
100
AcDbEntity
8
F-F
6
CONTINUOUS
62
  3
100
AcDbVertex
100
AcDb2dVertex
10
94.670000000000
20
72.490000000000
30
0.0
0
VERTEX
5
435
100
AcDbEntity
8
F-F
6
CONTINUOUS
62
  3
100
AcDbVertex
100
AcDb2dVertex
10
82.440000000000
20
60.260000000000
30
0.0
0
SEQEND
5
436
100
AcDbEntity
8
F-F
0
LINE
5
437
100
AcDbEntity
8
F-F
6
CONTINUOUS
62
3
100
AcDbLine
10
95.240000000000
20
71.930000000000
30
0.0
11
83.000000000000
21
59.690000000000
31
0.0
0
LINE
5
438
100
AcDbEntity
8
F-F
6
CONTINUOUS
62
3
100
AcDbLine
10
95.240000000000
20
71.930000000000
30
0.0
11
95.240000000000
21
59.690000000000
31
0.0
0
LINE
5
439
100
AcDbEntity
8
F-F
6
CONTINUOUS
62
4
100
AcDbLine
10
80.840000000000
20
73.930000000000
30
0.0
11
96.840000000000
21
73.930000000000
31
0.0
0
LINE
5
43a
100
AcDbEntity
8
F-F
6
CONTINUOUS
62
4
100
AcDbLine
10
80.840000000000
20
73.610000000000
30
0.0
11
96.840000000000
21
73.610000000000
31
0.0
0
LINE
5
43b
100
AcDbEntity
8
F-F
6
CONTINUOUS
62
4
100
AcDbLine
10
80.840000000000
20
73.290000000000
30
0.0
11
96.840000000000
21
73.290000000000
31
0.0
0
LINE
5
43c
100
AcDbEntity
8
F-F
6
CONTINUOUS
62
4
100
AcDbLine
10
80.840000000000
20
72.970000000000
30
0.0
11
96.840000000000
21
72.970000000000
31
0.0
0
LINE
5
43d
100
AcDbEntity
8
F-F
6
CONTINUOUS
62
4
100
AcDbLine
10
80.840000000000
20
72.650000000000
30
0.0
11
96.840000000000
21
72.650000000000
31
0.0
0
LINE
5
43e
100
AcDbEntity
8
F-F
6
CONTINUOUS
62
4
100
AcDbLine
10
80.840000000000
20
59.530000000000
30
0.0
11
96.840000000000
21
59.530000000000
31
0.0
0
LINE
5
43f
100
AcDbEntity
8
F-F
6
CONTINUOUS
62
4
100
AcDbLine
10
80.840000000000
20
59.210000000000
30
0.0
11
96.840000000000
21
59.210000000000
31
0.0
0
LINE
5
440
100
AcDbEntity
8
F-F
6
CONTINUOUS
62
4
100
AcDbLine
10
80.840000000000
20
58.890000000000
30
0.0
11
96.840000000000
21
58.890000000000
31
0.0
0
LINE
5
441
100
AcDbEntity
8
F-F
6
CONTINUOUS
62
4
100
AcDbLine
10
80.840000000000
20
58.570000000000
30
0.0
11
96.840000000000
21
58.570000000000
31
0.0
0
LINE
5
442
100
AcDbEntity
8
F-F
6
CONTINUOUS
62
4
100
AcDbLine
10
80.840000000000
20
58.250000000000
30
0.0
11
96.840000000000
21
58.250000000000
31
0.0
0
LINE
5
443
100
AcDbEntity
8
F-F
6
CONTINUOUS
62
4
100
AcDbLine
10
80.840000000000
20
60.490000000000
30
0.0
11
82.440000000000
21
60.490000000000
31
0.0
0
LINE
5
444
100
AcDbEntity
8
F-F
6
CONTINUOUS
62
4
100
AcDbLine
10
80.840000000000
20
60.810000000000
30
0.0
11
82.440000000000
21
60.810000000000
31
0.0
0
LINE
5
445
100
AcDbEntity
8
F-F
6
CONTINUOUS
62
4
100
AcDbLine
10
80.840000000000
20
61.130000000000
30
0.0
11
82.440000000000
21
61.130000000000
31
0.0
0
LINE
5
446
100
AcDbEntity
8
F-F
6
CONTINUOUS
62
4
100
AcDbLine
10
80.840000000000
20
61.450000000000
30
0.0
11
82.440000000000
21
61.450000000000
31
0.0
0
LINE
5
447
100
AcDbEntity
8
F-F
6
CONTINUOUS
62
4
100
AcDbLine
10
80.840000000000
20
61.770000000000
30
0.0
11
82.440000000000
21
61.770000000000
31
0.0
0
LINE
5
448
100
AcDbEntity
8
F-F
6
CONTINUOUS
62
4
100
AcDbLine
10
80.840000000000
20
62.090000000000
30
0.0
11
82.440000000000
21
62.090000000000
31
0.0
0
LINE
5
449
100
AcDbEntity
8
F-F
6
CONTINUOUS
62
4
100
AcDbLine
10
80.840000000000
20
62.410000000000
30
0.0
11
82.440000000000
21
62.410000000000
31
0.0
0
LINE
5
44a
100
AcDbEntity
8
F-F
6
CONTINUOUS
62
4
100
AcDbLine
10
80.840000000000
20
62.730000000000
30
0.0
11
82.440000000000
21
62.730000000000
31
0.0
0
LINE
5
44b
100
AcDbEntity
8
F-F
6
CONTINUOUS
62
4
100
AcDbLine
10
80.840000000000
20
63.050000000000
30
0.0
11
82.440000000000
21
63.050000000000
31
0.0
0
LINE
5
44c
100
AcDbEntity
8
F-F
6
CONTINUOUS
62
4
100
AcDbLine
10
80.840000000000
20
63.370000000000
30
0.0
11
82.440000000000
21
63.370000000000
31
0.0
0
LINE
5
44d
100
AcDbEntity
8
F-F
6
CONTINUOUS
62
4
100
AcDbLine
10
80.840000000000
20
63.690000000000
30
0.0
11
82.440000000000
21
63.690000000000
31
0.0
0
LINE
5
44e
100
AcDbEntity
8
F-F
6
CONTINUOUS
62
4
100
AcDbLine
10
80.840000000000
20
64.010000000000
30
0.0
11
82.440000000000
21
64.010000000000
31
0.0
0
LINE
5
44f
100
AcDbEntity
8
F-F
6
CONTINUOUS
62
4
100
AcDbLine
10
80.840000000000
20
64.330000000000
30
0.0
11
82.440000000000
21
64.330000000000
31
0.0
0
LINE
5
450
100
AcDbEntity
8
F-F
6
CONTINUOUS
62
4
100
AcDbLine
10
80.840000000000
20
64.650000000000
30
0.0
11
82.440000000000
21
64.650000000000
31
0.0
0
LINE
5
451
100
AcDbEntity
8
F-F
6
CONTINUOUS
62
4
100
AcDbLine
10
80.840000000000
20
64.970000000000
30
0.0
11
82.440000000000
21
64.970000000000
31
0.0
0
LINE
5
452
100
AcDbEntity
8
F-F
6
CONTINUOUS
62
4
100
AcDbLine
10
80.840000000000
20
65.290000000000
30
0.0
11
82.440000000000
21
65.290000000000
31
0.0
0
LINE
5
453
100
AcDbEntity
8
F-F
6
CONTINUOUS
62
4
100
AcDbLine
10
80.840000000000
20
65.610000000000
30
0.0
11
82.440000000000
21
65.610000000000
31
0.0
0
LINE
5
454
100
AcDbEntity
8
F-F
6
CONTINUOUS
62
4
100
AcDbLine
10
80.840000000000
20
65.930000000000
30
0.0
11
82.440000000000
21
65.930000000000
31
0.0
0
LINE
5
455
100
AcDbEntity
8
F-F
6
CONTINUOUS
62
4
100
AcDbLine
10
80.840000000000
20
66.250000000000
30
0.0
11
82.440000000000
21
66.250000000000
31
0.0
0
LINE
5
456
100
AcDbEntity
8
F-F
6
CONTINUOUS
62
4
100
AcDbLine
10
80.840000000000
20
66.570000000000
30
0.0
11
82.440000000000
21
66.570000000000
31
0.0
0
LINE
5
457
100
AcDbEntity
8
F-F
6
CONTINUOUS
62
4
100
AcDbLine
10
80.840000000000
20
66.890000000000
30
0.0
11
82.440000000000
21
66.890000000000
31
0.0
0
LINE
5
458
100
AcDbEntity
8
F-F
6
CONTINUOUS
62
4
100
AcDbLine
10
80.840000000000
20
67.210000000000
30
0.0
11
82.440000000000
21
67.210000000000
31
0.0
0
LINE
5
459
100
AcDbEntity
8
F-F
6
CONTINUOUS
62
4
100
AcDbLine
10
80.840000000000
20
67.530000000000
30
0.0
11
82.440000000000
21
67.530000000000
31
0.0
0
LINE
5
45a
100
AcDbEntity
8
F-F
6
CONTINUOUS
62
4
100
AcDbLine
10
80.840000000000
20
67.850000000000
30
0.0
11
82.440000000000
21
67.850000000000
31
0.0
0
LINE
5
45b
100
AcDbEntity
8
F-F
6
CONTINUOUS
62
4
100
AcDbLine
10
80.840000000000
20
68.810000000000
30
0.0
11
82.440000000000
21
68.810000000000
31
0.0
0
LINE
5
45c
100
AcDbEntity
8
F-F
6
CONTINUOUS
62
4
100
AcDbLine
10
80.840000000000
20
69.770000000000
30
0.0
11
82.440000000000
21
69.770000000000
31
0.0
0
LINE
5
45d
100
AcDbEntity
8
F-F
6
CONTINUOUS
62
4
100
AcDbLine
10
80.840000000000
20
70.090000000000
30
0.0
11
82.440000000000
21
70.090000000000
31
0.0
0
LINE
5
45e
100
AcDbEntity
8
F-F
6
CONTINUOUS
62
4
100
AcDbLine
10
80.840000000000
20
70.410000000000
30
0.0
11
82.440000000000
21
70.410000000000
31
0.0
0
LINE
5
45f
100
AcDbEntity
8
F-F
6
CONTINUOUS
62
4
100
AcDbLine
10
80.840000000000
20
70.730000000000
30
0.0
11
82.440000000000
21
70.730000000000
31
0.0
0
LINE
5
460
100
AcDbEntity
8
F-F
6
CONTINUOUS
62
4
100
AcDbLine
10
80.840000000000
20
72.330000000000
30
0.0
11
82.440000000000
21
72.330000000000
31
0.0
0
LINE
5
461
100
AcDbEntity
8
F-F
6
CONTINUOUS
62
4
100
AcDbLine
10
80.840000000000
20
72.010000000000
30
0.0
11
82.440000000000
21
72.010000000000
31
0.0
0
LINE
5
462
100
AcDbEntity
8
F-F
6
CONTINUOUS
62
4
100
AcDbLine
10
80.840000000000
20
71.690000000000
30
0.0
11
82.440000000000
21
71.690000000000
31
0.0
0
LINE
5
463
100
AcDbEntity
8
F-F
6
CONTINUOUS
62
4
100
AcDbLine
10
80.840000000000
20
71.370000000000
30
0.0
11
82.440000000000
21
71.370000000000
31
0.0
0
LINE
5
464
100
AcDbEntity
8
F-F
6
CONTINUOUS
62
4
100
AcDbLine
10
80.840000000000
20
71.050000000000
30
0.0
11
82.440000000000
21
71.050000000000
31
0.0
0
LINE
5
465
100
AcDbEntity
8
F-F
6
CONTINUOUS
62
4
100
AcDbLine
10
80.840000000000
20
69.130000000000
30
0.0
11
82.440000000000
21
69.130000000000
31
0.0
0
LINE
5
466
100
AcDbEntity
8
F-F
6
CONTINUOUS
62
4
100
AcDbLine
10
80.840000000000
20
69.450000000000
30
0.0
11
82.440000000000
21
69.450000000000
31
0.0
0
LINE
5
467
100
AcDbEntity
8
F-F
6
CONTINUOUS
62
4
100
AcDbLine
10
80.840000000000
20
68.490000000000
30
0.0
11
82.440000000000
21
68.490000000000
31
0.0
0
LINE
5
468
100
AcDbEntity
8
F-F
6
CONTINUOUS
62
4
100
AcDbLine
10
80.840000000000
20
68.170000000000
30
0.0
11
82.440000000000
21
68.170000000000
31
0.0
0
LINE
5
469
100
AcDbEntity
8
F-F
6
CONTINUOUS
62
4
100
AcDbLine
10
82.990000000000
20
60.810000000000
30
0.0
11
84.120000000000
21
60.810000000000
31
0.0
0
LINE
5
46a
100
AcDbEntity
8
F-F
6
CONTINUOUS
62
4
100
AcDbLine
10
82.670000000000
20
60.490000000000
30
0.0
11
83.800000000000
21
60.490000000000
31
0.0
0
LINE
5
46b
100
AcDbEntity
8
F-F
6
CONTINUOUS
62
4
100
AcDbLine
10
80.840000000000
20
60.170000000000
30
0.0
11
83.480000000000
21
60.170000000000
31
0.0
0
LINE
5
46c
100
AcDbEntity
8
F-F
6
CONTINUOUS
62
4
100
AcDbLine
10
80.840000000000
20
59.850000000000
30
0.0
11
83.160000000000
21
59.850000000000
31
0.0
0
LINE
5
46d
100
AcDbEntity
8
F-F
6
CONTINUOUS
62
4
100
AcDbLine
10
84.910000000000
20
62.730000000000
30
0.0
11
86.040000000000
21
62.730000000000
31
0.0
0
LINE
5
46e
100
AcDbEntity
8
F-F
6
CONTINUOUS
62
4
100
AcDbLine
10
84.590000000000
20
62.410000000000
30
0.0
11
85.720000000000
21
62.410000000000
31
0.0
0
LINE
5
46f
100
AcDbEntity
8
F-F
6
CONTINUOUS
62
4
100
AcDbLine
10
84.270000000000
20
62.090000000000
30
0.0
11
85.400000000000
21
62.090000000000
31
0.0
0
LINE
5
470
100
AcDbEntity
8
F-F
6
CONTINUOUS
62
4
100
AcDbLine
10
83.950000000000
20
61.770000000000
30
0.0
11
85.080000000000
21
61.770000000000
31
0.0
0
LINE
5
471
100
AcDbEntity
8
F-F
6
CONTINUOUS
62
4
100
AcDbLine
10
83.630000000000
20
61.450000000000
30
0.0
11
84.760000000000
21
61.450000000000
31
0.0
0
LINE
5
472
100
AcDbEntity
8
F-F
6
CONTINUOUS
62
4
100
AcDbLine
10
83.310000000000
20
61.130000000000
30
0.0
11
84.440000000000
21
61.130000000000
31
0.0
0
LINE
5
473
100
AcDbEntity
8
F-F
6
CONTINUOUS
62
4
100
AcDbLine
10
82.440000000000
20
72.490000000000
30
0.0
11
82.440000000000
21
72.810000000000
31
0.0
0
LINE
5
474
100
AcDbEntity
8
F-F
6
CONTINUOUS
62
4
100
AcDbLine
10
95.240000000000
20
60.490000000000
30
0.0
11
96.840000000000
21
60.490000000000
31
0.0
0
LINE
5
475
100
AcDbEntity
8
F-F
6
CONTINUOUS
62
4
100
AcDbLine
10
95.240000000000
20
60.810000000000
30
0.0
11
96.840000000000
21
60.810000000000
31
0.0
0
LINE
5
476
100
AcDbEntity
8
F-F
6
CONTINUOUS
62
4
100
AcDbLine
10
95.240000000000
20
61.130000000000
30
0.0
11
96.840000000000
21
61.130000000000
31
0.0
0
LINE
5
477
100
AcDbEntity
8
F-F
6
CONTINUOUS
62
4
100
AcDbLine
10
95.240000000000
20
61.450000000000
30
0.0
11
96.840000000000
21
61.450000000000
31
0.0
0
LINE
5
478
100
AcDbEntity
8
F-F
6
CONTINUOUS
62
4
100
AcDbLine
10
95.240000000000
20
61.770000000000
30
0.0
11
96.840000000000
21
61.770000000000
31
0.0
0
LINE
5
479
100
AcDbEntity
8
F-F
6
CONTINUOUS
62
4
100
AcDbLine
10
95.240000000000
20
62.090000000000
30
0.0
11
96.840000000000
21
62.090000000000
31
0.0
0
LINE
5
47a
100
AcDbEntity
8
F-F
6
CONTINUOUS
62
4
100
AcDbLine
10
95.240000000000
20
62.410000000000
30
0.0
11
96.840000000000
21
62.410000000000
31
0.0
0
LINE
5
47b
100
AcDbEntity
8
F-F
6
CONTINUOUS
62
4
100
AcDbLine
10
95.240000000000
20
62.730000000000
30
0.0
11
96.840000000000
21
62.730000000000
31
0.0
0
LINE
5
47c
100
AcDbEntity
8
F-F
6
CONTINUOUS
62
4
100
AcDbLine
10
95.240000000000
20
63.050000000000
30
0.0
11
96.840000000000
21
63.050000000000
31
0.0
0
LINE
5
47d
100
AcDbEntity
8
F-F
6
CONTINUOUS
62
4
100
AcDbLine
10
95.240000000000
20
63.370000000000
30
0.0
11
96.840000000000
21
63.370000000000
31
0.0
0
LINE
5
47e
100
AcDbEntity
8
F-F
6
CONTINUOUS
62
4
100
AcDbLine
10
95.240000000000
20
63.690000000000
30
0.0
11
96.840000000000
21
63.690000000000
31
0.0
0
LINE
5
47f
100
AcDbEntity
8
F-F
6
CONTINUOUS
62
4
100
AcDbLine
10
95.240000000000
20
64.010000000000
30
0.0
11
96.840000000000
21
64.010000000000
31
0.0
0
LINE
5
480
100
AcDbEntity
8
F-F
6
CONTINUOUS
62
4
100
AcDbLine
10
95.240000000000
20
64.330000000000
30
0.0
11
96.840000000000
21
64.330000000000
31
0.0
0
LINE
5
481
100
AcDbEntity
8
F-F
6
CONTINUOUS
62
4
100
AcDbLine
10
95.240000000000
20
64.970000000000
30
0.0
11
96.840000000000
21
64.970000000000
31
0.0
0
LINE
5
482
100
AcDbEntity
8
F-F
6
CONTINUOUS
62
4
100
AcDbLine
10
95.240000000000
20
65.290000000000
30
0.0
11
96.840000000000
21
65.290000000000
31
0.0
0
LINE
5
483
100
AcDbEntity
8
F-F
6
CONTINUOUS
62
4
100
AcDbLine
10
95.240000000000
20
65.610000000000
30
0.0
11
96.840000000000
21
65.610000000000
31
0.0
0
LINE
5
484
100
AcDbEntity
8
F-F
6
CONTINUOUS
62
4
100
AcDbLine
10
95.240000000000
20
65.930000000000
30
0.0
11
96.840000000000
21
65.930000000000
31
0.0
0
LINE
5
485
100
AcDbEntity
8
F-F
6
CONTINUOUS
62
4
100
AcDbLine
10
95.240000000000
20
66.250000000000
30
0.0
11
96.840000000000
21
66.250000000000
31
0.0
0
LINE
5
486
100
AcDbEntity
8
F-F
6
CONTINUOUS
62
4
100
AcDbLine
10
95.240000000000
20
66.570000000000
30
0.0
11
96.840000000000
21
66.570000000000
31
0.0
0
LINE
5
487
100
AcDbEntity
8
F-F
6
CONTINUOUS
62
4
100
AcDbLine
10
95.240000000000
20
66.890000000000
30
0.0
11
96.840000000000
21
66.890000000000
31
0.0
0
LINE
5
488
100
AcDbEntity
8
F-F
6
CONTINUOUS
62
4
100
AcDbLine
10
95.240000000000
20
67.210000000000
30
0.0
11
96.840000000000
21
67.210000000000
31
0.0
0
LINE
5
489
100
AcDbEntity
8
F-F
6
CONTINUOUS
62
4
100
AcDbLine
10
95.240000000000
20
67.530000000000
30
0.0
11
96.840000000000
21
67.530000000000
31
0.0
0
LINE
5
48a
100
AcDbEntity
8
F-F
6
CONTINUOUS
62
4
100
AcDbLine
10
95.240000000000
20
67.850000000000
30
0.0
11
96.840000000000
21
67.850000000000
31
0.0
0
LINE
5
48b
100
AcDbEntity
8
F-F
6
CONTINUOUS
62
4
100
AcDbLine
10
95.240000000000
20
68.810000000000
30
0.0
11
96.840000000000
21
68.810000000000
31
0.0
0
LINE
5
48c
100
AcDbEntity
8
F-F
6
CONTINUOUS
62
4
100
AcDbLine
10
95.240000000000
20
69.770000000000
30
0.0
11
96.840000000000
21
69.770000000000
31
0.0
0
LINE
5
48d
100
AcDbEntity
8
F-F
6
CONTINUOUS
62
4
100
AcDbLine
10
95.240000000000
20
70.090000000000
30
0.0
11
96.840000000000
21
70.090000000000
31
0.0
0
LINE
5
48e
100
AcDbEntity
8
F-F
6
CONTINUOUS
62
4
100
AcDbLine
10
95.240000000000
20
70.410000000000
30
0.0
11
96.840000000000
21
70.410000000000
31
0.0
0
LINE
5
48f
100
AcDbEntity
8
F-F
6
CONTINUOUS
62
4
100
AcDbLine
10
95.240000000000
20
70.730000000000
30
0.0
11
96.840000000000
21
70.730000000000
31
0.0
0
LINE
5
490
100
AcDbEntity
8
F-F
6
CONTINUOUS
62
4
100
AcDbLine
10
95.240000000000
20
71.690000000000
30
0.0
11
96.840000000000
21
71.690000000000
31
0.0
0
LINE
5
491
100
AcDbEntity
8
F-F
6
CONTINUOUS
62
4
100
AcDbLine
10
95.240000000000
20
71.370000000000
30
0.0
11
96.840000000000
21
71.370000000000
31
0.0
0
LINE
5
492
100
AcDbEntity
8
F-F
6
CONTINUOUS
62
4
100
AcDbLine
10
95.240000000000
20
71.050000000000
30
0.0
11
96.840000000000
21
71.050000000000
31
0.0
0
LINE
5
493
100
AcDbEntity
8
F-F
6
CONTINUOUS
62
4
100
AcDbLine
10
95.240000000000
20
69.130000000000
30
0.0
11
96.840000000000
21
69.130000000000
31
0.0
0
LINE
5
494
100
AcDbEntity
8
F-F
6
CONTINUOUS
62
4
100
AcDbLine
10
95.240000000000
20
69.450000000000
30
0.0
11
96.840000000000
21
69.450000000000
31
0.0
0
LINE
5
495
100
AcDbEntity
8
F-F
6
CONTINUOUS
62
4
100
AcDbLine
10
95.240000000000
20
68.490000000000
30
0.0
11
96.840000000000
21
68.490000000000
31
0.0
0
LINE
5
496
100
AcDbEntity
8
F-F
6
CONTINUOUS
62
4
100
AcDbLine
10
95.240000000000
20
68.170000000000
30
0.0
11
96.840000000000
21
68.170000000000
31
0.0
0
LINE
5
497
100
AcDbEntity
8
F-F
6
CONTINUOUS
62
4
100
AcDbLine
10
95.240000000000
20
59.850000000000
30
0.0
11
96.840000000000
21
59.850000000000
31
0.0
0
LINE
5
498
100
AcDbEntity
8
F-F
6
CONTINUOUS
62
4
100
AcDbLine
10
95.240000000000
20
60.170000000000
30
0.0
11
96.840000000000
21
60.170000000000
31
0.0
0
LINE
5
499
100
AcDbEntity
8
F-F
6
CONTINUOUS
62
4
100
AcDbLine
10
94.510000000000
20
72.330000000000
30
0.0
11
96.840000000000
21
72.330000000000
31
0.0
0
LINE
5
49a
100
AcDbEntity
8
F-F
6
CONTINUOUS
62
4
100
AcDbLine
10
94.190000000000
20
72.010000000000
30
0.0
11
96.840000000000
21
72.010000000000
31
0.0
0
LINE
5
49b
100
AcDbEntity
8
F-F
6
CONTINUOUS
62
4
100
AcDbLine
10
86.190000000000
20
64.010000000000
30
0.0
11
87.320000000000
21
64.010000000000
31
0.0
0
LINE
5
49c
100
AcDbEntity
8
F-F
6
CONTINUOUS
62
4
100
AcDbLine
10
85.870000000000
20
63.690000000000
30
0.0
11
87.000000000000
21
63.690000000000
31
0.0
0
LINE
5
49d
100
AcDbEntity
8
F-F
6
CONTINUOUS
62
4
100
AcDbLine
10
85.550000000000
20
63.370000000000
30
0.0
11
86.680000000000
21
63.370000000000
31
0.0
0
LINE
5
49e
100
AcDbEntity
8
F-F
6
CONTINUOUS
62
4
100
AcDbLine
10
85.230000000000
20
63.050000000000
30
0.0
11
86.360000000000
21
63.050000000000
31
0.0
0
LINE
5
49f
100
AcDbEntity
8
F-F
6
CONTINUOUS
62
4
100
AcDbLine
10
87.470000000000
20
65.290000000000
30
0.0
11
88.600000000000
21
65.290000000000
31
0.0
0
LINE
5
4a0
100
AcDbEntity
8
F-F
6
CONTINUOUS
62
4
100
AcDbLine
10
87.150000000000
20
64.970000000000
30
0.0
11
88.280000000000
21
64.970000000000
31
0.0
0
LINE
5
4a1
100
AcDbEntity
8
F-F
6
CONTINUOUS
62
4
100
AcDbLine
10
86.830000000000
20
64.650000000000
30
0.0
11
87.960000000000
21
64.650000000000
31
0.0
0
LINE
5
4a2
100
AcDbEntity
8
F-F
6
CONTINUOUS
62
4
100
AcDbLine
10
86.510000000000
20
64.330000000000
30
0.0
11
87.640000000000
21
64.330000000000
31
0.0
0
LINE
5
4a3
100
AcDbEntity
8
F-F
6
CONTINUOUS
62
4
100
AcDbLine
10
88.750000000000
20
66.570000000000
30
0.0
11
89.880000000000
21
66.570000000000
31
0.0
0
LINE
5
4a4
100
AcDbEntity
8
F-F
6
CONTINUOUS
62
4
100
AcDbLine
10
88.430000000000
20
66.250000000000
30
0.0
11
89.560000000000
21
66.250000000000
31
0.0
0
LINE
5
4a5
100
AcDbEntity
8
F-F
6
CONTINUOUS
62
4
100
AcDbLine
10
88.110000000000
20
65.930000000000
30
0.0
11
89.240000000000
21
65.930000000000
31
0.0
0
LINE
5
4a6
100
AcDbEntity
8
F-F
6
CONTINUOUS
62
4
100
AcDbLine
10
87.790000000000
20
65.610000000000
30
0.0
11
88.920000000000
21
65.610000000000
31
0.0
0
LINE
5
4a7
100
AcDbEntity
8
F-F
6
CONTINUOUS
62
4
100
AcDbLine
10
90.030000000000
20
67.850000000000
30
0.0
11
91.160000000000
21
67.850000000000
31
0.0
0
LINE
5
4a8
100
AcDbEntity
8
F-F
6
CONTINUOUS
62
4
100
AcDbLine
10
89.710000000000
20
67.530000000000
30
0.0
11
90.840000000000
21
67.530000000000
31
0.0
0
LINE
5
4a9
100
AcDbEntity
8
F-F
6
CONTINUOUS
62
4
100
AcDbLine
10
89.390000000000
20
67.210000000000
30
0.0
11
90.520000000000
21
67.210000000000
31
0.0
0
LINE
5
4aa
100
AcDbEntity
8
F-F
6
CONTINUOUS
62
4
100
AcDbLine
10
89.070000000000
20
66.890000000000
30
0.0
11
90.200000000000
21
66.890000000000
31
0.0
0
LINE
5
4ab
100
AcDbEntity
8
F-F
6
CONTINUOUS
62
4
100
AcDbLine
10
91.310000000000
20
69.130000000000
30
0.0
11
92.440000000000
21
69.130000000000
31
0.0
0
LINE
5
4ac
100
AcDbEntity
8
F-F
6
CONTINUOUS
62
4
100
AcDbLine
10
90.990000000000
20
68.810000000000
30
0.0
11
92.120000000000
21
68.810000000000
31
0.0
0
LINE
5
4ad
100
AcDbEntity
8
F-F
6
CONTINUOUS
62
4
100
AcDbLine
10
90.670000000000
20
68.490000000000
30
0.0
11
91.800000000000
21
68.490000000000
31
0.0
0
LINE
5
4ae
100
AcDbEntity
8
F-F
6
CONTINUOUS
62
4
100
AcDbLine
10
90.350000000000
20
68.170000000000
30
0.0
11
91.480000000000
21
68.170000000000
31
0.0
0
LINE
5
4af
100
AcDbEntity
8
F-F
6
CONTINUOUS
62
4
100
AcDbLine
10
92.590000000000
20
70.410000000000
30
0.0
11
93.720000000000
21
70.410000000000
31
0.0
0
LINE
5
4b0
100
AcDbEntity
8
F-F
6
CONTINUOUS
62
4
100
AcDbLine
10
92.270000000000
20
70.090000000000
30
0.0
11
93.400000000000
21
70.090000000000
31
0.0
0
LINE
5
4b1
100
AcDbEntity
8
F-F
6
CONTINUOUS
62
4
100
AcDbLine
10
91.950000000000
20
69.770000000000
30
0.0
11
93.080000000000
21
69.770000000000
31
0.0
0
LINE
5
4b2
100
AcDbEntity
8
F-F
6
CONTINUOUS
62
4
100
AcDbLine
10
91.630000000000
20
69.450000000000
30
0.0
11
92.760000000000
21
69.450000000000
31
0.0
0
LINE
5
4b3
100
AcDbEntity
8
F-F
6
CONTINUOUS
62
4
100
AcDbLine
10
93.870000000000
20
71.690000000000
30
0.0
11
95.000000000000
21
71.690000000000
31
0.0
0
LINE
5
4b4
100
AcDbEntity
8
F-F
6
CONTINUOUS
62
4
100
AcDbLine
10
93.550000000000
20
71.370000000000
30
0.0
11
94.680000000000
21
71.370000000000
31
0.0
0
LINE
5
4b5
100
AcDbEntity
8
F-F
6
CONTINUOUS
62
4
100
AcDbLine
10
93.230000000000
20
71.050000000000
30
0.0
11
94.360000000000
21
71.050000000000
31
0.0
0
LINE
5
4b6
100
AcDbEntity
8
F-F
6
CONTINUOUS
62
4
100
AcDbLine
10
92.910000000000
20
70.730000000000
30
0.0
11
94.040000000000
21
70.730000000000
31
0.0
0
LINE
5
4b7
100
AcDbEntity
8
F-F
6
CONTINUOUS
62
4
100
AcDbLine
10
95.240000000000
20
64.650000000000
30
0.0
11
96.840000000000
21
64.650000000000
31
0.0
0
LINE
5
4b8
100
AcDbEntity
8
F-F
6
CONTINUOUS
62
3
100
AcDbLine
10
54.760000000000
20
613.270000000000
30
0.0
11
1631.650000000000
21
613.270000000000
31
0.0
0
LINE
5
4b9
100
AcDbEntity
8
0-0
6
CONTINUOUS
62
7
100
AcDbLine
10
416.630000000000
20
839.610000000000
30
0.0
11
416.630000000000
21
854.610000000000
31
0.0
0
LINE
5
4ba
100
AcDbEntity
8
0-0
6
CONTINUOUS
62
7
100
AcDbLine
10
459.130000000000
20
856.190000000000
30
0.0
11
459.130000000000
21
827.450000000000
31
0.0
0
LINE
5
4bb
100
AcDbEntity
8
0-0
6
CONTINUOUS
62
7
100
AcDbLine
10
459.130000000000
20
874.610000000000
30
0.0
11
459.130000000000
21
869.380000000000
31
0.0
0
LINE
5
4bc
100
AcDbEntity
8
0-0
6
CONTINUOUS
62
7
100
AcDbLine
10
599.130000000000
20
874.610000000000
30
0.0
11
599.130000000000
21
827.450000000000
31
0.0
0
LINE
5
4bd
100
AcDbEntity
8
0-0
6
CONTINUOUS
62
7
100
AcDbLine
10
431.630000000000
20
794.110000000000
30
0.0
11
431.630000000000
21
779.110000000000
31
0.0
0
LINE
5
4be
100
AcDbEntity
8
0-0
6
CONTINUOUS
62
7
100
AcDbLine
10
656.940000000000
20
804.610000000000
30
0.0
11
682.580000000000
21
804.610000000000
31
0.0
0
LINE
5
4bf
100
AcDbEntity
8
0-0
6
CONTINUOUS
62
3
100
AcDbLine
10
431.340000000000
20
805.090000000000
30
0.0
11
417.070000000000
21
828.880000000000
31
0.0
0
LINE
5
4c0
100
AcDbEntity
8
0-0
6
CONTINUOUS
62
3
100
AcDbLine
10
432.200000000000
20
804.610000000000
30
0.0
11
459.130000000000
21
804.610000000000
31
0.0
0
LINE
5
4c1
100
AcDbEntity
8
0-0
6
CONTINUOUS
62
3
100
AcDbLine
10
432.200000000000
20
804.110000000000
30
0.0
11
459.130000000000
21
804.110000000000
31
0.0
0
LINE
5
4c2
100
AcDbEntity
8
0-0
6
CONTINUOUS
62
3
100
AcDbLine
10
416.640000000000
20
828.620000000000
30
0.0
11
430.910000000000
21
804.840000000000
31
0.0
0
LINE
5
4c3
100
AcDbEntity
8
0-0
6
CONTINUOUS
62
3
100
AcDbLine
10
389.130000000000
20
829.610000000000
30
0.0
11
415.780000000000
21
829.610000000000
31
0.0
0
LINE
5
4c4
100
AcDbEntity
8
0-0
6
CONTINUOUS
62
3
100
AcDbLine
10
415.780000000000
20
829.110000000000
30
0.0
11
389.130000000000
21
829.110000000000
31
0.0
0
LINE
5
4c5
100
AcDbEntity
8
0-0
6
CONTINUOUS
62
7
100
AcDbLine
10
501.630000000000
20
839.610000000000
30
0.0
11
501.630000000000
21
854.610000000000
31
0.0
0
LINE
5
4c6
100
AcDbEntity
8
0-0
6
CONTINUOUS
62
3
100
AcDbLine
10
486.920000000000
20
805.090000000000
30
0.0
11
501.190000000000
21
828.880000000000
31
0.0
0
LINE
5
4c7
100
AcDbEntity
8
0-0
6
CONTINUOUS
62
3
100
AcDbLine
10
486.060000000000
20
804.610000000000
30
0.0
11
459.130000000000
21
804.610000000000
31
0.0
0
LINE
5
4c8
100
AcDbEntity
8
0-0
6
CONTINUOUS
62
3
100
AcDbLine
10
486.060000000000
20
804.110000000000
30
0.0
11
459.130000000000
21
804.110000000000
31
0.0
0
LINE
5
4c9
100
AcDbEntity
8
0-0
6
CONTINUOUS
62
3
100
AcDbLine
10
501.620000000000
20
828.620000000000
30
0.0
11
487.350000000000
21
804.840000000000
31
0.0
0
LINE
5
4ca
100
AcDbEntity
8
0-0
6
CONTINUOUS
62
7
100
AcDbLine
10
486.630000000000
20
794.110000000000
30
0.0
11
486.630000000000
21
779.110000000000
31
0.0
0
LINE
5
4cb
100
AcDbEntity
8
0-0
6
CONTINUOUS
62
7
100
AcDbLine
10
431.630000000000
20
779.110000000000
30
0.0
11
486.630000000000
21
779.110000000000
31
0.0
0
LINE
5
4cc
100
AcDbEntity
8
0-0
6
CONTINUOUS
62
7
100
AcDbLine
10
556.630000000000
20
839.610000000000
30
0.0
11
556.630000000000
21
854.610000000000
31
0.0
0
LINE
5
4cd
100
AcDbEntity
8
0-0
6
CONTINUOUS
62
7
100
AcDbLine
10
416.630000000000
20
854.610000000000
30
0.0
11
501.630000000000
21
854.610000000000
31
0.0
0
LINE
5
4ce
100
AcDbEntity
8
0-0
6
CONTINUOUS
62
7
100
AcDbLine
10
556.630000000000
20
854.610000000000
30
0.0
11
501.630000000000
21
854.610000000000
31
0.0
0
LINE
5
4cf
100
AcDbEntity
8
0-0
6
CONTINUOUS
62
7
100
AcDbLine
10
571.630000000000
20
794.110000000000
30
0.0
11
571.630000000000
21
779.110000000000
31
0.0
0
LINE
5
4d0
100
AcDbEntity
8
0-0
6
CONTINUOUS
62
7
100
AcDbLine
10
486.630000000000
20
779.110000000000
30
0.0
11
571.630000000000
21
779.110000000000
31
0.0
0
LINE
5
4d1
100
AcDbEntity
8
0-0
6
CONTINUOUS
62
3
100
AcDbLine
10
626.920000000000
20
805.090000000000
30
0.0
11
641.190000000000
21
828.880000000000
31
0.0
0
LINE
5
4d2
100
AcDbEntity
8
0-0
6
CONTINUOUS
62
3
100
AcDbLine
10
626.060000000000
20
804.610000000000
30
0.0
11
599.130000000000
21
804.610000000000
31
0.0
0
LINE
5
4d3
100
AcDbEntity
8
0-0
6
CONTINUOUS
62
3
100
AcDbLine
10
626.060000000000
20
804.110000000000
30
0.0
11
599.130000000000
21
804.110000000000
31
0.0
0
LINE
5
4d4
100
AcDbEntity
8
0-0
6
CONTINUOUS
62
3
100
AcDbLine
10
641.620000000000
20
828.620000000000
30
0.0
11
627.350000000000
21
804.840000000000
31
0.0
0
LINE
5
4d5
100
AcDbEntity
8
0-0
6
CONTINUOUS
62
3
100
AcDbLine
10
669.130000000000
20
829.610000000000
30
0.0
11
642.480000000000
21
829.610000000000
31
0.0
0
LINE
5
4d6
100
AcDbEntity
8
0-0
6
CONTINUOUS
62
3
100
AcDbLine
10
642.480000000000
20
829.110000000000
30
0.0
11
669.130000000000
21
829.110000000000
31
0.0
0
LINE
5
4d7
100
AcDbEntity
8
0-0
6
CONTINUOUS
62
3
100
AcDbLine
10
571.340000000000
20
805.090000000000
30
0.0
11
557.070000000000
21
828.880000000000
31
0.0
0
LINE
5
4d8
100
AcDbEntity
8
0-0
6
CONTINUOUS
62
3
100
AcDbLine
10
572.200000000000
20
804.610000000000
30
0.0
11
599.130000000000
21
804.610000000000
31
0.0
0
LINE
5
4d9
100
AcDbEntity
8
0-0
6
CONTINUOUS
62
3
100
AcDbLine
10
572.200000000000
20
804.110000000000
30
0.0
11
599.130000000000
21
804.110000000000
31
0.0
0
LINE
5
4da
100
AcDbEntity
8
0-0
6
CONTINUOUS
62
3
100
AcDbLine
10
556.640000000000
20
828.620000000000
30
0.0
11
570.910000000000
21
804.840000000000
31
0.0
0
LINE
5
4db
100
AcDbEntity
8
0-0
6
CONTINUOUS
62
3
100
AcDbLine
10
346.920000000000
20
805.090000000000
30
0.0
11
361.190000000000
21
828.880000000000
31
0.0
0
LINE
5
4dc
100
AcDbEntity
8
0-0
6
CONTINUOUS
62
3
100
AcDbLine
10
346.060000000000
20
804.610000000000
30
0.0
11
319.130000000000
21
804.610000000000
31
0.0
0
LINE
5
4dd
100
AcDbEntity
8
0-0
6
CONTINUOUS
62
3
100
AcDbLine
10
346.060000000000
20
804.110000000000
30
0.0
11
319.130000000000
21
804.110000000000
31
0.0
0
LINE
5
4de
100
AcDbEntity
8
0-0
6
CONTINUOUS
62
3
100
AcDbLine
10
361.620000000000
20
828.620000000000
30
0.0
11
347.350000000000
21
804.840000000000
31
0.0
0
LINE
5
4df
100
AcDbEntity
8
0-0
6
CONTINUOUS
62
3
100
AcDbLine
10
389.130000000000
20
829.610000000000
30
0.0
11
362.480000000000
21
829.610000000000
31
0.0
0
LINE
5
4e0
100
AcDbEntity
8
0-0
6
CONTINUOUS
62
3
100
AcDbLine
10
362.480000000000
20
829.110000000000
30
0.0
11
389.130000000000
21
829.110000000000
31
0.0
0
LINE
5
4e1
100
AcDbEntity
8
0-0
6
CONTINUOUS
62
3
100
AcDbLine
10
292.200000000000
20
804.610000000000
30
0.0
11
319.130000000000
21
804.610000000000
31
0.0
0
LINE
5
4e2
100
AcDbEntity
8
0-0
6
CONTINUOUS
62
3
100
AcDbLine
10
292.200000000000
20
804.110000000000
30
0.0
11
319.130000000000
21
804.110000000000
31
0.0
0
POLYLINE
5
4e3
100
AcDbEntity
8
0-0
6
CONTINUOUS
62
  7
100
AcDb2dPolyline
66
1
10
0.0
20
0.0
30
0.0
70
0
0
VERTEX
5
4e4
100
AcDbEntity
8
0-0
6
CONTINUOUS
62
  7
100
AcDbVertex
100
AcDb2dVertex
10
319.130000000000
20
894.610000000000
30
0.0
0
VERTEX
5
4e5
100
AcDbEntity
8
0-0
6
CONTINUOUS
62
  7
100
AcDbVertex
100
AcDb2dVertex
10
319.130000000000
20
874.610000000000
30
0.0
0
VERTEX
5
4e6
100
AcDbEntity
8
0-0
6
CONTINUOUS
62
  7
100
AcDbVertex
100
AcDb2dVertex
10
319.130000000000
20
827.450000000000
30
0.0
0
SEQEND
5
4e7
100
AcDbEntity
8
0-0
0
LINE
5
4e8
100
AcDbEntity
8
0-0
6
CONTINUOUS
62
3
100
AcDbLine
10
281.100000000000
20
824.100000000000
30
0.0
11
285.390000000000
21
815.010000000000
31
0.0
0
LINE
5
4e9
100
AcDbEntity
8
0-0
6
CONTINUOUS
62
3
100
AcDbLine
10
284.960000000000
20
814.750000000000
30
0.0
11
290.910000000000
21
804.840000000000
31
0.0
0
LINE
5
4ea
100
AcDbEntity
8
0-0
6
CONTINUOUS
62
3
100
AcDbLine
10
291.340000000000
20
805.090000000000
30
0.0
11
285.390000000000
21
815.010000000000
31
0.0
0
LINE
5
4eb
100
AcDbEntity
8
0-0
6
CONTINUOUS
62
3
100
AcDbLine
10
280.650000000000
20
823.880000000000
30
0.0
11
284.940000000000
21
814.790000000000
31
0.0
0
LINE
5
4ec
100
AcDbEntity
8
0-0
6
CONTINUOUS
62
3
100
AcDbLine
10
280.650000000000
20
823.880000000000
30
0.0
11
281.100000000000
21
824.100000000000
31
0.0
0
LINE
5
4ed
100
AcDbEntity
8
0-0
6
CONTINUOUS
62
3
100
AcDbLine
10
529.130000000000
20
829.610000000000
30
0.0
11
555.780000000000
21
829.610000000000
31
0.0
0
LINE
5
4ee
100
AcDbEntity
8
0-0
6
CONTINUOUS
62
3
100
AcDbLine
10
555.780000000000
20
829.110000000000
30
0.0
11
529.130000000000
21
829.110000000000
31
0.0
0
LINE
5
4ef
100
AcDbEntity
8
0-0
6
CONTINUOUS
62
3
100
AcDbLine
10
529.130000000000
20
829.610000000000
30
0.0
11
502.480000000000
21
829.610000000000
31
0.0
0
LINE
5
4f0
100
AcDbEntity
8
0-0
6
CONTINUOUS
62
3
100
AcDbLine
10
502.480000000000
20
829.110000000000
30
0.0
11
529.130000000000
21
829.110000000000
31
0.0
0
LINE
5
4f1
100
AcDbEntity
8
0-0
6
CONTINUOUS
62
3
100
AcDbLine
10
906.920000000000
20
805.090000000000
30
0.0
11
921.190000000000
21
828.880000000000
31
0.0
0
LINE
5
4f2
100
AcDbEntity
8
0-0
6
CONTINUOUS
62
3
100
AcDbLine
10
906.060000000000
20
804.610000000000
30
0.0
11
879.130000000000
21
804.610000000000
31
0.0
0
LINE
5
4f3
100
AcDbEntity
8
0-0
6
CONTINUOUS
62
3
100
AcDbLine
10
906.060000000000
20
804.110000000000
30
0.0
11
879.130000000000
21
804.110000000000
31
0.0
0
LINE
5
4f4
100
AcDbEntity
8
0-0
6
CONTINUOUS
62
3
100
AcDbLine
10
921.620000000000
20
828.620000000000
30
0.0
11
907.350000000000
21
804.840000000000
31
0.0
0
LINE
5
4f5
100
AcDbEntity
8
0-0
6
CONTINUOUS
62
3
100
AcDbLine
10
949.130000000000
20
829.610000000000
30
0.0
11
922.480000000000
21
829.610000000000
31
0.0
0
LINE
5
4f6
100
AcDbEntity
8
0-0
6
CONTINUOUS
62
3
100
AcDbLine
10
922.480000000000
20
829.110000000000
30
0.0
11
949.130000000000
21
829.110000000000
31
0.0
0
LINE
5
4f7
100
AcDbEntity
8
0-0
6
CONTINUOUS
62
3
100
AcDbLine
10
851.340000000000
20
805.090000000000
30
0.0
11
837.070000000000
21
828.880000000000
31
0.0
0
LINE
5
4f8
100
AcDbEntity
8
0-0
6
CONTINUOUS
62
3
100
AcDbLine
10
852.200000000000
20
804.610000000000
30
0.0
11
879.130000000000
21
804.610000000000
31
0.0
0
LINE
5
4f9
100
AcDbEntity
8
0-0
6
CONTINUOUS
62
3
100
AcDbLine
10
852.200000000000
20
804.110000000000
30
0.0
11
879.130000000000
21
804.110000000000
31
0.0
0
LINE
5
4fa
100
AcDbEntity
8
0-0
6
CONTINUOUS
62
3
100
AcDbLine
10
836.640000000000
20
828.620000000000
30
0.0
11
850.910000000000
21
804.840000000000
31
0.0
0
LINE
5
4fb
100
AcDbEntity
8
0-0
6
CONTINUOUS
62
3
100
AcDbLine
10
711.340000000000
20
805.090000000000
30
0.0
11
697.070000000000
21
828.880000000000
31
0.0
0
LINE
5
4fc
100
AcDbEntity
8
0-0
6
CONTINUOUS
62
3
100
AcDbLine
10
712.200000000000
20
804.610000000000
30
0.0
11
739.130000000000
21
804.610000000000
31
0.0
0
LINE
5
4fd
100
AcDbEntity
8
0-0
6
CONTINUOUS
62
3
100
AcDbLine
10
712.200000000000
20
804.110000000000
30
0.0
11
739.130000000000
21
804.110000000000
31
0.0
0
LINE
5
4fe
100
AcDbEntity
8
0-0
6
CONTINUOUS
62
3
100
AcDbLine
10
696.640000000000
20
828.620000000000
30
0.0
11
710.910000000000
21
804.840000000000
31
0.0
0
LINE
5
4ff
100
AcDbEntity
8
0-0
6
CONTINUOUS
62
3
100
AcDbLine
10
669.130000000000
20
829.610000000000
30
0.0
11
695.780000000000
21
829.610000000000
31
0.0
0
LINE
5
500
100
AcDbEntity
8
0-0
6
CONTINUOUS
62
3
100
AcDbLine
10
695.780000000000
20
829.110000000000
30
0.0
11
669.130000000000
21
829.110000000000
31
0.0
0
LINE
5
501
100
AcDbEntity
8
0-0
6
CONTINUOUS
62
3
100
AcDbLine
10
766.920000000000
20
805.090000000000
30
0.0
11
781.190000000000
21
828.880000000000
31
0.0
0
LINE
5
502
100
AcDbEntity
8
0-0
6
CONTINUOUS
62
3
100
AcDbLine
10
766.060000000000
20
804.610000000000
30
0.0
11
739.130000000000
21
804.610000000000
31
0.0
0
LINE
5
503
100
AcDbEntity
8
0-0
6
CONTINUOUS
62
3
100
AcDbLine
10
766.060000000000
20
804.110000000000
30
0.0
11
739.130000000000
21
804.110000000000
31
0.0
0
LINE
5
504
100
AcDbEntity
8
0-0
6
CONTINUOUS
62
3
100
AcDbLine
10
781.620000000000
20
828.620000000000
30
0.0
11
767.350000000000
21
804.840000000000
31
0.0
0
LINE
5
505
100
AcDbEntity
8
0-0
6
CONTINUOUS
62
3
100
AcDbLine
10
809.130000000000
20
829.610000000000
30
0.0
11
782.480000000000
21
829.610000000000
31
0.0
0
LINE
5
506
100
AcDbEntity
8
0-0
6
CONTINUOUS
62
3
100
AcDbLine
10
782.480000000000
20
829.110000000000
30
0.0
11
809.130000000000
21
829.110000000000
31
0.0
0
LINE
5
507
100
AcDbEntity
8
0-0
6
CONTINUOUS
62
3
100
AcDbLine
10
809.130000000000
20
829.610000000000
30
0.0
11
835.780000000000
21
829.610000000000
31
0.0
0
LINE
5
508
100
AcDbEntity
8
0-0
6
CONTINUOUS
62
3
100
AcDbLine
10
835.780000000000
20
829.110000000000
30
0.0
11
809.130000000000
21
829.110000000000
31
0.0
0
LINE
5
509
100
AcDbEntity
8
0-0
6
CONTINUOUS
62
7
100
AcDbLine
10
682.530000000000
20
804.610000000000
30
0.0
11
682.530000000000
21
829.610000000000
31
0.0
0
POLYLINE
5
50a
100
AcDbEntity
8
0-0
6
CONTINUOUS
62
  7
100
AcDb2dPolyline
66
1
10
0.0
20
0.0
30
0.0
70
0
0
VERTEX
5
50b
100
AcDbEntity
8
0-0
6
CONTINUOUS
62
  7
100
AcDbVertex
100
AcDb2dVertex
10
1019.130000000000
20
894.610000000000
30
0.0
0
VERTEX
5
50c
100
AcDbEntity
8
0-0
6
CONTINUOUS
62
  7
100
AcDbVertex
100
AcDb2dVertex
10
1019.130000000000
20
874.610000000000
30
0.0
0
VERTEX
5
50d
100
AcDbEntity
8
0-0
6
CONTINUOUS
62
  7
100
AcDbVertex
100
AcDb2dVertex
10
1019.130000000000
20
827.450000000000
30
0.0
0
SEQEND
5
50e
100
AcDbEntity
8
0-0
0
LINE
5
50f
100
AcDbEntity
8
0-0
6
CONTINUOUS
62
7
100
AcDbLine
10
319.130000000000
20
894.610000000000
30
0.0
11
1019.130000000000
21
894.610000000000
31
0.0
0
LINE
5
510
100
AcDbEntity
8
0-0
6
CONTINUOUS
62
3
100
AcDbLine
10
1019.130000000000
20
805.610000000000
30
0.0
11
1041.270000000000
21
805.610000000000
31
0.0
0
LINE
5
511
100
AcDbEntity
8
0-0
6
CONTINUOUS
62
3
100
AcDbLine
10
1044.200000000000
20
804.610000000000
30
0.0
11
1041.270000000000
21
805.610000000000
31
0.0
0
LINE
5
512
100
AcDbEntity
8
0-0
6
CONTINUOUS
62
3
100
AcDbLine
10
1019.130000000000
20
806.110000000000
30
0.0
11
1041.270000000000
21
806.110000000000
31
0.0
0
LINE
5
513
100
AcDbEntity
8
0-0
6
CONTINUOUS
62
3
100
AcDbLine
10
1044.360000000000
20
805.080000000000
30
0.0
11
1041.440000000000
21
806.080000000000
31
0.0
0
LINE
5
514
100
AcDbEntity
8
0-0
6
CONTINUOUS
62
3
100
AcDbLine
10
1044.360000000000
20
805.080000000000
30
0.0
11
1044.200000000000
21
804.610000000000
31
0.0
0
LINE
5
515
100
AcDbEntity
8
0-0
6
CONTINUOUS
62
3
100
AcDbLine
10
993.050000000000
20
806.110000000000
30
0.0
11
1019.130000000000
21
806.110000000000
31
0.0
0
LINE
5
516
100
AcDbEntity
8
0-0
6
CONTINUOUS
62
3
100
AcDbLine
10
993.050000000000
20
805.610000000000
30
0.0
11
1019.130000000000
21
805.610000000000
31
0.0
0
LINE
5
517
100
AcDbEntity
8
0-0
6
CONTINUOUS
62
3
100
AcDbLine
10
978.390000000000
20
828.620000000000
30
0.0
11
991.760000000000
21
806.340000000000
31
0.0
0
LINE
5
518
100
AcDbEntity
8
0-0
6
CONTINUOUS
62
3
100
AcDbLine
10
992.190000000000
20
806.590000000000
30
0.0
11
978.820000000000
21
828.880000000000
31
0.0
0
LINE
5
519
100
AcDbEntity
8
0-0
6
CONTINUOUS
62
3
100
AcDbLine
10
977.530000000000
20
829.610000000000
30
0.0
11
949.130000000000
21
829.610000000000
31
0.0
0
LINE
5
51a
100
AcDbEntity
8
0-0
6
CONTINUOUS
62
3
100
AcDbLine
10
977.530000000000
20
829.110000000000
30
0.0
11
949.130000000000
21
829.110000000000
31
0.0
0
POLYLINE
5
51b
100
AcDbEntity
8
0-0
6
CONTINUOUS
62
  7
100
AcDb2dPolyline
66
1
10
0.0
20
0.0
30
0.0
70
0
0
VERTEX
5
51c
100
AcDbEntity
8
0-0
6
CONTINUOUS
62
  7
100
AcDbVertex
100
AcDb2dVertex
10
319.130000000000
20
874.610000000000
30
0.0
0
VERTEX
5
51d
100
AcDbEntity
8
0-0
6
CONTINUOUS
62
  7
100
AcDbVertex
100
AcDb2dVertex
10
459.130000000000
20
874.610000000000
30
0.0
0
VERTEX
5
51e
100
AcDbEntity
8
0-0
6
CONTINUOUS
62
  7
100
AcDbVertex
100
AcDb2dVertex
10
599.130000000000
20
874.610000000000
30
0.0
0
SEQEND
5
51f
100
AcDbEntity
8
0-0
0
LINE
5
520
100
AcDbEntity
8
0-0
6
CONTINUOUS
62
7
100
AcDbLine
10
739.130000000000
20
874.610000000000
30
0.0
11
599.130000000000
21
874.610000000000
31
0.0
0
LINE
5
521
100
AcDbEntity
8
0-0
6
CONTINUOUS
62
7
100
AcDbLine
10
739.130000000000
20
874.610000000000
30
0.0
11
739.130000000000
21
827.450000000000
31
0.0
0
LINE
5
522
100
AcDbEntity
8
0-0
6
CONTINUOUS
62
7
100
AcDbLine
10
879.130000000000
20
874.610000000000
30
0.0
11
879.130000000000
21
827.450000000000
31
0.0
0
LINE
5
523
100
AcDbEntity
8
0-0
6
CONTINUOUS
62
7
100
AcDbLine
10
739.130000000000
20
874.610000000000
30
0.0
11
879.130000000000
21
874.610000000000
31
0.0
0
LINE
5
524
100
AcDbEntity
8
0-0
6
CONTINUOUS
62
7
100
AcDbLine
10
1019.130000000000
20
874.610000000000
30
0.0
11
879.130000000000
21
874.610000000000
31
0.0
0
POLYLINE
5
525
100
AcDbEntity
8
F-F
6
CONTINUOUS
62
  2
100
AcDb2dPolyline
66
1
10
0.0
20
0.0
30
0.0
70
0
0
VERTEX
5
526
100
AcDbEntity
8
F-F
6
CONTINUOUS
62
  2
100
AcDbVertex
100
AcDb2dVertex
10
1224.220000000000
20
1143.640000000000
30
0.0
0
VERTEX
5
527
100
AcDbEntity
8
F-F
6
CONTINUOUS
62
  2
100
AcDbVertex
100
AcDb2dVertex
10
1224.220000000000
20
977.430000000000
30
0.0
0
VERTEX
5
528
100
AcDbEntity
8
F-F
6
CONTINUOUS
62
  2
100
AcDbVertex
100
AcDb2dVertex
10
1631.650000000000
20
977.430000000000
30
0.0
0
SEQEND
5
529
100
AcDbEntity
8
F-F
0
LINE
5
52a
100
AcDbEntity
8
0-0
6
CONTINUOUS
62
3
100
AcDbLine
10
1380.020000000000
20
805.090000000000
30
0.0
11
1394.290000000000
21
828.880000000000
31
0.0
0
LINE
5
52b
100
AcDbEntity
8
0-0
6
CONTINUOUS
62
3
100
AcDbLine
10
1379.170000000000
20
804.610000000000
30
0.0
11
1352.230000000000
21
804.610000000000
31
0.0
0
LINE
5
52c
100
AcDbEntity
8
0-0
6
CONTINUOUS
62
3
100
AcDbLine
10
1379.170000000000
20
804.110000000000
30
0.0
11
1352.230000000000
21
804.110000000000
31
0.0
0
LINE
5
52d
100
AcDbEntity
8
0-0
6
CONTINUOUS
62
3
100
AcDbLine
10
1394.720000000000
20
828.620000000000
30
0.0
11
1380.450000000000
21
804.840000000000
31
0.0
0
LINE
5
52e
100
AcDbEntity
8
0-0
6
CONTINUOUS
62
3
100
AcDbLine
10
1422.230000000000
20
829.610000000000
30
0.0
11
1395.580000000000
21
829.610000000000
31
0.0
0
LINE
5
52f
100
AcDbEntity
8
0-0
6
CONTINUOUS
62
3
100
AcDbLine
10
1395.580000000000
20
829.110000000000
30
0.0
11
1422.230000000000
21
829.110000000000
31
0.0
0
LINE
5
530
100
AcDbEntity
8
0-0
6
CONTINUOUS
62
3
100
AcDbLine
10
1325.300000000000
20
804.610000000000
30
0.0
11
1352.230000000000
21
804.610000000000
31
0.0
0
LINE
5
531
100
AcDbEntity
8
0-0
6
CONTINUOUS
62
3
100
AcDbLine
10
1325.300000000000
20
804.110000000000
30
0.0
11
1352.230000000000
21
804.110000000000
31
0.0
0
LINE
5
532
100
AcDbEntity
8
0-0
6
CONTINUOUS
62
3
100
AcDbLine
10
1314.200000000000
20
824.100000000000
30
0.0
11
1318.490000000000
21
815.010000000000
31
0.0
0
LINE
5
533
100
AcDbEntity
8
0-0
6
CONTINUOUS
62
3
100
AcDbLine
10
1318.060000000000
20
814.750000000000
30
0.0
11
1324.010000000000
21
804.840000000000
31
0.0
0
LINE
5
534
100
AcDbEntity
8
0-0
6
CONTINUOUS
62
3
100
AcDbLine
10
1324.440000000000
20
805.090000000000
30
0.0
11
1318.490000000000
21
815.010000000000
31
0.0
0
LINE
5
535
100
AcDbEntity
8
0-0
6
CONTINUOUS
62
3
100
AcDbLine
10
1313.750000000000
20
823.880000000000
30
0.0
11
1318.040000000000
21
814.790000000000
31
0.0
0
LINE
5
536
100
AcDbEntity
8
0-0
6
CONTINUOUS
62
3
100
AcDbLine
10
1313.750000000000
20
823.880000000000
30
0.0
11
1314.200000000000
21
824.100000000000
31
0.0
0
LINE
5
537
100
AcDbEntity
8
0-0
6
CONTINUOUS
62
3
100
AcDbLine
10
1352.230000000000
20
805.610000000000
30
0.0
11
1374.380000000000
21
805.610000000000
31
0.0
0
LINE
5
538
100
AcDbEntity
8
0-0
6
CONTINUOUS
62
3
100
AcDbLine
10
1377.300000000000
20
804.610000000000
30
0.0
11
1374.380000000000
21
805.610000000000
31
0.0
0
LINE
5
539
100
AcDbEntity
8
0-0
6
CONTINUOUS
62
3
100
AcDbLine
10
1352.230000000000
20
806.110000000000
30
0.0
11
1374.380000000000
21
806.110000000000
31
0.0
0
LINE
5
53a
100
AcDbEntity
8
0-0
6
CONTINUOUS
62
3
100
AcDbLine
10
1377.460000000000
20
805.080000000000
30
0.0
11
1374.540000000000
21
806.080000000000
31
0.0
0
LINE
5
53b
100
AcDbEntity
8
0-0
6
CONTINUOUS
62
3
100
AcDbLine
10
1377.460000000000
20
805.080000000000
30
0.0
11
1377.300000000000
21
804.610000000000
31
0.0
0
LINE
5
53c
100
AcDbEntity
8
0-0
6
CONTINUOUS
62
3
100
AcDbLine
10
1326.150000000000
20
806.110000000000
30
0.0
11
1352.230000000000
21
806.110000000000
31
0.0
0
LINE
5
53d
100
AcDbEntity
8
0-0
6
CONTINUOUS
62
3
100
AcDbLine
10
1326.150000000000
20
805.610000000000
30
0.0
11
1352.230000000000
21
805.610000000000
31
0.0
0
LINE
5
53e
100
AcDbEntity
8
0-0
6
CONTINUOUS
62
3
100
AcDbLine
10
1311.490000000000
20
828.620000000000
30
0.0
11
1324.860000000000
21
806.340000000000
31
0.0
0
LINE
5
53f
100
AcDbEntity
8
0-0
6
CONTINUOUS
62
3
100
AcDbLine
10
1325.290000000000
20
806.590000000000
30
0.0
11
1311.920000000000
21
828.880000000000
31
0.0
0
LINE
5
540
100
AcDbEntity
8
0-0
6
CONTINUOUS
62
3
100
AcDbLine
10
1310.630000000000
20
829.610000000000
30
0.0
11
1282.230000000000
21
829.610000000000
31
0.0
0
LINE
5
541
100
AcDbEntity
8
0-0
6
CONTINUOUS
62
3
100
AcDbLine
10
1310.630000000000
20
829.110000000000
30
0.0
11
1282.230000000000
21
829.110000000000
31
0.0
0
LINE
5
542
100
AcDbEntity
8
0-0
6
CONTINUOUS
62
7
100
AcDbLine
10
1309.730000000000
20
839.610000000000
30
0.0
11
1309.730000000000
21
854.610000000000
31
0.0
0
LINE
5
543
100
AcDbEntity
8
0-0
6
CONTINUOUS
62
7
100
AcDbLine
10
1324.730000000000
20
794.110000000000
30
0.0
11
1324.730000000000
21
779.110000000000
31
0.0
0
LINE
5
544
100
AcDbEntity
8
0-0
6
CONTINUOUS
62
7
100
AcDbLine
10
1394.730000000000
20
839.610000000000
30
0.0
11
1394.730000000000
21
854.610000000000
31
0.0
0
LINE
5
545
100
AcDbEntity
8
0-0
6
CONTINUOUS
62
7
100
AcDbLine
10
1379.730000000000
20
794.110000000000
30
0.0
11
1379.730000000000
21
779.110000000000
31
0.0
0
LINE
5
546
100
AcDbEntity
8
0-0
6
CONTINUOUS
62
7
100
AcDbLine
10
1324.730000000000
20
779.110000000000
30
0.0
11
1379.730000000000
21
779.110000000000
31
0.0
0
LINE
5
547
100
AcDbEntity
8
0-0
6
CONTINUOUS
62
7
100
AcDbLine
10
1309.730000000000
20
854.610000000000
30
0.0
11
1394.730000000000
21
854.610000000000
31
0.0
0
LINE
5
548
100
AcDbEntity
8
0-0
6
CONTINUOUS
62
3
100
AcDbLine
10
1435.560000000000
20
829.110000000000
30
0.0
11
1422.230000000000
21
829.110000000000
31
0.0
0
LINE
5
549
100
AcDbEntity
8
0-0
6
CONTINUOUS
62
3
100
AcDbLine
10
1422.230000000000
20
829.610000000000
30
0.0
11
1435.560000000000
21
829.610000000000
31
0.0
0
POLYLINE
5
54a
100
AcDbEntity
8
0-0
6
CONTINUOUS
62
  7
100
AcDb2dPolyline
66
1
10
0.0
20
0.0
30
0.0
70
0
0
VERTEX
5
54b
100
AcDbEntity
8
0-0
6
CONTINUOUS
62
  7
100
AcDbVertex
100
AcDb2dVertex
10
1404.960000000000
20
804.610000000000
30
0.0
0
VERTEX
5
54c
100
AcDbEntity
8
0-0
6
CONTINUOUS
62
  7
100
AcDbVertex
100
AcDb2dVertex
10
1430.560000000000
20
804.610000000000
30
0.0
0
VERTEX
5
54d
100
AcDbEntity
8
0-0
6
CONTINUOUS
62
  7
100
AcDbVertex
100
AcDb2dVertex
10
1430.560000000000
20
829.610000000000
30
0.0
0
SEQEND
5
54e
100
AcDbEntity
8
0-0
0
LINE
5
54f
100
AcDbEntity
8
0-0
6
CONTINUOUS
62
3
100
AcDbLine
10
1268.910000000000
20
829.110000000000
30
0.0
11
1282.230000000000
21
829.110000000000
31
0.0
0
LINE
5
550
100
AcDbEntity
8
0-0
6
CONTINUOUS
62
3
100
AcDbLine
10
1282.230000000000
20
829.610000000000
30
0.0
11
1268.910000000000
21
829.610000000000
31
0.0
0
CIRCLE
5
551
100
AcDbEntity
8
F-F
6
CONTINUOUS
62
3
100
AcDbCircle
10
88.840000000000
20
66.090000000000
30
0.0
40
11.313711307550
0
CIRCLE
5
552
100
AcDbEntity
8
F-F
6
CONTINUOUS
62
3
100
AcDbCircle
10
88.840000000000
20
66.090000000000
30
0.0
40
12.913709270428
0
CIRCLE
5
553
100
AcDbEntity
8
F-F
6
CONTINUOUS
62
4
100
AcDbCircle
10
88.840000000000
20
66.090000000000
30
0.0
40
11.473709787749
0
CIRCLE
5
554
100
AcDbEntity
8
F-F
6
CONTINUOUS
62
4
100
AcDbCircle
10
88.840000000000
20
66.090000000000
30
0.0
40
11.793706748147
0
CIRCLE
5
555
100
AcDbEntity
8
F-F
6
CONTINUOUS
62
4
100
AcDbCircle
10
88.840000000000
20
66.090000000000
30
0.0
40
12.113708353564
0
CIRCLE
5
556
100
AcDbEntity
8
F-F
6
CONTINUOUS
62
4
100
AcDbCircle
10
88.840000000000
20
66.090000000000
30
0.0
40
12.433706088132
0
CIRCLE
5
557
100
AcDbEntity
8
F-F
6
CONTINUOUS
62
4
100
AcDbCircle
10
88.840000000000
20
66.090000000000
30
0.0
40
12.753704596870
0
ARC
5
558
100
AcDbEntity
8
0-0
6
CONTINUOUS
62
3
100
AcDbCircle
10
415.780000000000
20
828.110000000000
30
0.0
40
0.999999984825
100
AcDbArc
50
30.964736938477
51
90.000000000000
0
ARC
5
559
100
AcDbEntity
8
0-0
6
CONTINUOUS
62
3
100
AcDbCircle
10
415.780000000000
20
828.110000000000
30
0.0
40
1.499999977237
100
AcDbArc
50
30.964736938477
51
90.000000000000
0
ARC
5
55a
100
AcDbEntity
8
0-0
6
CONTINUOUS
62
3
100
AcDbCircle
10
432.200000000000
20
805.610000000000
30
0.0
40
0.999999984825
100
AcDbArc
50
210.964736938477
51
270.000000000000
0
ARC
5
55b
100
AcDbEntity
8
0-0
6
CONTINUOUS
62
3
100
AcDbCircle
10
432.200000000000
20
805.610000000000
30
0.0
40
1.499999977237
100
AcDbArc
50
210.964736938477
51
270.000000000000
0
ARC
5
55c
100
AcDbEntity
8
0-0
6
CONTINUOUS
62
3
100
AcDbCircle
10
502.480000000000
20
828.110000000000
30
0.0
40
0.999999984825
100
AcDbArc
50
90.000000000000
51
149.035263061523
0
ARC
5
55d
100
AcDbEntity
8
0-0
6
CONTINUOUS
62
3
100
AcDbCircle
10
502.480000000000
20
828.110000000000
30
0.0
40
1.499999977237
100
AcDbArc
50
90.000000000000
51
149.035263061523
0
ARC
5
55e
100
AcDbEntity
8
0-0
6
CONTINUOUS
62
3
100
AcDbCircle
10
486.060000000000
20
805.610000000000
30
0.0
40
0.999999984825
100
AcDbArc
50
270.000000000000
51
329.035263061523
0
ARC
5
55f
100
AcDbEntity
8
0-0
6
CONTINUOUS
62
3
100
AcDbCircle
10
486.060000000000
20
805.610000000000
30
0.0
40
1.499999977237
100
AcDbArc
50
270.000000000000
51
329.035263061523
0
ARC
5
560
100
AcDbEntity
8
0-0
6
CONTINUOUS
62
3
100
AcDbCircle
10
642.480000000000
20
828.110000000000
30
0.0
40
0.999999984825
100
AcDbArc
50
90.000000000000
51
149.035263061523
0
ARC
5
561
100
AcDbEntity
8
0-0
6
CONTINUOUS
62
3
100
AcDbCircle
10
642.480000000000
20
828.110000000000
30
0.0
40
1.499999977237
100
AcDbArc
50
90.000000000000
51
149.035263061523
0
ARC
5
562
100
AcDbEntity
8
0-0
6
CONTINUOUS
62
3
100
AcDbCircle
10
626.060000000000
20
805.610000000000
30
0.0
40
0.999999984825
100
AcDbArc
50
270.000000000000
51
329.035263061523
0
ARC
5
563
100
AcDbEntity
8
0-0
6
CONTINUOUS
62
3
100
AcDbCircle
10
626.060000000000
20
805.610000000000
30
0.0
40
1.499999977237
100
AcDbArc
50
270.000000000000
51
329.035263061523
0
ARC
5
564
100
AcDbEntity
8
0-0
6
CONTINUOUS
62
3
100
AcDbCircle
10
555.780000000000
20
828.110000000000
30
0.0
40
0.999999984825
100
AcDbArc
50
30.964736938477
51
90.000000000000
0
ARC
5
565
100
AcDbEntity
8
0-0
6
CONTINUOUS
62
3
100
AcDbCircle
10
555.780000000000
20
828.110000000000
30
0.0
40
1.499999977237
100
AcDbArc
50
30.964736938477
51
90.000000000000
0
ARC
5
566
100
AcDbEntity
8
0-0
6
CONTINUOUS
62
3
100
AcDbCircle
10
572.200000000000
20
805.610000000000
30
0.0
40
0.999999984825
100
AcDbArc
50
210.964736938477
51
270.000000000000
0
ARC
5
567
100
AcDbEntity
8
0-0
6
CONTINUOUS
62
3
100
AcDbCircle
10
572.200000000000
20
805.610000000000
30
0.0
40
1.499999977237
100
AcDbArc
50
210.964736938477
51
270.000000000000
0
ARC
5
568
100
AcDbEntity
8
0-0
6
CONTINUOUS
62
3
100
AcDbCircle
10
362.480000000000
20
828.110000000000
30
0.0
40
0.999999984825
100
AcDbArc
50
90.000000000000
51
149.035263061523
0
ARC
5
569
100
AcDbEntity
8
0-0
6
CONTINUOUS
62
3
100
AcDbCircle
10
362.480000000000
20
828.110000000000
30
0.0
40
1.499999977237
100
AcDbArc
50
90.000000000000
51
149.035263061523
0
ARC
5
56a
100
AcDbEntity
8
0-0
6
CONTINUOUS
62
3
100
AcDbCircle
10
346.060000000000
20
805.610000000000
30
0.0
40
0.999999984825
100
AcDbArc
50
270.000000000000
51
329.035263061523
0
ARC
5
56b
100
AcDbEntity
8
0-0
6
CONTINUOUS
62
3
100
AcDbCircle
10
346.060000000000
20
805.610000000000
30
0.0
40
1.499999977237
100
AcDbArc
50
270.000000000000
51
329.035263061523
0
ARC
5
56c
100
AcDbEntity
8
0-0
6
CONTINUOUS
62
3
100
AcDbCircle
10
292.200000000000
20
805.610000000000
30
0.0
40
0.999999984825
100
AcDbArc
50
210.964736938477
51
270.000000000000
0
ARC
5
56d
100
AcDbEntity
8
0-0
6
CONTINUOUS
62
3
100
AcDbCircle
10
292.200000000000
20
805.610000000000
30
0.0
40
1.499999977237
100
AcDbArc
50
210.964736938477
51
270.000000000000
0
ARC
5
56e
100
AcDbEntity
8
0-0
6
CONTINUOUS
62
3
100
AcDbCircle
10
922.480000000000
20
828.110000000000
30
0.0
40
0.999999984825
100
AcDbArc
50
90.000000000000
51
149.035263061523
0
ARC
5
56f
100
AcDbEntity
8
0-0
6
CONTINUOUS
62
3
100
AcDbCircle
10
922.480000000000
20
828.110000000000
30
0.0
40
1.499999977237
100
AcDbArc
50
90.000000000000
51
149.035263061523
0
ARC
5
570
100
AcDbEntity
8
0-0
6
CONTINUOUS
62
3
100
AcDbCircle
10
906.060000000000
20
805.610000000000
30
0.0
40
0.999999984825
100
AcDbArc
50
270.000000000000
51
329.035263061523
0
ARC
5
571
100
AcDbEntity
8
0-0
6
CONTINUOUS
62
3
100
AcDbCircle
10
906.060000000000
20
805.610000000000
30
0.0
40
1.499999977237
100
AcDbArc
50
270.000000000000
51
329.035263061523
0
ARC
5
572
100
AcDbEntity
8
0-0
6
CONTINUOUS
62
3
100
AcDbCircle
10
835.780000000000
20
828.110000000000
30
0.0
40
0.999999984825
100
AcDbArc
50
30.964736938477
51
90.000000000000
0
ARC
5
573
100
AcDbEntity
8
0-0
6
CONTINUOUS
62
3
100
AcDbCircle
10
835.780000000000
20
828.110000000000
30
0.0
40
1.499999977237
100
AcDbArc
50
30.964736938477
51
90.000000000000
0
ARC
5
574
100
AcDbEntity
8
0-0
6
CONTINUOUS
62
3
100
AcDbCircle
10
852.200000000000
20
805.610000000000
30
0.0
40
0.999999984825
100
AcDbArc
50
210.964736938477
51
270.000000000000
0
ARC
5
575
100
AcDbEntity
8
0-0
6
CONTINUOUS
62
3
100
AcDbCircle
10
852.200000000000
20
805.610000000000
30
0.0
40
1.499999977237
100
AcDbArc
50
210.964736938477
51
270.000000000000
0
ARC
5
576
100
AcDbEntity
8
0-0
6
CONTINUOUS
62
3
100
AcDbCircle
10
695.780000000000
20
828.110000000000
30
0.0
40
0.999999984825
100
AcDbArc
50
30.964736938477
51
90.000000000000
0
ARC
5
577
100
AcDbEntity
8
0-0
6
CONTINUOUS
62
3
100
AcDbCircle
10
695.780000000000
20
828.110000000000
30
0.0
40
1.499999977237
100
AcDbArc
50
30.964736938477
51
90.000000000000
0
ARC
5
578
100
AcDbEntity
8
0-0
6
CONTINUOUS
62
3
100
AcDbCircle
10
712.200000000000
20
805.610000000000
30
0.0
40
0.999999984825
100
AcDbArc
50
210.964736938477
51
270.000000000000
0
ARC
5
579
100
AcDbEntity
8
0-0
6
CONTINUOUS
62
3
100
AcDbCircle
10
712.200000000000
20
805.610000000000
30
0.0
40
1.499999977237
100
AcDbArc
50
210.964736938477
51
270.000000000000
0
ARC
5
57a
100
AcDbEntity
8
0-0
6
CONTINUOUS
62
3
100
AcDbCircle
10
782.480000000000
20
828.110000000000
30
0.0
40
0.999999984825
100
AcDbArc
50
90.000000000000
51
149.035263061523
0
ARC
5
57b
100
AcDbEntity
8
0-0
6
CONTINUOUS
62
3
100
AcDbCircle
10
782.480000000000
20
828.110000000000
30
0.0
40
1.499999977237
100
AcDbArc
50
90.000000000000
51
149.035263061523
0
ARC
5
57c
100
AcDbEntity
8
0-0
6
CONTINUOUS
62
3
100
AcDbCircle
10
766.060000000000
20
805.610000000000
30
0.0
40
0.999999984825
100
AcDbArc
50
270.000000000000
51
329.035263061523
0
ARC
5
57d
100
AcDbEntity
8
0-0
6
CONTINUOUS
62
3
100
AcDbCircle
10
766.060000000000
20
805.610000000000
30
0.0
40
1.499999977237
100
AcDbArc
50
270.000000000000
51
329.035263061523
0
ARC
5
57e
100
AcDbEntity
8
0-0
6
CONTINUOUS
62
3
100
AcDbCircle
10
993.050000000000
20
807.110000000000
30
0.0
40
0.999999984825
100
AcDbArc
50
210.963272094727
51
270.000000000000
0
ARC
5
57f
100
AcDbEntity
8
0-0
6
CONTINUOUS
62
3
100
AcDbCircle
10
993.050000000000
20
807.110000000000
30
0.0
40
1.499999977237
100
AcDbArc
50
210.963272094727
51
270.000000000000
0
ARC
5
580
100
AcDbEntity
8
0-0
6
CONTINUOUS
62
3
100
AcDbCircle
10
977.530000000000
20
828.110000000000
30
0.0
40
0.999999984825
100
AcDbArc
50
30.963272094727
51
90.000000000000
0
ARC
5
581
100
AcDbEntity
8
0-0
6
CONTINUOUS
62
3
100
AcDbCircle
10
977.530000000000
20
828.110000000000
30
0.0
40
1.499999977237
100
AcDbArc
50
30.963272094727
51
90.000000000000
0
ARC
5
582
100
AcDbEntity
8
0-0
6
CONTINUOUS
62
3
100
AcDbCircle
10
1395.580000000000
20
828.110000000000
30
0.0
40
0.999999984825
100
AcDbArc
50
90.000000000000
51
149.035263061523
0
ARC
5
583
100
AcDbEntity
8
0-0
6
CONTINUOUS
62
3
100
AcDbCircle
10
1395.580000000000
20
828.110000000000
30
0.0
40
1.499999977237
100
AcDbArc
50
90.000000000000
51
149.035263061523
0
ARC
5
584
100
AcDbEntity
8
0-0
6
CONTINUOUS
62
3
100
AcDbCircle
10
1379.170000000000
20
805.610000000000
30
0.0
40
0.999999984825
100
AcDbArc
50
270.000000000000
51
329.035263061523
0
ARC
5
585
100
AcDbEntity
8
0-0
6
CONTINUOUS
62
3
100
AcDbCircle
10
1379.170000000000
20
805.610000000000
30
0.0
40
1.499999977237
100
AcDbArc
50
270.000000000000
51
329.035263061523
0
ARC
5
586
100
AcDbEntity
8
0-0
6
CONTINUOUS
62
3
100
AcDbCircle
10
1325.300000000000
20
805.610000000000
30
0.0
40
0.999999984825
100
AcDbArc
50
210.964736938477
51
270.000000000000
0
ARC
5
587
100
AcDbEntity
8
0-0
6
CONTINUOUS
62
3
100
AcDbCircle
10
1325.300000000000
20
805.610000000000
30
0.0
40
1.499999977237
100
AcDbArc
50
210.964736938477
51
270.000000000000
0
ARC
5
588
100
AcDbEntity
8
0-0
6
CONTINUOUS
62
3
100
AcDbCircle
10
1326.150000000000
20
807.110000000000
30
0.0
40
0.999999984825
100
AcDbArc
50
210.963272094727
51
270.000000000000
0
ARC
5
589
100
AcDbEntity
8
0-0
6
CONTINUOUS
62
3
100
AcDbCircle
10
1326.150000000000
20
807.110000000000
30
0.0
40
1.499999977237
100
AcDbArc
50
210.963272094727
51
270.000000000000
0
ARC
5
58a
100
AcDbEntity
8
0-0
6
CONTINUOUS
62
3
100
AcDbCircle
10
1310.630000000000
20
828.110000000000
30
0.0
40
0.999999984825
100
AcDbArc
50
30.963272094727
51
90.000000000000
0
ARC
5
58b
100
AcDbEntity
8
0-0
6
CONTINUOUS
62
3
100
AcDbCircle
10
1310.630000000000
20
828.110000000000
30
0.0
40
1.499999977237
100
AcDbArc
50
30.963272094727
51
90.000000000000
0
TEXT
5
58c
100
AcDbEntity
8
F-F
62
3
370
-3
100
AcDbText
10
166.664
20
43.600
30
0.0
40
6.564
1
静岡県静岡市流通センター１６番
41
0.921
50
0.000
100
AcDbText
0
TEXT
5
58d
100
AcDbEntity
8
F-F
62
3
370
-3
100
AcDbText
10
166.668
20
28.767
30
0.0
40
6.564
1
電話（０５４）２６３－２２８０（代表）
41
0.921
50
0.000
100
AcDbText
0
TEXT
5
58e
100
AcDbEntity
8
F-F
62
3
370
-3
100
AcDbText
10
532.090
20
75.752
30
0.0
40
4.923
1
変　　　　　　更　　　　　　記　　　　　　事
41
0.914
50
0.000
100
AcDbText
0
TEXT
5
58f
100
AcDbEntity
8
F-F
62
3
370
-3
100
AcDbText
10
815.825
20
74.952
30
0.0
40
4.923
1
受領　　日附
41
0.914
50
0.000
100
AcDbText
0
TEXT
5
590
100
AcDbEntity
8
F-F
62
3
370
-3
100
AcDbText
10
1014.042
20
45.520
30
0.0
40
4.923
1
施工者
41
0.914
50
0.000
100
AcDbText
0
TEXT
5
591
100
AcDbEntity
8
F-F
62
3
370
-3
100
AcDbText
10
1014.042
20
75.150
30
0.0
40
4.923
1
設計者
41
0.914
50
0.000
100
AcDbText
0
TEXT
5
592
100
AcDbEntity
8
F-F
62
3
370
-3
100
AcDbText
10
1219.525
20
44.977
30
0.0
40
4.923
1
作図
41
0.914
50
0.000
100
AcDbText
0
TEXT
5
593
100
AcDbEntity
8
F-F
62
3
370
-3
100
AcDbText
10
1291.352
20
45.508
30
0.0
40
4.923
1
図面名
41
0.914
50
0.000
100
AcDbText
0
TEXT
5
594
100
AcDbEntity
8
F-F
62
3
370
-3
100
AcDbText
10
1219.525
20
74.607
30
0.0
40
4.923
1
日附
41
0.914
50
0.000
100
AcDbText
0
TEXT
5
595
100
AcDbEntity
8
F-F
62
3
370
-3
100
AcDbText
10
1291.352
20
75.137
30
0.0
40
4.923
1
工事件名
41
0.914
50
0.000
100
AcDbText
0
TEXT
5
596
100
AcDbEntity
8
F-F
62
3
370
-3
100
AcDbText
10
1241.661
20
74.355
30
0.0
40
4.923
1
年　月　日
41
0.914
50
0.000
100
AcDbText
0
TEXT
5
597
100
AcDbEntity
8
F-F
62
3
370
-3
100
AcDbText
10
1241.661
20
44.726
30
0.0
40
4.923
1
年　月　日
41
0.914
50
0.000
100
AcDbText
0
TEXT
5
598
100
AcDbEntity
8
F-F
62
3
370
-3
100
AcDbText
10
1543.695
20
75.137
30
0.0
40
4.923
1
設計番号
41
0.914
50
0.000
100
AcDbText
0
MTEXT
5
599
100
AcDbEntity
8
F-F
62
3
370
-3
100
AcDbMText
10
387.012
20
67.821
30
0.0
40
4.649
41
0.000
71
7
72
1
1
\W1.037;{\W0.747;. }　{\W0.747;.}　{\W0.747; }
7
STANDARD
11
1.00000
21
0.00000
31
0.0
0
MTEXT
5
59a
100
AcDbEntity
8
F-F
62
3
370
-3
100
AcDbMText
10
387.012
20
57.945
30
0.0
40
4.649
41
0.000
71
7
72
1
1
\W1.037;{\W0.747;. }　{\W0.747;.}　{\W0.747; }
7
STANDARD
11
1.00000
21
0.00000
31
0.0
0
MTEXT
5
59b
100
AcDbEntity
8
F-F
62
3
370
-3
100
AcDbMText
10
387.012
20
48.068
30
0.0
40
4.649
41
0.000
71
7
72
1
1
\W1.037;{\W0.747;. }　{\W0.747;.}　{\W0.747; }
7
STANDARD
11
1.00000
21
0.00000
31
0.0
0
MTEXT
5
59c
100
AcDbEntity
8
F-F
62
3
370
-3
100
AcDbMText
10
387.012
20
38.191
30
0.0
40
4.649
41
0.000
71
7
72
1
1
\W1.037;{\W0.747;. }　{\W0.747;.}　{\W0.747; }
7
STANDARD
11
1.00000
21
0.00000
31
0.0
0
MTEXT
5
59d
100
AcDbEntity
8
F-F
62
3
370
-3
100
AcDbMText
10
387.012
20
28.314
30
0.0
40
4.649
41
0.000
71
7
72
1
1
\W1.037;{\W0.747;. }　{\W0.747;.}　{\W0.747; }
7
STANDARD
11
1.00000
21
0.00000
31
0.0
0
TEXT
5
59e
100
AcDbEntity
8
F-F
62
3
370
-3
100
AcDbText
10
1034.383
20
62.373
30
0.0
40
6.564
1
　　　　　　　　　　
41
0.921
50
0.000
100
AcDbText
0
TEXT
5
59f
100
AcDbEntity
8
F-F
62
3
370
-3
100
AcDbText
10
1034.383
20
32.743
30
0.0
40
6.564
1
　　　　　　　　　　
41
0.921
50
0.000
100
AcDbText
0
TEXT
5
5a0
100
AcDbEntity
8
F-F
62
3
370
-3
100
AcDbText
10
1317.846
20
63.920
30
0.0
40
6.564
1
　　　　　　　　　　　　　
41
0.921
50
0.000
100
AcDbText
0
TEXT
5
5a1
100
AcDbEntity
8
F-F
62
3
370
-3
100
AcDbText
10
378.040
20
75.687
30
0.0
40
4.923
1
年　月　日
41
0.914
50
0.000
100
AcDbText
0
TEXT
5
5a2
100
AcDbEntity
8
F-F
62
3
370
-3
100
AcDbText
10
872.996
20
74.368
30
0.0
40
4.923
1
年　　月　　日
41
0.914
50
0.000
100
AcDbText
0
MTEXT
5
5a3
100
AcDbEntity
8
F-F
62
3
370
-3
100
AcDbMText
10
885.548
20
63.398
30
0.0
40
4.649
41
0.000
71
7
72
1
1
\W1.037;{\W0.747;.}　{\W0.747; }　{\W0.747;.}
7
STANDARD
11
1.00000
21
0.00000
31
0.0
0
TEXT
5
5a4
100
AcDbEntity
8
F-F
62
3
370
-3
100
AcDbText
10
815.825
20
45.323
30
0.0
40
4.923
1
受領　　日附
41
0.914
50
0.000
100
AcDbText
0
TEXT
5
5a5
100
AcDbEntity
8
F-F
62
3
370
-3
100
AcDbText
10
872.996
20
44.738
30
0.0
40
4.923
1
年　　月　　日
41
0.914
50
0.000
100
AcDbText
0
MTEXT
5
5a6
100
AcDbEntity
8
F-F
62
3
370
-3
100
AcDbMText
10
885.548
20
33.769
30
0.0
40
4.649
41
0.000
71
7
72
1
1
\W1.037;{\W0.747;.}　{\W0.747; }　{\W0.747;.}
7
STANDARD
11
1.00000
21
0.00000
31
0.0
0
MTEXT
5
5a7
100
AcDbEntity
8
F-F
62
3
370
-3
100
AcDbMText
10
1248.433
20
61.685
30
0.0
40
4.649
41
0.000
71
7
72
1
1
\W1.037;{\W0.747;.}　　{\W0.747;.}　
7
STANDARD
11
1.00000
21
0.00000
31
0.0
0
TEXT
5
5a8
100
AcDbEntity
8
F-F
62
3
370
-3
100
AcDbText
10
114.770
20
61.158
30
0.0
40
13.127
1
小　池　弥　太　郎　商　店
41
0.963
50
0.000
100
AcDbText
0
TEXT
5
5a9
100
AcDbEntity
8
F-F
62
3
370
-3
100
AcDbText
10
1543.695
20
45.508
30
0.0
40
4.923
1
縮　尺
41
0.914
50
0.000
100
AcDbText
0
TEXT
5
5aa
100
AcDbEntity
8
F-F
62
3
370
-3
100
AcDbText
10
1567.012
20
41.647
30
0.0
40
6.564
1
Ａ１－１／２　
41
0.921
50
0.000
100
AcDbText
0
TEXT
5
5ab
100
AcDbEntity
8
F-F
62
3
370
-3
100
AcDbText
10
1567.012
20
26.832
30
0.0
40
6.564
1
Ａ３－１／４　
41
0.921
50
0.000
100
AcDbText
0
TEXT
5
5ac
100
AcDbEntity
8
0-0
62
3
370
-3
100
AcDbText
10
523.348
20
782.904
30
0.0
40
9.846
41
0.538
50
0.000
1
85
72
1
11
529.685
21
781.810
31
0.0
100
AcDbText
73
1
0
TEXT
5
5ad
100
AcDbEntity
8
0-0
62
3
370
-3
100
AcDbText
10
453.348
20
782.904
30
0.0
40
9.846
41
0.543
50
0.000
1
55
72
1
11
459.685
21
781.810
31
0.0
100
AcDbText
73
1
0
TEXT
5
5ae
100
AcDbEntity
8
0-0
62
3
370
-3
100
AcDbText
10
453.348
20
858.404
30
0.0
40
9.846
41
0.538
50
0.000
1
85
72
1
11
459.685
21
857.310
31
0.0
100
AcDbText
73
1
0
TEXT
5
5af
100
AcDbEntity
8
0-0
62
3
370
-3
100
AcDbText
10
523.348
20
858.404
30
0.0
40
9.846
41
0.543
50
0.000
1
55
72
1
11
529.685
21
857.310
31
0.0
100
AcDbText
73
1
0
TEXT
5
5b0
100
AcDbEntity
8
0-0
62
3
370
-3
100
AcDbText
10
520.098
20
878.404
30
0.0
40
9.846
41
0.709
50
0.000
1
140
72
1
11
529.604
21
877.310
31
0.0
100
AcDbText
73
1
0
TEXT
5
5b1
100
AcDbEntity
8
0-0
62
3
370
-3
100
AcDbText
10
380.098
20
878.404
30
0.0
40
9.846
41
0.709
50
0.000
1
140
72
1
11
389.604
21
877.310
31
0.0
100
AcDbText
73
1
0
TEXT
5
5b2
100
AcDbEntity
8
0-0
62
3
370
-3
100
AcDbText
10
678.734
20
811.326
30
0.0
40
9.846
41
0.520
50
90.000
1
25
72
1
11
679.828
21
817.663
31
0.0
100
AcDbText
73
1
0
TEXT
5
5b3
100
AcDbEntity
8
0-0
62
3
370
-3
100
AcDbText
10
660.098
20
878.404
30
0.0
40
9.846
41
0.709
50
0.000
1
140
72
1
11
669.604
21
877.310
31
0.0
100
AcDbText
73
1
0
TEXT
5
5b4
100
AcDbEntity
8
0-0
62
3
370
-3
100
AcDbText
10
800.098
20
878.404
30
0.0
40
9.846
41
0.709
50
0.000
1
140
72
1
11
809.604
21
877.310
31
0.0
100
AcDbText
73
1
0
TEXT
5
5b5
100
AcDbEntity
8
0-0
62
3
370
-3
100
AcDbText
10
940.098
20
878.404
30
0.0
40
9.846
41
0.709
50
0.000
1
140
72
1
11
949.604
21
877.310
31
0.0
100
AcDbText
73
1
0
TEXT
5
5b6
100
AcDbEntity
8
0-0
62
3
370
-3
100
AcDbText
10
660.098
20
898.404
30
0.0
40
9.846
41
0.645
50
0.000
1
700
72
1
11
669.604
21
897.310
31
0.0
100
AcDbText
73
1
0
MTEXT
5
5b7
100
AcDbEntity
8
0-0
62
3
370
-3
100
AcDbMText
10
153.123
20
920.544
30
0.0
40
12.398
41
0.000
71
7
72
1
1
\W1.093;ＫＷ７００{\W0.787; }
7
STANDARD
11
1.00000
21
0.00000
31
0.0
0
TEXT
5
5b8
100
AcDbEntity
8
F-F
62
3
370
-3
100
AcDbText
10
1274.845
20
1112.929
30
0.0
40
13.127
1
製　品　名
41
0.963
50
0.000
100
AcDbText
0
TEXT
5
5b9
100
AcDbEntity
8
F-F
62
3
370
-3
100
AcDbText
10
1274.845
20
1037.929
30
0.0
40
13.127
1
板幅　：　９１４ｍｍ
41
0.963
50
0.000
100
AcDbText
0
TEXT
5
5ba
100
AcDbEntity
8
F-F
62
3
370
-3
100
AcDbText
10
1274.845
20
1087.929
30
0.0
40
13.127
1
ＫＷ７００
41
0.963
50
0.000
100
AcDbText
0
MTEXT
5
5bb
100
AcDbEntity
8
F-F
62
3
370
-3
100
AcDbMText
10
1274.845
20
1061.470
30
0.0
40
12.398
41
0.000
71
7
72
1
1
\W1.093;各種鋼板　０{\W0.787;.}４ｍｍ{\W0.787; }～{\W0.787; }０{\W0.787;.}８ｍｍ
7
STANDARD
11
1.00000
21
0.00000
31
0.0
0
TEXT
5
5bc
100
AcDbEntity
8
F-F
62
3
370
-3
100
AcDbText
10
1557.468
20
61.186
30
0.0
40
8.205
1
KW-700-01A
41
0.598
50
0.000
100
AcDbText
0
TEXT
5
5bd
100
AcDbEntity
8
0-0
62
3
370
-3
100
AcDbText
10
1346.450
20
782.904
30
0.0
40
9.846
41
0.543
50
0.000
1
55
72
1
11
1352.787
21
781.810
31
0.0
100
AcDbText
73
1
0
TEXT
5
5be
100
AcDbEntity
8
0-0
62
3
370
-3
100
AcDbText
10
1346.450
20
858.403
30
0.0
40
9.846
41
0.538
50
0.000
1
85
72
1
11
1352.787
21
857.310
31
0.0
100
AcDbText
73
1
0
TEXT
5
5bf
100
AcDbEntity
8
0-0
62
3
370
-3
100
AcDbText
10
1426.761
20
811.326
30
0.0
40
9.846
41
0.520
50
90.000
1
25
72
1
11
1427.855
21
817.663
31
0.0
100
AcDbText
73
1
0
TEXT
5
5c0
100
AcDbEntity
8
F-F
62
3
370
-3
100
AcDbText
10
1222.716
20
31.566
30
0.0
40
4.923
1
MA 2015-06-15
41
0.618
50
0.000
100
AcDbText
0
TEXT
5
5c1
100
AcDbEntity
8
F-F
62
3
370
-3
100
AcDbText
10
1317.846
20
34.290
30
0.0
40
6.564
1
ＫＷ７００　断面図
41
0.921
50
0.000
100
AcDbText
0
POLYLINE
5
5c2
100
AcDbEntity
  8
F-F
6
CONTINUOUS
62
3
100
AcDb2dPolyline
66
1
10
0
20
0
70
1
40
0.800
41
0.800
0
VERTEX
5
5c3
100
AcDbEntity
  8
F-F
6
CONTINUOUS
62
3
100
AcDbVertex
100
AcDb2dVertex
10
54.357
20
1143.641
30
0.0
42
1.000
0
VERTEX
5
5c4
100
AcDbEntity
  8
F-F
6
CONTINUOUS
62
3
100
AcDbVertex
100
AcDb2dVertex
10
55.157
20
1143.641
30
0.0
42
1.000
0
SEQEND
5
5c5
100
AcDbEntity
  8
F-F
0
POLYLINE
5
5c6
100
AcDbEntity
  8
0-0
6
CONTINUOUS
62
3
100
AcDb2dPolyline
66
1
10
0
20
0
70
1
40
0.800
41
0.800
0
VERTEX
5
5c7
100
AcDbEntity
  8
0-0
6
CONTINUOUS
62
3
100
AcDbVertex
100
AcDb2dVertex
10
416.230
20
854.608
30
0.0
42
1.000
0
VERTEX
5
5c8
100
AcDbEntity
  8
0-0
6
CONTINUOUS
62
3
100
AcDbVertex
100
AcDb2dVertex
10
417.030
20
854.608
30
0.0
42
1.000
0
SEQEND
5
5c9
100
AcDbEntity
  8
0-0
0
POLYLINE
5
5ca
100
AcDbEntity
  8
0-0
6
CONTINUOUS
62
3
100
AcDb2dPolyline
66
1
10
0
20
0
70
1
40
0.800
41
0.800
0
VERTEX
5
5cb
100
AcDbEntity
  8
0-0
6
CONTINUOUS
62
3
100
AcDbVertex
100
AcDb2dVertex
10
318.730
20
874.608
30
0.0
42
1.000
0
VERTEX
5
5cc
100
AcDbEntity
  8
0-0
6
CONTINUOUS
62
3
100
AcDbVertex
100
AcDb2dVertex
10
319.530
20
874.608
30
0.0
42
1.000
0
SEQEND
5
5cd
100
AcDbEntity
  8
0-0
0
POLYLINE
5
5ce
100
AcDbEntity
  8
0-0
6
CONTINUOUS
62
3
100
AcDb2dPolyline
66
1
10
0
20
0
70
1
40
0.800
41
0.800
0
VERTEX
5
5cf
100
AcDbEntity
  8
0-0
6
CONTINUOUS
62
3
100
AcDbVertex
100
AcDb2dVertex
10
458.730
20
874.608
30
0.0
42
1.000
0
VERTEX
5
5d0
100
AcDbEntity
  8
0-0
6
CONTINUOUS
62
3
100
AcDbVertex
100
AcDb2dVertex
10
459.530
20
874.608
30
0.0
42
1.000
0
SEQEND
5
5d1
100
AcDbEntity
  8
0-0
0
POLYLINE
5
5d2
100
AcDbEntity
  8
0-0
6
CONTINUOUS
62
3
100
AcDb2dPolyline
66
1
10
0
20
0
70
1
40
0.800
41
0.800
0
VERTEX
5
5d3
100
AcDbEntity
  8
0-0
6
CONTINUOUS
62
3
100
AcDbVertex
100
AcDb2dVertex
10
318.730
20
894.608
30
0.0
42
1.000
0
VERTEX
5
5d4
100
AcDbEntity
  8
0-0
6
CONTINUOUS
62
3
100
AcDbVertex
100
AcDb2dVertex
10
319.530
20
894.608
30
0.0
42
1.000
0
SEQEND
5
5d5
100
AcDbEntity
  8
0-0
0
POLYLINE
5
5d6
100
AcDbEntity
  8
0-0
6
CONTINUOUS
62
3
100
AcDb2dPolyline
66
1
10
0
20
0
70
1
40
0.800
41
0.800
0
VERTEX
5
5d7
100
AcDbEntity
  8
0-0
6
CONTINUOUS
62
3
100
AcDbVertex
100
AcDb2dVertex
10
431.230
20
779.108
30
0.0
42
1.000
0
VERTEX
5
5d8
100
AcDbEntity
  8
0-0
6
CONTINUOUS
62
3
100
AcDbVertex
100
AcDb2dVertex
10
432.030
20
779.108
30
0.0
42
1.000
0
SEQEND
5
5d9
100
AcDbEntity
  8
0-0
0
POLYLINE
5
5da
100
AcDbEntity
  8
0-0
6
CONTINUOUS
62
3
100
AcDb2dPolyline
66
1
10
0
20
0
70
1
40
0.800
41
0.800
0
VERTEX
5
5db
100
AcDbEntity
  8
0-0
6
CONTINUOUS
62
3
100
AcDbVertex
100
AcDb2dVertex
10
682.130
20
804.608
30
0.0
42
1.000
0
VERTEX
5
5dc
100
AcDbEntity
  8
0-0
6
CONTINUOUS
62
3
100
AcDbVertex
100
AcDb2dVertex
10
682.930
20
804.608
30
0.0
42
1.000
0
SEQEND
5
5dd
100
AcDbEntity
  8
0-0
0
POLYLINE
5
5de
100
AcDbEntity
  8
0-0
6
CONTINUOUS
62
3
100
AcDb2dPolyline
66
1
10
0
20
0
70
1
40
0.800
41
0.800
0
VERTEX
5
5df
100
AcDbEntity
  8
0-0
6
CONTINUOUS
62
3
100
AcDbVertex
100
AcDb2dVertex
10
682.130
20
829.608
30
0.0
42
1.000
0
VERTEX
5
5e0
100
AcDbEntity
  8
0-0
6
CONTINUOUS
62
3
100
AcDbVertex
100
AcDb2dVertex
10
682.930
20
829.608
30
0.0
42
1.000
0
SEQEND
5
5e1
100
AcDbEntity
  8
0-0
0
POLYLINE
5
5e2
100
AcDbEntity
  8
0-0
6
CONTINUOUS
62
3
100
AcDb2dPolyline
66
1
10
0
20
0
70
1
40
0.800
41
0.800
0
VERTEX
5
5e3
100
AcDbEntity
  8
0-0
6
CONTINUOUS
62
3
100
AcDbVertex
100
AcDb2dVertex
10
501.230
20
854.608
30
0.0
42
1.000
0
VERTEX
5
5e4
100
AcDbEntity
  8
0-0
6
CONTINUOUS
62
3
100
AcDbVertex
100
AcDb2dVertex
10
502.030
20
854.608
30
0.0
42
1.000
0
SEQEND
5
5e5
100
AcDbEntity
  8
0-0
0
POLYLINE
5
5e6
100
AcDbEntity
  8
0-0
6
CONTINUOUS
62
3
100
AcDb2dPolyline
66
1
10
0
20
0
70
1
40
0.800
41
0.800
0
VERTEX
5
5e7
100
AcDbEntity
  8
0-0
6
CONTINUOUS
62
3
100
AcDbVertex
100
AcDb2dVertex
10
486.230
20
779.108
30
0.0
42
1.000
0
VERTEX
5
5e8
100
AcDbEntity
  8
0-0
6
CONTINUOUS
62
3
100
AcDbVertex
100
AcDb2dVertex
10
487.030
20
779.108
30
0.0
42
1.000
0
SEQEND
5
5e9
100
AcDbEntity
  8
0-0
0
POLYLINE
5
5ea
100
AcDbEntity
  8
0-0
6
CONTINUOUS
62
3
100
AcDb2dPolyline
66
1
10
0
20
0
70
1
40
0.800
41
0.800
0
VERTEX
5
5eb
100
AcDbEntity
  8
0-0
6
CONTINUOUS
62
3
100
AcDbVertex
100
AcDb2dVertex
10
556.230
20
854.608
30
0.0
42
1.000
0
VERTEX
5
5ec
100
AcDbEntity
  8
0-0
6
CONTINUOUS
62
3
100
AcDbVertex
100
AcDb2dVertex
10
557.030
20
854.608
30
0.0
42
1.000
0
SEQEND
5
5ed
100
AcDbEntity
  8
0-0
0
POLYLINE
5
5ee
100
AcDbEntity
  8
0-0
6
CONTINUOUS
62
3
100
AcDb2dPolyline
66
1
10
0
20
0
70
1
40
0.800
41
0.800
0
VERTEX
5
5ef
100
AcDbEntity
  8
0-0
6
CONTINUOUS
62
3
100
AcDbVertex
100
AcDb2dVertex
10
571.230
20
779.108
30
0.0
42
1.000
0
VERTEX
5
5f0
100
AcDbEntity
  8
0-0
6
CONTINUOUS
62
3
100
AcDbVertex
100
AcDb2dVertex
10
572.030
20
779.108
30
0.0
42
1.000
0
SEQEND
5
5f1
100
AcDbEntity
  8
0-0
0
POLYLINE
5
5f2
100
AcDbEntity
  8
0-0
6
CONTINUOUS
62
3
100
AcDb2dPolyline
66
1
10
0
20
0
70
1
40
0.800
41
0.800
0
VERTEX
5
5f3
100
AcDbEntity
  8
0-0
6
CONTINUOUS
62
3
100
AcDbVertex
100
AcDb2dVertex
10
598.730
20
874.608
30
0.0
42
1.000
0
VERTEX
5
5f4
100
AcDbEntity
  8
0-0
6
CONTINUOUS
62
3
100
AcDbVertex
100
AcDb2dVertex
10
599.530
20
874.608
30
0.0
42
1.000
0
SEQEND
5
5f5
100
AcDbEntity
  8
0-0
0
POLYLINE
5
5f6
100
AcDbEntity
  8
0-0
6
CONTINUOUS
62
3
100
AcDb2dPolyline
66
1
10
0
20
0
70
1
40
0.800
41
0.800
0
VERTEX
5
5f7
100
AcDbEntity
  8
0-0
6
CONTINUOUS
62
3
100
AcDbVertex
100
AcDb2dVertex
10
1018.730
20
874.608
30
0.0
42
1.000
0
VERTEX
5
5f8
100
AcDbEntity
  8
0-0
6
CONTINUOUS
62
3
100
AcDbVertex
100
AcDb2dVertex
10
1019.530
20
874.608
30
0.0
42
1.000
0
SEQEND
5
5f9
100
AcDbEntity
  8
0-0
0
POLYLINE
5
5fa
100
AcDbEntity
  8
0-0
6
CONTINUOUS
62
3
100
AcDb2dPolyline
66
1
10
0
20
0
70
1
40
0.800
41
0.800
0
VERTEX
5
5fb
100
AcDbEntity
  8
0-0
6
CONTINUOUS
62
3
100
AcDbVertex
100
AcDb2dVertex
10
1018.730
20
894.608
30
0.0
42
1.000
0
VERTEX
5
5fc
100
AcDbEntity
  8
0-0
6
CONTINUOUS
62
3
100
AcDbVertex
100
AcDb2dVertex
10
1019.530
20
894.608
30
0.0
42
1.000
0
SEQEND
5
5fd
100
AcDbEntity
  8
0-0
0
POLYLINE
5
5fe
100
AcDbEntity
  8
0-0
6
CONTINUOUS
62
3
100
AcDb2dPolyline
66
1
10
0
20
0
70
1
40
0.800
41
0.800
0
VERTEX
5
5ff
100
AcDbEntity
  8
0-0
6
CONTINUOUS
62
3
100
AcDbVertex
100
AcDb2dVertex
10
598.730
20
874.608
30
0.0
42
1.000
0
VERTEX
5
600
100
AcDbEntity
  8
0-0
6
CONTINUOUS
62
3
100
AcDbVertex
100
AcDb2dVertex
10
599.530
20
874.608
30
0.0
42
1.000
0
SEQEND
5
601
100
AcDbEntity
  8
0-0
0
POLYLINE
5
602
100
AcDbEntity
  8
0-0
6
CONTINUOUS
62
3
100
AcDb2dPolyline
66
1
10
0
20
0
70
1
40
0.800
41
0.800
0
VERTEX
5
603
100
AcDbEntity
  8
0-0
6
CONTINUOUS
62
3
100
AcDbVertex
100
AcDb2dVertex
10
738.730
20
874.608
30
0.0
42
1.000
0
VERTEX
5
604
100
AcDbEntity
  8
0-0
6
CONTINUOUS
62
3
100
AcDbVertex
100
AcDb2dVertex
10
739.530
20
874.608
30
0.0
42
1.000
0
SEQEND
5
605
100
AcDbEntity
  8
0-0
0
POLYLINE
5
606
100
AcDbEntity
  8
0-0
6
CONTINUOUS
62
3
100
AcDb2dPolyline
66
1
10
0
20
0
70
1
40
0.800
41
0.800
0
VERTEX
5
607
100
AcDbEntity
  8
0-0
6
CONTINUOUS
62
3
100
AcDbVertex
100
AcDb2dVertex
10
738.730
20
874.608
30
0.0
42
1.000
0
VERTEX
5
608
100
AcDbEntity
  8
0-0
6
CONTINUOUS
62
3
100
AcDbVertex
100
AcDb2dVertex
10
739.530
20
874.608
30
0.0
42
1.000
0
SEQEND
5
609
100
AcDbEntity
  8
0-0
0
POLYLINE
5
60a
100
AcDbEntity
  8
0-0
6
CONTINUOUS
62
3
100
AcDb2dPolyline
66
1
10
0
20
0
70
1
40
0.800
41
0.800
0
VERTEX
5
60b
100
AcDbEntity
  8
0-0
6
CONTINUOUS
62
3
100
AcDbVertex
100
AcDb2dVertex
10
878.730
20
874.608
30
0.0
42
1.000
0
VERTEX
5
60c
100
AcDbEntity
  8
0-0
6
CONTINUOUS
62
3
100
AcDbVertex
100
AcDb2dVertex
10
879.530
20
874.608
30
0.0
42
1.000
0
SEQEND
5
60d
100
AcDbEntity
  8
0-0
0
POLYLINE
5
60e
100
AcDbEntity
  8
0-0
6
CONTINUOUS
62
3
100
AcDb2dPolyline
66
1
10
0
20
0
70
1
40
0.800
41
0.800
0
VERTEX
5
60f
100
AcDbEntity
  8
0-0
6
CONTINUOUS
62
3
100
AcDbVertex
100
AcDb2dVertex
10
878.730
20
874.608
30
0.0
42
1.000
0
VERTEX
5
610
100
AcDbEntity
  8
0-0
6
CONTINUOUS
62
3
100
AcDbVertex
100
AcDb2dVertex
10
879.530
20
874.608
30
0.0
42
1.000
0
SEQEND
5
611
100
AcDbEntity
  8
0-0
0
POLYLINE
5
612
100
AcDbEntity
  8
0-0
6
CONTINUOUS
62
3
100
AcDb2dPolyline
66
1
10
0
20
0
70
1
40
0.800
41
0.800
0
VERTEX
5
613
100
AcDbEntity
  8
0-0
6
CONTINUOUS
62
3
100
AcDbVertex
100
AcDb2dVertex
10
1309.332
20
854.608
30
0.0
42
1.000
0
VERTEX
5
614
100
AcDbEntity
  8
0-0
6
CONTINUOUS
62
3
100
AcDbVertex
100
AcDb2dVertex
10
1310.132
20
854.608
30
0.0
42
1.000
0
SEQEND
5
615
100
AcDbEntity
  8
0-0
0
POLYLINE
5
616
100
AcDbEntity
  8
0-0
6
CONTINUOUS
62
3
100
AcDb2dPolyline
66
1
10
0
20
0
70
1
40
0.800
41
0.800
0
VERTEX
5
617
100
AcDbEntity
  8
0-0
6
CONTINUOUS
62
3
100
AcDbVertex
100
AcDb2dVertex
10
1324.332
20
779.108
30
0.0
42
1.000
0
VERTEX
5
618
100
AcDbEntity
  8
0-0
6
CONTINUOUS
62
3
100
AcDbVertex
100
AcDb2dVertex
10
1325.132
20
779.108
30
0.0
42
1.000
0
SEQEND
5
619
100
AcDbEntity
  8
0-0
0
POLYLINE
5
61a
100
AcDbEntity
  8
0-0
6
CONTINUOUS
62
3
100
AcDb2dPolyline
66
1
10
0
20
0
70
1
40
0.800
41
0.800
0
VERTEX
5
61b
100
AcDbEntity
  8
0-0
6
CONTINUOUS
62
3
100
AcDbVertex
100
AcDb2dVertex
10
1394.332
20
854.608
30
0.0
42
1.000
0
VERTEX
5
61c
100
AcDbEntity
  8
0-0
6
CONTINUOUS
62
3
100
AcDbVertex
100
AcDb2dVertex
10
1395.132
20
854.608
30
0.0
42
1.000
0
SEQEND
5
61d
100
AcDbEntity
  8
0-0
0
POLYLINE
5
61e
100
AcDbEntity
  8
0-0
6
CONTINUOUS
62
3
100
AcDb2dPolyline
66
1
10
0
20
0
70
1
40
0.800
41
0.800
0
VERTEX
5
61f
100
AcDbEntity
  8
0-0
6
CONTINUOUS
62
3
100
AcDbVertex
100
AcDb2dVertex
10
1379.332
20
779.108
30
0.0
42
1.000
0
VERTEX
5
620
100
AcDbEntity
  8
0-0
6
CONTINUOUS
62
3
100
AcDbVertex
100
AcDb2dVertex
10
1380.132
20
779.108
30
0.0
42
1.000
0
SEQEND
5
621
100
AcDbEntity
  8
0-0
0
POLYLINE
5
622
100
AcDbEntity
  8
0-0
6
CONTINUOUS
62
3
100
AcDb2dPolyline
66
1
10
0
20
0
70
1
40
0.800
41
0.800
0
VERTEX
5
623
100
AcDbEntity
  8
0-0
6
CONTINUOUS
62
3
100
AcDbVertex
100
AcDb2dVertex
10
1430.157
20
829.608
30
0.0
42
1.000
0
VERTEX
5
624
100
AcDbEntity
  8
0-0
6
CONTINUOUS
62
3
100
AcDbVertex
100
AcDb2dVertex
10
1430.957
20
829.608
30
0.0
42
1.000
0
SEQEND
5
625
100
AcDbEntity
  8
0-0
0
POLYLINE
5
626
100
AcDbEntity
  8
0-0
6
CONTINUOUS
62
3
100
AcDb2dPolyline
66
1
10
0
20
0
70
1
40
0.800
41
0.800
0
VERTEX
5
627
100
AcDbEntity
  8
0-0
6
CONTINUOUS
62
3
100
AcDbVertex
100
AcDb2dVertex
10
1430.157
20
804.608
30
0.0
42
1.000
0
VERTEX
5
628
100
AcDbEntity
  8
0-0
6
CONTINUOUS
62
3
100
AcDbVertex
100
AcDb2dVertex
10
1430.957
20
804.608
30
0.0
42
1.000
0
SEQEND
5
629
100
AcDbEntity
  8
0-0
0
ENDSEC
 0
SECTION
  2
OBJECTS
 0
DICTIONARY
  5
C
100
AcDbDictionary
  3
ACAD_GROUP
350
D
  3
ACAD_MLINESTYLE
350
E
 0
DICTIONARY
  5
D
102
{ACAD_REACTORS
102
}
100
AcDbDictionary
 0
DICTIONARY
  5
E
102
{ACAD_REACTORS
102
}
100
AcDbDictionary
  3
STANDARD
350
13
0
MLINESTYLE
  5
13
102
{ACAD_REACTORS
102
}
100
AcDbMlineStyle
  2
STANDARD
 70
    0
3

62
256
51
90.0
52
90.0
71
0
0
ACDBPLACEHOLDER
  5
14
102
{ACAD_REACTORS
102
}
0
ENDSEC
0
EOF
