0
SECTION
2
HEADER
9
$ACADVER
1
AC1009
9
$DWGCODEPAGE
3
ANSI_932
9
$EXTMIN
10
0.000
20
0.000
30
0.0
9
$EXTMAX
10
841.000
20
594.000
30
0.0
9
$LTSCALE
40
2.000
9
$PDMODE
70
0
9
$PDSIZE
40
40.0
0
ENDSEC
0
SECTION
2
TABLES
0
TABLE
2
LTYPE
70
9
0
LTYPE
5
1f4
2
CONTINUOUS
70
64
3
SolidLine
72
65
73
0
40
0.0
0
LTYPE
5
1f5
2
DOT
70
64
3
--  --  --  --  --  --  --  --     
72
65
73
2
40
3.000
49
1.000
49
-2.000
0
LTYPE
5
1f6
2
DASHED
70
64
3
----    ----    ----    ----    
72
65
73
2
40
5.000
49
2.000
49
-3.000
0
LTYPE
5
1f7
2
DASHED2
70
64
3
------  ------  ------  ------ 
72
65
73
2
40
10.000
49
4.000
49
-6.000
0
LTYPE
5
1f8
2
CENTER
70
64
3
----- - ----- - ----- - ----- - 
72
65
73
4
40
10.000
49
6.000
49
-3.000
49
1.000
49
-3.000
0
LTYPE
5
1f9
2
CENTER2
70
64
3
----------  --  ----------  -- 
72
65
73
4
40
17.000
49
12.000
49
-5.000
49
2.000
49
-5.000
0
LTYPE
5
1fa
2
PHANTOM
70
64
3
--- - - --- - - --- - - --- - -
72
65
73
6
40
13.000
49
5.000
49
-3.000
49
1.000
49
-3.000
49
1.000
49
-3.000
0
LTYPE
5
1fb
2
PHANTOM2
70
64
3
--------  -  -  --------  -  -
72
65
73
6
40
20.000
49
6.000
49
-5.000
49
2.000
49
-5.000
49
2.000
49
-5.000
0
LTYPE
5
1fc
2
HIDDEN
70
64
3
-   -   -   -   -   -   -   -   
72
65
73
2
40
3.000
49
0.500
49
-2.500
0
ENDTAB
0
TABLE
2
STYLE
70
1
0
STYLE
5
1fd
100
AcDbSymbolTableRecord
100
AcDbTextStyleTableRecord
2
STANDARD
70
0
40
0.0
41
1.0
50
0.0
71
0
42
0.0
3
txt.shx
4
extfont.shx
0
STYLE
5
1fe
100
AcDbSymbolTableRecord
100
AcDbTextStyleTableRecord
2
TATEGAKI
70
4
40
0.0
41
1.0
50
0.0
71
0
42
0.0
3
txt.shx
4
extfont.shx
0
STYLE
5
1ff
100
AcDbSymbolTableRecord
100
AcDbTextStyleTableRecord
2
DIM
70
0
40
0.0
41
0.75
50
0.0
71
0
42
0.0
3
txt.shx
4
extfont.shx
0
STYLE
5
200
100
AcDbSymbolTableRecord
100
AcDbTextStyleTableRecord
2
_Gothic__
70
0
40
0.0
41
1.0
50
0.0
71
0
42
0.0
3
MS Gothic
4

0
STYLE
5
201
100
AcDbSymbolTableRecord
100
AcDbTextStyleTableRecord
2
_TateGothic_
70
4
40
0.0
41
1.0
50
0.0
71
0
42
0.0
3
@MS Gothic
4

0
ENDTAB
0
TABLE
2
LAYER
5
403
100
AcDbSymbolTable
70
10
0
LAYER
5
404
100
AcDbSymbolTableRecord
100
AcDbLayerTableRecord
2
0-000
70
0
62
7
6
CONTINUOUS
0
LAYER
5
405
100
AcDbSymbolTableRecord
100
AcDbLayerTableRecord
2
0-101
70
0
62
7
6
CONTINUOUS
0
LAYER
5
406
100
AcDbSymbolTableRecord
100
AcDbLayerTableRecord
2
0-2
70
0
62
7
6
CONTINUOUS
0
LAYER
5
407
100
AcDbSymbolTableRecord
100
AcDbLayerTableRecord
2
0-303
70
0
62
7
6
CONTINUOUS
0
LAYER
5
408
100
AcDbSymbolTableRecord
100
AcDbLayerTableRecord
2
F-F_J_ADD
70
0
62
-7
6
CONTINUOUS
0
ENDTAB
0
ENDSEC
0
SECTION
2
ENTITIES
0
LINE
5
409
100
AcDbEntity
8
0-303
6
CONTINUOUS
62
2
100
AcDbLine
10
27.378700407974
20
11.817200176090
30
0.0
11
27.378700407974
21
571.820408520788
31
0.0
0
ARC
5
40a
100
AcDbEntity
8
0-000
6
CONTINUOUS
62
3
100
AcDbCircle
10
212.575603167623
20
479.131107139610
30
0.0
40
1.000000014901
100
AcDbArc
50
1.604187011719
51
90.000000000000
0
ARC
5
40b
100
AcDbEntity
8
0-000
6
CONTINUOUS
62
3
100
AcDbCircle
10
212.575603167623
20
479.131107139610
30
0.0
40
1.000000014901
100
AcDbArc
50
1.604187011719
51
90.000000000000
0
TEXT
5
40c
100
AcDbEntity
8
0-303
62
3
100
AcDbText
10
265.928
20
37.427
30
0.0
40
3.000
1
変　　　　　　更　　　　　　記　　　　　　事
41
1.167
50
0.000
100
AcDbText
0
POINT
5
40d
100
AcDbEntity
8
0-303
62
3
100
AcDbPoint
10
27.378700407974
20
571.820408520788
30
0.0
0
POINT
5
40e
100
AcDbEntity
8
0-303
62
3
100
AcDbPoint
10
27.378700407974
20
571.820408520788
30
0.0
0
LINE
5
40f
100
AcDbEntity
8
0-303
6
CONTINUOUS
62
2
100
AcDbLine
10
642.381009572223
20
41.447000617608
30
0.0
11
642.381009572223
21
11.817200176090
31
0.0
0
LINE
5
410
100
AcDbEntity
8
0-303
6
CONTINUOUS
62
2
100
AcDbLine
10
607.272209049061
20
41.447000617608
30
0.0
11
607.272209049061
21
11.817200176090
31
0.0
0
LINE
5
411
100
AcDbEntity
8
0-303
6
CONTINUOUS
62
2
100
AcDbLine
10
768.561111452453
20
11.817200176090
30
0.0
11
768.561111452453
21
41.447000617608
31
0.0
0
LINE
5
412
100
AcDbEntity
8
0-303
6
CONTINUOUS
62
2
100
AcDbLine
10
403.447306011833
20
41.447000617608
30
0.0
11
403.447306011833
21
11.817200176090
31
0.0
0
LINE
5
413
100
AcDbEntity
8
0-303
6
CONTINUOUS
62
2
100
AcDbLine
10
504.872107523181
20
41.447000617608
30
0.0
11
504.872107523181
21
11.817200176090
31
0.0
0
LINE
5
414
100
AcDbEntity
8
0-303
6
CONTINUOUS
62
2
100
AcDbLine
10
403.447306011833
20
31.570500470437
30
0.0
11
184.879902754925
21
31.570500470437
31
0.0
0
LINE
5
415
100
AcDbEntity
8
0-303
6
CONTINUOUS
62
2
100
AcDbLine
10
403.447306011833
20
21.693700323261
30
0.0
11
184.879902754925
21
21.693700323261
31
0.0
0
LINE
5
416
100
AcDbEntity
8
0-303
6
CONTINUOUS
62
2
100
AcDbLine
10
403.447306011833
20
16.755500249676
30
0.0
11
184.879902754925
21
16.755500249676
31
0.0
0
LINE
5
417
100
AcDbEntity
8
0-303
6
CONTINUOUS
62
2
100
AcDbLine
10
403.447306011833
20
36.508600544021
30
0.0
11
184.879902754925
21
36.508600544021
31
0.0
0
LINE
5
418
100
AcDbEntity
8
0-303
6
CONTINUOUS
62
2
100
AcDbLine
10
211.211403147295
20
41.447000617608
30
0.0
11
211.211403147295
21
11.817200176090
31
0.0
0
LINE
5
419
100
AcDbEntity
8
0-303
6
CONTINUOUS
62
2
100
AcDbLine
10
184.879902754925
20
41.447000617608
30
0.0
11
184.879902754925
21
11.817200176090
31
0.0
0
LINE
5
41a
100
AcDbEntity
8
0-303
6
CONTINUOUS
62
2
100
AcDbLine
10
815.823012156710
20
11.817200176090
30
0.0
11
815.823012156710
21
571.820408520788
31
0.0
0
LINE
5
41b
100
AcDbEntity
8
0-303
6
CONTINUOUS
62
2
100
AcDbLine
10
27.378700407974
20
571.820408520788
30
0.0
11
815.823012156710
21
571.820408520788
31
0.0
0
LINE
5
41c
100
AcDbEntity
8
0-303
6
CONTINUOUS
62
2
100
AcDbLine
10
27.378700407974
20
11.817200176090
30
0.0
11
815.823012156710
21
11.817200176090
31
0.0
0
LINE
5
41d
100
AcDbEntity
8
0-303
6
CONTINUOUS
62
2
100
AcDbLine
10
815.823012156710
20
41.447000617608
30
0.0
11
27.378700407974
21
41.447000617608
31
0.0
0
LINE
5
41e
100
AcDbEntity
8
0-303
6
CONTINUOUS
62
2
100
AcDbLine
10
184.879902754925
20
26.632200396851
30
0.0
11
815.823012156710
21
26.632200396851
31
0.0
0
LINE
5
41f
100
AcDbEntity
8
0-303
6
CONTINUOUS
62
2
100
AcDbLine
10
27.378700407974
20
395.029305886395
30
0.0
11
815.823012156710
21
395.029305886395
31
0.0
0
LINE
5
420
100
AcDbEntity
8
0-303
6
CONTINUOUS
62
2
100
AcDbLine
10
27.378700407974
20
218.238103252001
30
0.0
11
815.823012156710
21
218.238103252001
31
0.0
0
LINE
5
421
100
AcDbEntity
8
0-000
6
CONTINUOUS
62
3
100
AcDbLine
10
212.575603167623
20
480.131107154511
30
0.0
11
194.270402894855
21
480.131107154511
31
0.0
0
LINE
5
422
100
AcDbEntity
8
0-000
6
CONTINUOUS
62
3
100
AcDbLine
10
175.965202622086
20
480.131107154511
30
0.0
11
194.270402894855
21
480.131107154511
31
0.0
0
LINE
5
423
100
AcDbEntity
8
0-000
6
CONTINUOUS
62
3
100
AcDbLine
10
194.270402894855
20
481.131107169412
30
0.0
11
212.575603167623
21
481.131107169412
31
0.0
0
LINE
5
424
100
AcDbEntity
8
0-000
6
CONTINUOUS
62
3
100
AcDbLine
10
213.575203182518
20
479.159107140027
30
0.0
11
214.193603191733
21
457.075206810951
31
0.0
0
LINE
5
425
100
AcDbEntity
8
0-000
6
CONTINUOUS
62
3
100
AcDbLine
10
216.192803221524
20
455.131206781983
30
0.0
11
236.020403516978
21
455.131206781983
31
0.0
0
LINE
5
426
100
AcDbEntity
8
0-000
6
CONTINUOUS
62
3
100
AcDbLine
10
216.192803221524
20
456.131106796883
30
0.0
11
236.020403516978
21
456.131106796883
31
0.0
0
LINE
5
427
100
AcDbEntity
8
0-000
6
CONTINUOUS
62
3
100
AcDbLine
10
215.193203206629
20
457.103106811367
30
0.0
11
214.574803197414
21
479.187107140444
31
0.0
0
LINE
5
428
100
AcDbEntity
8
0-000
6
CONTINUOUS
62
3
100
AcDbLine
10
194.270402894855
20
481.131107169412
30
0.0
11
175.965202622086
21
481.131107169412
31
0.0
0
LINE
5
429
100
AcDbEntity
8
0-000
6
CONTINUOUS
62
3
100
AcDbLine
10
259.465203866333
20
480.131107154511
30
0.0
11
277.770404139102
21
480.131107154511
31
0.0
0
LINE
5
42a
100
AcDbEntity
8
0-000
6
CONTINUOUS
62
3
100
AcDbLine
10
277.770404139102
20
481.131107169412
30
0.0
11
259.465203866333
21
481.131107169412
31
0.0
0
LINE
5
42b
100
AcDbEntity
8
0-000
6
CONTINUOUS
62
3
100
AcDbLine
10
258.465603851438
20
479.159107140027
30
0.0
11
257.847203842223
21
457.075206810951
31
0.0
0
LINE
5
42c
100
AcDbEntity
8
0-000
6
CONTINUOUS
62
3
100
AcDbLine
10
255.848003812432
20
455.131206781983
30
0.0
11
236.020403516978
21
455.131206781983
31
0.0
0
LINE
5
42d
100
AcDbEntity
8
0-000
6
CONTINUOUS
62
3
100
AcDbLine
10
255.848003812432
20
456.131106796883
30
0.0
11
236.020403516978
21
456.131106796883
31
0.0
0
LINE
5
42e
100
AcDbEntity
8
0-000
6
CONTINUOUS
62
3
100
AcDbLine
10
256.847603827327
20
457.103106811367
30
0.0
11
257.466003836542
21
479.187107140444
31
0.0
0
LINE
5
42f
100
AcDbEntity
8
0-000
6
CONTINUOUS
62
3
100
AcDbLine
10
342.965105110578
20
480.131107154511
30
0.0
11
361.270305383347
21
480.131107154511
31
0.0
0
LINE
5
430
100
AcDbEntity
8
0-000
6
CONTINUOUS
62
3
100
AcDbLine
10
361.270305383347
20
481.131107169412
30
0.0
11
342.965105110578
21
481.131107169412
31
0.0
0
LINE
5
431
100
AcDbEntity
8
0-000
6
CONTINUOUS
62
3
100
AcDbLine
10
341.965505095683
20
479.159107140027
30
0.0
11
341.347305086471
21
457.075206810951
31
0.0
0
LINE
5
432
100
AcDbEntity
8
0-000
6
CONTINUOUS
62
3
100
AcDbLine
10
339.348105056681
20
455.131206781983
30
0.0
11
319.520404761225
21
455.131206781983
31
0.0
0
LINE
5
433
100
AcDbEntity
8
0-000
6
CONTINUOUS
62
3
100
AcDbLine
10
339.348105056681
20
456.131106796883
30
0.0
11
319.520404761225
21
456.131106796883
31
0.0
0
LINE
5
434
100
AcDbEntity
8
0-000
6
CONTINUOUS
62
3
100
AcDbLine
10
340.347605071574
20
457.103106811367
30
0.0
11
340.966005080789
21
479.187107140444
31
0.0
0
LINE
5
435
100
AcDbEntity
8
0-000
6
CONTINUOUS
62
3
100
AcDbLine
10
296.075604411870
20
480.131107154511
30
0.0
11
277.770404139102
21
480.131107154511
31
0.0
0
LINE
5
436
100
AcDbEntity
8
0-000
6
CONTINUOUS
62
3
100
AcDbLine
10
277.770404139102
20
481.131107169412
30
0.0
11
296.075604411870
21
481.131107169412
31
0.0
0
LINE
5
437
100
AcDbEntity
8
0-000
6
CONTINUOUS
62
3
100
AcDbLine
10
297.075204426765
20
479.159107140027
30
0.0
11
297.693504435979
21
457.075206810951
31
0.0
0
LINE
5
438
100
AcDbEntity
8
0-000
6
CONTINUOUS
62
3
100
AcDbLine
10
299.692704465769
20
455.131206781983
30
0.0
11
319.520404761225
21
455.131206781983
31
0.0
0
LINE
5
439
100
AcDbEntity
8
0-000
6
CONTINUOUS
62
3
100
AcDbLine
10
299.692704465769
20
456.131106796883
30
0.0
11
319.520404761225
21
456.131106796883
31
0.0
0
LINE
5
43a
100
AcDbEntity
8
0-000
6
CONTINUOUS
62
3
100
AcDbLine
10
298.693104450874
20
457.103106811367
30
0.0
11
298.074804441661
21
479.187107140444
31
0.0
0
LINE
5
43b
100
AcDbEntity
8
0-000
6
CONTINUOUS
62
3
100
AcDbLine
10
173.389602583706
20
458.603106833719
30
0.0
11
173.966002592295
21
479.187107140444
31
0.0
0
LINE
5
43c
100
AcDbEntity
8
0-000
6
CONTINUOUS
62
3
100
AcDbLine
10
174.965602607191
20
479.159107140027
30
0.0
11
174.389302598603
21
458.575206833303
31
0.0
0
LINE
5
43d
100
AcDbEntity
8
0-000
6
CONTINUOUS
62
3
100
AcDbLine
10
128.959201921642
20
457.629306819208
30
0.0
11
122.451601824671
21
457.230306813262
31
0.0
0
LINE
5
43e
100
AcDbEntity
8
0-000
6
CONTINUOUS
62
3
100
AcDbLine
10
122.451601824671
20
457.230306813262
30
0.0
11
122.512801825583
21
456.232206798390
31
0.0
0
LINE
5
43f
100
AcDbEntity
8
0-000
6
CONTINUOUS
62
3
100
AcDbLine
10
128.959201921642
20
457.629306819208
30
0.0
11
172.390102568813
21
457.629306819208
31
0.0
0
LINE
5
440
100
AcDbEntity
8
0-000
6
CONTINUOUS
62
3
100
AcDbLine
10
129.020401922554
20
456.631206804335
30
0.0
11
122.512801825583
21
456.232206798390
31
0.0
0
LINE
5
441
100
AcDbEntity
8
0-000
6
CONTINUOUS
62
3
100
AcDbLine
10
172.390102568813
20
456.631206804335
30
0.0
11
129.020401922554
21
456.631206804335
31
0.0
0
LINE
5
442
100
AcDbEntity
8
0-000
6
CONTINUOUS
62
3
100
AcDbLine
10
379.575605656117
20
480.131107154511
30
0.0
11
361.270305383347
21
480.131107154511
31
0.0
0
LINE
5
443
100
AcDbEntity
8
0-000
6
CONTINUOUS
62
3
100
AcDbLine
10
361.270305383347
20
481.131107169412
30
0.0
11
379.575605656117
21
481.131107169412
31
0.0
0
LINE
5
444
100
AcDbEntity
8
0-000
6
CONTINUOUS
62
3
100
AcDbLine
10
381.121105679147
20
459.659206849456
30
0.0
11
380.575105671011
21
479.159107140027
31
0.0
0
LINE
5
445
100
AcDbEntity
8
0-000
6
CONTINUOUS
62
3
100
AcDbLine
10
382.120805694044
20
459.687106849872
30
0.0
11
381.574705685906
21
479.187107140444
31
0.0
0
LINE
5
446
100
AcDbEntity
8
0-000
6
CONTINUOUS
62
3
100
AcDbLine
10
380.121605664253
20
458.631206834137
30
0.0
11
373.270305562161
21
458.631206834137
31
0.0
0
LINE
5
447
100
AcDbEntity
8
0-000
6
CONTINUOUS
62
3
100
AcDbLine
10
384.020305722348
20
455.131206781983
30
0.0
11
373.270305562161
21
455.131206781983
31
0.0
0
LINE
5
448
100
AcDbEntity
8
0-000
6
CONTINUOUS
62
3
100
AcDbLine
10
373.270305562161
20
457.631106819235
30
0.0
11
380.121605664253
21
457.631106819235
31
0.0
0
LINE
5
449
100
AcDbEntity
8
0-000
6
CONTINUOUS
62
3
100
AcDbLine
10
384.020305722348
20
456.131106796883
30
0.0
11
373.270305562161
21
456.131106796883
31
0.0
0
LINE
5
44a
100
AcDbEntity
8
0-000
6
CONTINUOUS
62
3
100
AcDbLine
10
391.020305826657
20
456.131106796883
30
0.0
11
393.520405863911
21
456.631206804335
31
0.0
0
LINE
5
44b
100
AcDbEntity
8
0-000
6
CONTINUOUS
62
3
100
AcDbLine
10
393.520405863911
20
456.631206804335
30
0.0
11
396.020305901162
21
456.131106796883
31
0.0
0
LINE
5
44c
100
AcDbEntity
8
0-000
6
CONTINUOUS
62
3
100
AcDbLine
10
383.192705710016
20
455.131206781983
30
0.0
11
391.216405829579
21
455.131206781983
31
0.0
0
LINE
5
44d
100
AcDbEntity
8
0-000
6
CONTINUOUS
62
3
100
AcDbLine
10
391.216405829579
20
455.150606782272
30
0.0
11
393.520405863911
21
455.611406789139
31
0.0
0
LINE
5
44e
100
AcDbEntity
8
0-000
6
CONTINUOUS
62
3
100
AcDbLine
10
393.520405863911
20
455.611406789139
30
0.0
11
395.824205898240
21
455.150606782272
31
0.0
0
LINE
5
44f
100
AcDbEntity
8
0-000
6
CONTINUOUS
62
3
100
AcDbLine
10
383.192705710016
20
456.131106796883
30
0.0
11
391.020305826657
21
456.131106796883
31
0.0
0
LINE
5
450
100
AcDbEntity
8
0-000
6
CONTINUOUS
62
3
100
AcDbLine
10
396.020305901162
20
456.131106796883
30
0.0
11
403.020306005470
21
456.131106796883
31
0.0
0
LINE
5
451
100
AcDbEntity
8
0-000
6
CONTINUOUS
62
3
100
AcDbLine
10
408.020306079976
20
456.131106796883
30
0.0
11
403.020306005470
21
456.131106796883
31
0.0
0
LINE
5
452
100
AcDbEntity
8
0-000
6
CONTINUOUS
62
3
100
AcDbLine
10
408.020306079976
20
456.131106796883
30
0.0
11
411.020306124680
21
456.631206804335
31
0.0
0
LINE
5
453
100
AcDbEntity
8
0-000
6
CONTINUOUS
62
3
100
AcDbLine
10
396.020305901162
20
455.131206781983
30
0.0
11
408.103206081212
21
455.131206781983
31
0.0
0
LINE
5
454
100
AcDbEntity
8
0-000
6
CONTINUOUS
62
3
100
AcDbLine
10
408.103206081212
20
455.131206781983
30
0.0
11
411.103206125915
21
455.631206789434
31
0.0
0
LINE
5
455
100
AcDbEntity
8
0-000
6
CONTINUOUS
62
3
100
AcDbLine
10
411.020306124680
20
456.631206804335
30
0.0
11
413.520306161933
21
456.631206804335
31
0.0
0
LINE
5
456
100
AcDbEntity
8
0-000
6
CONTINUOUS
62
3
100
AcDbLine
10
413.520306161933
20
456.631206804335
30
0.0
11
413.520306161933
21
455.631206789434
31
0.0
0
LINE
5
457
100
AcDbEntity
8
0-000
6
CONTINUOUS
62
3
100
AcDbLine
10
413.520306161933
20
455.631206789434
30
0.0
11
411.103206125915
21
455.631206789434
31
0.0
0
LINE
5
458
100
AcDbEntity
8
0-000
6
CONTINUOUS
62
4
100
AcDbLine
10
131.020501952358
20
496.131107392929
30
0.0
11
174.020402593106
21
496.131107392929
31
0.0
0
LINE
5
459
100
AcDbEntity
8
0-000
6
CONTINUOUS
62
4
100
AcDbLine
10
131.020501952358
20
486.131207243919
30
0.0
11
131.020501952358
21
496.131107392929
31
0.0
0
LINE
5
45a
100
AcDbEntity
8
0-000
6
CONTINUOUS
62
4
100
AcDbLine
10
174.020402593106
20
486.131207243919
30
0.0
11
174.020402593106
21
496.131107392929
31
0.0
0
LINE
5
45b
100
AcDbEntity
8
0-000
6
CONTINUOUS
62
4
100
AcDbLine
10
174.020402593106
20
496.131107392929
30
0.0
11
214.520403196603
21
496.131107392929
31
0.0
0
LINE
5
45c
100
AcDbEntity
8
0-000
6
CONTINUOUS
62
4
100
AcDbLine
10
214.520403196603
20
486.131207243919
30
0.0
11
214.520403196603
21
496.131107392929
31
0.0
0
LINE
5
45d
100
AcDbEntity
8
0-000
6
CONTINUOUS
62
4
100
AcDbLine
10
214.520403196603
20
496.131107392929
30
0.0
11
257.520403837353
21
496.131107392929
31
0.0
0
LINE
5
45e
100
AcDbEntity
8
0-000
6
CONTINUOUS
62
4
100
AcDbLine
10
257.520403837353
20
486.131207243919
30
0.0
11
257.520403837353
21
496.131107392929
31
0.0
0
LINE
5
45f
100
AcDbEntity
8
0-000
6
CONTINUOUS
62
4
100
AcDbLine
10
257.520403837353
20
496.131107392929
30
0.0
11
298.020504440851
21
496.131107392929
31
0.0
0
LINE
5
460
100
AcDbEntity
8
0-000
6
CONTINUOUS
62
4
100
AcDbLine
10
298.020504440851
20
486.131207243919
30
0.0
11
298.020504440851
21
496.131107392929
31
0.0
0
LINE
5
461
100
AcDbEntity
8
0-000
6
CONTINUOUS
62
4
100
AcDbLine
10
298.020504440851
20
496.131107392929
30
0.0
11
341.020205081597
21
496.131107392929
31
0.0
0
LINE
5
462
100
AcDbEntity
8
0-000
6
CONTINUOUS
62
4
100
AcDbLine
10
341.020205081597
20
486.131207243919
30
0.0
11
341.020205081597
21
496.131107392929
31
0.0
0
LINE
5
463
100
AcDbEntity
8
0-000
6
CONTINUOUS
62
4
100
AcDbLine
10
341.020205081597
20
496.131107392929
30
0.0
11
381.520305685095
21
496.131107392929
31
0.0
0
LINE
5
464
100
AcDbEntity
8
0-000
6
CONTINUOUS
62
4
100
AcDbLine
10
381.520305685095
20
486.131207243919
30
0.0
11
381.520305685095
21
496.131107392929
31
0.0
0
LINE
5
465
100
AcDbEntity
8
0-000
6
CONTINUOUS
62
4
100
AcDbLine
10
174.020402593106
20
506.131207541943
30
0.0
11
381.520305685095
21
506.131207541943
31
0.0
0
LINE
5
466
100
AcDbEntity
8
0-000
6
CONTINUOUS
62
4
100
AcDbLine
10
174.020402593106
20
496.131107392929
30
0.0
11
174.020402593106
21
506.131207541943
31
0.0
0
LINE
5
467
100
AcDbEntity
8
0-000
6
CONTINUOUS
62
4
100
AcDbLine
10
381.520305685095
20
496.131107392929
30
0.0
11
381.520305685095
21
506.131207541943
31
0.0
0
LINE
5
468
100
AcDbEntity
8
0-000
6
CONTINUOUS
62
4
100
AcDbLine
10
131.020301952355
20
339.340105056562
30
0.0
11
381.520205685094
21
339.340105056562
31
0.0
0
LINE
5
469
100
AcDbEntity
8
0-000
6
CONTINUOUS
62
4
100
AcDbLine
10
131.020301952355
20
329.340204907551
30
0.0
11
131.020301952355
21
339.340105056562
31
0.0
0
LINE
5
46a
100
AcDbEntity
8
0-000
6
CONTINUOUS
62
4
100
AcDbLine
10
381.520205685094
20
329.340204907551
30
0.0
11
381.520205685094
21
339.340105056562
31
0.0
0
LINE
5
46b
100
AcDbEntity
8
0-000
6
CONTINUOUS
62
4
100
AcDbLine
10
321.020204783574
20
455.131106781982
30
0.0
11
321.020204783574
21
481.131107169412
31
0.0
0
LINE
5
46c
100
AcDbEntity
8
0-000
6
CONTINUOUS
62
4
100
AcDbLine
10
331.020204932585
20
455.131106781982
30
0.0
11
321.020204783574
21
455.131106781982
31
0.0
0
LINE
5
46d
100
AcDbEntity
8
0-000
6
CONTINUOUS
62
4
100
AcDbLine
10
331.020204932585
20
481.131107169412
30
0.0
11
321.020204783574
21
481.131107169412
31
0.0
0
LINE
5
46e
100
AcDbEntity
8
0-000
6
CONTINUOUS
62
4
100
AcDbLine
10
154.020402295083
20
457.629406819209
30
0.0
11
154.020402295083
21
481.131107169412
31
0.0
0
LINE
5
46f
100
AcDbEntity
8
0-000
6
CONTINUOUS
62
4
100
AcDbLine
10
164.020402444094
20
457.629406819209
30
0.0
11
154.020402295083
21
457.629406819209
31
0.0
0
LINE
5
470
100
AcDbEntity
8
0-000
6
CONTINUOUS
62
4
100
AcDbLine
10
164.020402444094
20
481.131107169412
30
0.0
11
154.020402295083
21
481.131107169412
31
0.0
0
LINE
5
471
100
AcDbEntity
8
0-000
6
CONTINUOUS
62
4
100
AcDbLine
10
122.451601824671
20
436.631206506312
30
0.0
11
174.389302598603
21
436.631206506312
31
0.0
0
LINE
5
472
100
AcDbEntity
8
0-000
6
CONTINUOUS
62
4
100
AcDbLine
10
122.451601824671
20
446.631206655324
30
0.0
11
122.451601824671
21
436.631206506312
31
0.0
0
LINE
5
473
100
AcDbEntity
8
0-000
6
CONTINUOUS
62
4
100
AcDbLine
10
174.389302598603
20
446.631206655324
30
0.0
11
174.389302598603
21
436.631206506312
31
0.0
0
LINE
5
474
100
AcDbEntity
8
0-000
6
CONTINUOUS
62
4
100
AcDbLine
10
371.520305536084
20
446.631206655324
30
0.0
11
371.520305536084
21
436.631206506312
31
0.0
0
LINE
5
475
100
AcDbEntity
8
0-000
6
CONTINUOUS
62
4
100
AcDbLine
10
371.520305536084
20
436.631206506312
30
0.0
11
413.520206161931
21
436.631206506312
31
0.0
0
LINE
5
476
100
AcDbEntity
8
0-000
6
CONTINUOUS
62
4
100
AcDbLine
10
413.520206161931
20
446.631206655324
30
0.0
11
413.520206161931
21
436.631206506312
31
0.0
0
LINE
5
477
100
AcDbEntity
8
0-2
6
CONTINUOUS
62
4
100
AcDbLine
10
304.144804532111
20
126.620001886785
30
0.0
11
304.144804532111
21
176.619902631842
31
0.0
0
LINE
5
478
100
AcDbEntity
8
0-2
6
CONTINUOUS
62
4
100
AcDbLine
10
309.144804606617
20
126.620001886785
30
0.0
11
304.144804532111
21
126.620001886785
31
0.0
0
LINE
5
479
100
AcDbEntity
8
0-2
6
CONTINUOUS
62
4
100
AcDbLine
10
309.144804606617
20
176.619902631842
30
0.0
11
304.144804532111
21
176.619902631842
31
0.0
0
LINE
5
47a
100
AcDbEntity
8
0-2
6
CONTINUOUS
62
4
100
AcDbLine
10
350.644805225015
20
124.119901849531
30
0.0
11
355.644805299521
21
124.119901849531
31
0.0
0
LINE
5
47b
100
AcDbEntity
8
0-2
6
CONTINUOUS
62
4
100
AcDbLine
10
314.644804688573
20
137.119902043246
30
0.0
11
345.644905150510
21
137.119902043246
31
0.0
0
LINE
5
47c
100
AcDbEntity
8
0-2
6
CONTINUOUS
62
4
100
AcDbLine
10
345.644905150510
20
132.120001968741
30
0.0
11
345.644905150510
21
137.119902043246
31
0.0
0
LINE
5
47d
100
AcDbEntity
8
0-2
6
CONTINUOUS
62
4
100
AcDbLine
10
345.644905150510
20
89.120001327992
30
0.0
11
345.644905150510
21
84.120001253486
31
0.0
0
LINE
5
47e
100
AcDbEntity
8
0-2
6
CONTINUOUS
62
4
100
AcDbLine
10
350.644805225015
20
94.120001402497
30
0.0
11
355.644805299521
21
94.120001402497
31
0.0
0
LINE
5
47f
100
AcDbEntity
8
0-2
6
CONTINUOUS
62
4
100
AcDbLine
10
350.644805225015
20
127.120001894236
30
0.0
11
355.644805299521
21
127.120001894236
31
0.0
0
LINE
5
480
100
AcDbEntity
8
0-2
6
CONTINUOUS
62
3
100
AcDbLine
10
344.693805136338
20
123.711001843438
30
0.0
11
315.060304694764
21
126.623601886839
31
0.0
0
LINE
5
481
100
AcDbEntity
8
0-2
6
CONTINUOUS
62
3
100
AcDbLine
10
344.742705137067
20
124.208601850852
30
0.0
11
315.109204695493
21
127.121201894253
31
0.0
0
LINE
5
482
100
AcDbEntity
8
0-2
6
CONTINUOUS
62
4
100
AcDbLine
10
340.644805076003
20
89.120001327992
30
0.0
11
340.644805076003
21
84.120001253486
31
0.0
0
LINE
5
483
100
AcDbEntity
8
0-2
6
CONTINUOUS
62
4
100
AcDbLine
10
340.644805076003
20
84.120001253486
30
0.0
11
345.644905150510
21
84.120001253486
31
0.0
0
LINE
5
484
100
AcDbEntity
8
0-2
6
CONTINUOUS
62
4
100
AcDbLine
10
355.644805299521
20
127.120001894236
30
0.0
11
355.644805299521
21
94.120001402497
31
0.0
0
LINE
5
485
100
AcDbEntity
8
0-2
6
CONTINUOUS
62
3
100
AcDbLine
10
345.644905150510
20
123.213401836023
30
0.0
11
345.644905150510
21
95.120001417398
31
0.0
0
LINE
5
486
100
AcDbEntity
8
0-2
6
CONTINUOUS
62
3
100
AcDbLine
10
345.144805143058
20
95.120001417398
30
0.0
11
345.144805143058
21
123.213401836023
31
0.0
0
LINE
5
487
100
AcDbEntity
8
0-2
6
CONTINUOUS
62
4
100
AcDbLine
10
504.144807512343
20
126.620001886785
30
0.0
11
504.144807512343
21
176.619902631842
31
0.0
0
LINE
5
488
100
AcDbEntity
8
0-2
6
CONTINUOUS
62
4
100
AcDbLine
10
509.144807586849
20
126.620001886785
30
0.0
11
504.144807512343
21
126.620001886785
31
0.0
0
LINE
5
489
100
AcDbEntity
8
0-2
6
CONTINUOUS
62
4
100
AcDbLine
10
509.144807586849
20
176.619902631842
30
0.0
11
504.144807512343
21
176.619902631842
31
0.0
0
LINE
5
48a
100
AcDbEntity
8
0-2
6
CONTINUOUS
62
4
100
AcDbLine
10
550.644808205247
20
124.119901849531
30
0.0
11
555.644808279753
21
124.119901849531
31
0.0
0
LINE
5
48b
100
AcDbEntity
8
0-2
6
CONTINUOUS
62
4
100
AcDbLine
10
514.644807668805
20
137.119902043246
30
0.0
11
545.644908130743
21
137.119902043246
31
0.0
0
LINE
5
48c
100
AcDbEntity
8
0-2
6
CONTINUOUS
62
4
100
AcDbLine
10
545.644908130743
20
132.120001968741
30
0.0
11
545.644908130743
21
137.119902043246
31
0.0
0
LINE
5
48d
100
AcDbEntity
8
0-2
6
CONTINUOUS
62
4
100
AcDbLine
10
545.644908130743
20
69.120001029968
30
0.0
11
545.644908130743
21
64.120000955462
31
0.0
0
LINE
5
48e
100
AcDbEntity
8
0-2
6
CONTINUOUS
62
4
100
AcDbLine
10
550.644808205247
20
127.120001894236
30
0.0
11
555.644808279753
21
127.120001894236
31
0.0
0
LINE
5
48f
100
AcDbEntity
8
0-2
6
CONTINUOUS
62
3
100
AcDbLine
10
544.693808116570
20
123.711001843438
30
0.0
11
515.060307674997
21
126.623601886839
31
0.0
0
LINE
5
490
100
AcDbEntity
8
0-2
6
CONTINUOUS
62
3
100
AcDbLine
10
544.742708117299
20
124.208601850852
30
0.0
11
515.109207675725
21
127.121201894253
31
0.0
0
LINE
5
491
100
AcDbEntity
8
0-2
6
CONTINUOUS
62
4
100
AcDbLine
10
485.644907236673
20
69.120001029968
30
0.0
11
485.644907236673
21
64.120000955462
31
0.0
0
LINE
5
492
100
AcDbEntity
8
0-2
6
CONTINUOUS
62
4
100
AcDbLine
10
465.644906938650
20
69.120001029968
30
0.0
11
465.644906938650
21
64.120000955462
31
0.0
0
LINE
5
493
100
AcDbEntity
8
0-2
6
CONTINUOUS
62
4
100
AcDbLine
10
465.644906938650
20
64.120000955462
30
0.0
11
545.644908130743
21
64.120000955462
31
0.0
0
LINE
5
494
100
AcDbEntity
8
0-2
6
CONTINUOUS
62
3
100
AcDbLine
10
544.644808115840
20
74.620001111925
30
0.0
11
486.644907251574
21
74.620001111925
31
0.0
0
LINE
5
495
100
AcDbEntity
8
0-2
6
CONTINUOUS
62
3
100
AcDbLine
10
485.144907229222
20
89.620001335442
30
0.0
11
465.644906938650
21
89.620001335442
31
0.0
0
LINE
5
496
100
AcDbEntity
8
0-2
6
CONTINUOUS
62
3
100
AcDbLine
10
486.144907244124
20
75.120001119375
30
0.0
11
486.144907244124
21
88.620001320541
31
0.0
0
LINE
5
497
100
AcDbEntity
8
0-2
6
CONTINUOUS
62
3
100
AcDbLine
10
485.644907236673
20
88.620001320541
30
0.0
11
485.644907236673
21
75.120001119375
31
0.0
0
LINE
5
498
100
AcDbEntity
8
0-2
6
CONTINUOUS
62
3
100
AcDbLine
10
544.644808115840
20
74.120001104474
30
0.0
11
486.644907251574
21
74.120001104474
31
0.0
0
LINE
5
499
100
AcDbEntity
8
0-2
6
CONTINUOUS
62
4
100
AcDbLine
10
460.644906864144
20
74.120001104474
30
0.0
11
455.644906789638
21
74.120001104474
31
0.0
0
LINE
5
49a
100
AcDbEntity
8
0-2
6
CONTINUOUS
62
4
100
AcDbLine
10
460.644906864144
20
89.120001327992
30
0.0
11
455.644906789638
21
89.120001327992
31
0.0
0
LINE
5
49b
100
AcDbEntity
8
0-2
6
CONTINUOUS
62
4
100
AcDbLine
10
455.644906789638
20
89.120001327992
30
0.0
11
455.644906789638
21
74.120001104474
31
0.0
0
LINE
5
49c
100
AcDbEntity
8
0-2
6
CONTINUOUS
62
4
100
AcDbLine
10
139.144702073418
20
154.937302308746
30
0.0
11
189.144702818476
21
154.937302308746
31
0.0
0
LINE
5
49d
100
AcDbEntity
8
0-2
6
CONTINUOUS
62
4
100
AcDbLine
10
139.144702073418
20
149.937402234241
30
0.0
11
139.144702073418
21
154.937302308746
31
0.0
0
LINE
5
49e
100
AcDbEntity
8
0-2
6
CONTINUOUS
62
4
100
AcDbLine
10
189.144702818476
20
149.937402234241
30
0.0
11
189.144702818476
21
154.937302308746
31
0.0
0
LINE
5
49f
100
AcDbEntity
8
0-2
6
CONTINUOUS
62
4
100
AcDbLine
10
134.144701998912
20
144.937302159734
30
0.0
11
129.144701924406
21
144.937302159734
31
0.0
0
LINE
5
4a0
100
AcDbEntity
8
0-2
6
CONTINUOUS
62
3
100
AcDbLine
10
139.644702080868
20
117.437401749954
30
0.0
11
139.644702080868
21
143.937302144833
31
0.0
0
LINE
5
4a1
100
AcDbEntity
8
0-2
6
CONTINUOUS
62
3
100
AcDbLine
10
139.144702073418
20
117.437401749954
30
0.0
11
139.144702073418
21
143.937302144833
31
0.0
0
LINE
5
4a2
100
AcDbEntity
8
0-2
6
CONTINUOUS
62
4
100
AcDbLine
10
129.144701924406
20
144.937302159734
30
0.0
11
129.144701924406
21
116.437401735052
31
0.0
0
LINE
5
4a3
100
AcDbEntity
8
0-2
6
CONTINUOUS
62
4
100
AcDbLine
10
134.144701998912
20
116.437401735052
30
0.0
11
129.144701924406
21
116.437401735052
31
0.0
0
LINE
5
4a4
100
AcDbEntity
8
0-2
6
CONTINUOUS
62
3
100
AcDbLine
10
343.717305121787
20
94.746201411828
30
0.0
11
340.353305071659
21
103.093901536219
31
0.0
0
LINE
5
4a5
100
AcDbEntity
8
0-2
6
CONTINUOUS
62
3
100
AcDbLine
10
340.817005078569
20
103.280801539004
30
0.0
11
340.353305071659
21
103.093901536219
31
0.0
0
LINE
5
4a6
100
AcDbEntity
8
0-2
6
CONTINUOUS
62
3
100
AcDbLine
10
344.181105128698
20
94.933101414613
30
0.0
11
340.817005078569
21
103.280801539004
31
0.0
0
LINE
5
4a7
100
AcDbEntity
8
0-303
6
CONTINUOUS
62
3
100
AcDbLine
10
35.857800534323
20
29.548400440306
30
0.0
11
35.857800534323
21
37.548300559513
31
0.0
0
LINE
5
4a8
100
AcDbEntity
8
0-303
6
CONTINUOUS
62
3
100
AcDbLine
10
35.857800534323
20
37.548300559513
30
0.0
11
43.857800653532
21
37.548300559513
31
0.0
0
LINE
5
4a9
100
AcDbEntity
8
0-303
6
CONTINUOUS
62
3
100
AcDbLine
10
43.857800653532
20
37.548300559513
30
0.0
11
43.857800653532
21
29.548400440306
31
0.0
0
LINE
5
4aa
100
AcDbEntity
8
0-303
6
CONTINUOUS
62
3
100
AcDbLine
10
43.857800653532
20
29.548400440306
30
0.0
11
35.857800534323
21
29.548400440306
31
0.0
0
LINE
5
4ab
100
AcDbEntity
8
0-303
6
CONTINUOUS
62
3
100
AcDbLine
10
36.657800546244
20
30.631300456442
30
0.0
11
36.657800546244
21
36.748300547592
31
0.0
0
LINE
5
4ac
100
AcDbEntity
8
0-303
6
CONTINUOUS
62
3
100
AcDbLine
10
43.057800641611
20
30.348500452228
30
0.0
11
36.940700550459
21
30.348500452228
31
0.0
0
LINE
5
4ad
100
AcDbEntity
8
0-303
6
CONTINUOUS
62
3
100
AcDbLine
10
36.657800546244
20
36.748300547592
30
0.0
11
42.775000637397
21
36.748300547592
31
0.0
0
LINE
5
4ae
100
AcDbEntity
8
0-303
6
CONTINUOUS
62
3
100
AcDbLine
10
42.775000637397
20
36.748300547592
30
0.0
11
36.657800546244
21
30.631300456442
31
0.0
0
LINE
5
4af
100
AcDbEntity
8
0-303
6
CONTINUOUS
62
3
100
AcDbLine
10
43.057800641611
20
36.465600543380
30
0.0
11
36.940700550459
21
30.348500452228
31
0.0
0
LINE
5
4b0
100
AcDbEntity
8
0-303
6
CONTINUOUS
62
3
100
AcDbLine
10
43.057800641611
20
36.465600543380
30
0.0
11
43.057800641611
21
30.348500452228
31
0.0
0
LINE
5
4b1
100
AcDbEntity
8
0-303
6
CONTINUOUS
62
4
100
AcDbLine
10
35.857800534323
20
37.468300558321
30
0.0
11
43.857800653532
21
37.468300558321
31
0.0
0
LINE
5
4b2
100
AcDbEntity
8
0-303
6
CONTINUOUS
62
4
100
AcDbLine
10
35.857800534323
20
37.308500555940
30
0.0
11
43.857800653532
21
37.308500555940
31
0.0
0
LINE
5
4b3
100
AcDbEntity
8
0-303
6
CONTINUOUS
62
4
100
AcDbLine
10
35.857800534323
20
37.148300553553
30
0.0
11
43.857800653532
21
37.148300553553
31
0.0
0
LINE
5
4b4
100
AcDbEntity
8
0-303
6
CONTINUOUS
62
4
100
AcDbLine
10
35.857800534323
20
36.988300551169
30
0.0
11
43.857800653532
21
36.988300551169
31
0.0
0
LINE
5
4b5
100
AcDbEntity
8
0-303
6
CONTINUOUS
62
4
100
AcDbLine
10
35.857800534323
20
36.828300548784
30
0.0
11
43.857800653532
21
36.828300548784
31
0.0
0
LINE
5
4b6
100
AcDbEntity
8
0-303
6
CONTINUOUS
62
4
100
AcDbLine
10
35.857800534323
20
30.268400451034
30
0.0
11
43.857800653532
21
30.268400451034
31
0.0
0
LINE
5
4b7
100
AcDbEntity
8
0-303
6
CONTINUOUS
62
4
100
AcDbLine
10
35.857800534323
20
30.108400448650
30
0.0
11
43.857800653532
21
30.108400448650
31
0.0
0
LINE
5
4b8
100
AcDbEntity
8
0-303
6
CONTINUOUS
62
4
100
AcDbLine
10
35.857800534323
20
29.948400446266
30
0.0
11
43.857800653532
21
29.948400446266
31
0.0
0
LINE
5
4b9
100
AcDbEntity
8
0-303
6
CONTINUOUS
62
4
100
AcDbLine
10
35.857800534323
20
29.788400443882
30
0.0
11
43.857800653532
21
29.788400443882
31
0.0
0
LINE
5
4ba
100
AcDbEntity
8
0-303
6
CONTINUOUS
62
4
100
AcDbLine
10
35.857800534323
20
29.628300441496
30
0.0
11
43.857800653532
21
29.628300441496
31
0.0
0
LINE
5
4bb
100
AcDbEntity
8
0-303
6
CONTINUOUS
62
4
100
AcDbLine
10
35.857800534323
20
30.748400458187
30
0.0
11
36.657800546244
21
30.748400458187
31
0.0
0
LINE
5
4bc
100
AcDbEntity
8
0-303
6
CONTINUOUS
62
4
100
AcDbLine
10
35.857800534323
20
30.908400460571
30
0.0
11
36.657800546244
21
30.908400460571
31
0.0
0
LINE
5
4bd
100
AcDbEntity
8
0-303
6
CONTINUOUS
62
4
100
AcDbLine
10
35.857800534323
20
31.068400462955
30
0.0
11
36.657800546244
21
31.068400462955
31
0.0
0
LINE
5
4be
100
AcDbEntity
8
0-303
6
CONTINUOUS
62
4
100
AcDbLine
10
35.857800534323
20
31.228400465339
30
0.0
11
36.657800546244
21
31.228400465339
31
0.0
0
LINE
5
4bf
100
AcDbEntity
8
0-303
6
CONTINUOUS
62
4
100
AcDbLine
10
35.857800534323
20
31.388300467722
30
0.0
11
36.657800546244
21
31.388300467722
31
0.0
0
LINE
5
4c0
100
AcDbEntity
8
0-303
6
CONTINUOUS
62
4
100
AcDbLine
10
35.857800534323
20
31.548400470108
30
0.0
11
36.657800546244
21
31.548400470108
31
0.0
0
LINE
5
4c1
100
AcDbEntity
8
0-303
6
CONTINUOUS
62
4
100
AcDbLine
10
35.857800534323
20
31.708400472492
30
0.0
11
36.657800546244
21
31.708400472492
31
0.0
0
LINE
5
4c2
100
AcDbEntity
8
0-303
6
CONTINUOUS
62
4
100
AcDbLine
10
35.857800534323
20
31.868300474875
30
0.0
11
36.657800546244
21
31.868300474875
31
0.0
0
LINE
5
4c3
100
AcDbEntity
8
0-303
6
CONTINUOUS
62
4
100
AcDbLine
10
35.857800534323
20
32.028300477259
30
0.0
11
36.657800546244
21
32.028300477259
31
0.0
0
LINE
5
4c4
100
AcDbEntity
8
0-303
6
CONTINUOUS
62
4
100
AcDbLine
10
35.857800534323
20
32.188300479643
30
0.0
11
36.657800546244
21
32.188300479643
31
0.0
0
LINE
5
4c5
100
AcDbEntity
8
0-303
6
CONTINUOUS
62
4
100
AcDbLine
10
35.857800534323
20
32.348400482029
30
0.0
11
36.657800546244
21
32.348400482029
31
0.0
0
LINE
5
4c6
100
AcDbEntity
8
0-303
6
CONTINUOUS
62
4
100
AcDbLine
10
35.857800534323
20
32.508300484411
30
0.0
11
36.657800546244
21
32.508300484411
31
0.0
0
LINE
5
4c7
100
AcDbEntity
8
0-303
6
CONTINUOUS
62
4
100
AcDbLine
10
35.857800534323
20
32.668300486796
30
0.0
11
36.657800546244
21
32.668300486796
31
0.0
0
LINE
5
4c8
100
AcDbEntity
8
0-303
6
CONTINUOUS
62
4
100
AcDbLine
10
35.857800534323
20
32.828300489180
30
0.0
11
36.657800546244
21
32.828300489180
31
0.0
0
LINE
5
4c9
100
AcDbEntity
8
0-303
6
CONTINUOUS
62
4
100
AcDbLine
10
35.857800534323
20
32.988300491564
30
0.0
11
36.657800546244
21
32.988300491564
31
0.0
0
LINE
5
4ca
100
AcDbEntity
8
0-303
6
CONTINUOUS
62
4
100
AcDbLine
10
35.857800534323
20
33.148300493948
30
0.0
11
36.657800546244
21
33.148300493948
31
0.0
0
LINE
5
4cb
100
AcDbEntity
8
0-303
6
CONTINUOUS
62
4
100
AcDbLine
10
35.857800534323
20
33.308400496334
30
0.0
11
36.657800546244
21
33.308400496334
31
0.0
0
LINE
5
4cc
100
AcDbEntity
8
0-303
6
CONTINUOUS
62
4
100
AcDbLine
10
35.857800534323
20
33.468400498718
30
0.0
11
36.657800546244
21
33.468400498718
31
0.0
0
LINE
5
4cd
100
AcDbEntity
8
0-303
6
CONTINUOUS
62
4
100
AcDbLine
10
35.857800534323
20
33.628300501101
30
0.0
11
36.657800546244
21
33.628300501101
31
0.0
0
LINE
5
4ce
100
AcDbEntity
8
0-303
6
CONTINUOUS
62
4
100
AcDbLine
10
35.857800534323
20
33.788400503486
30
0.0
11
36.657800546244
21
33.788400503486
31
0.0
0
LINE
5
4cf
100
AcDbEntity
8
0-303
6
CONTINUOUS
62
4
100
AcDbLine
10
35.857800534323
20
33.948300505869
30
0.0
11
36.657800546244
21
33.948300505869
31
0.0
0
LINE
5
4d0
100
AcDbEntity
8
0-303
6
CONTINUOUS
62
4
100
AcDbLine
10
35.857800534323
20
34.108300508253
30
0.0
11
36.657800546244
21
34.108300508253
31
0.0
0
LINE
5
4d1
100
AcDbEntity
8
0-303
6
CONTINUOUS
62
4
100
AcDbLine
10
35.857800534323
20
34.268400510639
30
0.0
11
36.657800546244
21
34.268400510639
31
0.0
0
LINE
5
4d2
100
AcDbEntity
8
0-303
6
CONTINUOUS
62
4
100
AcDbLine
10
35.857800534323
20
34.428300513022
30
0.0
11
36.657800546244
21
34.428300513022
31
0.0
0
LINE
5
4d3
100
AcDbEntity
8
0-303
6
CONTINUOUS
62
4
100
AcDbLine
10
35.857800534323
20
34.908300520174
30
0.0
11
36.657800546244
21
34.908300520174
31
0.0
0
LINE
5
4d4
100
AcDbEntity
8
0-303
6
CONTINUOUS
62
4
100
AcDbLine
10
35.857800534323
20
35.388400527328
30
0.0
11
36.657800546244
21
35.388400527328
31
0.0
0
LINE
5
4d5
100
AcDbEntity
8
0-303
6
CONTINUOUS
62
4
100
AcDbLine
10
35.857800534323
20
35.548300529711
30
0.0
11
36.657800546244
21
35.548300529711
31
0.0
0
LINE
5
4d6
100
AcDbEntity
8
0-303
6
CONTINUOUS
62
4
100
AcDbLine
10
35.857800534323
20
35.708300532095
30
0.0
11
36.657800546244
21
35.708300532095
31
0.0
0
LINE
5
4d7
100
AcDbEntity
8
0-303
6
CONTINUOUS
62
4
100
AcDbLine
10
35.857800534323
20
35.868300534479
30
0.0
11
36.657800546244
21
35.868300534479
31
0.0
0
LINE
5
4d8
100
AcDbEntity
8
0-303
6
CONTINUOUS
62
4
100
AcDbLine
10
35.857800534323
20
36.668400546402
30
0.0
11
36.657800546244
21
36.668400546402
31
0.0
0
LINE
5
4d9
100
AcDbEntity
8
0-303
6
CONTINUOUS
62
4
100
AcDbLine
10
35.857800534323
20
36.508300544016
30
0.0
11
36.657800546244
21
36.508300544016
31
0.0
0
LINE
5
4da
100
AcDbEntity
8
0-303
6
CONTINUOUS
62
4
100
AcDbLine
10
35.857800534323
20
36.348400541633
30
0.0
11
36.657800546244
21
36.348400541633
31
0.0
0
LINE
5
4db
100
AcDbEntity
8
0-303
6
CONTINUOUS
62
4
100
AcDbLine
10
35.857800534323
20
36.188400539249
30
0.0
11
36.657800546244
21
36.188400539249
31
0.0
0
LINE
5
4dc
100
AcDbEntity
8
0-303
6
CONTINUOUS
62
4
100
AcDbLine
10
35.857800534323
20
36.028300536864
30
0.0
11
36.657800546244
21
36.028300536864
31
0.0
0
LINE
5
4dd
100
AcDbEntity
8
0-303
6
CONTINUOUS
62
4
100
AcDbLine
10
35.857800534323
20
35.068300522558
30
0.0
11
36.657800546244
21
35.068300522558
31
0.0
0
LINE
5
4de
100
AcDbEntity
8
0-303
6
CONTINUOUS
62
4
100
AcDbLine
10
35.857800534323
20
35.228400524944
30
0.0
11
36.657800546244
21
35.228400524944
31
0.0
0
LINE
5
4df
100
AcDbEntity
8
0-303
6
CONTINUOUS
62
4
100
AcDbLine
10
35.857800534323
20
34.748400517792
30
0.0
11
36.657800546244
21
34.748400517792
31
0.0
0
LINE
5
4e0
100
AcDbEntity
8
0-303
6
CONTINUOUS
62
4
100
AcDbLine
10
35.857800534323
20
34.588300515406
30
0.0
11
36.657800546244
21
34.588300515406
31
0.0
0
LINE
5
4e1
100
AcDbEntity
8
0-303
6
CONTINUOUS
62
4
100
AcDbLine
10
36.934900550373
20
30.908400460571
30
0.0
11
37.500700558804
21
30.908400460571
31
0.0
0
LINE
5
4e2
100
AcDbEntity
8
0-303
6
CONTINUOUS
62
4
100
AcDbLine
10
36.775000547990
20
30.748400458187
30
0.0
11
37.340600556418
21
30.748400458187
31
0.0
0
LINE
5
4e3
100
AcDbEntity
8
0-303
6
CONTINUOUS
62
4
100
AcDbLine
10
35.857800534323
20
30.588400455803
30
0.0
11
37.180600554034
21
30.588400455803
31
0.0
0
LINE
5
4e4
100
AcDbEntity
8
0-303
6
CONTINUOUS
62
4
100
AcDbLine
10
35.857800534323
20
30.428400453418
30
0.0
11
37.020700551651
21
30.428400453418
31
0.0
0
LINE
5
4e5
100
AcDbEntity
8
0-303
6
CONTINUOUS
62
4
100
AcDbLine
10
37.895000564679
20
31.868300474875
30
0.0
11
38.460600573108
21
31.868300474875
31
0.0
0
LINE
5
4e6
100
AcDbEntity
8
0-303
6
CONTINUOUS
62
4
100
AcDbLine
10
37.735000562295
20
31.708400472492
30
0.0
11
38.300700570725
21
31.708400472492
31
0.0
0
LINE
5
4e7
100
AcDbEntity
8
0-303
6
CONTINUOUS
62
4
100
AcDbLine
10
37.575000559911
20
31.548400470108
30
0.0
11
38.140600568339
21
31.548400470108
31
0.0
0
LINE
5
4e8
100
AcDbEntity
8
0-303
6
CONTINUOUS
62
4
100
AcDbLine
10
37.415000557527
20
31.388300467722
30
0.0
11
37.980700565957
21
31.388300467722
31
0.0
0
LINE
5
4e9
100
AcDbEntity
8
0-303
6
CONTINUOUS
62
4
100
AcDbLine
10
37.255000555143
20
31.228400465339
30
0.0
11
37.820600563571
21
31.228400465339
31
0.0
0
LINE
5
4ea
100
AcDbEntity
8
0-303
6
CONTINUOUS
62
4
100
AcDbLine
10
37.095000552759
20
31.068400462955
30
0.0
11
37.660700561188
21
31.068400462955
31
0.0
0
LINE
5
4eb
100
AcDbEntity
8
0-303
6
CONTINUOUS
62
4
100
AcDbLine
10
36.657800546244
20
36.748300547592
30
0.0
11
36.657800546244
21
36.909900550000
31
0.0
0
LINE
5
4ec
100
AcDbEntity
8
0-303
6
CONTINUOUS
62
4
100
AcDbLine
10
43.057800641611
20
30.748400458187
30
0.0
11
43.857800653532
21
30.748400458187
31
0.0
0
LINE
5
4ed
100
AcDbEntity
8
0-303
6
CONTINUOUS
62
4
100
AcDbLine
10
43.057800641611
20
30.908400460571
30
0.0
11
43.857800653532
21
30.908400460571
31
0.0
0
LINE
5
4ee
100
AcDbEntity
8
0-303
6
CONTINUOUS
62
4
100
AcDbLine
10
43.057800641611
20
31.068400462955
30
0.0
11
43.857800653532
21
31.068400462955
31
0.0
0
LINE
5
4ef
100
AcDbEntity
8
0-303
6
CONTINUOUS
62
4
100
AcDbLine
10
43.057800641611
20
31.228400465339
30
0.0
11
43.857800653532
21
31.228400465339
31
0.0
0
LINE
5
4f0
100
AcDbEntity
8
0-303
6
CONTINUOUS
62
4
100
AcDbLine
10
43.057800641611
20
31.388300467722
30
0.0
11
43.857800653532
21
31.388300467722
31
0.0
0
LINE
5
4f1
100
AcDbEntity
8
0-303
6
CONTINUOUS
62
4
100
AcDbLine
10
43.057800641611
20
31.548400470108
30
0.0
11
43.857800653532
21
31.548400470108
31
0.0
0
LINE
5
4f2
100
AcDbEntity
8
0-303
6
CONTINUOUS
62
4
100
AcDbLine
10
43.057800641611
20
31.708400472492
30
0.0
11
43.857800653532
21
31.708400472492
31
0.0
0
LINE
5
4f3
100
AcDbEntity
8
0-303
6
CONTINUOUS
62
4
100
AcDbLine
10
43.057800641611
20
31.868300474875
30
0.0
11
43.857800653532
21
31.868300474875
31
0.0
0
LINE
5
4f4
100
AcDbEntity
8
0-303
6
CONTINUOUS
62
4
100
AcDbLine
10
43.057800641611
20
32.028300477259
30
0.0
11
43.857800653532
21
32.028300477259
31
0.0
0
LINE
5
4f5
100
AcDbEntity
8
0-303
6
CONTINUOUS
62
4
100
AcDbLine
10
43.057800641611
20
32.188300479643
30
0.0
11
43.857800653532
21
32.188300479643
31
0.0
0
LINE
5
4f6
100
AcDbEntity
8
0-303
6
CONTINUOUS
62
4
100
AcDbLine
10
43.057800641611
20
32.348400482029
30
0.0
11
43.857800653532
21
32.348400482029
31
0.0
0
LINE
5
4f7
100
AcDbEntity
8
0-303
6
CONTINUOUS
62
4
100
AcDbLine
10
43.057800641611
20
32.508300484411
30
0.0
11
43.857800653532
21
32.508300484411
31
0.0
0
LINE
5
4f8
100
AcDbEntity
8
0-303
6
CONTINUOUS
62
4
100
AcDbLine
10
43.057800641611
20
32.668300486796
30
0.0
11
43.857800653532
21
32.668300486796
31
0.0
0
LINE
5
4f9
100
AcDbEntity
8
0-303
6
CONTINUOUS
62
4
100
AcDbLine
10
43.057800641611
20
32.988300491564
30
0.0
11
43.857800653532
21
32.988300491564
31
0.0
0
LINE
5
4fa
100
AcDbEntity
8
0-303
6
CONTINUOUS
62
4
100
AcDbLine
10
43.057800641611
20
33.148300493948
30
0.0
11
43.857800653532
21
33.148300493948
31
0.0
0
LINE
5
4fb
100
AcDbEntity
8
0-303
6
CONTINUOUS
62
4
100
AcDbLine
10
43.057800641611
20
33.308400496334
30
0.0
11
43.857800653532
21
33.308400496334
31
0.0
0
LINE
5
4fc
100
AcDbEntity
8
0-303
6
CONTINUOUS
62
4
100
AcDbLine
10
43.057800641611
20
33.468400498718
30
0.0
11
43.857800653532
21
33.468400498718
31
0.0
0
LINE
5
4fd
100
AcDbEntity
8
0-303
6
CONTINUOUS
62
4
100
AcDbLine
10
43.057800641611
20
33.628300501101
30
0.0
11
43.857800653532
21
33.628300501101
31
0.0
0
LINE
5
4fe
100
AcDbEntity
8
0-303
6
CONTINUOUS
62
4
100
AcDbLine
10
43.057800641611
20
33.788400503486
30
0.0
11
43.857800653532
21
33.788400503486
31
0.0
0
LINE
5
4ff
100
AcDbEntity
8
0-303
6
CONTINUOUS
62
4
100
AcDbLine
10
43.057800641611
20
33.948300505869
30
0.0
11
43.857800653532
21
33.948300505869
31
0.0
0
LINE
5
500
100
AcDbEntity
8
0-303
6
CONTINUOUS
62
4
100
AcDbLine
10
43.057800641611
20
34.108300508253
30
0.0
11
43.857800653532
21
34.108300508253
31
0.0
0
LINE
5
501
100
AcDbEntity
8
0-303
6
CONTINUOUS
62
4
100
AcDbLine
10
43.057800641611
20
34.268400510639
30
0.0
11
43.857800653532
21
34.268400510639
31
0.0
0
LINE
5
502
100
AcDbEntity
8
0-303
6
CONTINUOUS
62
4
100
AcDbLine
10
43.057800641611
20
34.428300513022
30
0.0
11
43.857800653532
21
34.428300513022
31
0.0
0
LINE
5
503
100
AcDbEntity
8
0-303
6
CONTINUOUS
62
4
100
AcDbLine
10
43.057800641611
20
34.908300520174
30
0.0
11
43.857800653532
21
34.908300520174
31
0.0
0
LINE
5
504
100
AcDbEntity
8
0-303
6
CONTINUOUS
62
4
100
AcDbLine
10
43.057800641611
20
35.388400527328
30
0.0
11
43.857800653532
21
35.388400527328
31
0.0
0
LINE
5
505
100
AcDbEntity
8
0-303
6
CONTINUOUS
62
4
100
AcDbLine
10
43.057800641611
20
35.548300529711
30
0.0
11
43.857800653532
21
35.548300529711
31
0.0
0
LINE
5
506
100
AcDbEntity
8
0-303
6
CONTINUOUS
62
4
100
AcDbLine
10
43.057800641611
20
35.708300532095
30
0.0
11
43.857800653532
21
35.708300532095
31
0.0
0
LINE
5
507
100
AcDbEntity
8
0-303
6
CONTINUOUS
62
4
100
AcDbLine
10
43.057800641611
20
35.868300534479
30
0.0
11
43.857800653532
21
35.868300534479
31
0.0
0
LINE
5
508
100
AcDbEntity
8
0-303
6
CONTINUOUS
62
4
100
AcDbLine
10
43.057800641611
20
36.348400541633
30
0.0
11
43.857800653532
21
36.348400541633
31
0.0
0
LINE
5
509
100
AcDbEntity
8
0-303
6
CONTINUOUS
62
4
100
AcDbLine
10
43.057800641611
20
36.188400539249
30
0.0
11
43.857800653532
21
36.188400539249
31
0.0
0
LINE
5
50a
100
AcDbEntity
8
0-303
6
CONTINUOUS
62
4
100
AcDbLine
10
43.057800641611
20
36.028300536864
30
0.0
11
43.857800653532
21
36.028300536864
31
0.0
0
LINE
5
50b
100
AcDbEntity
8
0-303
6
CONTINUOUS
62
4
100
AcDbLine
10
43.057800641611
20
35.068300522558
30
0.0
11
43.857800653532
21
35.068300522558
31
0.0
0
LINE
5
50c
100
AcDbEntity
8
0-303
6
CONTINUOUS
62
4
100
AcDbLine
10
43.057800641611
20
35.228400524944
30
0.0
11
43.857800653532
21
35.228400524944
31
0.0
0
LINE
5
50d
100
AcDbEntity
8
0-303
6
CONTINUOUS
62
4
100
AcDbLine
10
43.057800641611
20
34.748400517792
30
0.0
11
43.857800653532
21
34.748400517792
31
0.0
0
LINE
5
50e
100
AcDbEntity
8
0-303
6
CONTINUOUS
62
4
100
AcDbLine
10
43.057800641611
20
34.588300515406
30
0.0
11
43.857800653532
21
34.588300515406
31
0.0
0
LINE
5
50f
100
AcDbEntity
8
0-303
6
CONTINUOUS
62
4
100
AcDbLine
10
43.057800641611
20
30.428400453418
30
0.0
11
43.857800653532
21
30.428400453418
31
0.0
0
LINE
5
510
100
AcDbEntity
8
0-303
6
CONTINUOUS
62
4
100
AcDbLine
10
43.057800641611
20
30.588400455803
30
0.0
11
43.857800653532
21
30.588400455803
31
0.0
0
LINE
5
511
100
AcDbEntity
8
0-303
6
CONTINUOUS
62
4
100
AcDbLine
10
42.695000636205
20
36.668400546402
30
0.0
11
43.857800653532
21
36.668400546402
31
0.0
0
LINE
5
512
100
AcDbEntity
8
0-303
6
CONTINUOUS
62
4
100
AcDbLine
10
42.534900633819
20
36.508300544016
30
0.0
11
43.857800653532
21
36.508300544016
31
0.0
0
LINE
5
513
100
AcDbEntity
8
0-303
6
CONTINUOUS
62
4
100
AcDbLine
10
38.535000574216
20
32.508300484411
30
0.0
11
39.100600582644
21
32.508300484411
31
0.0
0
LINE
5
514
100
AcDbEntity
8
0-303
6
CONTINUOUS
62
4
100
AcDbLine
10
38.375000571832
20
32.348400482029
30
0.0
11
38.940700580262
21
32.348400482029
31
0.0
0
LINE
5
515
100
AcDbEntity
8
0-303
6
CONTINUOUS
62
4
100
AcDbLine
10
38.214900569446
20
32.188300479643
30
0.0
11
38.780700577877
21
32.188300479643
31
0.0
0
LINE
5
516
100
AcDbEntity
8
0-303
6
CONTINUOUS
62
4
100
AcDbLine
10
38.055000567064
20
32.028300477259
30
0.0
11
38.620600575492
21
32.028300477259
31
0.0
0
LINE
5
517
100
AcDbEntity
8
0-303
6
CONTINUOUS
62
4
100
AcDbLine
10
39.175000583753
20
33.148300493948
30
0.0
11
39.740600592181
21
33.148300493948
31
0.0
0
LINE
5
518
100
AcDbEntity
8
0-303
6
CONTINUOUS
62
4
100
AcDbLine
10
39.015000581369
20
32.988300491564
30
0.0
11
39.580700589798
21
32.988300491564
31
0.0
0
LINE
5
519
100
AcDbEntity
8
0-303
6
CONTINUOUS
62
4
100
AcDbLine
10
38.855000578985
20
32.828300489180
30
0.0
11
39.420700587414
21
32.828300489180
31
0.0
0
LINE
5
51a
100
AcDbEntity
8
0-303
6
CONTINUOUS
62
4
100
AcDbLine
10
38.695000576600
20
32.668300486796
30
0.0
11
39.260700585030
21
32.668300486796
31
0.0
0
LINE
5
51b
100
AcDbEntity
8
0-303
6
CONTINUOUS
62
4
100
AcDbLine
10
39.815000593290
20
33.788400503486
30
0.0
11
40.380600601718
21
33.788400503486
31
0.0
0
LINE
5
51c
100
AcDbEntity
8
0-303
6
CONTINUOUS
62
4
100
AcDbLine
10
39.655000590906
20
33.628300501101
30
0.0
11
40.220700599335
21
33.628300501101
31
0.0
0
LINE
5
51d
100
AcDbEntity
8
0-303
6
CONTINUOUS
62
4
100
AcDbLine
10
39.494900588520
20
33.468400498718
30
0.0
11
40.060700596951
21
33.468400498718
31
0.0
0
LINE
5
51e
100
AcDbEntity
8
0-303
6
CONTINUOUS
62
4
100
AcDbLine
10
39.335000586137
20
33.308400496334
30
0.0
11
39.900600594565
21
33.308400496334
31
0.0
0
LINE
5
51f
100
AcDbEntity
8
0-303
6
CONTINUOUS
62
4
100
AcDbLine
10
40.455000602826
20
34.428300513022
30
0.0
11
41.020700611256
21
34.428300513022
31
0.0
0
LINE
5
520
100
AcDbEntity
8
0-303
6
CONTINUOUS
62
4
100
AcDbLine
10
40.295000600442
20
34.268400510639
30
0.0
11
40.860600608870
21
34.268400510639
31
0.0
0
LINE
5
521
100
AcDbEntity
8
0-303
6
CONTINUOUS
62
4
100
AcDbLine
10
40.135000598058
20
34.108300508253
30
0.0
11
40.700600606486
21
34.108300508253
31
0.0
0
LINE
5
522
100
AcDbEntity
8
0-303
6
CONTINUOUS
62
4
100
AcDbLine
10
39.975000595674
20
33.948300505869
30
0.0
11
40.540700604104
21
33.948300505869
31
0.0
0
LINE
5
523
100
AcDbEntity
8
0-303
6
CONTINUOUS
62
4
100
AcDbLine
10
41.095000612363
20
35.068300522558
30
0.0
11
41.660600620791
21
35.068300522558
31
0.0
0
LINE
5
524
100
AcDbEntity
8
0-303
6
CONTINUOUS
62
4
100
AcDbLine
10
40.935000609979
20
34.908300520174
30
0.0
11
41.500700618409
21
34.908300520174
31
0.0
0
LINE
5
525
100
AcDbEntity
8
0-303
6
CONTINUOUS
62
4
100
AcDbLine
10
40.774900607593
20
34.748400517792
30
0.0
11
41.340700616024
21
34.748400517792
31
0.0
0
LINE
5
526
100
AcDbEntity
8
0-303
6
CONTINUOUS
62
4
100
AcDbLine
10
40.615000605211
20
34.588300515406
30
0.0
11
41.180600613639
21
34.588300515406
31
0.0
0
LINE
5
527
100
AcDbEntity
8
0-303
6
CONTINUOUS
62
4
100
AcDbLine
10
41.735000621900
20
35.708300532095
30
0.0
11
42.300600630328
21
35.708300532095
31
0.0
0
LINE
5
528
100
AcDbEntity
8
0-303
6
CONTINUOUS
62
4
100
AcDbLine
10
41.575000619516
20
35.548300529711
30
0.0
11
42.140600627944
21
35.548300529711
31
0.0
0
LINE
5
529
100
AcDbEntity
8
0-303
6
CONTINUOUS
62
4
100
AcDbLine
10
41.415000617132
20
35.388400527328
30
0.0
11
41.980600625560
21
35.388400527328
31
0.0
0
LINE
5
52a
100
AcDbEntity
8
0-303
6
CONTINUOUS
62
4
100
AcDbLine
10
41.255000614747
20
35.228300524943
30
0.0
11
41.820700623177
21
35.228300524943
31
0.0
0
LINE
5
52b
100
AcDbEntity
8
0-303
6
CONTINUOUS
62
4
100
AcDbLine
10
42.374900631435
20
36.348400541633
30
0.0
11
42.940600639865
21
36.348400541633
31
0.0
0
LINE
5
52c
100
AcDbEntity
8
0-303
6
CONTINUOUS
62
4
100
AcDbLine
10
42.215000629052
20
36.188400539249
30
0.0
11
42.780600637481
21
36.188400539249
31
0.0
0
LINE
5
52d
100
AcDbEntity
8
0-303
6
CONTINUOUS
62
4
100
AcDbLine
10
42.054900626667
20
36.028300536864
30
0.0
11
42.620700635098
21
36.028300536864
31
0.0
0
LINE
5
52e
100
AcDbEntity
8
0-303
6
CONTINUOUS
62
4
100
AcDbLine
10
41.894900624283
20
35.868300534479
30
0.0
11
42.460600632712
21
35.868300534479
31
0.0
0
LINE
5
52f
100
AcDbEntity
8
0-303
6
CONTINUOUS
62
4
100
AcDbLine
10
43.057800641611
20
32.828300489180
30
0.0
11
43.857800653532
21
32.828300489180
31
0.0
0
LINE
5
530
100
AcDbEntity
8
0-101
6
CONTINUOUS
62
3
100
AcDbLine
10
212.575603167623
20
313.340104669131
30
0.0
11
194.270402894855
21
313.340104669131
31
0.0
0
LINE
5
531
100
AcDbEntity
8
0-101
6
CONTINUOUS
62
3
100
AcDbLine
10
175.965202622086
20
313.340104669131
30
0.0
11
194.270402894855
21
313.340104669131
31
0.0
0
LINE
5
532
100
AcDbEntity
8
0-101
6
CONTINUOUS
62
3
100
AcDbLine
10
194.270402894855
20
314.340104684033
30
0.0
11
212.575603167623
21
314.340104684033
31
0.0
0
LINE
5
533
100
AcDbEntity
8
0-101
6
CONTINUOUS
62
3
100
AcDbLine
10
213.575203182518
20
312.368104654647
30
0.0
11
214.193603191733
21
290.284204325572
31
0.0
0
LINE
5
534
100
AcDbEntity
8
0-101
6
CONTINUOUS
62
3
100
AcDbLine
10
216.192803221524
20
288.340204296604
30
0.0
11
236.020503516980
21
288.340204296604
31
0.0
0
LINE
5
535
100
AcDbEntity
8
0-101
6
CONTINUOUS
62
3
100
AcDbLine
10
216.192803221524
20
289.340104311503
30
0.0
11
236.020503516980
21
289.340104311503
31
0.0
0
LINE
5
536
100
AcDbEntity
8
0-101
6
CONTINUOUS
62
3
100
AcDbLine
10
215.193203206629
20
290.312104325987
30
0.0
11
214.574803197414
21
312.396104655065
31
0.0
0
LINE
5
537
100
AcDbEntity
8
0-101
6
CONTINUOUS
62
3
100
AcDbLine
10
194.270402894855
20
314.340104684033
30
0.0
11
175.965202622086
21
314.340104684033
31
0.0
0
LINE
5
538
100
AcDbEntity
8
0-101
6
CONTINUOUS
62
3
100
AcDbLine
10
259.465303866334
20
313.340104669131
30
0.0
11
277.770404139102
21
313.340104669131
31
0.0
0
LINE
5
539
100
AcDbEntity
8
0-101
6
CONTINUOUS
62
3
100
AcDbLine
10
277.770404139102
20
314.340104684033
30
0.0
11
259.465303866334
21
314.340104684033
31
0.0
0
LINE
5
53a
100
AcDbEntity
8
0-101
6
CONTINUOUS
62
3
100
AcDbLine
10
258.465603851438
20
312.368104654647
30
0.0
11
257.847303842224
21
290.284204325572
31
0.0
0
LINE
5
53b
100
AcDbEntity
8
0-101
6
CONTINUOUS
62
3
100
AcDbLine
10
255.848003812432
20
288.340204296604
30
0.0
11
236.020503516980
21
288.340204296604
31
0.0
0
LINE
5
53c
100
AcDbEntity
8
0-101
6
CONTINUOUS
62
3
100
AcDbLine
10
255.848003812432
20
289.340104311503
30
0.0
11
236.020503516980
21
289.340104311503
31
0.0
0
LINE
5
53d
100
AcDbEntity
8
0-101
6
CONTINUOUS
62
3
100
AcDbLine
10
256.847603827327
20
290.312104325987
30
0.0
11
257.466003836542
21
312.396104655065
31
0.0
0
LINE
5
53e
100
AcDbEntity
8
0-101
6
CONTINUOUS
62
3
100
AcDbLine
10
342.965105110578
20
313.340104669131
30
0.0
11
361.270305383347
21
313.340104669131
31
0.0
0
LINE
5
53f
100
AcDbEntity
8
0-101
6
CONTINUOUS
62
3
100
AcDbLine
10
361.270305383347
20
314.340104684033
30
0.0
11
342.965105110578
21
314.340104684033
31
0.0
0
LINE
5
540
100
AcDbEntity
8
0-101
6
CONTINUOUS
62
3
100
AcDbLine
10
341.965505095683
20
312.368104654647
30
0.0
11
341.347305086471
21
290.284204325572
31
0.0
0
LINE
5
541
100
AcDbEntity
8
0-101
6
CONTINUOUS
62
3
100
AcDbLine
10
339.348105056681
20
288.340204296604
30
0.0
11
319.520404761225
21
288.340204296604
31
0.0
0
LINE
5
542
100
AcDbEntity
8
0-101
6
CONTINUOUS
62
3
100
AcDbLine
10
339.348105056681
20
289.340104311503
30
0.0
11
319.520404761225
21
289.340104311503
31
0.0
0
LINE
5
543
100
AcDbEntity
8
0-101
6
CONTINUOUS
62
3
100
AcDbLine
10
340.347605071574
20
290.312104325987
30
0.0
11
340.966005080789
21
312.396104655065
31
0.0
0
LINE
5
544
100
AcDbEntity
8
0-101
6
CONTINUOUS
62
3
100
AcDbLine
10
296.075604411870
20
313.340104669131
30
0.0
11
277.770404139102
21
313.340104669131
31
0.0
0
LINE
5
545
100
AcDbEntity
8
0-101
6
CONTINUOUS
62
3
100
AcDbLine
10
277.770404139102
20
314.340104684033
30
0.0
11
296.075604411870
21
314.340104684033
31
0.0
0
LINE
5
546
100
AcDbEntity
8
0-101
6
CONTINUOUS
62
3
100
AcDbLine
10
297.075204426765
20
312.368104654647
30
0.0
11
297.693504435979
21
290.284204325572
31
0.0
0
LINE
5
547
100
AcDbEntity
8
0-101
6
CONTINUOUS
62
3
100
AcDbLine
10
299.692704465769
20
288.340204296604
30
0.0
11
319.520404761225
21
288.340204296604
31
0.0
0
LINE
5
548
100
AcDbEntity
8
0-101
6
CONTINUOUS
62
3
100
AcDbLine
10
299.692704465769
20
289.340104311503
30
0.0
11
319.520404761225
21
289.340104311503
31
0.0
0
LINE
5
549
100
AcDbEntity
8
0-101
6
CONTINUOUS
62
3
100
AcDbLine
10
298.693204450876
20
290.312104325987
30
0.0
11
298.074904441662
21
312.396104655065
31
0.0
0
LINE
5
54a
100
AcDbEntity
8
0-101
6
CONTINUOUS
62
3
100
AcDbLine
10
173.389602583706
20
291.812104348339
30
0.0
11
173.966002592295
21
312.396104655065
31
0.0
0
LINE
5
54b
100
AcDbEntity
8
0-101
6
CONTINUOUS
62
3
100
AcDbLine
10
174.965602607191
20
312.368104654647
30
0.0
11
174.389402598605
21
291.784204347923
31
0.0
0
LINE
5
54c
100
AcDbEntity
8
0-101
6
CONTINUOUS
62
3
100
AcDbLine
10
379.575605656117
20
313.340104669131
30
0.0
11
361.270305383347
21
313.340104669131
31
0.0
0
LINE
5
54d
100
AcDbEntity
8
0-101
6
CONTINUOUS
62
3
100
AcDbLine
10
361.270305383347
20
314.340104684033
30
0.0
11
379.575605656117
21
314.340104684033
31
0.0
0
LINE
5
54e
100
AcDbEntity
8
0-101
6
CONTINUOUS
62
3
100
AcDbLine
10
381.121205679148
20
292.868204364076
30
0.0
11
380.575205671012
21
312.368104654647
31
0.0
0
LINE
5
54f
100
AcDbEntity
8
0-101
6
CONTINUOUS
62
3
100
AcDbLine
10
382.120805694044
20
292.896104364492
30
0.0
11
381.574705685906
21
312.396104655065
31
0.0
0
LINE
5
550
100
AcDbEntity
8
0-101
6
CONTINUOUS
62
3
100
AcDbLine
10
380.121605664253
20
291.840204348758
30
0.0
11
373.270405562162
21
291.840204348758
31
0.0
0
LINE
5
551
100
AcDbEntity
8
0-101
6
CONTINUOUS
62
3
100
AcDbLine
10
384.020405722350
20
288.340204296604
30
0.0
11
373.270405562162
21
288.340204296604
31
0.0
0
LINE
5
552
100
AcDbEntity
8
0-101
6
CONTINUOUS
62
3
100
AcDbLine
10
373.270405562162
20
290.840104333855
30
0.0
11
380.121605664253
21
290.840104333855
31
0.0
0
LINE
5
553
100
AcDbEntity
8
0-101
6
CONTINUOUS
62
3
100
AcDbLine
10
384.020405722350
20
289.340104311503
30
0.0
11
373.270405562162
21
289.340104311503
31
0.0
0
LINE
5
554
100
AcDbEntity
8
0-101
6
CONTINUOUS
62
3
100
AcDbLine
10
391.020305826657
20
289.340104311503
30
0.0
11
393.520405863911
21
289.840204318956
31
0.0
0
LINE
5
555
100
AcDbEntity
8
0-101
6
CONTINUOUS
62
3
100
AcDbLine
10
393.520405863911
20
289.840204318956
30
0.0
11
396.020305901162
21
289.340104311503
31
0.0
0
LINE
5
556
100
AcDbEntity
8
0-101
6
CONTINUOUS
62
3
100
AcDbLine
10
383.192705710016
20
288.340204296604
30
0.0
11
391.216405829579
21
288.340204296604
31
0.0
0
LINE
5
557
100
AcDbEntity
8
0-101
6
CONTINUOUS
62
3
100
AcDbLine
10
391.216405829579
20
288.359604296893
30
0.0
11
393.520405863911
21
288.820404303759
31
0.0
0
LINE
5
558
100
AcDbEntity
8
0-101
6
CONTINUOUS
62
3
100
AcDbLine
10
383.192705710016
20
289.340104311503
30
0.0
11
391.020305826657
21
289.340104311503
31
0.0
0
LINE
5
559
100
AcDbEntity
8
0-101
6
CONTINUOUS
62
3
100
AcDbLine
10
396.020305901162
20
289.340104311503
30
0.0
11
403.020306005470
21
289.340104311503
31
0.0
0
LINE
5
55a
100
AcDbEntity
8
0-101
6
CONTINUOUS
62
3
100
AcDbLine
10
408.020406079978
20
289.340104311503
30
0.0
11
403.020306005470
21
289.340104311503
31
0.0
0
LINE
5
55b
100
AcDbEntity
8
0-101
6
CONTINUOUS
62
3
100
AcDbLine
10
408.020406079978
20
289.340104311503
30
0.0
11
411.020306124680
21
289.840204318956
31
0.0
0
LINE
5
55c
100
AcDbEntity
8
0-101
6
CONTINUOUS
62
3
100
AcDbLine
10
408.103206081212
20
288.340204296604
30
0.0
11
411.103206125915
21
288.840204304054
31
0.0
0
LINE
5
55d
100
AcDbEntity
8
0-101
6
CONTINUOUS
62
3
100
AcDbLine
10
411.020306124680
20
289.840204318956
30
0.0
11
413.520406161934
21
289.840204318956
31
0.0
0
LINE
5
55e
100
AcDbEntity
8
0-101
6
CONTINUOUS
62
3
100
AcDbLine
10
413.520406161934
20
289.840204318956
30
0.0
11
413.520406161934
21
288.840204304054
31
0.0
0
LINE
5
55f
100
AcDbEntity
8
0-101
6
CONTINUOUS
62
3
100
AcDbLine
10
413.520406161934
20
288.840204304054
30
0.0
11
411.103206125915
21
288.840204304054
31
0.0
0
LINE
5
560
100
AcDbEntity
8
0-101
6
CONTINUOUS
62
3
100
AcDbLine
10
463.075506900363
20
313.340104669131
30
0.0
11
444.770306627594
21
313.340104669131
31
0.0
0
LINE
5
561
100
AcDbEntity
8
0-101
6
CONTINUOUS
62
3
100
AcDbLine
10
426.465106354825
20
313.340104669131
30
0.0
11
444.770306627594
21
313.340104669131
31
0.0
0
LINE
5
562
100
AcDbEntity
8
0-101
6
CONTINUOUS
62
3
100
AcDbLine
10
444.770306627594
20
314.340104684033
30
0.0
11
463.075506900363
21
314.340104684033
31
0.0
0
LINE
5
563
100
AcDbEntity
8
0-101
6
CONTINUOUS
62
3
100
AcDbLine
10
464.075106915258
20
312.368104654647
30
0.0
11
464.693506924473
21
290.284204325572
31
0.0
0
LINE
5
564
100
AcDbEntity
8
0-101
6
CONTINUOUS
62
3
100
AcDbLine
10
466.692706954263
20
288.340204296604
30
0.0
11
486.520307249717
21
288.340204296604
31
0.0
0
LINE
5
565
100
AcDbEntity
8
0-101
6
CONTINUOUS
62
3
100
AcDbLine
10
466.692706954263
20
289.340104311503
30
0.0
11
486.520307249717
21
289.340104311503
31
0.0
0
LINE
5
566
100
AcDbEntity
8
0-101
6
CONTINUOUS
62
3
100
AcDbLine
10
465.693106939368
20
290.312104325987
30
0.0
11
465.074706930153
21
312.396104655065
31
0.0
0
LINE
5
567
100
AcDbEntity
8
0-101
6
CONTINUOUS
62
3
100
AcDbLine
10
444.770306627594
20
314.340104684033
30
0.0
11
426.465106354825
21
314.340104684033
31
0.0
0
LINE
5
568
100
AcDbEntity
8
0-101
6
CONTINUOUS
62
3
100
AcDbLine
10
509.965107599072
20
313.340104669131
30
0.0
11
528.270307871841
21
313.340104669131
31
0.0
0
LINE
5
569
100
AcDbEntity
8
0-101
6
CONTINUOUS
62
3
100
AcDbLine
10
528.270307871841
20
314.340104684033
30
0.0
11
509.965107599072
21
314.340104684033
31
0.0
0
LINE
5
56a
100
AcDbEntity
8
0-101
6
CONTINUOUS
62
3
100
AcDbLine
10
508.965507584177
20
312.368104654647
30
0.0
11
508.347107574962
21
290.284204325572
31
0.0
0
LINE
5
56b
100
AcDbEntity
8
0-101
6
CONTINUOUS
62
3
100
AcDbLine
10
506.347907545172
20
288.340204296604
30
0.0
11
486.520307249717
21
288.340204296604
31
0.0
0
LINE
5
56c
100
AcDbEntity
8
0-101
6
CONTINUOUS
62
3
100
AcDbLine
10
506.347907545172
20
289.340104311503
30
0.0
11
486.520307249717
21
289.340104311503
31
0.0
0
LINE
5
56d
100
AcDbEntity
8
0-101
6
CONTINUOUS
62
3
100
AcDbLine
10
507.347507560067
20
290.312104325987
30
0.0
11
507.965907569282
21
312.396104655065
31
0.0
0
LINE
5
56e
100
AcDbEntity
8
0-101
6
CONTINUOUS
62
3
100
AcDbLine
10
593.465008843318
20
313.340104669131
30
0.0
11
611.770209116086
21
313.340104669131
31
0.0
0
LINE
5
56f
100
AcDbEntity
8
0-101
6
CONTINUOUS
62
3
100
AcDbLine
10
611.770209116086
20
314.340104684033
30
0.0
11
593.465008843318
21
314.340104684033
31
0.0
0
LINE
5
570
100
AcDbEntity
8
0-101
6
CONTINUOUS
62
3
100
AcDbLine
10
592.465408828422
20
312.368104654647
30
0.0
11
591.847208819211
21
290.284204325572
31
0.0
0
LINE
5
571
100
AcDbEntity
8
0-101
6
CONTINUOUS
62
3
100
AcDbLine
10
589.847908789419
20
288.340204296604
30
0.0
11
570.020308493964
21
288.340204296604
31
0.0
0
LINE
5
572
100
AcDbEntity
8
0-101
6
CONTINUOUS
62
3
100
AcDbLine
10
589.847908789419
20
289.340104311503
30
0.0
11
570.020308493964
21
289.340104311503
31
0.0
0
LINE
5
573
100
AcDbEntity
8
0-101
6
CONTINUOUS
62
3
100
AcDbLine
10
590.847508804314
20
290.312104325987
30
0.0
11
591.465908813529
21
312.396104655065
31
0.0
0
LINE
5
574
100
AcDbEntity
8
0-101
6
CONTINUOUS
62
3
100
AcDbLine
10
546.575508144610
20
313.340104669131
30
0.0
11
528.270307871841
21
313.340104669131
31
0.0
0
LINE
5
575
100
AcDbEntity
8
0-101
6
CONTINUOUS
62
3
100
AcDbLine
10
528.270307871841
20
314.340104684033
30
0.0
11
546.575508144610
21
314.340104684033
31
0.0
0
LINE
5
576
100
AcDbEntity
8
0-101
6
CONTINUOUS
62
3
100
AcDbLine
10
547.575108159505
20
312.368104654647
30
0.0
11
548.193408168718
21
290.284204325572
31
0.0
0
LINE
5
577
100
AcDbEntity
8
0-101
6
CONTINUOUS
62
3
100
AcDbLine
10
550.192608198509
20
288.340204296604
30
0.0
11
570.020308493964
21
288.340204296604
31
0.0
0
LINE
5
578
100
AcDbEntity
8
0-101
6
CONTINUOUS
62
3
100
AcDbLine
10
550.192608198509
20
289.340104311503
30
0.0
11
570.020308493964
21
289.340104311503
31
0.0
0
LINE
5
579
100
AcDbEntity
8
0-101
6
CONTINUOUS
62
3
100
AcDbLine
10
549.193008183613
20
290.312104325987
30
0.0
11
548.574708174400
21
312.396104655065
31
0.0
0
LINE
5
57a
100
AcDbEntity
8
0-101
6
CONTINUOUS
62
3
100
AcDbLine
10
423.889506316446
20
291.812104348339
30
0.0
11
424.465906325035
21
312.396104655065
31
0.0
0
LINE
5
57b
100
AcDbEntity
8
0-101
6
CONTINUOUS
62
3
100
AcDbLine
10
425.465506339930
20
312.368104654647
30
0.0
11
424.889206331342
21
291.784204347923
31
0.0
0
LINE
5
57c
100
AcDbEntity
8
0-101
6
CONTINUOUS
62
3
100
AcDbLine
10
372.951505557410
20
290.439304327883
30
0.0
11
373.012705558322
21
289.441204313010
31
0.0
0
LINE
5
57d
100
AcDbEntity
8
0-101
6
CONTINUOUS
62
3
100
AcDbLine
10
630.075509388857
20
313.340104669131
30
0.0
11
611.770209116086
21
313.340104669131
31
0.0
0
LINE
5
57e
100
AcDbEntity
8
0-101
6
CONTINUOUS
62
3
100
AcDbLine
10
611.770209116086
20
314.340104684033
30
0.0
11
630.075509388857
21
314.340104684033
31
0.0
0
LINE
5
57f
100
AcDbEntity
8
0-101
6
CONTINUOUS
62
3
100
AcDbLine
10
631.621009411886
20
292.868204364076
30
0.0
11
631.075009403750
21
312.368104654647
31
0.0
0
LINE
5
580
100
AcDbEntity
8
0-101
6
CONTINUOUS
62
3
100
AcDbLine
10
632.620709426783
20
292.896104364492
30
0.0
11
632.074609418646
21
312.396104655065
31
0.0
0
LINE
5
581
100
AcDbEntity
8
0-101
6
CONTINUOUS
62
3
100
AcDbLine
10
630.621509396993
20
291.840204348758
30
0.0
11
623.770209294900
21
291.840204348758
31
0.0
0
LINE
5
582
100
AcDbEntity
8
0-101
6
CONTINUOUS
62
3
100
AcDbLine
10
634.520209455088
20
288.340204296604
30
0.0
11
623.770209294900
21
288.340204296604
31
0.0
0
LINE
5
583
100
AcDbEntity
8
0-101
6
CONTINUOUS
62
3
100
AcDbLine
10
623.770209294900
20
290.840104333855
30
0.0
11
630.621509396993
21
290.840104333855
31
0.0
0
LINE
5
584
100
AcDbEntity
8
0-101
6
CONTINUOUS
62
3
100
AcDbLine
10
634.520209455088
20
289.340104311503
30
0.0
11
623.770209294900
21
289.340104311503
31
0.0
0
LINE
5
585
100
AcDbEntity
8
0-101
6
CONTINUOUS
62
3
100
AcDbLine
10
641.520209559396
20
289.340104311503
30
0.0
11
644.020209596649
21
289.840204318956
31
0.0
0
LINE
5
586
100
AcDbEntity
8
0-101
6
CONTINUOUS
62
3
100
AcDbLine
10
644.020209596649
20
289.840204318956
30
0.0
11
646.520209633902
21
289.340104311503
31
0.0
0
LINE
5
587
100
AcDbEntity
8
0-101
6
CONTINUOUS
62
3
100
AcDbLine
10
633.692609442756
20
288.340204296604
30
0.0
11
641.716309562318
21
288.340204296604
31
0.0
0
LINE
5
588
100
AcDbEntity
8
0-101
6
CONTINUOUS
62
3
100
AcDbLine
10
641.716309562318
20
288.359604296893
30
0.0
11
644.020209596649
21
288.820404303759
31
0.0
0
LINE
5
589
100
AcDbEntity
8
0-101
6
CONTINUOUS
62
3
100
AcDbLine
10
644.020209596649
20
288.820404303759
30
0.0
11
646.324109630980
21
288.359604296893
31
0.0
0
LINE
5
58a
100
AcDbEntity
8
0-101
6
CONTINUOUS
62
3
100
AcDbLine
10
633.692609442756
20
289.340104311503
30
0.0
11
641.520209559396
21
289.340104311503
31
0.0
0
LINE
5
58b
100
AcDbEntity
8
0-101
6
CONTINUOUS
62
3
100
AcDbLine
10
646.520209633902
20
289.340104311503
30
0.0
11
653.520109738208
21
289.340104311503
31
0.0
0
LINE
5
58c
100
AcDbEntity
8
0-101
6
CONTINUOUS
62
3
100
AcDbLine
10
658.520209812716
20
289.340104311503
30
0.0
11
653.520109738208
21
289.340104311503
31
0.0
0
LINE
5
58d
100
AcDbEntity
8
0-101
6
CONTINUOUS
62
3
100
AcDbLine
10
658.520209812716
20
289.340104311503
30
0.0
11
661.520209857419
21
289.840204318956
31
0.0
0
LINE
5
58e
100
AcDbEntity
8
0-101
6
CONTINUOUS
62
3
100
AcDbLine
10
646.520209633902
20
288.340204296604
30
0.0
11
658.603109813951
21
288.340204296604
31
0.0
0
LINE
5
58f
100
AcDbEntity
8
0-101
6
CONTINUOUS
62
3
100
AcDbLine
10
658.603109813951
20
288.340204296604
30
0.0
11
661.603009858653
21
288.840204304054
31
0.0
0
LINE
5
590
100
AcDbEntity
8
0-101
6
CONTINUOUS
62
3
100
AcDbLine
10
661.520209857419
20
289.840204318956
30
0.0
11
664.020209894672
21
289.840204318956
31
0.0
0
LINE
5
591
100
AcDbEntity
8
0-101
6
CONTINUOUS
62
3
100
AcDbLine
10
664.020209894672
20
289.840204318956
30
0.0
11
664.020209894672
21
288.840204304054
31
0.0
0
LINE
5
592
100
AcDbEntity
8
0-101
6
CONTINUOUS
62
3
100
AcDbLine
10
664.020209894672
20
288.840204304054
30
0.0
11
661.603009858653
21
288.840204304054
31
0.0
0
LINE
5
593
100
AcDbEntity
8
0-101
6
CONTINUOUS
62
4
100
AcDbLine
10
398.020305930965
20
290.240104324915
30
0.0
11
406.020506050177
21
290.240104324915
31
0.0
0
LINE
5
594
100
AcDbEntity
8
0-101
6
CONTINUOUS
62
4
100
AcDbLine
10
406.270406053901
20
289.590104315229
30
0.0
11
406.270406053901
21
289.990004321188
31
0.0
0
LINE
5
595
100
AcDbEntity
8
0-101
6
CONTINUOUS
62
4
100
AcDbLine
10
397.770405927241
20
289.590104315229
30
0.0
11
397.770405927241
21
289.990004321188
31
0.0
0
LINE
5
596
100
AcDbEntity
8
0-101
6
CONTINUOUS
62
4
100
AcDbLine
10
398.020305930965
20
289.340104311503
30
0.0
11
406.020506050177
21
289.340104311503
31
0.0
0
LINE
5
597
100
AcDbEntity
8
0-101
6
CONTINUOUS
62
4
100
AcDbLine
10
400.335505965464
20
287.840004289150
30
0.0
11
403.705306015678
21
287.840004289150
31
0.0
0
LINE
5
598
100
AcDbEntity
8
0-101
6
CONTINUOUS
62
4
100
AcDbLine
10
403.705306015678
20
286.340104266800
30
0.0
11
403.705306015678
21
287.840004289150
31
0.0
0
LINE
5
599
100
AcDbEntity
8
0-101
6
CONTINUOUS
62
4
100
AcDbLine
10
400.335505965464
20
286.340104266800
30
0.0
11
400.335505965464
21
287.840004289150
31
0.0
0
LINE
5
59a
100
AcDbEntity
8
0-101
6
CONTINUOUS
62
4
100
AcDbLine
10
404.270506024100
20
289.340104311503
30
0.0
11
403.705306015678
21
287.840004289150
31
0.0
0
LINE
5
59b
100
AcDbEntity
8
0-101
6
CONTINUOUS
62
4
100
AcDbLine
10
399.770405957043
20
289.340104311503
30
0.0
11
400.335505965464
21
287.840004289150
31
0.0
0
LINE
5
59c
100
AcDbEntity
8
0-101
6
CONTINUOUS
62
4
100
AcDbLine
10
400.335505965464
20
286.340104266800
30
0.0
11
403.705306015678
21
286.340104266800
31
0.0
0
LINE
5
59d
100
AcDbEntity
8
0-101
6
CONTINUOUS
62
4
100
AcDbLine
10
400.470405967474
20
267.683503988795
30
0.0
11
399.620405954808
21
268.174303996108
31
0.0
0
LINE
5
59e
100
AcDbEntity
8
0-101
6
CONTINUOUS
62
4
100
AcDbLine
10
400.470405967474
20
268.665004003420
30
0.0
11
399.620405954808
21
268.174303996108
31
0.0
0
LINE
5
59f
100
AcDbEntity
8
0-101
6
CONTINUOUS
62
4
100
AcDbLine
10
400.470405967474
20
264.508603941485
30
0.0
11
399.620405954808
21
264.999303948797
31
0.0
0
LINE
5
5a0
100
AcDbEntity
8
0-101
6
CONTINUOUS
62
4
100
AcDbLine
10
400.470405967474
20
265.490103956111
30
0.0
11
399.620405954808
21
264.999303948797
31
0.0
0
LINE
5
5a1
100
AcDbEntity
8
0-101
6
CONTINUOUS
62
4
100
AcDbLine
10
403.570506013669
20
269.271104012452
30
0.0
11
404.420306026332
21
269.761804019764
31
0.0
0
LINE
5
5a2
100
AcDbEntity
8
0-101
6
CONTINUOUS
62
4
100
AcDbLine
10
403.570506013669
20
270.252604027078
30
0.0
11
404.420306026332
21
269.761804019764
31
0.0
0
LINE
5
5a3
100
AcDbEntity
8
0-101
6
CONTINUOUS
62
4
100
AcDbLine
10
403.570506013669
20
266.096103965141
30
0.0
11
404.420306026332
21
266.586803972453
31
0.0
0
LINE
5
5a4
100
AcDbEntity
8
0-101
6
CONTINUOUS
62
4
100
AcDbLine
10
403.570506013669
20
267.077603979766
30
0.0
11
404.420306026332
21
266.586803972453
31
0.0
0
LINE
5
5a5
100
AcDbEntity
8
0-101
6
CONTINUOUS
62
4
100
AcDbLine
10
403.570506013669
20
269.271104012452
30
0.0
11
403.570506013669
21
267.077603979766
31
0.0
0
LINE
5
5a6
100
AcDbEntity
8
0-101
6
CONTINUOUS
62
4
100
AcDbLine
10
400.470405967474
20
267.683503988795
30
0.0
11
400.470405967474
21
265.490103956111
31
0.0
0
LINE
5
5a7
100
AcDbEntity
8
0-101
6
CONTINUOUS
62
4
100
AcDbLine
10
400.470405967474
20
265.490103956111
30
0.0
11
403.570506013669
21
267.077603979766
31
0.0
0
LINE
5
5a8
100
AcDbEntity
8
0-101
6
CONTINUOUS
62
4
100
AcDbLine
10
404.420306026332
20
266.586803972453
30
0.0
11
399.620405954808
21
264.999303948797
31
0.0
0
LINE
5
5a9
100
AcDbEntity
8
0-101
6
CONTINUOUS
62
4
100
AcDbLine
10
400.470405967474
20
264.508603941485
30
0.0
11
403.570506013669
21
266.096103965141
31
0.0
0
LINE
5
5aa
100
AcDbEntity
8
0-101
6
CONTINUOUS
62
4
100
AcDbLine
10
400.470405967474
20
267.683503988795
30
0.0
11
403.570506013669
21
269.271104012452
31
0.0
0
LINE
5
5ab
100
AcDbEntity
8
0-101
6
CONTINUOUS
62
4
100
AcDbLine
10
404.420306026332
20
269.761804019764
30
0.0
11
399.620405954808
21
268.174303996108
31
0.0
0
LINE
5
5ac
100
AcDbEntity
8
0-101
6
CONTINUOUS
62
4
100
AcDbLine
10
400.470405967474
20
268.665004003420
30
0.0
11
403.570506013669
21
270.252604027078
31
0.0
0
LINE
5
5ad
100
AcDbEntity
8
0-101
6
CONTINUOUS
62
4
100
AcDbLine
10
403.570506013669
20
264.053803934708
30
0.0
11
403.430906011589
21
263.449503925703
31
0.0
0
LINE
5
5ae
100
AcDbEntity
8
0-101
6
CONTINUOUS
62
4
100
AcDbLine
10
400.470405967474
20
264.053803934708
30
0.0
11
400.871705973454
21
262.315103908800
31
0.0
0
LINE
5
5af
100
AcDbEntity
8
0-101
6
CONTINUOUS
62
4
100
AcDbLine
10
401.004205975428
20
261.741203900248
30
0.0
11
400.441205967039
21
261.913503902815
31
0.0
0
LINE
5
5b0
100
AcDbEntity
8
0-101
6
CONTINUOUS
62
4
100
AcDbLine
10
400.871705973454
20
262.315103908800
30
0.0
11
400.441205967039
21
261.913503902815
31
0.0
0
LINE
5
5b1
100
AcDbEntity
8
0-101
6
CONTINUOUS
62
4
100
AcDbLine
10
400.470405967474
20
264.053803934708
30
0.0
11
400.470405967474
21
264.508603941485
31
0.0
0
LINE
5
5b2
100
AcDbEntity
8
0-101
6
CONTINUOUS
62
4
100
AcDbLine
10
403.274006009251
20
262.770103915580
30
0.0
11
403.941006019190
21
263.155203921318
31
0.0
0
LINE
5
5b3
100
AcDbEntity
8
0-101
6
CONTINUOUS
62
4
100
AcDbLine
10
403.430906011589
20
263.449503925703
30
0.0
11
403.941006019190
21
263.155203921318
31
0.0
0
LINE
5
5b4
100
AcDbEntity
8
0-101
6
CONTINUOUS
62
4
100
AcDbLine
10
403.570506013669
20
264.053803934708
30
0.0
11
403.570506013669
21
266.096103965141
31
0.0
0
LINE
5
5b5
100
AcDbEntity
8
0-101
6
CONTINUOUS
62
4
100
AcDbLine
10
402.664606000170
20
260.130703876249
30
0.0
11
403.089806006506
21
259.885303872593
31
0.0
0
LINE
5
5b6
100
AcDbEntity
8
0-101
6
CONTINUOUS
62
4
100
AcDbLine
10
403.274006009251
20
262.770103915580
30
0.0
11
402.664606000170
21
260.130703876249
31
0.0
0
LINE
5
5b7
100
AcDbEntity
8
0-101
6
CONTINUOUS
62
4
100
AcDbLine
10
403.274006009251
20
262.770103915580
30
0.0
11
401.004205975428
21
261.741203900248
31
0.0
0
LINE
5
5b8
100
AcDbEntity
8
0-101
6
CONTINUOUS
62
4
100
AcDbLine
10
400.871705973454
20
262.315103908800
30
0.0
11
403.430906011589
21
263.449503925703
31
0.0
0
LINE
5
5b9
100
AcDbEntity
8
0-101
6
CONTINUOUS
62
4
100
AcDbLine
10
403.941006019190
20
263.155203921318
30
0.0
11
400.441205967039
21
261.913503902815
31
0.0
0
LINE
5
5ba
100
AcDbEntity
8
0-101
6
CONTINUOUS
62
4
100
AcDbLine
10
403.570506013669
20
272.446104059763
30
0.0
11
404.420306026332
21
272.936904067077
31
0.0
0
LINE
5
5bb
100
AcDbEntity
8
0-101
6
CONTINUOUS
62
4
100
AcDbLine
10
403.570506013669
20
273.427504074387
30
0.0
11
404.420306026332
21
272.936904067077
31
0.0
0
LINE
5
5bc
100
AcDbEntity
8
0-101
6
CONTINUOUS
62
4
100
AcDbLine
10
403.570506013669
20
272.446104059763
30
0.0
11
403.570506013669
21
270.252604027078
31
0.0
0
LINE
5
5bd
100
AcDbEntity
8
0-101
6
CONTINUOUS
62
4
100
AcDbLine
10
400.470405967474
20
270.858604036108
30
0.0
11
403.570506013669
21
272.446104059763
31
0.0
0
LINE
5
5be
100
AcDbEntity
8
0-101
6
CONTINUOUS
62
4
100
AcDbLine
10
404.420306026332
20
272.936904067077
30
0.0
11
399.620405954808
21
271.349304043420
31
0.0
0
LINE
5
5bf
100
AcDbEntity
8
0-101
6
CONTINUOUS
62
4
100
AcDbLine
10
400.470405967474
20
271.840104050733
30
0.0
11
403.570506013669
21
273.427504074387
31
0.0
0
LINE
5
5c0
100
AcDbEntity
8
0-101
6
CONTINUOUS
62
4
100
AcDbLine
10
400.470405967474
20
270.858604036108
30
0.0
11
399.620405954808
21
271.349304043420
31
0.0
0
LINE
5
5c1
100
AcDbEntity
8
0-101
6
CONTINUOUS
62
4
100
AcDbLine
10
400.470405967474
20
271.840104050733
30
0.0
11
399.620405954808
21
271.349304043420
31
0.0
0
LINE
5
5c2
100
AcDbEntity
8
0-101
6
CONTINUOUS
62
4
100
AcDbLine
10
400.470405967474
20
270.858604036108
30
0.0
11
400.470405967474
21
268.665004003420
31
0.0
0
LINE
5
5c3
100
AcDbEntity
8
0-101
6
CONTINUOUS
62
4
100
AcDbLine
10
403.570506013669
20
275.621104107074
30
0.0
11
404.420306026332
21
276.111804114386
31
0.0
0
LINE
5
5c4
100
AcDbEntity
8
0-101
6
CONTINUOUS
62
4
100
AcDbLine
10
403.570506013669
20
276.602604121700
30
0.0
11
404.420306026332
21
276.111804114386
31
0.0
0
LINE
5
5c5
100
AcDbEntity
8
0-101
6
CONTINUOUS
62
4
100
AcDbLine
10
403.570506013669
20
275.621104107074
30
0.0
11
403.570506013669
21
273.427504074387
31
0.0
0
LINE
5
5c6
100
AcDbEntity
8
0-101
6
CONTINUOUS
62
4
100
AcDbLine
10
400.470405967474
20
274.033604083419
30
0.0
11
403.570506013669
21
275.621104107074
31
0.0
0
LINE
5
5c7
100
AcDbEntity
8
0-101
6
CONTINUOUS
62
4
100
AcDbLine
10
404.420306026332
20
276.111804114386
30
0.0
11
399.620405954808
21
274.524304090731
31
0.0
0
LINE
5
5c8
100
AcDbEntity
8
0-101
6
CONTINUOUS
62
4
100
AcDbLine
10
400.470405967474
20
275.015004098043
30
0.0
11
403.570506013669
21
276.602604121700
31
0.0
0
LINE
5
5c9
100
AcDbEntity
8
0-101
6
CONTINUOUS
62
4
100
AcDbLine
10
400.470405967474
20
274.033604083419
30
0.0
11
399.620405954808
21
274.524304090731
31
0.0
0
LINE
5
5ca
100
AcDbEntity
8
0-101
6
CONTINUOUS
62
4
100
AcDbLine
10
400.470405967474
20
275.015004098043
30
0.0
11
399.620405954808
21
274.524304090731
31
0.0
0
LINE
5
5cb
100
AcDbEntity
8
0-101
6
CONTINUOUS
62
4
100
AcDbLine
10
400.470405967474
20
274.033604083419
30
0.0
11
400.470405967474
21
271.840104050733
31
0.0
0
LINE
5
5cc
100
AcDbEntity
8
0-101
6
CONTINUOUS
62
4
100
AcDbLine
10
403.570506013669
20
278.796104154386
30
0.0
11
404.420306026332
21
279.286804161698
31
0.0
0
LINE
5
5cd
100
AcDbEntity
8
0-101
6
CONTINUOUS
62
4
100
AcDbLine
10
403.570506013669
20
279.777604169011
30
0.0
11
404.420306026332
21
279.286804161698
31
0.0
0
LINE
5
5ce
100
AcDbEntity
8
0-101
6
CONTINUOUS
62
4
100
AcDbLine
10
403.570506013669
20
278.796104154386
30
0.0
11
403.570506013669
21
276.602604121700
31
0.0
0
LINE
5
5cf
100
AcDbEntity
8
0-101
6
CONTINUOUS
62
4
100
AcDbLine
10
400.470405967474
20
277.208604130730
30
0.0
11
403.570506013669
21
278.796104154386
31
0.0
0
LINE
5
5d0
100
AcDbEntity
8
0-101
6
CONTINUOUS
62
4
100
AcDbLine
10
404.420306026332
20
279.286804161698
30
0.0
11
399.620405954808
21
277.699304138042
31
0.0
0
LINE
5
5d1
100
AcDbEntity
8
0-101
6
CONTINUOUS
62
4
100
AcDbLine
10
400.470405967474
20
278.190104145356
30
0.0
11
403.570506013669
21
279.777604169011
31
0.0
0
LINE
5
5d2
100
AcDbEntity
8
0-101
6
CONTINUOUS
62
4
100
AcDbLine
10
400.470405967474
20
277.208604130730
30
0.0
11
399.620405954808
21
277.699304138042
31
0.0
0
LINE
5
5d3
100
AcDbEntity
8
0-101
6
CONTINUOUS
62
4
100
AcDbLine
10
400.470405967474
20
278.190104145356
30
0.0
11
399.620405954808
21
277.699304138042
31
0.0
0
LINE
5
5d4
100
AcDbEntity
8
0-101
6
CONTINUOUS
62
4
100
AcDbLine
10
400.470405967474
20
277.208604130730
30
0.0
11
400.470405967474
21
275.015004098043
31
0.0
0
LINE
5
5d5
100
AcDbEntity
8
0-101
6
CONTINUOUS
62
4
100
AcDbLine
10
403.570506013669
20
281.971104201697
30
0.0
11
404.420306026332
21
282.461804209009
31
0.0
0
LINE
5
5d6
100
AcDbEntity
8
0-101
6
CONTINUOUS
62
4
100
AcDbLine
10
403.570506013669
20
282.952604216322
30
0.0
11
404.420306026332
21
282.461804209009
31
0.0
0
LINE
5
5d7
100
AcDbEntity
8
0-101
6
CONTINUOUS
62
4
100
AcDbLine
10
403.570506013669
20
281.971104201697
30
0.0
11
403.570506013669
21
279.777604169011
31
0.0
0
LINE
5
5d8
100
AcDbEntity
8
0-101
6
CONTINUOUS
62
4
100
AcDbLine
10
400.470405967474
20
280.383604178041
30
0.0
11
403.570506013669
21
281.971104201697
31
0.0
0
LINE
5
5d9
100
AcDbEntity
8
0-101
6
CONTINUOUS
62
4
100
AcDbLine
10
404.420306026332
20
282.461804209009
30
0.0
11
399.620405954808
21
280.874304185353
31
0.0
0
LINE
5
5da
100
AcDbEntity
8
0-101
6
CONTINUOUS
62
4
100
AcDbLine
10
400.470405967474
20
281.365004192665
30
0.0
11
403.570506013669
21
282.952604216322
31
0.0
0
LINE
5
5db
100
AcDbEntity
8
0-101
6
CONTINUOUS
62
4
100
AcDbLine
10
400.470405967474
20
280.383604178041
30
0.0
11
399.620405954808
21
280.874304185353
31
0.0
0
LINE
5
5dc
100
AcDbEntity
8
0-101
6
CONTINUOUS
62
4
100
AcDbLine
10
400.470405967474
20
281.365004192665
30
0.0
11
399.620405954808
21
280.874304185353
31
0.0
0
LINE
5
5dd
100
AcDbEntity
8
0-101
6
CONTINUOUS
62
4
100
AcDbLine
10
400.470405967474
20
280.383604178041
30
0.0
11
400.470405967474
21
278.190104145356
31
0.0
0
LINE
5
5de
100
AcDbEntity
8
0-101
6
CONTINUOUS
62
4
100
AcDbLine
10
404.010306020223
20
285.400104252793
30
0.0
11
403.570506013669
21
285.146104249008
31
0.0
0
LINE
5
5df
100
AcDbEntity
8
0-101
6
CONTINUOUS
62
4
100
AcDbLine
10
404.010306020223
20
285.873504259847
30
0.0
11
403.570506013669
21
286.127504263632
31
0.0
0
LINE
5
5e0
100
AcDbEntity
8
0-101
6
CONTINUOUS
62
4
100
AcDbLine
10
403.570506013669
20
285.146104249008
30
0.0
11
403.570506013669
21
282.952604216322
31
0.0
0
LINE
5
5e1
100
AcDbEntity
8
0-101
6
CONTINUOUS
62
4
100
AcDbLine
10
400.470405967474
20
283.558604225352
30
0.0
11
403.570506013669
21
285.146104249008
31
0.0
0
LINE
5
5e2
100
AcDbEntity
8
0-101
6
CONTINUOUS
62
4
100
AcDbLine
10
400.470405967474
20
284.540104239978
30
0.0
11
403.570506013669
21
286.127504263632
31
0.0
0
LINE
5
5e3
100
AcDbEntity
8
0-101
6
CONTINUOUS
62
4
100
AcDbLine
10
399.884805958748
20
283.896704230390
30
0.0
11
400.470405967474
21
283.558604225352
31
0.0
0
LINE
5
5e4
100
AcDbEntity
8
0-101
6
CONTINUOUS
62
4
100
AcDbLine
10
399.884805958748
20
284.201904234938
30
0.0
11
400.470405967474
21
284.540104239978
31
0.0
0
LINE
5
5e5
100
AcDbEntity
8
0-101
6
CONTINUOUS
62
4
100
AcDbLine
10
400.470405967474
20
283.558604225352
30
0.0
11
400.470405967474
21
281.365004192665
31
0.0
0
LINE
5
5e6
100
AcDbEntity
8
0-101
6
CONTINUOUS
62
4
100
AcDbLine
10
403.705306015678
20
286.340104266800
30
0.0
11
403.570506013669
21
286.127504263632
31
0.0
0
LINE
5
5e7
100
AcDbEntity
8
0-101
6
CONTINUOUS
62
4
100
AcDbLine
10
400.335505965464
20
286.340104266800
30
0.0
11
400.470405967474
21
284.540104239978
31
0.0
0
LINE
5
5e8
100
AcDbEntity
8
0-101
6
CONTINUOUS
62
4
100
AcDbLine
10
399.884805958748
20
284.201904234938
30
0.0
11
399.884805958748
21
283.896704230390
31
0.0
0
LINE
5
5e9
100
AcDbEntity
8
0-101
6
CONTINUOUS
62
4
100
AcDbLine
10
404.010306020223
20
285.873504259847
30
0.0
11
404.010306020223
21
285.400104252793
31
0.0
0
LINE
5
5ea
100
AcDbEntity
8
0-101
6
CONTINUOUS
62
4
100
AcDbLine
10
404.010306020223
20
285.400104252793
30
0.0
11
399.884805958748
21
283.896704230390
31
0.0
0
LINE
5
5eb
100
AcDbEntity
8
0-101
6
CONTINUOUS
62
4
100
AcDbLine
10
399.884805958748
20
284.201904234938
30
0.0
11
404.010306020223
21
285.873504259847
31
0.0
0
LINE
5
5ec
100
AcDbEntity
8
0-101
6
DOT
62
4
100
AcDbLine
10
404.070306021117
20
290.240104324915
30
0.0
11
403.165506007634
21
288.424904297866
31
0.0
0
LINE
5
5ed
100
AcDbEntity
8
0-101
6
DOT
62
4
100
AcDbLine
10
403.165506007634
20
288.424904297866
30
0.0
11
402.020305990569
21
287.816104288794
31
0.0
0
LINE
5
5ee
100
AcDbEntity
8
0-101
6
DOT
62
4
100
AcDbLine
10
402.020305990569
20
287.816104288794
30
0.0
11
400.875405973509
21
288.424904297866
31
0.0
0
LINE
5
5ef
100
AcDbEntity
8
0-101
6
DOT
62
4
100
AcDbLine
10
399.970405960023
20
290.240104324915
30
0.0
11
400.875405973509
21
288.424904297866
31
0.0
0
LINE
5
5f0
100
AcDbEntity
8
0-101
6
CONTINUOUS
62
4
100
AcDbLine
10
402.664606000170
20
260.130703876249
30
0.0
11
401.788805987120
21
258.343603849620
31
0.0
0
LINE
5
5f1
100
AcDbEntity
8
0-101
6
CONTINUOUS
62
4
100
AcDbLine
10
403.089806006506
20
259.885303872593
30
0.0
11
401.788805987120
21
258.343603849620
31
0.0
0
LINE
5
5f2
100
AcDbEntity
8
0-101
6
CONTINUOUS
62
4
100
AcDbLine
10
401.004205975428
20
261.741203900248
30
0.0
11
402.020305990569
21
257.340003834665
31
0.0
0
LINE
5
5f3
100
AcDbEntity
8
0-101
6
CENTER2
62
4
100
AcDbLine
10
402.020305990569
20
290.240104324915
30
0.0
11
402.020305990569
21
257.340003834665
31
0.0
0
LINE
5
5f4
100
AcDbEntity
8
0-101
6
CONTINUOUS
62
4
100
AcDbLine
10
402.426605996624
20
259.099603860885
30
0.0
11
402.020305990569
21
257.340003834665
31
0.0
0
LINE
5
5f5
100
AcDbEntity
8
0-101
6
CONTINUOUS
62
3
100
AcDbLine
10
393.520405863911
20
288.820404303759
30
0.0
11
395.921305899687
21
288.340204296604
31
0.0
0
LINE
5
5f6
100
AcDbEntity
8
0-101
6
CONTINUOUS
62
3
100
AcDbLine
10
395.921305899687
20
288.340204296604
30
0.0
11
408.103206081212
21
288.340204296604
31
0.0
0
LINE
5
5f7
100
AcDbEntity
8
0-101
6
CONTINUOUS
62
3
100
AcDbLine
10
378.477905639760
20
289.776304318003
30
0.0
11
373.012705558322
21
289.441204313010
31
0.0
0
LINE
5
5f8
100
AcDbEntity
8
0-101
6
CONTINUOUS
62
3
100
AcDbLine
10
378.427105639003
20
290.775004332885
30
0.0
11
372.951505557410
21
290.439304327883
31
0.0
0
LINE
5
5f9
100
AcDbEntity
8
0-101
6
CONTINUOUS
62
3
100
AcDbLine
10
129.075601923376
20
313.340004669130
30
0.0
11
110.770301650606
21
313.340004669130
31
0.0
0
LINE
5
5fa
100
AcDbEntity
8
0-101
6
CONTINUOUS
62
3
100
AcDbLine
10
110.770301650606
20
314.340004684031
30
0.0
11
129.075601923376
21
314.340004684031
31
0.0
0
LINE
5
5fb
100
AcDbEntity
8
0-101
6
CONTINUOUS
62
3
100
AcDbLine
10
130.621101946406
20
292.868104364075
30
0.0
11
130.075101938270
21
312.367904654644
31
0.0
0
LINE
5
5fc
100
AcDbEntity
8
0-101
6
CONTINUOUS
62
3
100
AcDbLine
10
131.620801961303
20
292.896004364491
30
0.0
11
131.074701953165
21
312.396004655063
31
0.0
0
LINE
5
5fd
100
AcDbEntity
8
0-101
6
CONTINUOUS
62
3
100
AcDbLine
10
129.621601931512
20
291.840104348756
30
0.0
11
122.770301829420
21
291.840104348756
31
0.0
0
LINE
5
5fe
100
AcDbEntity
8
0-101
6
CONTINUOUS
62
3
100
AcDbLine
10
133.520301989608
20
288.340004296601
30
0.0
11
122.770301829420
21
288.340004296601
31
0.0
0
LINE
5
5ff
100
AcDbEntity
8
0-101
6
CONTINUOUS
62
3
100
AcDbLine
10
122.770301829420
20
290.840004333854
30
0.0
11
129.621601931512
21
290.840004333854
31
0.0
0
LINE
5
600
100
AcDbEntity
8
0-101
6
CONTINUOUS
62
3
100
AcDbLine
10
133.520301989608
20
289.340004311502
30
0.0
11
122.770301829420
21
289.340004311502
31
0.0
0
LINE
5
601
100
AcDbEntity
8
0-101
6
CONTINUOUS
62
3
100
AcDbLine
10
140.520302093916
20
289.340004311502
30
0.0
11
143.020302131169
21
289.840104318954
31
0.0
0
LINE
5
602
100
AcDbEntity
8
0-101
6
CONTINUOUS
62
3
100
AcDbLine
10
143.020302131169
20
289.840104318954
30
0.0
11
145.520302168421
21
289.340004311502
31
0.0
0
LINE
5
603
100
AcDbEntity
8
0-101
6
CONTINUOUS
62
3
100
AcDbLine
10
132.692701977275
20
288.340004296601
30
0.0
11
140.716402096838
21
288.340004296601
31
0.0
0
LINE
5
604
100
AcDbEntity
8
0-101
6
CONTINUOUS
62
3
100
AcDbLine
10
140.716402096838
20
288.359504296891
30
0.0
11
143.020302131169
21
288.820304303758
31
0.0
0
LINE
5
605
100
AcDbEntity
8
0-101
6
CONTINUOUS
62
3
100
AcDbLine
10
132.692701977275
20
289.340004311502
30
0.0
11
140.520302093916
21
289.340004311502
31
0.0
0
LINE
5
606
100
AcDbEntity
8
0-101
6
CONTINUOUS
62
3
100
AcDbLine
10
145.520302168421
20
289.340004311502
30
0.0
11
152.520302272730
21
289.340004311502
31
0.0
0
LINE
5
607
100
AcDbEntity
8
0-101
6
CONTINUOUS
62
3
100
AcDbLine
10
157.520302347235
20
289.340004311502
30
0.0
11
152.520302272730
21
289.340004311502
31
0.0
0
LINE
5
608
100
AcDbEntity
8
0-101
6
CONTINUOUS
62
3
100
AcDbLine
10
157.520302347235
20
289.340004311502
30
0.0
11
160.520302391939
21
289.840104318954
31
0.0
0
LINE
5
609
100
AcDbEntity
8
0-101
6
CONTINUOUS
62
3
100
AcDbLine
10
157.603202348471
20
288.340004296601
30
0.0
11
160.603102393173
21
288.840104304053
31
0.0
0
LINE
5
60a
100
AcDbEntity
8
0-101
6
CONTINUOUS
62
3
100
AcDbLine
10
160.520302391939
20
289.840104318954
30
0.0
11
163.020302429192
21
289.840104318954
31
0.0
0
LINE
5
60b
100
AcDbEntity
8
0-101
6
CONTINUOUS
62
3
100
AcDbLine
10
163.020302429192
20
289.840104318954
30
0.0
11
163.020302429192
21
288.840104304053
31
0.0
0
LINE
5
60c
100
AcDbEntity
8
0-101
6
CONTINUOUS
62
3
100
AcDbLine
10
163.020302429192
20
288.840104304053
30
0.0
11
160.603102393173
21
288.840104304053
31
0.0
0
LINE
5
60d
100
AcDbEntity
8
0-101
6
CONTINUOUS
62
3
100
AcDbLine
10
122.451501824670
20
290.439104327880
30
0.0
11
122.512701825581
21
289.441104313009
31
0.0
0
LINE
5
60e
100
AcDbEntity
8
0-101
6
CONTINUOUS
62
4
100
AcDbLine
10
147.520302198224
20
290.239904324912
30
0.0
11
155.520402317435
21
290.239904324912
31
0.0
0
LINE
5
60f
100
AcDbEntity
8
0-101
6
CONTINUOUS
62
4
100
AcDbLine
10
155.770402321160
20
289.589904315226
30
0.0
11
155.770402321160
21
289.989904321186
31
0.0
0
LINE
5
610
100
AcDbEntity
8
0-101
6
CONTINUOUS
62
4
100
AcDbLine
10
147.270402194500
20
289.589904315226
30
0.0
11
147.270402194500
21
289.989904321186
31
0.0
0
LINE
5
611
100
AcDbEntity
8
0-101
6
CONTINUOUS
62
4
100
AcDbLine
10
147.520302198224
20
289.340004311502
30
0.0
11
155.520402317435
21
289.340004311502
31
0.0
0
LINE
5
612
100
AcDbEntity
8
0-101
6
CONTINUOUS
62
4
100
AcDbLine
10
149.835402232721
20
287.839904289149
30
0.0
11
153.205302282937
21
287.839904289149
31
0.0
0
LINE
5
613
100
AcDbEntity
8
0-101
6
CONTINUOUS
62
4
100
AcDbLine
10
153.205302282937
20
286.340004266798
30
0.0
11
153.205302282937
21
287.839904289149
31
0.0
0
LINE
5
614
100
AcDbEntity
8
0-101
6
CONTINUOUS
62
4
100
AcDbLine
10
149.835402232721
20
286.340004266798
30
0.0
11
149.835402232721
21
287.839904289149
31
0.0
0
LINE
5
615
100
AcDbEntity
8
0-101
6
CONTINUOUS
62
4
100
AcDbLine
10
153.770402291358
20
289.340004311502
30
0.0
11
153.205302282937
21
287.839904289149
31
0.0
0
LINE
5
616
100
AcDbEntity
8
0-101
6
CONTINUOUS
62
4
100
AcDbLine
10
149.270402224302
20
289.340004311502
30
0.0
11
149.835402232721
21
287.839904289149
31
0.0
0
LINE
5
617
100
AcDbEntity
8
0-101
6
CONTINUOUS
62
4
100
AcDbLine
10
149.835402232721
20
286.340004266798
30
0.0
11
153.205302282937
21
286.340004266798
31
0.0
0
LINE
5
618
100
AcDbEntity
8
0-101
6
CONTINUOUS
62
4
100
AcDbLine
10
149.970402234733
20
267.683403988793
30
0.0
11
149.120302222066
21
268.174203996107
31
0.0
0
LINE
5
619
100
AcDbEntity
8
0-101
6
CONTINUOUS
62
4
100
AcDbLine
10
149.970402234733
20
268.664904003419
30
0.0
11
149.120302222066
21
268.174203996107
31
0.0
0
LINE
5
61a
100
AcDbEntity
8
0-101
6
CONTINUOUS
62
4
100
AcDbLine
10
149.970402234733
20
264.508503941484
30
0.0
11
149.120302222066
21
264.999203948796
31
0.0
0
LINE
5
61b
100
AcDbEntity
8
0-101
6
CONTINUOUS
62
4
100
AcDbLine
10
149.970402234733
20
265.489903956108
30
0.0
11
149.120302222066
21
264.999203948796
31
0.0
0
LINE
5
61c
100
AcDbEntity
8
0-101
6
CONTINUOUS
62
4
100
AcDbLine
10
153.070402280927
20
269.271004012451
30
0.0
11
153.920302293591
21
269.761704019763
31
0.0
0
LINE
5
61d
100
AcDbEntity
8
0-101
6
CONTINUOUS
62
4
100
AcDbLine
10
153.070402280927
20
270.252404027075
30
0.0
11
153.920302293591
21
269.761704019763
31
0.0
0
LINE
5
61e
100
AcDbEntity
8
0-101
6
CONTINUOUS
62
4
100
AcDbLine
10
153.070402280927
20
266.095903965138
30
0.0
11
153.920302293591
21
266.586703972451
31
0.0
0
LINE
5
61f
100
AcDbEntity
8
0-101
6
CONTINUOUS
62
4
100
AcDbLine
10
153.070402280927
20
267.077503979765
30
0.0
11
153.920302293591
21
266.586703972451
31
0.0
0
LINE
5
620
100
AcDbEntity
8
0-101
6
CONTINUOUS
62
4
100
AcDbLine
10
153.070402280927
20
269.271004012451
30
0.0
11
153.070402280927
21
267.077503979765
31
0.0
0
LINE
5
621
100
AcDbEntity
8
0-101
6
CONTINUOUS
62
4
100
AcDbLine
10
149.970402234733
20
267.683403988793
30
0.0
11
149.970402234733
21
265.489903956108
31
0.0
0
LINE
5
622
100
AcDbEntity
8
0-101
6
CONTINUOUS
62
4
100
AcDbLine
10
149.970402234733
20
265.489903956108
30
0.0
11
153.070402280927
21
267.077503979765
31
0.0
0
LINE
5
623
100
AcDbEntity
8
0-101
6
CONTINUOUS
62
4
100
AcDbLine
10
153.920302293591
20
266.586703972451
30
0.0
11
149.120302222066
21
264.999203948796
31
0.0
0
LINE
5
624
100
AcDbEntity
8
0-101
6
CONTINUOUS
62
4
100
AcDbLine
10
149.970402234733
20
264.508503941484
30
0.0
11
153.070402280927
21
266.095903965138
31
0.0
0
LINE
5
625
100
AcDbEntity
8
0-101
6
CONTINUOUS
62
4
100
AcDbLine
10
149.970402234733
20
267.683403988793
30
0.0
11
153.070402280927
21
269.271004012451
31
0.0
0
LINE
5
626
100
AcDbEntity
8
0-101
6
CONTINUOUS
62
4
100
AcDbLine
10
153.920302293591
20
269.761704019763
30
0.0
11
149.120302222066
21
268.174203996107
31
0.0
0
LINE
5
627
100
AcDbEntity
8
0-101
6
CONTINUOUS
62
4
100
AcDbLine
10
149.970402234733
20
268.664904003419
30
0.0
11
153.070402280927
21
270.252404027075
31
0.0
0
LINE
5
628
100
AcDbEntity
8
0-101
6
CONTINUOUS
62
4
100
AcDbLine
10
153.070402280927
20
264.053703934707
30
0.0
11
152.930902278848
21
263.449403925702
31
0.0
0
LINE
5
629
100
AcDbEntity
8
0-101
6
CONTINUOUS
62
4
100
AcDbLine
10
149.970402234733
20
264.053703934707
30
0.0
11
150.371702240713
21
262.314903908797
31
0.0
0
LINE
5
62a
100
AcDbEntity
8
0-101
6
CONTINUOUS
62
4
100
AcDbLine
10
150.504202242687
20
261.741103900246
30
0.0
11
149.941102234297
21
261.913303902812
31
0.0
0
LINE
5
62b
100
AcDbEntity
8
0-101
6
CONTINUOUS
62
4
100
AcDbLine
10
150.371702240713
20
262.314903908797
30
0.0
11
149.941102234297
21
261.913303902812
31
0.0
0
LINE
5
62c
100
AcDbEntity
8
0-101
6
CONTINUOUS
62
4
100
AcDbLine
10
149.970402234733
20
264.053703934707
30
0.0
11
149.970402234733
21
264.508503941484
31
0.0
0
LINE
5
62d
100
AcDbEntity
8
0-101
6
CONTINUOUS
62
4
100
AcDbLine
10
152.774002276510
20
262.770003915578
30
0.0
11
153.440902286448
21
263.155003921315
31
0.0
0
LINE
5
62e
100
AcDbEntity
8
0-101
6
CONTINUOUS
62
4
100
AcDbLine
10
152.930902278848
20
263.449403925702
30
0.0
11
153.440902286448
21
263.155003921315
31
0.0
0
LINE
5
62f
100
AcDbEntity
8
0-101
6
CONTINUOUS
62
4
100
AcDbLine
10
153.070402280927
20
264.053703934707
30
0.0
11
153.070402280927
21
266.095903965138
31
0.0
0
LINE
5
630
100
AcDbEntity
8
0-101
6
CONTINUOUS
62
4
100
AcDbLine
10
152.164602267429
20
260.130603876248
30
0.0
11
152.589702273764
21
259.885203872591
31
0.0
0
LINE
5
631
100
AcDbEntity
8
0-101
6
CONTINUOUS
62
4
100
AcDbLine
10
152.774002276510
20
262.770003915578
30
0.0
11
152.164602267429
21
260.130603876248
31
0.0
0
LINE
5
632
100
AcDbEntity
8
0-101
6
CONTINUOUS
62
4
100
AcDbLine
10
152.774002276510
20
262.770003915578
30
0.0
11
150.504202242687
21
261.741103900246
31
0.0
0
LINE
5
633
100
AcDbEntity
8
0-101
6
CONTINUOUS
62
4
100
AcDbLine
10
150.371702240713
20
262.314903908797
30
0.0
11
152.930902278848
21
263.449403925702
31
0.0
0
LINE
5
634
100
AcDbEntity
8
0-101
6
CONTINUOUS
62
4
100
AcDbLine
10
153.440902286448
20
263.155003921315
30
0.0
11
149.941102234297
21
261.913303902812
31
0.0
0
LINE
5
635
100
AcDbEntity
8
0-101
6
CONTINUOUS
62
4
100
AcDbLine
10
153.070402280927
20
272.446004059762
30
0.0
11
153.920302293591
21
272.936704067074
31
0.0
0
LINE
5
636
100
AcDbEntity
8
0-101
6
CONTINUOUS
62
4
100
AcDbLine
10
153.070402280927
20
273.427404074386
30
0.0
11
153.920302293591
21
272.936704067074
31
0.0
0
LINE
5
637
100
AcDbEntity
8
0-101
6
CONTINUOUS
62
4
100
AcDbLine
10
153.070402280927
20
272.446004059762
30
0.0
11
153.070402280927
21
270.252404027075
31
0.0
0
LINE
5
638
100
AcDbEntity
8
0-101
6
CONTINUOUS
62
4
100
AcDbLine
10
149.970402234733
20
270.858404036105
30
0.0
11
153.070402280927
21
272.446004059762
31
0.0
0
LINE
5
639
100
AcDbEntity
8
0-101
6
CONTINUOUS
62
4
100
AcDbLine
10
153.920302293591
20
272.936704067074
30
0.0
11
149.120302222066
21
271.349204043418
31
0.0
0
LINE
5
63a
100
AcDbEntity
8
0-101
6
CONTINUOUS
62
4
100
AcDbLine
10
149.970402234733
20
271.840004050732
30
0.0
11
153.070402280927
21
273.427404074386
31
0.0
0
LINE
5
63b
100
AcDbEntity
8
0-101
6
CONTINUOUS
62
4
100
AcDbLine
10
149.970402234733
20
270.858404036105
30
0.0
11
149.120302222066
21
271.349204043418
31
0.0
0
LINE
5
63c
100
AcDbEntity
8
0-101
6
CONTINUOUS
62
4
100
AcDbLine
10
149.970402234733
20
271.840004050732
30
0.0
11
149.120302222066
21
271.349204043418
31
0.0
0
LINE
5
63d
100
AcDbEntity
8
0-101
6
CONTINUOUS
62
4
100
AcDbLine
10
149.970402234733
20
270.858404036105
30
0.0
11
149.970402234733
21
268.664904003419
31
0.0
0
LINE
5
63e
100
AcDbEntity
8
0-101
6
CONTINUOUS
62
4
100
AcDbLine
10
153.070402280927
20
275.620904107071
30
0.0
11
153.920302293591
21
276.111704114385
31
0.0
0
LINE
5
63f
100
AcDbEntity
8
0-101
6
CONTINUOUS
62
4
100
AcDbLine
10
153.070402280927
20
276.602504121698
30
0.0
11
153.920302293591
21
276.111704114385
31
0.0
0
LINE
5
640
100
AcDbEntity
8
0-101
6
CONTINUOUS
62
4
100
AcDbLine
10
153.070402280927
20
275.620904107071
30
0.0
11
153.070402280927
21
273.427404074386
31
0.0
0
LINE
5
641
100
AcDbEntity
8
0-101
6
CONTINUOUS
62
4
100
AcDbLine
10
149.970402234733
20
274.033404083416
30
0.0
11
153.070402280927
21
275.620904107071
31
0.0
0
LINE
5
642
100
AcDbEntity
8
0-101
6
CONTINUOUS
62
4
100
AcDbLine
10
153.920302293591
20
276.111704114385
30
0.0
11
149.120302222066
21
274.524204090729
31
0.0
0
LINE
5
643
100
AcDbEntity
8
0-101
6
CONTINUOUS
62
4
100
AcDbLine
10
149.970402234733
20
275.014904098041
30
0.0
11
153.070402280927
21
276.602504121698
31
0.0
0
LINE
5
644
100
AcDbEntity
8
0-101
6
CONTINUOUS
62
4
100
AcDbLine
10
149.970402234733
20
274.033404083416
30
0.0
11
149.120302222066
21
274.524204090729
31
0.0
0
LINE
5
645
100
AcDbEntity
8
0-101
6
CONTINUOUS
62
4
100
AcDbLine
10
149.970402234733
20
275.014904098041
30
0.0
11
149.120302222066
21
274.524204090729
31
0.0
0
LINE
5
646
100
AcDbEntity
8
0-101
6
CONTINUOUS
62
4
100
AcDbLine
10
149.970402234733
20
274.033404083416
30
0.0
11
149.970402234733
21
271.840004050732
31
0.0
0
LINE
5
647
100
AcDbEntity
8
0-101
6
CONTINUOUS
62
4
100
AcDbLine
10
153.070402280927
20
278.795904154383
30
0.0
11
153.920302293591
21
279.286704161696
31
0.0
0
LINE
5
648
100
AcDbEntity
8
0-101
6
CONTINUOUS
62
4
100
AcDbLine
10
153.070402280927
20
279.777404169008
30
0.0
11
153.920302293591
21
279.286704161696
31
0.0
0
LINE
5
649
100
AcDbEntity
8
0-101
6
CONTINUOUS
62
4
100
AcDbLine
10
153.070402280927
20
278.795904154383
30
0.0
11
153.070402280927
21
276.602504121698
31
0.0
0
LINE
5
64a
100
AcDbEntity
8
0-101
6
CONTINUOUS
62
4
100
AcDbLine
10
149.970402234733
20
277.208504130729
30
0.0
11
153.070402280927
21
278.795904154383
31
0.0
0
LINE
5
64b
100
AcDbEntity
8
0-101
6
CONTINUOUS
62
4
100
AcDbLine
10
153.920302293591
20
279.286704161696
30
0.0
11
149.120302222066
21
277.699204138041
31
0.0
0
LINE
5
64c
100
AcDbEntity
8
0-101
6
CONTINUOUS
62
4
100
AcDbLine
10
149.970402234733
20
278.189904145353
30
0.0
11
153.070402280927
21
279.777404169008
31
0.0
0
LINE
5
64d
100
AcDbEntity
8
0-101
6
CONTINUOUS
62
4
100
AcDbLine
10
149.970402234733
20
277.208504130729
30
0.0
11
149.120302222066
21
277.699204138041
31
0.0
0
LINE
5
64e
100
AcDbEntity
8
0-101
6
CONTINUOUS
62
4
100
AcDbLine
10
149.970402234733
20
278.189904145353
30
0.0
11
149.120302222066
21
277.699204138041
31
0.0
0
LINE
5
64f
100
AcDbEntity
8
0-101
6
CONTINUOUS
62
4
100
AcDbLine
10
149.970402234733
20
277.208504130729
30
0.0
11
149.970402234733
21
275.014904098041
31
0.0
0
LINE
5
650
100
AcDbEntity
8
0-101
6
CONTINUOUS
62
4
100
AcDbLine
10
153.070402280927
20
281.971004201695
30
0.0
11
153.920302293591
21
282.461704209007
31
0.0
0
LINE
5
651
100
AcDbEntity
8
0-101
6
CONTINUOUS
62
4
100
AcDbLine
10
153.070402280927
20
282.952404216319
30
0.0
11
153.920302293591
21
282.461704209007
31
0.0
0
LINE
5
652
100
AcDbEntity
8
0-101
6
CONTINUOUS
62
4
100
AcDbLine
10
153.070402280927
20
281.971004201695
30
0.0
11
153.070402280927
21
279.777404169008
31
0.0
0
LINE
5
653
100
AcDbEntity
8
0-101
6
CONTINUOUS
62
4
100
AcDbLine
10
149.970402234733
20
280.383404178038
30
0.0
11
153.070402280927
21
281.971004201695
31
0.0
0
LINE
5
654
100
AcDbEntity
8
0-101
6
CONTINUOUS
62
4
100
AcDbLine
10
153.920302293591
20
282.461704209007
30
0.0
11
149.120302222066
21
280.874204185352
31
0.0
0
LINE
5
655
100
AcDbEntity
8
0-101
6
CONTINUOUS
62
4
100
AcDbLine
10
149.970402234733
20
281.364904192664
30
0.0
11
153.070402280927
21
282.952404216319
31
0.0
0
LINE
5
656
100
AcDbEntity
8
0-101
6
CONTINUOUS
62
4
100
AcDbLine
10
149.970402234733
20
280.383404178038
30
0.0
11
149.120302222066
21
280.874204185352
31
0.0
0
LINE
5
657
100
AcDbEntity
8
0-101
6
CONTINUOUS
62
4
100
AcDbLine
10
149.970402234733
20
281.364904192664
30
0.0
11
149.120302222066
21
280.874204185352
31
0.0
0
LINE
5
658
100
AcDbEntity
8
0-101
6
CONTINUOUS
62
4
100
AcDbLine
10
149.970402234733
20
280.383404178038
30
0.0
11
149.970402234733
21
278.189904145353
31
0.0
0
LINE
5
659
100
AcDbEntity
8
0-101
6
CONTINUOUS
62
4
100
AcDbLine
10
153.510302287482
20
285.400004252791
30
0.0
11
153.070402280927
21
285.146004249007
31
0.0
0
LINE
5
65a
100
AcDbEntity
8
0-101
6
CONTINUOUS
62
4
100
AcDbLine
10
153.510302287482
20
285.873404259846
30
0.0
11
153.070402280927
21
286.127404263631
31
0.0
0
LINE
5
65b
100
AcDbEntity
8
0-101
6
CONTINUOUS
62
4
100
AcDbLine
10
153.070402280927
20
285.146004249007
30
0.0
11
153.070402280927
21
282.952404216319
31
0.0
0
LINE
5
65c
100
AcDbEntity
8
0-101
6
CONTINUOUS
62
4
100
AcDbLine
10
149.970402234733
20
283.558404225349
30
0.0
11
153.070402280927
21
285.146004249007
31
0.0
0
LINE
5
65d
100
AcDbEntity
8
0-101
6
CONTINUOUS
62
4
100
AcDbLine
10
149.970402234733
20
284.540004239976
30
0.0
11
153.070402280927
21
286.127404263631
31
0.0
0
LINE
5
65e
100
AcDbEntity
8
0-101
6
CONTINUOUS
62
4
100
AcDbLine
10
149.384702226006
20
283.896604230389
30
0.0
11
149.970402234733
21
283.558404225349
31
0.0
0
LINE
5
65f
100
AcDbEntity
8
0-101
6
CONTINUOUS
62
4
100
AcDbLine
10
149.384702226006
20
284.201804234937
30
0.0
11
149.970402234733
21
284.540004239976
31
0.0
0
LINE
5
660
100
AcDbEntity
8
0-101
6
CONTINUOUS
62
4
100
AcDbLine
10
149.970402234733
20
283.558404225349
30
0.0
11
149.970402234733
21
281.364904192664
31
0.0
0
LINE
5
661
100
AcDbEntity
8
0-101
6
CONTINUOUS
62
4
100
AcDbLine
10
153.205302282937
20
286.340004266798
30
0.0
11
153.070402280927
21
286.127404263631
31
0.0
0
LINE
5
662
100
AcDbEntity
8
0-101
6
CONTINUOUS
62
4
100
AcDbLine
10
149.835402232721
20
286.340004266798
30
0.0
11
149.970402234733
21
284.540004239976
31
0.0
0
LINE
5
663
100
AcDbEntity
8
0-101
6
CONTINUOUS
62
4
100
AcDbLine
10
149.384702226006
20
284.201804234937
30
0.0
11
149.384702226006
21
283.896604230389
31
0.0
0
LINE
5
664
100
AcDbEntity
8
0-101
6
CONTINUOUS
62
4
100
AcDbLine
10
153.510302287482
20
285.873404259846
30
0.0
11
153.510302287482
21
285.400004252791
31
0.0
0
LINE
5
665
100
AcDbEntity
8
0-101
6
CONTINUOUS
62
4
100
AcDbLine
10
153.510302287482
20
285.400004252791
30
0.0
11
149.384702226006
21
283.896604230389
31
0.0
0
LINE
5
666
100
AcDbEntity
8
0-101
6
CONTINUOUS
62
4
100
AcDbLine
10
149.384702226006
20
284.201804234937
30
0.0
11
153.510302287482
21
285.873404259846
31
0.0
0
LINE
5
667
100
AcDbEntity
8
0-101
6
DOT
62
4
100
AcDbLine
10
153.570302288376
20
290.239904324912
30
0.0
11
152.665402274892
21
288.424804297864
31
0.0
0
LINE
5
668
100
AcDbEntity
8
0-101
6
DOT
62
4
100
AcDbLine
10
152.665402274892
20
288.424804297864
30
0.0
11
151.520302257828
21
287.816004288793
31
0.0
0
LINE
5
669
100
AcDbEntity
8
0-101
6
DOT
62
4
100
AcDbLine
10
151.520302257828
20
287.816004288793
30
0.0
11
150.375402240768
21
288.424804297864
31
0.0
0
LINE
5
66a
100
AcDbEntity
8
0-101
6
DOT
62
4
100
AcDbLine
10
149.470402227283
20
290.239904324912
30
0.0
11
150.375402240768
21
288.424804297864
31
0.0
0
LINE
5
66b
100
AcDbEntity
8
0-101
6
CONTINUOUS
62
4
100
AcDbLine
10
152.164602267429
20
260.130603876248
30
0.0
11
151.288702254377
21
258.343503849618
31
0.0
0
LINE
5
66c
100
AcDbEntity
8
0-101
6
CONTINUOUS
62
4
100
AcDbLine
10
152.589702273764
20
259.885203872591
30
0.0
11
151.288702254377
21
258.343503849618
31
0.0
0
LINE
5
66d
100
AcDbEntity
8
0-101
6
CONTINUOUS
62
4
100
AcDbLine
10
150.504202242687
20
261.741103900246
30
0.0
11
151.520302257828
21
257.339903834663
31
0.0
0
LINE
5
66e
100
AcDbEntity
8
0-101
6
CENTER2
62
4
100
AcDbLine
10
151.520302257828
20
290.239904324912
30
0.0
11
151.520302257828
21
257.339903834663
31
0.0
0
LINE
5
66f
100
AcDbEntity
8
0-101
6
CONTINUOUS
62
4
100
AcDbLine
10
151.926602263883
20
259.099503860883
30
0.0
11
151.520302257828
21
257.339903834663
31
0.0
0
LINE
5
670
100
AcDbEntity
8
0-101
6
CONTINUOUS
62
3
100
AcDbLine
10
143.020302131169
20
288.820304303758
30
0.0
11
145.421302166946
21
288.340004296601
31
0.0
0
LINE
5
671
100
AcDbEntity
8
0-101
6
CONTINUOUS
62
3
100
AcDbLine
10
145.421302166946
20
288.340004296601
30
0.0
11
157.603202348471
21
288.340004296601
31
0.0
0
LINE
5
672
100
AcDbEntity
8
0-101
6
CONTINUOUS
62
3
100
AcDbLine
10
127.977901907019
20
289.776204318002
30
0.0
11
122.512701825581
21
289.441104313009
31
0.0
0
LINE
5
673
100
AcDbEntity
8
0-101
6
CONTINUOUS
62
3
100
AcDbLine
10
127.927101906262
20
290.774904332884
30
0.0
11
122.451501824670
21
290.439104327880
31
0.0
0
LINE
5
674
100
AcDbEntity
8
0-101
6
CONTINUOUS
62
3
100
AcDbLine
10
713.575410633102
20
313.340104669131
30
0.0
11
695.270210360333
21
313.340104669131
31
0.0
0
LINE
5
675
100
AcDbEntity
8
0-101
6
CONTINUOUS
62
3
100
AcDbLine
10
676.964910087563
20
313.340104669131
30
0.0
11
695.270210360333
21
313.340104669131
31
0.0
0
LINE
5
676
100
AcDbEntity
8
0-101
6
CONTINUOUS
62
3
100
AcDbLine
10
695.270210360333
20
314.340104684033
30
0.0
11
713.575410633102
21
314.340104684033
31
0.0
0
LINE
5
677
100
AcDbEntity
8
0-101
6
CONTINUOUS
62
3
100
AcDbLine
10
714.574910647996
20
312.368104654647
30
0.0
11
715.193410657212
21
290.284204325572
31
0.0
0
LINE
5
678
100
AcDbEntity
8
0-101
6
CONTINUOUS
62
3
100
AcDbLine
10
717.192610687003
20
288.340204296604
30
0.0
11
737.020210982457
21
288.340204296604
31
0.0
0
LINE
5
679
100
AcDbEntity
8
0-101
6
CONTINUOUS
62
3
100
AcDbLine
10
717.192610687003
20
289.340104311503
30
0.0
11
737.020210982457
21
289.340104311503
31
0.0
0
LINE
5
67a
100
AcDbEntity
8
0-101
6
CONTINUOUS
62
3
100
AcDbLine
10
716.192910672106
20
290.312104325987
30
0.0
11
715.574610662892
21
312.396104655065
31
0.0
0
LINE
5
67b
100
AcDbEntity
8
0-101
6
CONTINUOUS
62
3
100
AcDbLine
10
695.270210360333
20
314.340104684033
30
0.0
11
676.964910087563
21
314.340104684033
31
0.0
0
LINE
5
67c
100
AcDbEntity
8
0-101
6
CONTINUOUS
62
3
100
AcDbLine
10
674.389310049184
20
291.812104348339
30
0.0
11
674.965810057774
21
312.396104655065
31
0.0
0
LINE
5
67d
100
AcDbEntity
8
0-101
6
CONTINUOUS
62
3
100
AcDbLine
10
675.965310072668
20
312.368104654647
30
0.0
11
675.389010064080
21
291.784204347923
31
0.0
0
LINE
5
67e
100
AcDbEntity
8
0-101
6
CONTINUOUS
62
3
100
AcDbLine
10
623.451309290148
20
290.439304327883
30
0.0
11
623.512609291062
21
289.441204313010
31
0.0
0
LINE
5
67f
100
AcDbEntity
8
0-101
6
CONTINUOUS
62
4
100
AcDbLine
10
648.520209663704
20
290.240104324915
30
0.0
11
656.520309782915
21
290.240104324915
31
0.0
0
LINE
5
680
100
AcDbEntity
8
0-101
6
CONTINUOUS
62
4
100
AcDbLine
10
656.770309786640
20
289.590104315229
30
0.0
11
656.770309786640
21
289.990004321188
31
0.0
0
LINE
5
681
100
AcDbEntity
8
0-101
6
CONTINUOUS
62
4
100
AcDbLine
10
648.270209659979
20
289.590104315229
30
0.0
11
648.270209659979
21
289.990004321188
31
0.0
0
LINE
5
682
100
AcDbEntity
8
0-101
6
CONTINUOUS
62
4
100
AcDbLine
10
648.520209663704
20
289.340104311503
30
0.0
11
656.520309782915
21
289.340104311503
31
0.0
0
LINE
5
683
100
AcDbEntity
8
0-101
6
CONTINUOUS
62
4
100
AcDbLine
10
650.835309698202
20
287.840004289150
30
0.0
11
654.205209748417
21
287.840004289150
31
0.0
0
LINE
5
684
100
AcDbEntity
8
0-101
6
CONTINUOUS
62
4
100
AcDbLine
10
654.205209748417
20
286.340104266800
30
0.0
11
654.205209748417
21
287.840004289150
31
0.0
0
LINE
5
685
100
AcDbEntity
8
0-101
6
CONTINUOUS
62
4
100
AcDbLine
10
650.835309698202
20
286.340104266800
30
0.0
11
650.835309698202
21
287.840004289150
31
0.0
0
LINE
5
686
100
AcDbEntity
8
0-101
6
CONTINUOUS
62
4
100
AcDbLine
10
654.770309756838
20
289.340104311503
30
0.0
11
654.205209748417
21
287.840004289150
31
0.0
0
LINE
5
687
100
AcDbEntity
8
0-101
6
CONTINUOUS
62
4
100
AcDbLine
10
650.270209689781
20
289.340104311503
30
0.0
11
650.835309698202
21
287.840004289150
31
0.0
0
LINE
5
688
100
AcDbEntity
8
0-101
6
CONTINUOUS
62
4
100
AcDbLine
10
650.835309698202
20
286.340104266800
30
0.0
11
654.205209748417
21
286.340104266800
31
0.0
0
LINE
5
689
100
AcDbEntity
8
0-101
6
CONTINUOUS
62
4
100
AcDbLine
10
650.970209700212
20
267.683503988795
30
0.0
11
650.120209687546
21
268.174303996108
31
0.0
0
LINE
5
68a
100
AcDbEntity
8
0-101
6
CONTINUOUS
62
4
100
AcDbLine
10
650.970209700212
20
268.665004003420
30
0.0
11
650.120209687546
21
268.174303996108
31
0.0
0
LINE
5
68b
100
AcDbEntity
8
0-101
6
CONTINUOUS
62
4
100
AcDbLine
10
650.970209700212
20
264.508603941485
30
0.0
11
650.120209687546
21
264.999303948797
31
0.0
0
LINE
5
68c
100
AcDbEntity
8
0-101
6
CONTINUOUS
62
4
100
AcDbLine
10
650.970209700212
20
265.490103956111
30
0.0
11
650.120209687546
21
264.999303948797
31
0.0
0
LINE
5
68d
100
AcDbEntity
8
0-101
6
CONTINUOUS
62
4
100
AcDbLine
10
654.070309746407
20
269.271104012452
30
0.0
11
654.920209759071
21
269.761804019764
31
0.0
0
LINE
5
68e
100
AcDbEntity
8
0-101
6
CONTINUOUS
62
4
100
AcDbLine
10
654.070309746407
20
270.252604027078
30
0.0
11
654.920209759071
21
269.761804019764
31
0.0
0
LINE
5
68f
100
AcDbEntity
8
0-101
6
CONTINUOUS
62
4
100
AcDbLine
10
654.070309746407
20
266.096103965141
30
0.0
11
654.920209759071
21
266.586803972453
31
0.0
0
LINE
5
690
100
AcDbEntity
8
0-101
6
CONTINUOUS
62
4
100
AcDbLine
10
654.070309746407
20
267.077603979766
30
0.0
11
654.920209759071
21
266.586803972453
31
0.0
0
LINE
5
691
100
AcDbEntity
8
0-101
6
CONTINUOUS
62
4
100
AcDbLine
10
654.070309746407
20
269.271104012452
30
0.0
11
654.070309746407
21
267.077603979766
31
0.0
0
LINE
5
692
100
AcDbEntity
8
0-101
6
CONTINUOUS
62
4
100
AcDbLine
10
650.970209700212
20
267.683503988795
30
0.0
11
650.970209700212
21
265.490103956111
31
0.0
0
LINE
5
693
100
AcDbEntity
8
0-101
6
CONTINUOUS
62
4
100
AcDbLine
10
650.970209700212
20
265.490103956111
30
0.0
11
654.070309746407
21
267.077603979766
31
0.0
0
LINE
5
694
100
AcDbEntity
8
0-101
6
CONTINUOUS
62
4
100
AcDbLine
10
654.920209759071
20
266.586803972453
30
0.0
11
650.120209687546
21
264.999303948797
31
0.0
0
LINE
5
695
100
AcDbEntity
8
0-101
6
CONTINUOUS
62
4
100
AcDbLine
10
650.970209700212
20
264.508603941485
30
0.0
11
654.070309746407
21
266.096103965141
31
0.0
0
LINE
5
696
100
AcDbEntity
8
0-101
6
CONTINUOUS
62
4
100
AcDbLine
10
650.970209700212
20
267.683503988795
30
0.0
11
654.070309746407
21
269.271104012452
31
0.0
0
LINE
5
697
100
AcDbEntity
8
0-101
6
CONTINUOUS
62
4
100
AcDbLine
10
654.920209759071
20
269.761804019764
30
0.0
11
650.120209687546
21
268.174303996108
31
0.0
0
LINE
5
698
100
AcDbEntity
8
0-101
6
CONTINUOUS
62
4
100
AcDbLine
10
650.970209700212
20
268.665004003420
30
0.0
11
654.070309746407
21
270.252604027078
31
0.0
0
LINE
5
699
100
AcDbEntity
8
0-101
6
CONTINUOUS
62
4
100
AcDbLine
10
654.070309746407
20
264.053803934708
30
0.0
11
653.930709744327
21
263.449503925703
31
0.0
0
LINE
5
69a
100
AcDbEntity
8
0-101
6
CONTINUOUS
62
4
100
AcDbLine
10
650.970209700212
20
264.053803934708
30
0.0
11
651.371609706193
21
262.315103908800
31
0.0
0
LINE
5
69b
100
AcDbEntity
8
0-101
6
CONTINUOUS
62
4
100
AcDbLine
10
651.504109708168
20
261.741203900248
30
0.0
11
650.941009699777
21
261.913503902815
31
0.0
0
LINE
5
69c
100
AcDbEntity
8
0-101
6
CONTINUOUS
62
4
100
AcDbLine
10
651.371609706193
20
262.315103908800
30
0.0
11
650.941009699777
21
261.913503902815
31
0.0
0
LINE
5
69d
100
AcDbEntity
8
0-101
6
CONTINUOUS
62
4
100
AcDbLine
10
650.970209700212
20
264.053803934708
30
0.0
11
650.970209700212
21
264.508603941485
31
0.0
0
LINE
5
69e
100
AcDbEntity
8
0-101
6
CONTINUOUS
62
4
100
AcDbLine
10
653.773909741990
20
262.770103915580
30
0.0
11
654.440809751928
21
263.155203921318
31
0.0
0
LINE
5
69f
100
AcDbEntity
8
0-101
6
CONTINUOUS
62
4
100
AcDbLine
10
653.930709744327
20
263.449503925703
30
0.0
11
654.440809751928
21
263.155203921318
31
0.0
0
LINE
5
6a0
100
AcDbEntity
8
0-101
6
CONTINUOUS
62
4
100
AcDbLine
10
654.070309746407
20
264.053803934708
30
0.0
11
654.070309746407
21
266.096103965141
31
0.0
0
LINE
5
6a1
100
AcDbEntity
8
0-101
6
CONTINUOUS
62
4
100
AcDbLine
10
653.164509732909
20
260.130703876249
30
0.0
11
653.589609739244
21
259.885303872593
31
0.0
0
LINE
5
6a2
100
AcDbEntity
8
0-101
6
CONTINUOUS
62
4
100
AcDbLine
10
653.773909741990
20
262.770103915580
30
0.0
11
653.164509732909
21
260.130703876249
31
0.0
0
LINE
5
6a3
100
AcDbEntity
8
0-101
6
CONTINUOUS
62
4
100
AcDbLine
10
653.773909741990
20
262.770103915580
30
0.0
11
651.504109708168
21
261.741203900248
31
0.0
0
LINE
5
6a4
100
AcDbEntity
8
0-101
6
CONTINUOUS
62
4
100
AcDbLine
10
651.371609706193
20
262.315103908800
30
0.0
11
653.930709744327
21
263.449503925703
31
0.0
0
LINE
5
6a5
100
AcDbEntity
8
0-101
6
CONTINUOUS
62
4
100
AcDbLine
10
654.440809751928
20
263.155203921318
30
0.0
11
650.941009699777
21
261.913503902815
31
0.0
0
LINE
5
6a6
100
AcDbEntity
8
0-101
6
CONTINUOUS
62
4
100
AcDbLine
10
654.070309746407
20
272.446104059763
30
0.0
11
654.920209759071
21
272.936904067077
31
0.0
0
LINE
5
6a7
100
AcDbEntity
8
0-101
6
CONTINUOUS
62
4
100
AcDbLine
10
654.070309746407
20
273.427504074387
30
0.0
11
654.920209759071
21
272.936904067077
31
0.0
0
LINE
5
6a8
100
AcDbEntity
8
0-101
6
CONTINUOUS
62
4
100
AcDbLine
10
654.070309746407
20
272.446104059763
30
0.0
11
654.070309746407
21
270.252604027078
31
0.0
0
LINE
5
6a9
100
AcDbEntity
8
0-101
6
CONTINUOUS
62
4
100
AcDbLine
10
650.970209700212
20
270.858604036108
30
0.0
11
654.070309746407
21
272.446104059763
31
0.0
0
LINE
5
6aa
100
AcDbEntity
8
0-101
6
CONTINUOUS
62
4
100
AcDbLine
10
654.920209759071
20
272.936904067077
30
0.0
11
650.120209687546
21
271.349304043420
31
0.0
0
LINE
5
6ab
100
AcDbEntity
8
0-101
6
CONTINUOUS
62
4
100
AcDbLine
10
650.970209700212
20
271.840104050733
30
0.0
11
654.070309746407
21
273.427504074387
31
0.0
0
LINE
5
6ac
100
AcDbEntity
8
0-101
6
CONTINUOUS
62
4
100
AcDbLine
10
650.970209700212
20
270.858604036108
30
0.0
11
650.120209687546
21
271.349304043420
31
0.0
0
LINE
5
6ad
100
AcDbEntity
8
0-101
6
CONTINUOUS
62
4
100
AcDbLine
10
650.970209700212
20
271.840104050733
30
0.0
11
650.120209687546
21
271.349304043420
31
0.0
0
LINE
5
6ae
100
AcDbEntity
8
0-101
6
CONTINUOUS
62
4
100
AcDbLine
10
650.970209700212
20
270.858604036108
30
0.0
11
650.970209700212
21
268.665004003420
31
0.0
0
LINE
5
6af
100
AcDbEntity
8
0-101
6
CONTINUOUS
62
4
100
AcDbLine
10
654.070309746407
20
275.621104107074
30
0.0
11
654.920209759071
21
276.111804114386
31
0.0
0
LINE
5
6b0
100
AcDbEntity
8
0-101
6
CONTINUOUS
62
4
100
AcDbLine
10
654.070309746407
20
276.602604121700
30
0.0
11
654.920209759071
21
276.111804114386
31
0.0
0
LINE
5
6b1
100
AcDbEntity
8
0-101
6
CONTINUOUS
62
4
100
AcDbLine
10
654.070309746407
20
275.621104107074
30
0.0
11
654.070309746407
21
273.427504074387
31
0.0
0
LINE
5
6b2
100
AcDbEntity
8
0-101
6
CONTINUOUS
62
4
100
AcDbLine
10
650.970209700212
20
274.033604083419
30
0.0
11
654.070309746407
21
275.621104107074
31
0.0
0
LINE
5
6b3
100
AcDbEntity
8
0-101
6
CONTINUOUS
62
4
100
AcDbLine
10
654.920209759071
20
276.111804114386
30
0.0
11
650.120209687546
21
274.524304090731
31
0.0
0
LINE
5
6b4
100
AcDbEntity
8
0-101
6
CONTINUOUS
62
4
100
AcDbLine
10
650.970209700212
20
275.015004098043
30
0.0
11
654.070309746407
21
276.602604121700
31
0.0
0
LINE
5
6b5
100
AcDbEntity
8
0-101
6
CONTINUOUS
62
4
100
AcDbLine
10
650.970209700212
20
274.033604083419
30
0.0
11
650.120209687546
21
274.524304090731
31
0.0
0
LINE
5
6b6
100
AcDbEntity
8
0-101
6
CONTINUOUS
62
4
100
AcDbLine
10
650.970209700212
20
275.015004098043
30
0.0
11
650.120209687546
21
274.524304090731
31
0.0
0
LINE
5
6b7
100
AcDbEntity
8
0-101
6
CONTINUOUS
62
4
100
AcDbLine
10
650.970209700212
20
274.033604083419
30
0.0
11
650.970209700212
21
271.840104050733
31
0.0
0
LINE
5
6b8
100
AcDbEntity
8
0-101
6
CONTINUOUS
62
4
100
AcDbLine
10
654.070309746407
20
278.796104154386
30
0.0
11
654.920209759071
21
279.286804161698
31
0.0
0
LINE
5
6b9
100
AcDbEntity
8
0-101
6
CONTINUOUS
62
4
100
AcDbLine
10
654.070309746407
20
279.777604169011
30
0.0
11
654.920209759071
21
279.286804161698
31
0.0
0
LINE
5
6ba
100
AcDbEntity
8
0-101
6
CONTINUOUS
62
4
100
AcDbLine
10
654.070309746407
20
278.796104154386
30
0.0
11
654.070309746407
21
276.602604121700
31
0.0
0
LINE
5
6bb
100
AcDbEntity
8
0-101
6
CONTINUOUS
62
4
100
AcDbLine
10
650.970209700212
20
277.208604130730
30
0.0
11
654.070309746407
21
278.796104154386
31
0.0
0
LINE
5
6bc
100
AcDbEntity
8
0-101
6
CONTINUOUS
62
4
100
AcDbLine
10
654.920209759071
20
279.286804161698
30
0.0
11
650.120209687546
21
277.699304138042
31
0.0
0
LINE
5
6bd
100
AcDbEntity
8
0-101
6
CONTINUOUS
62
4
100
AcDbLine
10
650.970209700212
20
278.190104145356
30
0.0
11
654.070309746407
21
279.777604169011
31
0.0
0
LINE
5
6be
100
AcDbEntity
8
0-101
6
CONTINUOUS
62
4
100
AcDbLine
10
650.970209700212
20
277.208604130730
30
0.0
11
650.120209687546
21
277.699304138042
31
0.0
0
LINE
5
6bf
100
AcDbEntity
8
0-101
6
CONTINUOUS
62
4
100
AcDbLine
10
650.970209700212
20
278.190104145356
30
0.0
11
650.120209687546
21
277.699304138042
31
0.0
0
LINE
5
6c0
100
AcDbEntity
8
0-101
6
CONTINUOUS
62
4
100
AcDbLine
10
650.970209700212
20
277.208604130730
30
0.0
11
650.970209700212
21
275.015004098043
31
0.0
0
LINE
5
6c1
100
AcDbEntity
8
0-101
6
CONTINUOUS
62
4
100
AcDbLine
10
654.070309746407
20
281.971104201697
30
0.0
11
654.920209759071
21
282.461804209009
31
0.0
0
LINE
5
6c2
100
AcDbEntity
8
0-101
6
CONTINUOUS
62
4
100
AcDbLine
10
654.070309746407
20
282.952604216322
30
0.0
11
654.920209759071
21
282.461804209009
31
0.0
0
LINE
5
6c3
100
AcDbEntity
8
0-101
6
CONTINUOUS
62
4
100
AcDbLine
10
654.070309746407
20
281.971104201697
30
0.0
11
654.070309746407
21
279.777604169011
31
0.0
0
LINE
5
6c4
100
AcDbEntity
8
0-101
6
CONTINUOUS
62
4
100
AcDbLine
10
650.970209700212
20
280.383604178041
30
0.0
11
654.070309746407
21
281.971104201697
31
0.0
0
LINE
5
6c5
100
AcDbEntity
8
0-101
6
CONTINUOUS
62
4
100
AcDbLine
10
654.920209759071
20
282.461804209009
30
0.0
11
650.120209687546
21
280.874304185353
31
0.0
0
LINE
5
6c6
100
AcDbEntity
8
0-101
6
CONTINUOUS
62
4
100
AcDbLine
10
650.970209700212
20
281.365004192665
30
0.0
11
654.070309746407
21
282.952604216322
31
0.0
0
LINE
5
6c7
100
AcDbEntity
8
0-101
6
CONTINUOUS
62
4
100
AcDbLine
10
650.970209700212
20
280.383604178041
30
0.0
11
650.120209687546
21
280.874304185353
31
0.0
0
LINE
5
6c8
100
AcDbEntity
8
0-101
6
CONTINUOUS
62
4
100
AcDbLine
10
650.970209700212
20
281.365004192665
30
0.0
11
650.120209687546
21
280.874304185353
31
0.0
0
LINE
5
6c9
100
AcDbEntity
8
0-101
6
CONTINUOUS
62
4
100
AcDbLine
10
650.970209700212
20
280.383604178041
30
0.0
11
650.970209700212
21
278.190104145356
31
0.0
0
LINE
5
6ca
100
AcDbEntity
8
0-101
6
CONTINUOUS
62
4
100
AcDbLine
10
654.510209752962
20
285.400104252793
30
0.0
11
654.070309746407
21
285.146104249008
31
0.0
0
LINE
5
6cb
100
AcDbEntity
8
0-101
6
CONTINUOUS
62
4
100
AcDbLine
10
654.510209752962
20
285.873504259847
30
0.0
11
654.070309746407
21
286.127504263632
31
0.0
0
LINE
5
6cc
100
AcDbEntity
8
0-101
6
CONTINUOUS
62
4
100
AcDbLine
10
654.070309746407
20
285.146104249008
30
0.0
11
654.070309746407
21
282.952604216322
31
0.0
0
LINE
5
6cd
100
AcDbEntity
8
0-101
6
CONTINUOUS
62
4
100
AcDbLine
10
650.970209700212
20
283.558604225352
30
0.0
11
654.070309746407
21
285.146104249008
31
0.0
0
LINE
5
6ce
100
AcDbEntity
8
0-101
6
CONTINUOUS
62
4
100
AcDbLine
10
650.970209700212
20
284.540104239978
30
0.0
11
654.070309746407
21
286.127504263632
31
0.0
0
LINE
5
6cf
100
AcDbEntity
8
0-101
6
CONTINUOUS
62
4
100
AcDbLine
10
650.384609691486
20
283.896704230390
30
0.0
11
650.970209700212
21
283.558604225352
31
0.0
0
LINE
5
6d0
100
AcDbEntity
8
0-101
6
CONTINUOUS
62
4
100
AcDbLine
10
650.384609691486
20
284.201904234938
30
0.0
11
650.970209700212
21
284.540104239978
31
0.0
0
LINE
5
6d1
100
AcDbEntity
8
0-101
6
CONTINUOUS
62
4
100
AcDbLine
10
650.970209700212
20
283.558604225352
30
0.0
11
650.970209700212
21
281.365004192665
31
0.0
0
LINE
5
6d2
100
AcDbEntity
8
0-101
6
CONTINUOUS
62
4
100
AcDbLine
10
654.205209748417
20
286.340104266800
30
0.0
11
654.070309746407
21
286.127504263632
31
0.0
0
LINE
5
6d3
100
AcDbEntity
8
0-101
6
CONTINUOUS
62
4
100
AcDbLine
10
650.835309698202
20
286.340104266800
30
0.0
11
650.970209700212
21
284.540104239978
31
0.0
0
LINE
5
6d4
100
AcDbEntity
8
0-101
6
CONTINUOUS
62
4
100
AcDbLine
10
650.384609691486
20
284.201904234938
30
0.0
11
650.384609691486
21
283.896704230390
31
0.0
0
LINE
5
6d5
100
AcDbEntity
8
0-101
6
CONTINUOUS
62
4
100
AcDbLine
10
654.510209752962
20
285.873504259847
30
0.0
11
654.510209752962
21
285.400104252793
31
0.0
0
LINE
5
6d6
100
AcDbEntity
8
0-101
6
CONTINUOUS
62
4
100
AcDbLine
10
654.510209752962
20
285.400104252793
30
0.0
11
650.384609691486
21
283.896704230390
31
0.0
0
LINE
5
6d7
100
AcDbEntity
8
0-101
6
CONTINUOUS
62
4
100
AcDbLine
10
650.384609691486
20
284.201904234938
30
0.0
11
654.510209752962
21
285.873504259847
31
0.0
0
LINE
5
6d8
100
AcDbEntity
8
0-101
6
DOT
62
4
100
AcDbLine
10
654.570209753856
20
290.240104324915
30
0.0
11
653.665309740372
21
288.424904297866
31
0.0
0
LINE
5
6d9
100
AcDbEntity
8
0-101
6
DOT
62
4
100
AcDbLine
10
653.665309740372
20
288.424904297866
30
0.0
11
652.520209723309
21
287.816104288794
31
0.0
0
LINE
5
6da
100
AcDbEntity
8
0-101
6
DOT
62
4
100
AcDbLine
10
652.520209723309
20
287.816104288794
30
0.0
11
651.375209706247
21
288.424904297866
31
0.0
0
LINE
5
6db
100
AcDbEntity
8
0-101
6
DOT
62
4
100
AcDbLine
10
650.470309692763
20
290.240104324915
30
0.0
11
651.375209706247
21
288.424904297866
31
0.0
0
LINE
5
6dc
100
AcDbEntity
8
0-101
6
CONTINUOUS
62
4
100
AcDbLine
10
653.164509732909
20
260.130703876249
30
0.0
11
652.288609719858
21
258.343603849620
31
0.0
0
LINE
5
6dd
100
AcDbEntity
8
0-101
6
CONTINUOUS
62
4
100
AcDbLine
10
653.589609739244
20
259.885303872593
30
0.0
11
652.288609719858
21
258.343603849620
31
0.0
0
LINE
5
6de
100
AcDbEntity
8
0-101
6
CONTINUOUS
62
4
100
AcDbLine
10
651.504109708168
20
261.741203900248
30
0.0
11
652.520209723309
21
257.340003834665
31
0.0
0
LINE
5
6df
100
AcDbEntity
8
0-101
6
CENTER2
62
4
100
AcDbLine
10
652.520209723309
20
290.240104324915
30
0.0
11
652.520209723309
21
257.340003834665
31
0.0
0
LINE
5
6e0
100
AcDbEntity
8
0-101
6
CONTINUOUS
62
4
100
AcDbLine
10
652.926409729361
20
259.099603860885
30
0.0
11
652.520209723309
21
257.340003834665
31
0.0
0
LINE
5
6e1
100
AcDbEntity
8
0-101
6
CONTINUOUS
62
3
100
AcDbLine
10
628.977709372498
20
289.776304318003
30
0.0
11
623.512609291062
21
289.441204313010
31
0.0
0
LINE
5
6e2
100
AcDbEntity
8
0-101
6
CONTINUOUS
62
3
100
AcDbLine
10
628.927009371743
20
290.775004332885
30
0.0
11
623.451309290148
21
290.439304327883
31
0.0
0
LINE
5
6e3
100
AcDbEntity
8
0-101
6
DASHED
62
4
100
AcDbLine
10
110.770301650606
20
288.340204296604
30
0.0
11
737.020210982457
21
288.340204296604
31
0.0
0
LINE
5
6e4
100
AcDbEntity
8
0-101
6
CONTINUOUS
62
7
100
AcDbLine
10
110.770301650606
20
287.840204289153
30
0.0
11
737.020210982457
21
287.840204289153
31
0.0
0
LINE
5
6e5
100
AcDbEntity
8
0-101
6
CONTINUOUS
62
7
100
AcDbLine
10
110.770301650606
20
272.840204065636
30
0.0
11
737.020210982457
21
272.840204065636
31
0.0
0
LINE
5
6e6
100
AcDbEntity
8
0-101
6
DASHED2
62
7
100
AcDbLine
10
110.770301650606
20
275.840204110339
30
0.0
11
737.020210982457
21
275.840204110339
31
0.0
0
LINE
5
6e7
100
AcDbEntity
8
0-101
6
DASHED2
62
7
100
AcDbLine
10
110.770301650606
20
278.840204155043
30
0.0
11
737.020210982457
21
278.840204155043
31
0.0
0
LINE
5
6e8
100
AcDbEntity
8
0-101
6
DASHED2
62
7
100
AcDbLine
10
110.770301650606
20
281.840204199746
30
0.0
11
737.020210982457
21
281.840204199746
31
0.0
0
LINE
5
6e9
100
AcDbEntity
8
0-101
6
DASHED2
62
7
100
AcDbLine
10
110.770301650606
20
284.840104244448
30
0.0
11
737.020210982457
21
284.840104244448
31
0.0
0
LINE
5
6ea
100
AcDbEntity
8
0-2
6
CONTINUOUS
62
3
100
AcDbLine
10
314.144804681122
20
127.620001901686
30
0.0
11
314.144804681122
21
176.619902631842
31
0.0
0
LINE
5
6eb
100
AcDbEntity
8
0-000
6
CONTINUOUS
62
3
100
AcDbLine
10
314.144804681122
20
176.619902631842
30
0.0
11
314.644804688573
21
176.619902631842
31
0.0
0
LINE
5
6ec
100
AcDbEntity
8
0-2
6
CONTINUOUS
62
3
100
AcDbLine
10
314.644804688573
20
127.620001901686
30
0.0
11
314.644804688573
21
176.619902631842
31
0.0
0
LINE
5
6ed
100
AcDbEntity
8
0-2
6
CONTINUOUS
62
3
100
AcDbLine
10
514.144807661355
20
127.620001901686
30
0.0
11
514.144807661355
21
176.619902631842
31
0.0
0
LINE
5
6ee
100
AcDbEntity
8
0-000
6
CONTINUOUS
62
3
100
AcDbLine
10
514.144807661355
20
176.619902631842
30
0.0
11
514.644807668805
21
176.619902631842
31
0.0
0
LINE
5
6ef
100
AcDbEntity
8
0-2
6
CONTINUOUS
62
3
100
AcDbLine
10
514.644807668805
20
127.620001901686
30
0.0
11
514.644807668805
21
176.619902631842
31
0.0
0
LINE
5
6f0
100
AcDbEntity
8
0-000
6
CONTINUOUS
62
3
100
AcDbLine
10
465.644906938650
20
89.120001327992
30
0.0
11
465.644906938650
21
89.620001335442
31
0.0
0
LINE
5
6f1
100
AcDbEntity
8
0-2
6
CONTINUOUS
62
3
100
AcDbLine
10
485.144907229222
20
89.120001327992
30
0.0
11
465.644906938650
21
89.120001327992
31
0.0
0
LINE
5
6f2
100
AcDbEntity
8
0-2
6
CONTINUOUS
62
3
100
AcDbLine
10
140.144702088319
20
144.937302159734
30
0.0
11
189.144702818476
21
144.937302159734
31
0.0
0
LINE
5
6f3
100
AcDbEntity
8
0-000
6
CONTINUOUS
62
3
100
AcDbLine
10
189.144702818476
20
144.937302159734
30
0.0
11
189.144702818476
21
144.437402152285
31
0.0
0
LINE
5
6f4
100
AcDbEntity
8
0-2
6
CONTINUOUS
62
3
100
AcDbLine
10
140.144702088319
20
144.437402152285
30
0.0
11
189.144702818476
21
144.437402152285
31
0.0
0
LINE
5
6f5
100
AcDbEntity
8
0-000
6
CONTINUOUS
62
4
100
AcDbLine
10
159.144702371441
20
111.437301660545
30
0.0
11
159.144702371441
21
106.437301586039
31
0.0
0
LINE
5
6f6
100
AcDbEntity
8
0-000
6
CONTINUOUS
62
4
100
AcDbLine
10
159.144702371441
20
96.437201437026
30
0.0
11
159.144702371441
21
91.437201362520
31
0.0
0
LINE
5
6f7
100
AcDbEntity
8
0-000
6
CONTINUOUS
62
4
100
AcDbLine
10
151.144702252232
20
111.437301660545
30
0.0
11
151.144702252232
21
106.437301586039
31
0.0
0
LINE
5
6f8
100
AcDbEntity
8
0-000
6
CONTINUOUS
62
4
100
AcDbLine
10
159.144702371441
20
106.437301586039
30
0.0
11
151.144702252232
21
106.437301586039
31
0.0
0
LINE
5
6f9
100
AcDbEntity
8
0-000
6
CONTINUOUS
62
3
100
AcDbLine
10
158.394702360265
20
117.437401749954
30
0.0
11
151.144702252232
21
117.437401749954
31
0.0
0
LINE
5
6fa
100
AcDbEntity
8
0-000
6
CONTINUOUS
62
3
100
AcDbLine
10
151.144702252232
20
117.937301757403
30
0.0
11
158.394702360265
21
117.937301757403
31
0.0
0
LINE
5
6fb
100
AcDbEntity
8
0-000
6
CONTINUOUS
62
3
100
AcDbLine
10
151.144702252232
20
117.937301757403
30
0.0
11
151.144702252232
21
117.437401749954
31
0.0
0
LINE
5
6fc
100
AcDbEntity
8
0-000
6
CONTINUOUS
62
3
100
AcDbLine
10
158.394702360265
20
116.937401742503
30
0.0
11
140.144702088319
21
116.937401742503
31
0.0
0
LINE
5
6fd
100
AcDbEntity
8
0-000
6
CONTINUOUS
62
3
100
AcDbLine
10
158.394702360265
20
116.437401735052
30
0.0
11
140.144702088319
21
116.437401735052
31
0.0
0
LINE
5
6fe
100
AcDbEntity
8
0-000
6
CONTINUOUS
62
4
100
AcDbLine
10
139.144702073418
20
96.437201437026
30
0.0
11
139.144702073418
21
91.437201362520
31
0.0
0
LINE
5
6ff
100
AcDbEntity
8
0-000
6
CONTINUOUS
62
4
100
AcDbLine
10
159.144702371441
20
91.437201362520
30
0.0
11
139.144702073418
21
91.437201362520
31
0.0
0
LINE
5
700
100
AcDbEntity
8
0-2
6
CONTINUOUS
62
4
100
AcDbLine
10
550.644808205247
20
74.120001104474
30
0.0
11
555.644808279753
21
74.120001104474
31
0.0
0
LINE
5
701
100
AcDbEntity
8
0-2
6
CONTINUOUS
62
4
100
AcDbLine
10
555.644808279753
20
127.120001894236
30
0.0
11
555.644808279753
21
74.120001104474
31
0.0
0
LINE
5
702
100
AcDbEntity
8
0-2
6
CONTINUOUS
62
3
100
AcDbLine
10
545.644908130743
20
123.213401836023
30
0.0
11
545.644908130743
21
75.120001119375
31
0.0
0
LINE
5
703
100
AcDbEntity
8
0-2
6
CONTINUOUS
62
3
100
AcDbLine
10
545.144808123291
20
75.120001119375
30
0.0
11
545.144808123291
21
123.213401836023
31
0.0
0
LINE
5
704
100
AcDbEntity
8
0-000
6
CONTINUOUS
62
4
100
AcDbLine
10
887.610913226433
20
300.290004474670
30
0.0
11
897.111013367996
21
300.290004474670
31
0.0
0
LINE
5
705
100
AcDbEntity
8
0-000
6
CONTINUOUS
62
4
100
AcDbLine
10
887.610913226433
20
299.340004460514
30
0.0
11
897.111013367996
21
299.340004460514
31
0.0
0
LINE
5
706
100
AcDbEntity
8
0-000
6
CONTINUOUS
62
4
100
AcDbLine
10
897.360913371719
20
300.040004470944
30
0.0
11
897.360913371719
21
299.590104464240
31
0.0
0
LINE
5
707
100
AcDbEntity
8
0-000
6
CONTINUOUS
62
4
100
AcDbLine
10
887.361013222709
20
300.040004470944
30
0.0
11
887.361013222709
21
299.590104464240
31
0.0
0
LINE
5
708
100
AcDbEntity
8
0-000
6
CONTINUOUS
62
4
100
AcDbLine
10
894.715913332306
20
293.073504367135
30
0.0
11
894.111013323292
21
292.724204361931
31
0.0
0
LINE
5
709
100
AcDbEntity
8
0-000
6
CONTINUOUS
62
4
100
AcDbLine
10
894.715913332306
20
293.073504367135
30
0.0
11
894.111013323292
21
293.422904372342
31
0.0
0
LINE
5
70a
100
AcDbEntity
8
0-000
6
CONTINUOUS
62
4
100
AcDbLine
10
894.715913332306
20
293.073504367135
30
0.0
11
890.006013262123
21
292.279804355308
31
0.0
0
LINE
5
70b
100
AcDbEntity
8
0-000
6
CONTINUOUS
62
4
100
AcDbLine
10
890.611013271138
20
292.629104360513
30
0.0
11
894.111013323292
21
293.422904372342
31
0.0
0
LINE
5
70c
100
AcDbEntity
8
0-000
6
CONTINUOUS
62
4
100
AcDbLine
10
890.611013271138
20
291.930504350103
30
0.0
11
894.111013323292
21
292.724204361931
31
0.0
0
LINE
5
70d
100
AcDbEntity
8
0-000
6
CONTINUOUS
62
4
100
AcDbLine
10
890.006013262123
20
292.279804355308
30
0.0
11
890.611013271138
21
292.629104360513
31
0.0
0
LINE
5
70e
100
AcDbEntity
8
0-000
6
CONTINUOUS
62
4
100
AcDbLine
10
890.006013262123
20
292.279804355308
30
0.0
11
890.611013271138
21
291.930504350103
31
0.0
0
LINE
5
70f
100
AcDbEntity
8
0-000
6
CONTINUOUS
62
4
100
AcDbLine
10
894.715913332306
20
294.661004390791
30
0.0
11
894.111013323292
21
294.311804385588
31
0.0
0
LINE
5
710
100
AcDbEntity
8
0-000
6
CONTINUOUS
62
4
100
AcDbLine
10
894.715913332306
20
294.661004390791
30
0.0
11
894.111013323292
21
295.010304395996
31
0.0
0
LINE
5
711
100
AcDbEntity
8
0-000
6
CONTINUOUS
62
4
100
AcDbLine
10
894.715913332306
20
294.661004390791
30
0.0
11
890.006013262123
21
293.867304378964
31
0.0
0
LINE
5
712
100
AcDbEntity
8
0-000
6
CONTINUOUS
62
4
100
AcDbLine
10
890.611013271138
20
294.216604384169
30
0.0
11
894.111013323292
21
295.010304395996
31
0.0
0
LINE
5
713
100
AcDbEntity
8
0-000
6
CONTINUOUS
62
4
100
AcDbLine
10
890.611013271138
20
293.518004373759
30
0.0
11
894.111013323292
21
294.311804385588
31
0.0
0
LINE
5
714
100
AcDbEntity
8
0-000
6
CONTINUOUS
62
4
100
AcDbLine
10
894.111013323292
20
294.311804385588
30
0.0
11
894.111013323292
21
293.422904372342
31
0.0
0
LINE
5
715
100
AcDbEntity
8
0-000
6
CONTINUOUS
62
4
100
AcDbLine
10
890.006013262123
20
293.867304378964
30
0.0
11
890.611013271138
21
294.216604384169
31
0.0
0
LINE
5
716
100
AcDbEntity
8
0-000
6
CONTINUOUS
62
4
100
AcDbLine
10
890.006013262123
20
293.867304378964
30
0.0
11
890.611013271138
21
293.518004373759
31
0.0
0
LINE
5
717
100
AcDbEntity
8
0-000
6
CONTINUOUS
62
4
100
AcDbLine
10
890.611013271138
20
293.518004373759
30
0.0
11
890.611013271138
21
292.629104360513
31
0.0
0
LINE
5
718
100
AcDbEntity
8
0-000
6
CONTINUOUS
62
4
100
AcDbLine
10
894.715913332306
20
296.248604414448
30
0.0
11
894.111013323292
21
295.899304409243
31
0.0
0
LINE
5
719
100
AcDbEntity
8
0-000
6
CONTINUOUS
62
4
100
AcDbLine
10
894.153713323929
20
296.573204419285
30
0.0
11
894.715913332306
21
296.248604414448
31
0.0
0
LINE
5
71a
100
AcDbEntity
8
0-000
6
CONTINUOUS
62
4
100
AcDbLine
10
894.111013323292
20
295.899304409243
30
0.0
11
894.111013323292
21
295.010304395996
31
0.0
0
LINE
5
71b
100
AcDbEntity
8
0-000
6
CONTINUOUS
62
4
100
AcDbLine
10
890.006013262123
20
295.454804402620
30
0.0
11
890.611013271138
21
295.804104407825
31
0.0
0
LINE
5
71c
100
AcDbEntity
8
0-000
6
CONTINUOUS
62
4
100
AcDbLine
10
890.006013262123
20
295.454804402620
30
0.0
11
890.611013271138
21
295.105504397415
31
0.0
0
LINE
5
71d
100
AcDbEntity
8
0-000
6
CONTINUOUS
62
4
100
AcDbLine
10
890.611013271138
20
295.105504397415
30
0.0
11
890.611013271138
21
294.216604384169
31
0.0
0
LINE
5
71e
100
AcDbEntity
8
0-000
6
CONTINUOUS
62
4
100
AcDbLine
10
894.615813330814
20
297.686004435867
30
0.0
11
894.327113326512
21
297.519204433382
31
0.0
0
LINE
5
71f
100
AcDbEntity
8
0-000
6
CONTINUOUS
62
4
100
AcDbLine
10
894.615813330814
20
297.986104440339
30
0.0
11
894.432113328077
21
298.092204441920
31
0.0
0
LINE
5
720
100
AcDbEntity
8
0-000
6
CONTINUOUS
62
4
100
AcDbLine
10
890.436613268539
20
297.291004429981
30
0.0
11
890.165213264495
21
297.134304427646
31
0.0
0
LINE
5
721
100
AcDbEntity
8
0-000
6
CONTINUOUS
62
4
100
AcDbLine
10
890.538513270058
20
296.734804421693
30
0.0
11
890.165213264495
21
296.950204424903
31
0.0
0
LINE
5
722
100
AcDbEntity
8
0-000
6
CONTINUOUS
62
4
100
AcDbLine
10
890.155213264346
20
298.825704452850
30
0.0
11
890.106113263614
21
298.797404452428
31
0.0
0
LINE
5
723
100
AcDbEntity
8
0-000
6
CONTINUOUS
62
4
100
AcDbLine
10
890.235513265543
20
298.387404446319
30
0.0
11
890.106113263614
21
298.462304447435
31
0.0
0
LINE
5
724
100
AcDbEntity
8
0-000
6
CONTINUOUS
62
4
100
AcDbLine
10
893.346113311894
20
270.340104028381
30
0.0
11
893.346113311894
21
268.949104007654
31
0.0
0
LINE
5
725
100
AcDbEntity
8
0-000
6
CONTINUOUS
62
4
100
AcDbLine
10
893.346113311894
20
270.340104028381
30
0.0
11
890.361013267413
21
270.340104028381
31
0.0
0
LINE
5
726
100
AcDbEntity
8
0-000
6
CONTINUOUS
62
4
100
AcDbLine
10
894.361013327017
20
270.340104028381
30
0.0
11
894.242713325255
21
270.904004036784
31
0.0
0
LINE
5
727
100
AcDbEntity
8
0-000
6
CONTINUOUS
62
4
100
AcDbLine
10
894.242713325255
20
270.904004036784
30
0.0
11
894.125813323513
21
271.421804044500
31
0.0
0
LINE
5
728
100
AcDbEntity
8
0-000
6
CONTINUOUS
62
4
100
AcDbLine
10
894.125813323513
20
271.421804044500
30
0.0
11
894.011613321811
21
271.847204050839
31
0.0
0
LINE
5
729
100
AcDbEntity
8
0-000
6
CONTINUOUS
62
4
100
AcDbLine
10
894.011613321811
20
271.847204050839
30
0.0
11
893.901113320164
21
272.134004055113
31
0.0
0
LINE
5
72a
100
AcDbEntity
8
0-000
6
CONTINUOUS
62
4
100
AcDbLine
10
893.901113320164
20
272.134004055113
30
0.0
11
893.795913318597
21
272.236004056633
31
0.0
0
LINE
5
72b
100
AcDbEntity
8
0-000
6
CONTINUOUS
62
4
100
AcDbLine
10
893.795913318597
20
272.236004056633
30
0.0
11
893.698313317142
21
272.125704054989
31
0.0
0
LINE
5
72c
100
AcDbEntity
8
0-000
6
CONTINUOUS
62
4
100
AcDbLine
10
893.698313317142
20
272.125704054989
30
0.0
11
893.605913315766
21
271.836204050675
31
0.0
0
LINE
5
72d
100
AcDbEntity
8
0-000
6
CONTINUOUS
62
4
100
AcDbLine
10
893.605913315766
20
271.836204050675
30
0.0
11
893.517113314442
21
271.412204044357
31
0.0
0
LINE
5
72e
100
AcDbEntity
8
0-000
6
CONTINUOUS
62
4
100
AcDbLine
10
893.517113314442
20
271.412204044357
30
0.0
11
893.431013313159
21
270.898504036702
31
0.0
0
LINE
5
72f
100
AcDbEntity
8
0-000
6
CONTINUOUS
62
4
100
AcDbLine
10
893.431013313159
20
270.898504036702
30
0.0
11
893.346113311894
21
270.340104028381
31
0.0
0
LINE
5
730
100
AcDbEntity
8
0-000
6
CONTINUOUS
62
4
100
AcDbLine
10
890.611013271138
20
296.339404415801
30
0.0
11
890.538513270058
21
296.734804421693
31
0.0
0
LINE
5
731
100
AcDbEntity
8
0-000
6
CONTINUOUS
62
4
100
AcDbLine
10
894.153713323929
20
296.573204419285
30
0.0
11
894.327113326512
21
297.519204433382
31
0.0
0
LINE
5
732
100
AcDbEntity
8
0-000
6
CONTINUOUS
62
4
100
AcDbLine
10
890.611013271138
20
296.339404415801
30
0.0
11
890.611013271138
21
295.804104407825
31
0.0
0
LINE
5
733
100
AcDbEntity
8
0-000
6
CONTINUOUS
62
4
100
AcDbLine
10
890.611013271138
20
295.804104407825
30
0.0
11
894.153713323929
21
296.573204419285
31
0.0
0
LINE
5
734
100
AcDbEntity
8
0-000
6
CONTINUOUS
62
4
100
AcDbLine
10
894.715913332306
20
296.248604414448
30
0.0
11
890.006013262123
21
295.454804402620
31
0.0
0
LINE
5
735
100
AcDbEntity
8
0-000
6
CONTINUOUS
62
4
100
AcDbLine
10
890.611013271138
20
295.105504397415
30
0.0
11
894.111013323292
21
295.899304409243
31
0.0
0
LINE
5
736
100
AcDbEntity
8
0-000
6
CONTINUOUS
62
4
100
AcDbLine
10
894.615813330814
20
297.986104440339
30
0.0
11
894.615813330814
21
297.686004435867
31
0.0
0
LINE
5
737
100
AcDbEntity
8
0-000
6
CONTINUOUS
62
4
100
AcDbLine
10
890.165213264495
20
297.134304427646
30
0.0
11
890.165213264495
21
296.950204424903
31
0.0
0
LINE
5
738
100
AcDbEntity
8
0-000
6
CONTINUOUS
62
4
100
AcDbLine
10
890.106113263614
20
298.462304447435
30
0.0
11
890.106113263614
21
298.797404452428
31
0.0
0
LINE
5
739
100
AcDbEntity
8
0-000
6
CONTINUOUS
62
4
100
AcDbLine
10
890.436613268539
20
297.291004429981
30
0.0
11
890.235513265543
21
298.387404446319
31
0.0
0
LINE
5
73a
100
AcDbEntity
8
0-000
6
CONTINUOUS
62
4
100
AcDbLine
10
894.432113328077
20
298.092204441920
30
0.0
11
894.615813330814
21
299.094104456849
31
0.0
0
LINE
5
73b
100
AcDbEntity
8
0-000
6
CONTINUOUS
62
4
100
AcDbLine
10
890.538513270058
20
296.734804421693
30
0.0
11
894.327113326512
21
297.519204433382
31
0.0
0
LINE
5
73c
100
AcDbEntity
8
0-000
6
CONTINUOUS
62
4
100
AcDbLine
10
894.615813330814
20
297.686004435867
30
0.0
11
890.165213264495
21
296.950204424903
31
0.0
0
LINE
5
73d
100
AcDbEntity
8
0-000
6
CONTINUOUS
62
4
100
AcDbLine
10
890.165213264495
20
297.134304427646
30
0.0
11
894.615813330814
21
297.986104440339
31
0.0
0
LINE
5
73e
100
AcDbEntity
8
0-000
6
CONTINUOUS
62
4
100
AcDbLine
10
894.432113328077
20
298.092204441920
30
0.0
11
890.436613268539
21
297.291004429981
31
0.0
0
LINE
5
73f
100
AcDbEntity
8
0-000
6
CONTINUOUS
62
4
100
AcDbLine
10
890.155213264346
20
298.825704452850
30
0.0
11
890.106113263614
21
299.094104456849
31
0.0
0
LINE
5
740
100
AcDbEntity
8
0-000
6
CONTINUOUS
62
4
100
AcDbLine
10
890.155213264346
20
298.825704452850
30
0.0
11
894.615813330814
21
299.094104456849
31
0.0
0
LINE
5
741
100
AcDbEntity
8
0-000
6
CONTINUOUS
62
4
100
AcDbLine
10
894.615813330814
20
299.094104456849
30
0.0
11
890.235513265543
21
298.387404446319
31
0.0
0
LINE
5
742
100
AcDbEntity
8
0-000
6
CONTINUOUS
62
4
100
AcDbLine
10
890.106113263614
20
298.462304447435
30
0.0
11
894.615813330814
21
299.094104456849
31
0.0
0
LINE
5
743
100
AcDbEntity
8
0-000
6
CONTINUOUS
62
4
100
AcDbLine
10
890.106113263614
20
298.797404452428
30
0.0
11
894.615813330814
21
299.094104456849
31
0.0
0
LINE
5
744
100
AcDbEntity
8
0-000
6
CONTINUOUS
62
4
100
AcDbLine
10
894.715913332306
20
291.486104343481
30
0.0
11
894.111013323292
21
291.136804338276
31
0.0
0
LINE
5
745
100
AcDbEntity
8
0-000
6
CONTINUOUS
62
4
100
AcDbLine
10
894.715913332306
20
291.486104343481
30
0.0
11
894.111013323292
21
291.835304348685
31
0.0
0
LINE
5
746
100
AcDbEntity
8
0-000
6
CONTINUOUS
62
4
100
AcDbLine
10
894.715913332306
20
291.486104343481
30
0.0
11
890.006013262123
21
290.692304331653
31
0.0
0
LINE
5
747
100
AcDbEntity
8
0-000
6
CONTINUOUS
62
4
100
AcDbLine
10
890.611013271138
20
291.041604336858
30
0.0
11
894.111013323292
21
291.835304348685
31
0.0
0
LINE
5
748
100
AcDbEntity
8
0-000
6
CONTINUOUS
62
4
100
AcDbLine
10
890.611013271138
20
290.343004326448
30
0.0
11
894.111013323292
21
291.136804338276
31
0.0
0
LINE
5
749
100
AcDbEntity
8
0-000
6
CONTINUOUS
62
4
100
AcDbLine
10
894.111013323292
20
292.724204361931
30
0.0
11
894.111013323292
21
291.835304348685
31
0.0
0
LINE
5
74a
100
AcDbEntity
8
0-000
6
CONTINUOUS
62
4
100
AcDbLine
10
890.006013262123
20
290.692304331653
30
0.0
11
890.611013271138
21
291.041604336858
31
0.0
0
LINE
5
74b
100
AcDbEntity
8
0-000
6
CONTINUOUS
62
4
100
AcDbLine
10
890.006013262123
20
290.692304331653
30
0.0
11
890.611013271138
21
290.343004326448
31
0.0
0
LINE
5
74c
100
AcDbEntity
8
0-000
6
CONTINUOUS
62
4
100
AcDbLine
10
890.611013271138
20
291.930504350103
30
0.0
11
890.611013271138
21
291.041604336858
31
0.0
0
LINE
5
74d
100
AcDbEntity
8
0-000
6
CONTINUOUS
62
4
100
AcDbLine
10
894.715913332306
20
289.898504319824
30
0.0
11
894.111013323292
21
289.549204314619
31
0.0
0
LINE
5
74e
100
AcDbEntity
8
0-000
6
CONTINUOUS
62
4
100
AcDbLine
10
894.715913332306
20
289.898504319824
30
0.0
11
894.111013323292
21
290.247804325029
31
0.0
0
LINE
5
74f
100
AcDbEntity
8
0-000
6
CONTINUOUS
62
4
100
AcDbLine
10
894.715913332306
20
289.898504319824
30
0.0
11
890.006013262123
21
289.104804307997
31
0.0
0
LINE
5
750
100
AcDbEntity
8
0-000
6
CONTINUOUS
62
4
100
AcDbLine
10
890.611013271138
20
289.454104313202
30
0.0
11
894.111013323292
21
290.247804325029
31
0.0
0
LINE
5
751
100
AcDbEntity
8
0-000
6
CONTINUOUS
62
4
100
AcDbLine
10
890.611013271138
20
288.755504302792
30
0.0
11
894.111013323292
21
289.549204314619
31
0.0
0
LINE
5
752
100
AcDbEntity
8
0-000
6
CONTINUOUS
62
4
100
AcDbLine
10
894.111013323292
20
291.136804338276
30
0.0
11
894.111013323292
21
290.247804325029
31
0.0
0
LINE
5
753
100
AcDbEntity
8
0-000
6
CONTINUOUS
62
4
100
AcDbLine
10
890.006013262123
20
289.104804307997
30
0.0
11
890.611013271138
21
289.454104313202
31
0.0
0
LINE
5
754
100
AcDbEntity
8
0-000
6
CONTINUOUS
62
4
100
AcDbLine
10
890.006013262123
20
289.104804307997
30
0.0
11
890.611013271138
21
288.755504302792
31
0.0
0
LINE
5
755
100
AcDbEntity
8
0-000
6
CONTINUOUS
62
4
100
AcDbLine
10
890.611013271138
20
290.343004326448
30
0.0
11
890.611013271138
21
289.454104313202
31
0.0
0
LINE
5
756
100
AcDbEntity
8
0-000
6
CONTINUOUS
62
4
100
AcDbLine
10
894.715913332306
20
288.311104296170
30
0.0
11
890.006013262123
21
287.517304284342
31
0.0
0
LINE
5
757
100
AcDbEntity
8
0-000
6
CONTINUOUS
62
4
100
AcDbLine
10
890.611013271138
20
287.866604289547
30
0.0
11
894.111013323292
21
288.660404301375
31
0.0
0
LINE
5
758
100
AcDbEntity
8
0-000
6
CONTINUOUS
62
4
100
AcDbLine
10
890.611013271138
20
287.168004279137
30
0.0
11
894.111013323292
21
287.961704290964
31
0.0
0
LINE
5
759
100
AcDbEntity
8
0-000
6
CONTINUOUS
62
4
100
AcDbLine
10
890.006013262123
20
287.517304284342
30
0.0
11
890.611013271138
21
287.866604289547
31
0.0
0
LINE
5
75a
100
AcDbEntity
8
0-000
6
CONTINUOUS
62
4
100
AcDbLine
10
890.006013262123
20
287.517304284342
30
0.0
11
890.611013271138
21
287.168004279137
31
0.0
0
LINE
5
75b
100
AcDbEntity
8
0-000
6
CONTINUOUS
62
4
100
AcDbLine
10
890.611013271138
20
288.755504302792
30
0.0
11
890.611013271138
21
287.866604289547
31
0.0
0
LINE
5
75c
100
AcDbEntity
8
0-000
6
CONTINUOUS
62
4
100
AcDbLine
10
894.715913332306
20
288.311104296170
30
0.0
11
894.111013323292
21
287.961704290964
31
0.0
0
LINE
5
75d
100
AcDbEntity
8
0-000
6
CONTINUOUS
62
4
100
AcDbLine
10
894.715913332306
20
288.311104296170
30
0.0
11
894.111013323292
21
288.660404301375
31
0.0
0
LINE
5
75e
100
AcDbEntity
8
0-000
6
CONTINUOUS
62
4
100
AcDbLine
10
894.111013323292
20
289.549204314619
30
0.0
11
894.111013323292
21
288.660404301375
31
0.0
0
LINE
5
75f
100
AcDbEntity
8
0-000
6
CONTINUOUS
62
4
100
AcDbLine
10
894.715913332306
20
286.723504272513
30
0.0
11
890.006013262123
21
285.929804260686
31
0.0
0
LINE
5
760
100
AcDbEntity
8
0-000
6
CONTINUOUS
62
4
100
AcDbLine
10
890.611013271138
20
286.279104265891
30
0.0
11
894.111013323292
21
287.072804277718
31
0.0
0
LINE
5
761
100
AcDbEntity
8
0-000
6
CONTINUOUS
62
4
100
AcDbLine
10
890.611013271138
20
285.580504255481
30
0.0
11
894.111013323292
21
286.374304267310
31
0.0
0
LINE
5
762
100
AcDbEntity
8
0-000
6
CONTINUOUS
62
4
100
AcDbLine
10
890.006013262123
20
285.929804260686
30
0.0
11
890.611013271138
21
286.279104265891
31
0.0
0
LINE
5
763
100
AcDbEntity
8
0-000
6
CONTINUOUS
62
4
100
AcDbLine
10
890.006013262123
20
285.929804260686
30
0.0
11
890.611013271138
21
285.580504255481
31
0.0
0
LINE
5
764
100
AcDbEntity
8
0-000
6
CONTINUOUS
62
4
100
AcDbLine
10
890.611013271138
20
287.168004279137
30
0.0
11
890.611013271138
21
286.279104265891
31
0.0
0
LINE
5
765
100
AcDbEntity
8
0-000
6
CONTINUOUS
62
4
100
AcDbLine
10
894.715913332306
20
286.723504272513
30
0.0
11
894.111013323292
21
286.374304267310
31
0.0
0
LINE
5
766
100
AcDbEntity
8
0-000
6
CONTINUOUS
62
4
100
AcDbLine
10
894.715913332306
20
286.723504272513
30
0.0
11
894.111013323292
21
287.072804277718
31
0.0
0
LINE
5
767
100
AcDbEntity
8
0-000
6
CONTINUOUS
62
4
100
AcDbLine
10
894.111013323292
20
287.961704290964
30
0.0
11
894.111013323292
21
287.072804277718
31
0.0
0
LINE
5
768
100
AcDbEntity
8
0-000
6
CONTINUOUS
62
4
100
AcDbLine
10
894.715913332306
20
285.136004248857
30
0.0
11
890.006013262123
21
284.342304237030
31
0.0
0
LINE
5
769
100
AcDbEntity
8
0-000
6
CONTINUOUS
62
4
100
AcDbLine
10
890.611013271138
20
284.691604242235
30
0.0
11
894.111013323292
21
285.485304254063
31
0.0
0
LINE
5
76a
100
AcDbEntity
8
0-000
6
CONTINUOUS
62
4
100
AcDbLine
10
890.611013271138
20
283.993004231825
30
0.0
11
894.111013323292
21
284.786704243653
31
0.0
0
LINE
5
76b
100
AcDbEntity
8
0-000
6
CONTINUOUS
62
4
100
AcDbLine
10
890.006013262123
20
284.342304237030
30
0.0
11
890.611013271138
21
284.691604242235
31
0.0
0
LINE
5
76c
100
AcDbEntity
8
0-000
6
CONTINUOUS
62
4
100
AcDbLine
10
890.006013262123
20
284.342304237030
30
0.0
11
890.611013271138
21
283.993004231825
31
0.0
0
LINE
5
76d
100
AcDbEntity
8
0-000
6
CONTINUOUS
62
4
100
AcDbLine
10
890.611013271138
20
285.580504255481
30
0.0
11
890.611013271138
21
284.691604242235
31
0.0
0
LINE
5
76e
100
AcDbEntity
8
0-000
6
CONTINUOUS
62
4
100
AcDbLine
10
894.715913332306
20
285.136004248857
30
0.0
11
894.111013323292
21
284.786704243653
31
0.0
0
LINE
5
76f
100
AcDbEntity
8
0-000
6
CONTINUOUS
62
4
100
AcDbLine
10
894.715913332306
20
285.136004248857
30
0.0
11
894.111013323292
21
285.485304254063
31
0.0
0
LINE
5
770
100
AcDbEntity
8
0-000
6
CONTINUOUS
62
4
100
AcDbLine
10
894.111013323292
20
286.374304267310
30
0.0
11
894.111013323292
21
285.485304254063
31
0.0
0
LINE
5
771
100
AcDbEntity
8
0-000
6
CONTINUOUS
62
4
100
AcDbLine
10
894.715913332306
20
283.548604225203
30
0.0
11
890.006013262123
21
282.754804213375
31
0.0
0
LINE
5
772
100
AcDbEntity
8
0-000
6
CONTINUOUS
62
4
100
AcDbLine
10
890.611013271138
20
283.104104218580
30
0.0
11
894.111013323292
21
283.897904230408
31
0.0
0
LINE
5
773
100
AcDbEntity
8
0-000
6
CONTINUOUS
62
4
100
AcDbLine
10
890.611013271138
20
282.405504208170
30
0.0
11
894.111013323292
21
283.199304219998
31
0.0
0
LINE
5
774
100
AcDbEntity
8
0-000
6
CONTINUOUS
62
4
100
AcDbLine
10
890.006013262123
20
282.754804213375
30
0.0
11
890.611013271138
21
283.104104218580
31
0.0
0
LINE
5
775
100
AcDbEntity
8
0-000
6
CONTINUOUS
62
4
100
AcDbLine
10
890.006013262123
20
282.754804213375
30
0.0
11
890.611013271138
21
282.405504208170
31
0.0
0
LINE
5
776
100
AcDbEntity
8
0-000
6
CONTINUOUS
62
4
100
AcDbLine
10
890.611013271138
20
283.993004231825
30
0.0
11
890.611013271138
21
283.104104218580
31
0.0
0
LINE
5
777
100
AcDbEntity
8
0-000
6
CONTINUOUS
62
4
100
AcDbLine
10
894.715913332306
20
283.548604225203
30
0.0
11
894.111013323292
21
283.199304219998
31
0.0
0
LINE
5
778
100
AcDbEntity
8
0-000
6
CONTINUOUS
62
4
100
AcDbLine
10
894.715913332306
20
283.548604225203
30
0.0
11
894.111013323292
21
283.897904230408
31
0.0
0
LINE
5
779
100
AcDbEntity
8
0-000
6
CONTINUOUS
62
4
100
AcDbLine
10
894.111013323292
20
284.786704243653
30
0.0
11
894.111013323292
21
283.897904230408
31
0.0
0
LINE
5
77a
100
AcDbEntity
8
0-000
6
CONTINUOUS
62
4
100
AcDbLine
10
894.715913332306
20
281.961004201546
30
0.0
11
890.006013262123
21
281.167304189719
31
0.0
0
LINE
5
77b
100
AcDbEntity
8
0-000
6
CONTINUOUS
62
4
100
AcDbLine
10
890.611013271138
20
281.516604194924
30
0.0
11
894.111013323292
21
282.310304206751
31
0.0
0
LINE
5
77c
100
AcDbEntity
8
0-000
6
CONTINUOUS
62
4
100
AcDbLine
10
890.611013271138
20
280.818004184514
30
0.0
11
894.111013323292
21
281.611704196341
31
0.0
0
LINE
5
77d
100
AcDbEntity
8
0-000
6
CONTINUOUS
62
4
100
AcDbLine
10
890.006013262123
20
281.167304189719
30
0.0
11
890.611013271138
21
281.516604194924
31
0.0
0
LINE
5
77e
100
AcDbEntity
8
0-000
6
CONTINUOUS
62
4
100
AcDbLine
10
890.006013262123
20
281.167304189719
30
0.0
11
890.611013271138
21
280.818004184514
31
0.0
0
LINE
5
77f
100
AcDbEntity
8
0-000
6
CONTINUOUS
62
4
100
AcDbLine
10
890.611013271138
20
282.405504208170
30
0.0
11
890.611013271138
21
281.516604194924
31
0.0
0
LINE
5
780
100
AcDbEntity
8
0-000
6
CONTINUOUS
62
4
100
AcDbLine
10
894.715913332306
20
281.961004201546
30
0.0
11
894.111013323292
21
281.611704196341
31
0.0
0
LINE
5
781
100
AcDbEntity
8
0-000
6
CONTINUOUS
62
4
100
AcDbLine
10
894.715913332306
20
281.961004201546
30
0.0
11
894.111013323292
21
282.310304206751
31
0.0
0
LINE
5
782
100
AcDbEntity
8
0-000
6
CONTINUOUS
62
4
100
AcDbLine
10
894.111013323292
20
283.199304219998
30
0.0
11
894.111013323292
21
282.310304206751
31
0.0
0
LINE
5
783
100
AcDbEntity
8
0-000
6
CONTINUOUS
62
4
100
AcDbLine
10
894.715913332306
20
280.373504177891
30
0.0
11
890.006013262123
21
279.579804166064
31
0.0
0
LINE
5
784
100
AcDbEntity
8
0-000
6
CONTINUOUS
62
4
100
AcDbLine
10
890.611013271138
20
279.929104171269
30
0.0
11
894.111013323292
21
280.722804183096
31
0.0
0
LINE
5
785
100
AcDbEntity
8
0-000
6
CONTINUOUS
62
4
100
AcDbLine
10
890.611013271138
20
279.230504160859
30
0.0
11
894.111013323292
21
280.024204172686
31
0.0
0
LINE
5
786
100
AcDbEntity
8
0-000
6
CONTINUOUS
62
4
100
AcDbLine
10
890.006013262123
20
279.579804166064
30
0.0
11
890.611013271138
21
279.929104171269
31
0.0
0
LINE
5
787
100
AcDbEntity
8
0-000
6
CONTINUOUS
62
4
100
AcDbLine
10
890.006013262123
20
279.579804166064
30
0.0
11
890.611013271138
21
279.230504160859
31
0.0
0
LINE
5
788
100
AcDbEntity
8
0-000
6
CONTINUOUS
62
4
100
AcDbLine
10
890.611013271138
20
280.818004184514
30
0.0
11
890.611013271138
21
279.929104171269
31
0.0
0
LINE
5
789
100
AcDbEntity
8
0-000
6
CONTINUOUS
62
4
100
AcDbLine
10
894.715913332306
20
280.373504177891
30
0.0
11
894.111013323292
21
280.024204172686
31
0.0
0
LINE
5
78a
100
AcDbEntity
8
0-000
6
CONTINUOUS
62
4
100
AcDbLine
10
894.715913332306
20
280.373504177891
30
0.0
11
894.111013323292
21
280.722804183096
31
0.0
0
LINE
5
78b
100
AcDbEntity
8
0-000
6
CONTINUOUS
62
4
100
AcDbLine
10
894.111013323292
20
281.611704196341
30
0.0
11
894.111013323292
21
280.722804183096
31
0.0
0
LINE
5
78c
100
AcDbEntity
8
0-000
6
CONTINUOUS
62
4
100
AcDbLine
10
894.715913332306
20
278.786104154237
30
0.0
11
890.006013262123
21
277.992304142408
31
0.0
0
LINE
5
78d
100
AcDbEntity
8
0-000
6
CONTINUOUS
62
4
100
AcDbLine
10
890.611013271138
20
278.341604147613
30
0.0
11
894.111013323292
21
279.135304159440
31
0.0
0
LINE
5
78e
100
AcDbEntity
8
0-000
6
CONTINUOUS
62
4
100
AcDbLine
10
890.611013271138
20
277.643004137203
30
0.0
11
894.111013323292
21
278.436804149032
31
0.0
0
LINE
5
78f
100
AcDbEntity
8
0-000
6
CONTINUOUS
62
4
100
AcDbLine
10
890.006013262123
20
277.992304142408
30
0.0
11
890.611013271138
21
278.341604147613
31
0.0
0
LINE
5
790
100
AcDbEntity
8
0-000
6
CONTINUOUS
62
4
100
AcDbLine
10
890.006013262123
20
277.992304142408
30
0.0
11
890.611013271138
21
277.643004137203
31
0.0
0
LINE
5
791
100
AcDbEntity
8
0-000
6
CONTINUOUS
62
4
100
AcDbLine
10
890.611013271138
20
279.230504160859
30
0.0
11
890.611013271138
21
278.341604147613
31
0.0
0
LINE
5
792
100
AcDbEntity
8
0-000
6
CONTINUOUS
62
4
100
AcDbLine
10
894.715913332306
20
278.786104154237
30
0.0
11
894.111013323292
21
278.436804149032
31
0.0
0
LINE
5
793
100
AcDbEntity
8
0-000
6
CONTINUOUS
62
4
100
AcDbLine
10
894.715913332306
20
278.786104154237
30
0.0
11
894.111013323292
21
279.135304159440
31
0.0
0
LINE
5
794
100
AcDbEntity
8
0-000
6
CONTINUOUS
62
4
100
AcDbLine
10
894.111013323292
20
280.024204172686
30
0.0
11
894.111013323292
21
279.135304159440
31
0.0
0
LINE
5
795
100
AcDbEntity
8
0-000
6
CONTINUOUS
62
4
100
AcDbLine
10
894.715913332306
20
277.198504130580
30
0.0
11
890.006013262123
21
276.404804118753
31
0.0
0
LINE
5
796
100
AcDbEntity
8
0-000
6
CONTINUOUS
62
4
100
AcDbLine
10
890.611013271138
20
276.754104123957
30
0.0
11
894.111013323292
21
277.547804135785
31
0.0
0
LINE
5
797
100
AcDbEntity
8
0-000
6
CONTINUOUS
62
4
100
AcDbLine
10
890.611013271138
20
276.055504113548
30
0.0
11
894.111013323292
21
276.849304125376
31
0.0
0
LINE
5
798
100
AcDbEntity
8
0-000
6
CONTINUOUS
62
4
100
AcDbLine
10
890.006013262123
20
276.404804118753
30
0.0
11
890.611013271138
21
276.754104123957
31
0.0
0
LINE
5
799
100
AcDbEntity
8
0-000
6
CONTINUOUS
62
4
100
AcDbLine
10
890.006013262123
20
276.404804118753
30
0.0
11
890.611013271138
21
276.055504113548
31
0.0
0
LINE
5
79a
100
AcDbEntity
8
0-000
6
CONTINUOUS
62
4
100
AcDbLine
10
890.611013271138
20
277.643004137203
30
0.0
11
890.611013271138
21
276.754104123957
31
0.0
0
LINE
5
79b
100
AcDbEntity
8
0-000
6
CONTINUOUS
62
4
100
AcDbLine
10
894.715913332306
20
277.198504130580
30
0.0
11
894.111013323292
21
276.849304125376
31
0.0
0
LINE
5
79c
100
AcDbEntity
8
0-000
6
CONTINUOUS
62
4
100
AcDbLine
10
894.715913332306
20
277.198504130580
30
0.0
11
894.111013323292
21
277.547804135785
31
0.0
0
LINE
5
79d
100
AcDbEntity
8
0-000
6
CONTINUOUS
62
4
100
AcDbLine
10
894.111013323292
20
278.436804149032
30
0.0
11
894.111013323292
21
277.547804135785
31
0.0
0
LINE
5
79e
100
AcDbEntity
8
0-000
6
CONTINUOUS
62
4
100
AcDbLine
10
894.715913332306
20
275.611004106924
30
0.0
11
890.006013262123
21
274.817304095097
31
0.0
0
LINE
5
79f
100
AcDbEntity
8
0-000
6
CONTINUOUS
62
4
100
AcDbLine
10
890.611013271138
20
275.166604100302
30
0.0
11
894.111013323292
21
275.960404112130
31
0.0
0
LINE
5
7a0
100
AcDbEntity
8
0-000
6
CONTINUOUS
62
4
100
AcDbLine
10
890.611013271138
20
274.468004089892
30
0.0
11
894.111013323292
21
275.261704101719
31
0.0
0
LINE
5
7a1
100
AcDbEntity
8
0-000
6
CONTINUOUS
62
4
100
AcDbLine
10
890.006013262123
20
274.817304095097
30
0.0
11
890.611013271138
21
275.166604100302
31
0.0
0
LINE
5
7a2
100
AcDbEntity
8
0-000
6
CONTINUOUS
62
4
100
AcDbLine
10
890.006013262123
20
274.817304095097
30
0.0
11
890.611013271138
21
274.468004089892
31
0.0
0
LINE
5
7a3
100
AcDbEntity
8
0-000
6
CONTINUOUS
62
4
100
AcDbLine
10
890.611013271138
20
276.055504113548
30
0.0
11
890.611013271138
21
275.166604100302
31
0.0
0
LINE
5
7a4
100
AcDbEntity
8
0-000
6
CONTINUOUS
62
4
100
AcDbLine
10
894.715913332306
20
275.611004106924
30
0.0
11
894.111013323292
21
275.261704101719
31
0.0
0
LINE
5
7a5
100
AcDbEntity
8
0-000
6
CONTINUOUS
62
4
100
AcDbLine
10
894.715913332306
20
275.611004106924
30
0.0
11
894.111013323292
21
275.960404112130
31
0.0
0
LINE
5
7a6
100
AcDbEntity
8
0-000
6
CONTINUOUS
62
4
100
AcDbLine
10
894.111013323292
20
276.849304125376
30
0.0
11
894.111013323292
21
275.960404112130
31
0.0
0
LINE
5
7a7
100
AcDbEntity
8
0-000
6
CONTINUOUS
62
4
100
AcDbLine
10
894.715913332306
20
274.023604083270
30
0.0
11
890.006013262123
21
273.229804071441
31
0.0
0
LINE
5
7a8
100
AcDbEntity
8
0-000
6
CONTINUOUS
62
4
100
AcDbLine
10
890.611013271138
20
273.579104076646
30
0.0
11
894.111013323292
21
274.372804088473
31
0.0
0
LINE
5
7a9
100
AcDbEntity
8
0-000
6
CONTINUOUS
62
4
100
AcDbLine
10
890.611013271138
20
272.880504066236
30
0.0
11
894.111013323292
21
273.674304078065
31
0.0
0
LINE
5
7aa
100
AcDbEntity
8
0-000
6
CONTINUOUS
62
4
100
AcDbLine
10
890.006013262123
20
273.229804071441
30
0.0
11
890.611013271138
21
273.579104076646
31
0.0
0
LINE
5
7ab
100
AcDbEntity
8
0-000
6
CONTINUOUS
62
4
100
AcDbLine
10
890.006013262123
20
273.229804071441
30
0.0
11
890.611013271138
21
272.880504066236
31
0.0
0
LINE
5
7ac
100
AcDbEntity
8
0-000
6
CONTINUOUS
62
4
100
AcDbLine
10
890.611013271138
20
274.468004089892
30
0.0
11
890.611013271138
21
273.579104076646
31
0.0
0
LINE
5
7ad
100
AcDbEntity
8
0-000
6
CONTINUOUS
62
4
100
AcDbLine
10
894.715913332306
20
274.023604083270
30
0.0
11
894.111013323292
21
273.674304078065
31
0.0
0
LINE
5
7ae
100
AcDbEntity
8
0-000
6
CONTINUOUS
62
4
100
AcDbLine
10
894.715913332306
20
274.023604083270
30
0.0
11
894.111013323292
21
274.372804088473
31
0.0
0
LINE
5
7af
100
AcDbEntity
8
0-000
6
CONTINUOUS
62
4
100
AcDbLine
10
894.111013323292
20
275.261704101719
30
0.0
11
894.111013323292
21
274.372804088473
31
0.0
0
LINE
5
7b0
100
AcDbEntity
8
0-000
6
CONTINUOUS
62
4
100
AcDbLine
10
894.715913332306
20
272.436004059613
30
0.0
11
890.006013262123
21
271.642304047786
31
0.0
0
LINE
5
7b1
100
AcDbEntity
8
0-000
6
CONTINUOUS
62
4
100
AcDbLine
10
890.611013271138
20
271.991604052991
30
0.0
11
894.111013323292
21
272.785304064818
31
0.0
0
LINE
5
7b2
100
AcDbEntity
8
0-000
6
CONTINUOUS
62
4
100
AcDbLine
10
890.611013271138
20
271.293004042581
30
0.0
11
893.645513316356
21
271.981204052836
31
0.0
0
LINE
5
7b3
100
AcDbEntity
8
0-000
6
CONTINUOUS
62
4
100
AcDbLine
10
890.006013262123
20
271.642304047786
30
0.0
11
890.611013271138
21
271.991604052991
31
0.0
0
LINE
5
7b4
100
AcDbEntity
8
0-000
6
CONTINUOUS
62
4
100
AcDbLine
10
890.006013262123
20
271.642304047786
30
0.0
11
890.611013271138
21
271.293004042581
31
0.0
0
LINE
5
7b5
100
AcDbEntity
8
0-000
6
CONTINUOUS
62
4
100
AcDbLine
10
890.611013271138
20
272.880504066236
30
0.0
11
890.611013271138
21
271.991604052991
31
0.0
0
LINE
5
7b6
100
AcDbEntity
8
0-000
6
CONTINUOUS
62
4
100
AcDbLine
10
894.715913332306
20
272.436004059613
30
0.0
11
894.111013323292
21
272.086704054408
31
0.0
0
LINE
5
7b7
100
AcDbEntity
8
0-000
6
CONTINUOUS
62
4
100
AcDbLine
10
894.715913332306
20
272.436004059613
30
0.0
11
894.111013323292
21
272.785304064818
31
0.0
0
LINE
5
7b8
100
AcDbEntity
8
0-000
6
CONTINUOUS
62
4
100
AcDbLine
10
894.111013323292
20
273.674304078065
30
0.0
11
894.111013323292
21
272.785304064818
31
0.0
0
LINE
5
7b9
100
AcDbEntity
8
0-000
6
CONTINUOUS
62
4
100
AcDbLine
10
894.465413328573
20
270.703904033802
30
0.0
11
894.320813326418
21
270.620404032558
31
0.0
0
LINE
5
7ba
100
AcDbEntity
8
0-000
6
CONTINUOUS
62
4
100
AcDbLine
10
894.465413328573
20
270.993204038113
30
0.0
11
894.249613325357
21
271.117804039970
31
0.0
0
LINE
5
7bb
100
AcDbEntity
8
0-000
6
CONTINUOUS
62
4
100
AcDbLine
10
890.611013271138
20
271.293004042581
30
0.0
11
890.361013267413
21
270.340104028381
31
0.0
0
LINE
5
7bc
100
AcDbEntity
8
0-000
6
CONTINUOUS
62
4
100
AcDbLine
10
894.111013323292
20
272.086704054408
30
0.0
11
894.249613325357
21
271.117804039970
31
0.0
0
LINE
5
7bd
100
AcDbEntity
8
0-000
6
CONTINUOUS
62
4
100
AcDbLine
10
894.465413328573
20
270.993204038113
30
0.0
11
894.465413328573
21
270.703904033802
31
0.0
0
LINE
5
7be
100
AcDbEntity
8
0-000
6
CONTINUOUS
62
4
100
AcDbLine
10
894.320813326418
20
270.620404032558
30
0.0
11
894.361013327017
21
270.340104028381
31
0.0
0
LINE
5
7bf
100
AcDbEntity
8
0-000
6
CONTINUOUS
62
4
100
AcDbLine
10
894.320813326418
20
270.620404032558
30
0.0
11
894.304113326170
21
270.619204032540
31
0.0
0
LINE
5
7c0
100
AcDbEntity
8
0-000
6
CONTINUOUS
62
4
100
AcDbLine
10
890.361013267413
20
270.340104028381
30
0.0
11
893.440013313293
21
270.955904037558
31
0.0
0
LINE
5
7c1
100
AcDbEntity
8
0-000
6
CONTINUOUS
62
4
100
AcDbLine
10
894.465413328573
20
270.993204038113
30
0.0
11
894.231613325089
21
270.956004037559
31
0.0
0
LINE
5
7c2
100
AcDbEntity
8
0-000
6
CONTINUOUS
62
4
100
AcDbLine
10
890.361013267413
20
270.340104028381
30
0.0
11
893.386413312495
21
270.608204032376
31
0.0
0
LINE
5
7c3
100
AcDbEntity
8
0-000
6
CONTINUOUS
62
4
100
AcDbLine
10
893.940913320757
20
272.048204053834
30
0.0
11
894.111013323292
21
272.086704054408
31
0.0
0
LINE
5
7c4
100
AcDbEntity
8
0-000
6
CONTINUOUS
62
4
100
AcDbLine
10
894.198313324593
20
271.107504039817
30
0.0
11
894.249613325357
21
271.117804039970
31
0.0
0
LINE
5
7c5
100
AcDbEntity
8
0-000
6
CONTINUOUS
62
4
100
AcDbLine
10
893.419813312992
20
270.826804035634
30
0.0
11
890.361013267413
21
270.340104028381
31
0.0
0
LINE
5
7c6
100
AcDbEntity
8
0-000
6
CONTINUOUS
62
4
100
AcDbLine
10
894.288513325937
20
270.688204033569
30
0.0
11
894.465413328573
21
270.703904033802
31
0.0
0
LINE
5
7c7
100
AcDbEntity
8
0-000
6
CONTINUOUS
62
4
100
AcDbLine
10
893.378213312373
20
270.553604031563
30
0.0
11
890.361013267413
21
270.340104028381
31
0.0
0
LINE
5
7c8
100
AcDbEntity
8
0-000
6
DOT
62
4
100
AcDbLine
10
894.560913329996
20
300.290004474670
30
0.0
11
893.506013314277
21
298.174104443140
31
0.0
0
LINE
5
7c9
100
AcDbEntity
8
0-000
6
DOT
62
4
100
AcDbLine
10
893.506013314277
20
298.174104443140
30
0.0
11
892.361013297215
21
297.565204434067
31
0.0
0
LINE
5
7ca
100
AcDbEntity
8
0-000
6
DOT
62
4
100
AcDbLine
10
892.361013297215
20
297.565204434067
30
0.0
11
891.215913280152
21
298.174104443140
31
0.0
0
LINE
5
7cb
100
AcDbEntity
8
0-000
6
DOT
62
4
100
AcDbLine
10
890.161013264433
20
300.290004474670
30
0.0
11
891.215913280152
21
298.174104443140
31
0.0
0
LINE
5
7cc
100
AcDbEntity
8
0-000
6
CENTER2
62
4
100
AcDbLine
10
892.361013297215
20
301.290104489572
30
0.0
11
892.361013297215
21
263.340003924072
31
0.0
0
LINE
5
7cd
100
AcDbEntity
8
0-000
6
CONTINUOUS
62
4
100
AcDbLine
10
892.611013300940
20
264.340003938973
30
0.0
11
892.111013293490
21
264.340003938973
31
0.0
0
LINE
5
7ce
100
AcDbEntity
8
0-000
6
CONTINUOUS
62
4
100
AcDbLine
10
890.361013267413
20
265.808503960855
30
0.0
11
890.650313271724
21
266.053903964512
31
0.0
0
LINE
5
7cf
100
AcDbEntity
8
0-000
6
CONTINUOUS
62
4
100
AcDbLine
10
890.650313271724
20
266.053903964512
30
0.0
11
890.959113276325
21
266.319703968473
31
0.0
0
LINE
5
7d0
100
AcDbEntity
8
0-000
6
CONTINUOUS
62
4
100
AcDbLine
10
890.959113276325
20
266.319703968473
30
0.0
11
891.270213280961
21
266.579303972341
31
0.0
0
LINE
5
7d1
100
AcDbEntity
8
0-000
6
CONTINUOUS
62
4
100
AcDbLine
10
891.270213280961
20
266.579303972341
30
0.0
11
891.566613285378
21
266.806003975719
31
0.0
0
LINE
5
7d2
100
AcDbEntity
8
0-000
6
CONTINUOUS
62
4
100
AcDbLine
10
891.566613285378
20
266.806003975719
30
0.0
11
891.830913289316
21
266.972803978205
31
0.0
0
LINE
5
7d3
100
AcDbEntity
8
0-000
6
CONTINUOUS
62
4
100
AcDbLine
10
891.830913289316
20
266.972803978205
30
0.0
11
892.045913292520
21
267.053103979401
31
0.0
0
LINE
5
7d4
100
AcDbEntity
8
0-000
6
CONTINUOUS
62
4
100
AcDbLine
10
892.045913292520
20
267.053103979401
30
0.0
11
892.194413294733
21
267.020103978910
31
0.0
0
LINE
5
7d5
100
AcDbEntity
8
0-000
6
CONTINUOUS
62
4
100
AcDbLine
10
892.194413294733
20
267.020103978910
30
0.0
11
892.279213295996
21
266.827303976037
31
0.0
0
LINE
5
7d6
100
AcDbEntity
8
0-000
6
CONTINUOUS
62
4
100
AcDbLine
10
892.279213295996
20
266.827303976037
30
0.0
11
892.329813296750
21
266.485103970937
31
0.0
0
LINE
5
7d7
100
AcDbEntity
8
0-000
6
CONTINUOUS
62
4
100
AcDbLine
10
892.329813296750
20
266.485103970937
30
0.0
11
892.354713297121
21
266.064803964674
31
0.0
0
LINE
5
7d8
100
AcDbEntity
8
0-000
6
CONTINUOUS
62
4
100
AcDbLine
10
892.354713297121
20
266.064803964674
30
0.0
11
892.362713297240
21
265.637903958313
31
0.0
0
LINE
5
7d9
100
AcDbEntity
8
0-000
6
CONTINUOUS
62
4
100
AcDbLine
10
892.362713297240
20
265.637903958313
30
0.0
11
892.361913297229
21
265.276003952920
31
0.0
0
LINE
5
7da
100
AcDbEntity
8
0-000
6
CONTINUOUS
62
4
100
AcDbLine
10
892.222313295148
20
264.755103945158
30
0.0
11
894.361013327017
21
266.549703971900
31
0.0
0
LINE
5
7db
100
AcDbEntity
8
0-000
6
CONTINUOUS
62
4
100
AcDbLine
10
893.346113311894
20
268.949104007654
30
0.0
11
892.361913297229
21
265.275903952919
31
0.0
0
LINE
5
7dc
100
AcDbEntity
8
0-000
6
CONTINUOUS
62
4
100
AcDbLine
10
892.361013297215
20
264.340003938973
30
0.0
11
892.313113296501
21
264.443403940514
31
0.0
0
LINE
5
7dd
100
AcDbEntity
8
0-000
6
CONTINUOUS
62
4
100
AcDbLine
10
892.313113296501
20
264.443403940514
30
0.0
11
892.270513295867
21
264.546903942056
31
0.0
0
LINE
5
7de
100
AcDbEntity
8
0-000
6
CONTINUOUS
62
4
100
AcDbLine
10
892.270513295867
20
264.546903942056
30
0.0
11
892.238513295390
21
264.650803943604
31
0.0
0
LINE
5
7df
100
AcDbEntity
8
0-000
6
CONTINUOUS
62
4
100
AcDbLine
10
892.238513295390
20
264.650803943604
30
0.0
11
892.222313295148
21
264.755103945158
31
0.0
0
LINE
5
7e0
100
AcDbEntity
8
0-000
6
CONTINUOUS
62
4
100
AcDbLine
10
892.222313295148
20
264.755103945158
30
0.0
11
892.229113295250
21
264.884403947085
31
0.0
0
LINE
5
7e1
100
AcDbEntity
8
0-000
6
CONTINUOUS
62
4
100
AcDbLine
10
892.229113295250
20
264.884403947085
30
0.0
11
892.260013295710
21
265.014603949025
31
0.0
0
LINE
5
7e2
100
AcDbEntity
8
0-000
6
CONTINUOUS
62
4
100
AcDbLine
10
892.260013295710
20
265.014603949025
30
0.0
11
892.306913296409
21
265.145203950971
31
0.0
0
LINE
5
7e3
100
AcDbEntity
8
0-000
6
CONTINUOUS
62
4
100
AcDbLine
10
892.306913296409
20
265.145203950971
30
0.0
11
892.361913297229
21
265.276003952920
31
0.0
0
LINE
5
7e4
100
AcDbEntity
8
0-000
6
CONTINUOUS
62
4
100
AcDbLine
10
894.361013327017
20
270.340104028381
30
0.0
11
894.361013327017
21
265.808503960855
31
0.0
0
LINE
5
7e5
100
AcDbEntity
8
0-000
6
CONTINUOUS
62
4
100
AcDbLine
10
890.361013267413
20
270.340104028381
30
0.0
11
890.361013267413
21
265.808503960855
31
0.0
0
LINE
5
7e6
100
AcDbEntity
8
0-000
6
CONTINUOUS
62
4
100
AcDbLine
10
894.361013327017
20
265.808503960855
30
0.0
11
892.611013300940
21
264.340003938973
31
0.0
0
LINE
5
7e7
100
AcDbEntity
8
0-000
6
CONTINUOUS
62
4
100
AcDbLine
10
890.361013267413
20
265.808503960855
30
0.0
11
892.111013293490
21
264.340003938973
31
0.0
0
LINE
5
7e8
100
AcDbEntity
8
0-000
6
CONTINUOUS
62
4
100
AcDbLine
10
865.322012894303
20
300.239904473923
30
0.0
11
873.322113013513
21
300.239904473923
31
0.0
0
LINE
5
7e9
100
AcDbEntity
8
0-000
6
CONTINUOUS
62
4
100
AcDbLine
10
873.572013017237
20
299.590004464239
30
0.0
11
873.572013017237
21
299.989904470198
31
0.0
0
LINE
5
7ea
100
AcDbEntity
8
0-000
6
CONTINUOUS
62
4
100
AcDbLine
10
865.072012890577
20
299.590004464239
30
0.0
11
865.072012890577
21
299.989904470198
31
0.0
0
LINE
5
7eb
100
AcDbEntity
8
0-000
6
CONTINUOUS
62
4
100
AcDbLine
10
865.322012894303
20
299.340004460514
30
0.0
11
873.322113013513
21
299.340004460514
31
0.0
0
LINE
5
7ec
100
AcDbEntity
8
0-000
6
CONTINUOUS
62
4
100
AcDbLine
10
867.636912928797
20
297.839904438160
30
0.0
11
871.007112979017
21
297.839904438160
31
0.0
0
LINE
5
7ed
100
AcDbEntity
8
0-000
6
CONTINUOUS
62
4
100
AcDbLine
10
871.007112979017
20
296.340004415810
30
0.0
11
871.007112979017
21
297.839904438160
31
0.0
0
LINE
5
7ee
100
AcDbEntity
8
0-000
6
CONTINUOUS
62
4
100
AcDbLine
10
867.636912928797
20
296.340004415810
30
0.0
11
867.636912928797
21
297.839904438160
31
0.0
0
LINE
5
7ef
100
AcDbEntity
8
0-000
6
CONTINUOUS
62
4
100
AcDbLine
10
871.572112987436
20
299.340004460514
30
0.0
11
871.007112979017
21
297.839904438160
31
0.0
0
LINE
5
7f0
100
AcDbEntity
8
0-000
6
CONTINUOUS
62
4
100
AcDbLine
10
867.072012920380
20
299.340004460514
30
0.0
11
867.636912928797
21
297.839904438160
31
0.0
0
LINE
5
7f1
100
AcDbEntity
8
0-000
6
CONTINUOUS
62
4
100
AcDbLine
10
867.636912928797
20
296.340004415810
30
0.0
11
871.007112979017
21
296.340004415810
31
0.0
0
LINE
5
7f2
100
AcDbEntity
8
0-000
6
CONTINUOUS
62
4
100
AcDbLine
10
867.772012930810
20
277.683404137805
30
0.0
11
866.922012918144
21
278.174204145119
31
0.0
0
LINE
5
7f3
100
AcDbEntity
8
0-000
6
CONTINUOUS
62
4
100
AcDbLine
10
867.772012930810
20
278.664904152431
30
0.0
11
866.922012918144
21
278.174204145119
31
0.0
0
LINE
5
7f4
100
AcDbEntity
8
0-000
6
CONTINUOUS
62
4
100
AcDbLine
10
867.772012930810
20
274.508504090495
30
0.0
11
866.922012918144
21
274.999204097807
31
0.0
0
LINE
5
7f5
100
AcDbEntity
8
0-000
6
CONTINUOUS
62
4
100
AcDbLine
10
867.772012930810
20
275.490004105121
30
0.0
11
866.922012918144
21
274.999204097807
31
0.0
0
LINE
5
7f6
100
AcDbEntity
8
0-000
6
CONTINUOUS
62
4
100
AcDbLine
10
870.872112977006
20
279.271004161462
30
0.0
11
871.721912989669
21
279.761704168774
31
0.0
0
LINE
5
7f7
100
AcDbEntity
8
0-000
6
CONTINUOUS
62
4
100
AcDbLine
10
870.872112977006
20
280.252404176086
30
0.0
11
871.721912989669
21
279.761704168774
31
0.0
0
LINE
5
7f8
100
AcDbEntity
8
0-000
6
CONTINUOUS
62
4
100
AcDbLine
10
870.872112977006
20
276.095904114150
30
0.0
11
871.721912989669
21
276.586704121463
31
0.0
0
LINE
5
7f9
100
AcDbEntity
8
0-000
6
CONTINUOUS
62
4
100
AcDbLine
10
870.872112977006
20
277.077504128776
30
0.0
11
871.721912989669
21
276.586704121463
31
0.0
0
LINE
5
7fa
100
AcDbEntity
8
0-000
6
CONTINUOUS
62
4
100
AcDbLine
10
870.872112977006
20
279.271004161462
30
0.0
11
870.872112977006
21
277.077504128776
31
0.0
0
LINE
5
7fb
100
AcDbEntity
8
0-000
6
CONTINUOUS
62
4
100
AcDbLine
10
867.772012930810
20
277.683404137805
30
0.0
11
867.772012930810
21
275.490004105121
31
0.0
0
LINE
5
7fc
100
AcDbEntity
8
0-000
6
CONTINUOUS
62
4
100
AcDbLine
10
867.772012930810
20
275.490004105121
30
0.0
11
870.872112977006
21
277.077504128776
31
0.0
0
LINE
5
7fd
100
AcDbEntity
8
0-000
6
CONTINUOUS
62
4
100
AcDbLine
10
871.721912989669
20
276.586704121463
30
0.0
11
866.922012918144
21
274.999204097807
31
0.0
0
LINE
5
7fe
100
AcDbEntity
8
0-000
6
CONTINUOUS
62
4
100
AcDbLine
10
867.772012930810
20
274.508504090495
30
0.0
11
870.872112977006
21
276.095904114150
31
0.0
0
LINE
5
7ff
100
AcDbEntity
8
0-000
6
CONTINUOUS
62
4
100
AcDbLine
10
867.772012930810
20
277.683404137805
30
0.0
11
870.872112977006
21
279.271004161462
31
0.0
0
LINE
5
800
100
AcDbEntity
8
0-000
6
CONTINUOUS
62
4
100
AcDbLine
10
871.721912989669
20
279.761704168774
30
0.0
11
866.922012918144
21
278.174204145119
31
0.0
0
LINE
5
801
100
AcDbEntity
8
0-000
6
CONTINUOUS
62
4
100
AcDbLine
10
867.772012930810
20
278.664904152431
30
0.0
11
870.872112977006
21
280.252404176086
31
0.0
0
LINE
5
802
100
AcDbEntity
8
0-000
6
CONTINUOUS
62
4
100
AcDbLine
10
870.872112977006
20
274.053704083718
30
0.0
11
870.732512974925
21
273.449404074714
31
0.0
0
LINE
5
803
100
AcDbEntity
8
0-000
6
CONTINUOUS
62
4
100
AcDbLine
10
867.772012930810
20
274.053704083718
30
0.0
11
868.173412936792
21
272.315004057810
31
0.0
0
LINE
5
804
100
AcDbEntity
8
0-000
6
CONTINUOUS
62
4
100
AcDbLine
10
868.306012938768
20
271.741104049258
30
0.0
11
867.742712930374
21
271.913404051825
31
0.0
0
LINE
5
805
100
AcDbEntity
8
0-000
6
CONTINUOUS
62
4
100
AcDbLine
10
868.173412936792
20
272.315004057810
30
0.0
11
867.742712930374
21
271.913404051825
31
0.0
0
LINE
5
806
100
AcDbEntity
8
0-000
6
CONTINUOUS
62
4
100
AcDbLine
10
867.772012930810
20
274.053704083718
30
0.0
11
867.772012930810
21
274.508504090495
31
0.0
0
LINE
5
807
100
AcDbEntity
8
0-000
6
CONTINUOUS
62
4
100
AcDbLine
10
870.575612972587
20
272.770004064590
30
0.0
11
871.242512982525
21
273.155004070327
31
0.0
0
LINE
5
808
100
AcDbEntity
8
0-000
6
CONTINUOUS
62
4
100
AcDbLine
10
870.732512974925
20
273.449404074714
30
0.0
11
871.242512982525
21
273.155004070327
31
0.0
0
LINE
5
809
100
AcDbEntity
8
0-000
6
CONTINUOUS
62
4
100
AcDbLine
10
870.872112977006
20
274.053704083718
30
0.0
11
870.872112977006
21
276.095904114150
31
0.0
0
LINE
5
80a
100
AcDbEntity
8
0-000
6
CONTINUOUS
62
4
100
AcDbLine
10
869.966212963507
20
270.130604025260
30
0.0
11
870.391312969841
21
269.885204021603
31
0.0
0
LINE
5
80b
100
AcDbEntity
8
0-000
6
CONTINUOUS
62
4
100
AcDbLine
10
870.575612972587
20
272.770004064590
30
0.0
11
869.966212963507
21
270.130604025260
31
0.0
0
LINE
5
80c
100
AcDbEntity
8
0-000
6
CONTINUOUS
62
4
100
AcDbLine
10
870.575612972587
20
272.770004064590
30
0.0
11
868.306012938768
21
271.741104049258
31
0.0
0
LINE
5
80d
100
AcDbEntity
8
0-000
6
CONTINUOUS
62
4
100
AcDbLine
10
868.173412936792
20
272.315004057810
30
0.0
11
870.732512974925
21
273.449404074714
31
0.0
0
LINE
5
80e
100
AcDbEntity
8
0-000
6
CONTINUOUS
62
4
100
AcDbLine
10
871.242512982525
20
273.155004070327
30
0.0
11
867.742712930374
21
271.913404051825
31
0.0
0
LINE
5
80f
100
AcDbEntity
8
0-000
6
CONTINUOUS
62
4
100
AcDbLine
10
870.872112977006
20
282.446004208773
30
0.0
11
871.721912989669
21
282.936804216087
31
0.0
0
LINE
5
810
100
AcDbEntity
8
0-000
6
CONTINUOUS
62
4
100
AcDbLine
10
870.872112977006
20
283.427404223397
30
0.0
11
871.721912989669
21
282.936804216087
31
0.0
0
LINE
5
811
100
AcDbEntity
8
0-000
6
CONTINUOUS
62
4
100
AcDbLine
10
870.872112977006
20
282.446004208773
30
0.0
11
870.872112977006
21
280.252404176086
31
0.0
0
LINE
5
812
100
AcDbEntity
8
0-000
6
CONTINUOUS
62
4
100
AcDbLine
10
867.772012930810
20
280.858504185118
30
0.0
11
870.872112977006
21
282.446004208773
31
0.0
0
LINE
5
813
100
AcDbEntity
8
0-000
6
CONTINUOUS
62
4
100
AcDbLine
10
871.721912989669
20
282.936804216087
30
0.0
11
866.922012918144
21
281.349204192430
31
0.0
0
LINE
5
814
100
AcDbEntity
8
0-000
6
CONTINUOUS
62
4
100
AcDbLine
10
867.772012930810
20
281.840004199743
30
0.0
11
870.872112977006
21
283.427404223397
31
0.0
0
LINE
5
815
100
AcDbEntity
8
0-000
6
CONTINUOUS
62
4
100
AcDbLine
10
867.772012930810
20
280.858504185118
30
0.0
11
866.922012918144
21
281.349204192430
31
0.0
0
LINE
5
816
100
AcDbEntity
8
0-000
6
CONTINUOUS
62
4
100
AcDbLine
10
867.772012930810
20
281.840004199743
30
0.0
11
866.922012918144
21
281.349204192430
31
0.0
0
LINE
5
817
100
AcDbEntity
8
0-000
6
CONTINUOUS
62
4
100
AcDbLine
10
867.772012930810
20
280.858504185118
30
0.0
11
867.772012930810
21
278.664904152431
31
0.0
0
LINE
5
818
100
AcDbEntity
8
0-000
6
CONTINUOUS
62
4
100
AcDbLine
10
870.872112977006
20
285.620904256083
30
0.0
11
871.721912989669
21
286.111704263397
31
0.0
0
LINE
5
819
100
AcDbEntity
8
0-000
6
CONTINUOUS
62
4
100
AcDbLine
10
870.872112977006
20
286.602504270710
30
0.0
11
871.721912989669
21
286.111704263397
31
0.0
0
LINE
5
81a
100
AcDbEntity
8
0-000
6
CONTINUOUS
62
4
100
AcDbLine
10
870.872112977006
20
285.620904256083
30
0.0
11
870.872112977006
21
283.427404223397
31
0.0
0
LINE
5
81b
100
AcDbEntity
8
0-000
6
CONTINUOUS
62
4
100
AcDbLine
10
867.772012930810
20
284.033404232427
30
0.0
11
870.872112977006
21
285.620904256083
31
0.0
0
LINE
5
81c
100
AcDbEntity
8
0-000
6
CONTINUOUS
62
4
100
AcDbLine
10
871.721912989669
20
286.111704263397
30
0.0
11
866.922012918144
21
284.524204239741
31
0.0
0
LINE
5
81d
100
AcDbEntity
8
0-000
6
CONTINUOUS
62
4
100
AcDbLine
10
867.772012930810
20
285.014904247053
30
0.0
11
870.872112977006
21
286.602504270710
31
0.0
0
LINE
5
81e
100
AcDbEntity
8
0-000
6
CONTINUOUS
62
4
100
AcDbLine
10
867.772012930810
20
284.033404232427
30
0.0
11
866.922012918144
21
284.524204239741
31
0.0
0
LINE
5
81f
100
AcDbEntity
8
0-000
6
CONTINUOUS
62
4
100
AcDbLine
10
867.772012930810
20
285.014904247053
30
0.0
11
866.922012918144
21
284.524204239741
31
0.0
0
LINE
5
820
100
AcDbEntity
8
0-000
6
CONTINUOUS
62
4
100
AcDbLine
10
867.772012930810
20
284.033404232427
30
0.0
11
867.772012930810
21
281.840004199743
31
0.0
0
LINE
5
821
100
AcDbEntity
8
0-000
6
CONTINUOUS
62
4
100
AcDbLine
10
870.872112977006
20
288.796004303396
30
0.0
11
871.721912989669
21
289.286704310708
31
0.0
0
LINE
5
822
100
AcDbEntity
8
0-000
6
CONTINUOUS
62
4
100
AcDbLine
10
870.872112977006
20
289.777504318021
30
0.0
11
871.721912989669
21
289.286704310708
31
0.0
0
LINE
5
823
100
AcDbEntity
8
0-000
6
CONTINUOUS
62
4
100
AcDbLine
10
870.872112977006
20
288.796004303396
30
0.0
11
870.872112977006
21
286.602504270710
31
0.0
0
LINE
5
824
100
AcDbEntity
8
0-000
6
CONTINUOUS
62
4
100
AcDbLine
10
867.772012930810
20
287.208504279740
30
0.0
11
870.872112977006
21
288.796004303396
31
0.0
0
LINE
5
825
100
AcDbEntity
8
0-000
6
CONTINUOUS
62
4
100
AcDbLine
10
871.721912989669
20
289.286704310708
30
0.0
11
866.922012918144
21
287.699204287052
31
0.0
0
LINE
5
826
100
AcDbEntity
8
0-000
6
CONTINUOUS
62
4
100
AcDbLine
10
867.772012930810
20
288.189904294364
30
0.0
11
870.872112977006
21
289.777504318021
31
0.0
0
LINE
5
827
100
AcDbEntity
8
0-000
6
CONTINUOUS
62
4
100
AcDbLine
10
867.772012930810
20
287.208504279740
30
0.0
11
866.922012918144
21
287.699204287052
31
0.0
0
LINE
5
828
100
AcDbEntity
8
0-000
6
CONTINUOUS
62
4
100
AcDbLine
10
867.772012930810
20
288.189904294364
30
0.0
11
866.922012918144
21
287.699204287052
31
0.0
0
LINE
5
829
100
AcDbEntity
8
0-000
6
CONTINUOUS
62
4
100
AcDbLine
10
867.772012930810
20
287.208504279740
30
0.0
11
867.772012930810
21
285.014904247053
31
0.0
0
LINE
5
82a
100
AcDbEntity
8
0-000
6
CONTINUOUS
62
4
100
AcDbLine
10
870.872112977006
20
291.971004350707
30
0.0
11
871.721912989669
21
292.461704358019
31
0.0
0
LINE
5
82b
100
AcDbEntity
8
0-000
6
CONTINUOUS
62
4
100
AcDbLine
10
870.872112977006
20
292.952504365332
30
0.0
11
871.721912989669
21
292.461704358019
31
0.0
0
LINE
5
82c
100
AcDbEntity
8
0-000
6
CONTINUOUS
62
4
100
AcDbLine
10
870.872112977006
20
291.971004350707
30
0.0
11
870.872112977006
21
289.777504318021
31
0.0
0
LINE
5
82d
100
AcDbEntity
8
0-000
6
CONTINUOUS
62
4
100
AcDbLine
10
867.772012930810
20
290.383404327050
30
0.0
11
870.872112977006
21
291.971004350707
31
0.0
0
LINE
5
82e
100
AcDbEntity
8
0-000
6
CONTINUOUS
62
4
100
AcDbLine
10
871.721912989669
20
292.461704358019
30
0.0
11
866.922012918144
21
290.874204334363
31
0.0
0
LINE
5
82f
100
AcDbEntity
8
0-000
6
CONTINUOUS
62
4
100
AcDbLine
10
867.772012930810
20
291.364904341675
30
0.0
11
870.872112977006
21
292.952504365332
31
0.0
0
LINE
5
830
100
AcDbEntity
8
0-000
6
CONTINUOUS
62
4
100
AcDbLine
10
867.772012930810
20
290.383404327050
30
0.0
11
866.922012918144
21
290.874204334363
31
0.0
0
LINE
5
831
100
AcDbEntity
8
0-000
6
CONTINUOUS
62
4
100
AcDbLine
10
867.772012930810
20
291.364904341675
30
0.0
11
866.922012918144
21
290.874204334363
31
0.0
0
LINE
5
832
100
AcDbEntity
8
0-000
6
CONTINUOUS
62
4
100
AcDbLine
10
867.772012930810
20
290.383404327050
30
0.0
11
867.772012930810
21
288.189904294364
31
0.0
0
LINE
5
833
100
AcDbEntity
8
0-000
6
CONTINUOUS
62
4
100
AcDbLine
10
871.311912983559
20
295.400004401803
30
0.0
11
870.872112977006
21
295.146004398018
31
0.0
0
LINE
5
834
100
AcDbEntity
8
0-000
6
CONTINUOUS
62
4
100
AcDbLine
10
871.311912983559
20
295.873404408857
30
0.0
11
870.872112977006
21
296.127404412642
31
0.0
0
LINE
5
835
100
AcDbEntity
8
0-000
6
CONTINUOUS
62
4
100
AcDbLine
10
870.872112977006
20
295.146004398018
30
0.0
11
870.872112977006
21
292.952504365332
31
0.0
0
LINE
5
836
100
AcDbEntity
8
0-000
6
CONTINUOUS
62
4
100
AcDbLine
10
867.772012930810
20
293.558404374361
30
0.0
11
870.872112977006
21
295.146004398018
31
0.0
0
LINE
5
837
100
AcDbEntity
8
0-000
6
CONTINUOUS
62
4
100
AcDbLine
10
867.772012930810
20
294.540004388988
30
0.0
11
870.872112977006
21
296.127404412642
31
0.0
0
LINE
5
838
100
AcDbEntity
8
0-000
6
CONTINUOUS
62
4
100
AcDbLine
10
867.186412922084
20
293.896604379401
30
0.0
11
867.772012930810
21
293.558404374361
31
0.0
0
LINE
5
839
100
AcDbEntity
8
0-000
6
CONTINUOUS
62
4
100
AcDbLine
10
867.186412922084
20
294.201804383948
30
0.0
11
867.772012930810
21
294.540004388988
31
0.0
0
LINE
5
83a
100
AcDbEntity
8
0-000
6
CONTINUOUS
62
4
100
AcDbLine
10
867.772012930810
20
293.558404374361
30
0.0
11
867.772012930810
21
291.364904341675
31
0.0
0
LINE
5
83b
100
AcDbEntity
8
0-000
6
CONTINUOUS
62
4
100
AcDbLine
10
871.007112979017
20
296.340004415810
30
0.0
11
870.872112977006
21
296.127404412642
31
0.0
0
LINE
5
83c
100
AcDbEntity
8
0-000
6
CONTINUOUS
62
4
100
AcDbLine
10
867.636912928797
20
296.340004415810
30
0.0
11
867.772012930810
21
294.540004388988
31
0.0
0
LINE
5
83d
100
AcDbEntity
8
0-000
6
CONTINUOUS
62
4
100
AcDbLine
10
867.186412922084
20
294.201804383948
30
0.0
11
867.186412922084
21
293.896604379401
31
0.0
0
LINE
5
83e
100
AcDbEntity
8
0-000
6
CONTINUOUS
62
4
100
AcDbLine
10
871.311912983559
20
295.873404408857
30
0.0
11
871.311912983559
21
295.400004401803
31
0.0
0
LINE
5
83f
100
AcDbEntity
8
0-000
6
CONTINUOUS
62
4
100
AcDbLine
10
871.311912983559
20
295.400004401803
30
0.0
11
867.186412922084
21
293.896604379401
31
0.0
0
LINE
5
840
100
AcDbEntity
8
0-000
6
CONTINUOUS
62
4
100
AcDbLine
10
867.186412922084
20
294.201804383948
30
0.0
11
871.311912983559
21
295.873404408857
31
0.0
0
LINE
5
841
100
AcDbEntity
8
0-000
6
DOT
62
4
100
AcDbLine
10
871.371912984453
20
300.239904473923
30
0.0
11
870.467012970969
21
298.424804446876
31
0.0
0
LINE
5
842
100
AcDbEntity
8
0-000
6
DOT
62
4
100
AcDbLine
10
870.467012970969
20
298.424804446876
30
0.0
11
869.322112953909
21
297.816004437804
31
0.0
0
LINE
5
843
100
AcDbEntity
8
0-000
6
DOT
62
4
100
AcDbLine
10
869.322112953909
20
297.816004437804
30
0.0
11
868.177012936845
21
298.424804446876
31
0.0
0
LINE
5
844
100
AcDbEntity
8
0-000
6
DOT
62
4
100
AcDbLine
10
867.272012923360
20
300.239904473923
30
0.0
11
868.177012936845
21
298.424804446876
31
0.0
0
LINE
5
845
100
AcDbEntity
8
0-000
6
CONTINUOUS
62
4
100
AcDbLine
10
869.966212963507
20
270.130604025260
30
0.0
11
869.090412950456
21
268.343503998630
31
0.0
0
LINE
5
846
100
AcDbEntity
8
0-000
6
CONTINUOUS
62
4
100
AcDbLine
10
870.391312969841
20
269.885204021603
30
0.0
11
869.090412950456
21
268.343503998630
31
0.0
0
LINE
5
847
100
AcDbEntity
8
0-000
6
CONTINUOUS
62
4
100
AcDbLine
10
868.306012938768
20
271.741104049258
30
0.0
11
869.322112953909
21
267.339903983675
31
0.0
0
LINE
5
848
100
AcDbEntity
8
0-000
6
CENTER2
62
4
100
AcDbLine
10
869.322112953909
20
300.239904473923
30
0.0
11
869.322112953909
21
267.339903983675
31
0.0
0
LINE
5
849
100
AcDbEntity
8
0-000
6
CONTINUOUS
62
4
100
AcDbLine
10
869.728312959962
20
269.099504009895
30
0.0
11
869.322112953909
21
267.339903983675
31
0.0
0
LINE
5
84a
100
AcDbEntity
8
0-000
6
CONTINUOUS
62
4
100
AcDbLine
10
381.520205685094
20
339.340105056562
30
0.0
11
632.020109417833
21
339.340105056562
31
0.0
0
LINE
5
84b
100
AcDbEntity
8
0-000
6
CONTINUOUS
62
4
100
AcDbLine
10
632.020109417833
20
329.340204907551
30
0.0
11
632.020109417833
21
339.340105056562
31
0.0
0
LINE
5
84c
100
AcDbEntity
8
0-000
6
CONTINUOUS
62
4
100
AcDbLine
10
131.020401952356
20
516.131107690953
30
0.0
11
381.520305685095
21
516.131107690953
31
0.0
0
LINE
5
84d
100
AcDbEntity
8
0-000
6
CONTINUOUS
62
4
100
AcDbLine
10
131.020401952356
20
506.131207541943
30
0.0
11
131.020401952356
21
516.131107690953
31
0.0
0
LINE
5
84e
100
AcDbEntity
8
0-000
6
CONTINUOUS
62
4
100
AcDbLine
10
381.520305685095
20
506.131207541943
30
0.0
11
381.520305685095
21
516.131107690953
31
0.0
0
ARC
5
84f
100
AcDbEntity
8
0-000
6
CONTINUOUS
62
3
100
AcDbCircle
10
212.575603167623
20
479.131107139610
30
0.0
40
1.000000014901
100
AcDbArc
50
1.604187011719
51
90.000000000000
0
ARC
5
850
100
AcDbEntity
8
0-000
6
CONTINUOUS
62
3
100
AcDbCircle
10
212.575603167623
20
479.131107139610
30
0.0
40
2.000000029802
100
AcDbArc
50
1.604187011719
51
90.000000000000
0
ARC
5
851
100
AcDbEntity
8
0-000
6
CONTINUOUS
62
3
100
AcDbCircle
10
216.192803221524
20
457.131206811786
30
0.0
40
1.000000014901
100
AcDbArc
50
181.604141235352
51
270.000000000000
0
ARC
5
852
100
AcDbEntity
8
0-000
6
CONTINUOUS
62
3
100
AcDbCircle
10
216.192803221524
20
457.131206811786
30
0.0
40
2.000000029802
100
AcDbArc
50
181.604141235352
51
270.000000000000
0
ARC
5
853
100
AcDbEntity
8
0-000
6
CONTINUOUS
62
3
100
AcDbCircle
10
175.965202622086
20
479.131107139610
30
0.0
40
1.000000014901
100
AcDbArc
50
90.000000000000
51
178.395812988281
0
ARC
5
854
100
AcDbEntity
8
0-000
6
CONTINUOUS
62
3
100
AcDbCircle
10
175.965202622086
20
479.131107139610
30
0.0
40
2.000000029802
100
AcDbArc
50
90.000000000000
51
178.395812988281
0
ARC
5
855
100
AcDbEntity
8
0-000
6
CONTINUOUS
62
3
100
AcDbCircle
10
259.465203866333
20
479.131107139610
30
0.0
40
1.000000014901
100
AcDbArc
50
90.000000000000
51
178.395812988281
0
ARC
5
856
100
AcDbEntity
8
0-000
6
CONTINUOUS
62
3
100
AcDbCircle
10
259.465203866333
20
479.131107139610
30
0.0
40
2.000000029802
100
AcDbArc
50
90.000000000000
51
178.395812988281
0
ARC
5
857
100
AcDbEntity
8
0-000
6
CONTINUOUS
62
3
100
AcDbCircle
10
255.848003812432
20
457.131206811786
30
0.0
40
1.000000014901
100
AcDbArc
50
270.000000000000
51
358.395858764648
0
ARC
5
858
100
AcDbEntity
8
0-000
6
CONTINUOUS
62
3
100
AcDbCircle
10
255.848003812432
20
457.131206811786
30
0.0
40
2.000000029802
100
AcDbArc
50
270.000000000000
51
358.395858764648
0
ARC
5
859
100
AcDbEntity
8
0-000
6
CONTINUOUS
62
3
100
AcDbCircle
10
342.965105110578
20
479.131107139610
30
0.0
40
1.000000014901
100
AcDbArc
50
90.000000000000
51
178.395812988281
0
ARC
5
85a
100
AcDbEntity
8
0-000
6
CONTINUOUS
62
3
100
AcDbCircle
10
342.965105110578
20
479.131107139610
30
0.0
40
2.000000029802
100
AcDbArc
50
90.000000000000
51
178.395812988281
0
ARC
5
85b
100
AcDbEntity
8
0-000
6
CONTINUOUS
62
3
100
AcDbCircle
10
339.348105056681
20
457.131206811786
30
0.0
40
1.000000014901
100
AcDbArc
50
270.000000000000
51
358.395858764648
0
ARC
5
85c
100
AcDbEntity
8
0-000
6
CONTINUOUS
62
3
100
AcDbCircle
10
339.348105056681
20
457.131206811786
30
0.0
40
2.000000029802
100
AcDbArc
50
270.000000000000
51
358.395858764648
0
ARC
5
85d
100
AcDbEntity
8
0-000
6
CONTINUOUS
62
3
100
AcDbCircle
10
296.075604411870
20
479.131107139610
30
0.0
40
1.000000014901
100
AcDbArc
50
1.604187011719
51
90.000000000000
0
ARC
5
85e
100
AcDbEntity
8
0-000
6
CONTINUOUS
62
3
100
AcDbCircle
10
296.075604411870
20
479.131107139610
30
0.0
40
2.000000029802
100
AcDbArc
50
1.604187011719
51
90.000000000000
0
ARC
5
85f
100
AcDbEntity
8
0-000
6
CONTINUOUS
62
3
100
AcDbCircle
10
299.692704465769
20
457.131206811786
30
0.0
40
1.000000014901
100
AcDbArc
50
181.604141235352
51
270.000000000000
0
ARC
5
860
100
AcDbEntity
8
0-000
6
CONTINUOUS
62
3
100
AcDbCircle
10
299.692704465769
20
457.131206811786
30
0.0
40
2.000000029802
100
AcDbArc
50
181.604141235352
51
270.000000000000
0
ARC
5
861
100
AcDbEntity
8
0-000
6
CONTINUOUS
62
3
100
AcDbCircle
10
172.390102568813
20
458.631206834137
30
0.0
40
1.000000014901
100
AcDbArc
50
270.000000000000
51
358.395812988281
0
ARC
5
862
100
AcDbEntity
8
0-000
6
CONTINUOUS
62
3
100
AcDbCircle
10
172.390102568813
20
458.631206834137
30
0.0
40
2.000000029802
100
AcDbArc
50
270.000000000000
51
358.395812988281
0
ARC
5
863
100
AcDbEntity
8
0-000
6
CONTINUOUS
62
3
100
AcDbCircle
10
379.575605656117
20
479.131107139610
30
0.0
40
1.000000014901
100
AcDbArc
50
1.604187011719
51
90.000000000000
0
ARC
5
864
100
AcDbEntity
8
0-000
6
CONTINUOUS
62
3
100
AcDbCircle
10
379.575605656117
20
479.131107139610
30
0.0
40
2.000000029802
100
AcDbArc
50
1.604187011719
51
90.000000000000
0
ARC
5
865
100
AcDbEntity
8
0-000
6
CONTINUOUS
62
3
100
AcDbCircle
10
373.270305562161
20
456.881206808060
30
0.0
40
1.750000026077
100
AcDbArc
50
90.000000000000
51
270.000000000000
0
ARC
5
866
100
AcDbEntity
8
0-000
6
CONTINUOUS
62
3
100
AcDbCircle
10
373.270305562161
20
456.881206808060
30
0.0
40
0.750000011176
100
AcDbArc
50
90.000000000000
51
270.000000000000
0
ARC
5
867
100
AcDbEntity
8
0-000
6
CONTINUOUS
62
3
100
AcDbCircle
10
380.121605664253
20
459.631106849037
30
0.0
40
1.000000014901
100
AcDbArc
50
270.000000000000
51
361.604110717773
0
ARC
5
868
100
AcDbEntity
8
0-000
6
CONTINUOUS
62
3
100
AcDbCircle
10
380.121605664253
20
459.631106849037
30
0.0
40
2.000000029802
100
AcDbArc
50
270.000000000000
51
361.604110717773
0
ARC
5
869
100
AcDbEntity
8
0-2
6
CONTINUOUS
62
3
100
AcDbCircle
10
315.144804696023
20
127.620001901686
30
0.0
40
0.500000007451
100
AcDbArc
50
180.000000000000
51
265.914382934570
0
ARC
5
86a
100
AcDbEntity
8
0-2
6
CONTINUOUS
62
3
100
AcDbCircle
10
315.144804696023
20
127.620001901686
30
0.0
40
1.000000014901
100
AcDbArc
50
180.000000000000
51
265.914382934570
0
ARC
5
86b
100
AcDbEntity
8
0-2
6
CONTINUOUS
62
3
100
AcDbCircle
10
344.644905135609
20
123.213401836023
30
0.0
40
0.500000007451
100
AcDbArc
50
0.000000000000
51
84.387145996094
0
ARC
5
86c
100
AcDbEntity
8
0-2
6
CONTINUOUS
62
3
100
AcDbCircle
10
344.644905135609
20
123.213401836023
30
0.0
40
1.000000014901
100
AcDbArc
50
0.000000000000
51
84.387145996094
0
ARC
5
86d
100
AcDbEntity
8
0-2
6
CONTINUOUS
62
3
100
AcDbCircle
10
344.644905135609
20
95.120001417398
30
0.0
40
0.500000007451
100
AcDbArc
50
201.949020385742
51
360.000000000000
0
ARC
5
86e
100
AcDbEntity
8
0-2
6
CONTINUOUS
62
3
100
AcDbCircle
10
344.644905135609
20
95.120001417398
30
0.0
40
1.000000014901
100
AcDbArc
50
201.949020385742
51
360.000000000000
0
ARC
5
86f
100
AcDbEntity
8
0-2
6
CONTINUOUS
62
3
100
AcDbCircle
10
515.144807676256
20
127.620001901686
30
0.0
40
0.500000007451
100
AcDbArc
50
180.000000000000
51
265.914382934570
0
ARC
5
870
100
AcDbEntity
8
0-2
6
CONTINUOUS
62
3
100
AcDbCircle
10
515.144807676256
20
127.620001901686
30
0.0
40
1.000000014901
100
AcDbArc
50
180.000000000000
51
265.914382934570
0
ARC
5
871
100
AcDbEntity
8
0-2
6
CONTINUOUS
62
3
100
AcDbCircle
10
544.644908115841
20
123.213401836023
30
0.0
40
0.500000007451
100
AcDbArc
50
0.000000000000
51
84.387145996094
0
ARC
5
872
100
AcDbEntity
8
0-2
6
CONTINUOUS
62
3
100
AcDbCircle
10
544.644908115841
20
123.213401836023
30
0.0
40
1.000000014901
100
AcDbArc
50
0.000000000000
51
84.387145996094
0
ARC
5
873
100
AcDbEntity
8
0-2
6
CONTINUOUS
62
3
100
AcDbCircle
10
485.144907229222
20
88.620001320541
30
0.0
40
0.500000007451
100
AcDbArc
50
0.000000000000
51
90.000000000000
0
ARC
5
874
100
AcDbEntity
8
0-2
6
CONTINUOUS
62
3
100
AcDbCircle
10
486.644907251574
20
75.120001119375
30
0.0
40
0.500000007451
100
AcDbArc
50
180.000000000000
51
270.000000000000
0
ARC
5
875
100
AcDbEntity
8
0-2
6
CONTINUOUS
62
3
100
AcDbCircle
10
544.644808115840
20
75.120001119375
30
0.0
40
0.500000007451
100
AcDbArc
50
270.000000000000
51
360.000000000000
0
ARC
5
876
100
AcDbEntity
8
0-2
6
CONTINUOUS
62
3
100
AcDbCircle
10
544.644808115840
20
75.120001119375
30
0.0
40
1.000000014901
100
AcDbArc
50
270.000000000000
51
360.000000000000
0
ARC
5
877
100
AcDbEntity
8
0-2
6
CONTINUOUS
62
3
100
AcDbCircle
10
486.644907251574
20
75.120001119375
30
0.0
40
1.000000014901
100
AcDbArc
50
180.000000000000
51
270.000000000000
0
ARC
5
878
100
AcDbEntity
8
0-2
6
CONTINUOUS
62
3
100
AcDbCircle
10
485.144907229222
20
88.620001320541
30
0.0
40
1.000000014901
100
AcDbArc
50
0.000000000000
51
90.000000000000
0
ARC
5
879
100
AcDbEntity
8
0-2
6
CONTINUOUS
62
3
100
AcDbCircle
10
140.144702088319
20
143.937302144833
30
0.0
40
0.500000007451
100
AcDbArc
50
90.000000000000
51
180.000000000000
0
ARC
5
87a
100
AcDbEntity
8
0-2
6
CONTINUOUS
62
3
100
AcDbCircle
10
140.144702088319
20
117.437401749954
30
0.0
40
0.500000007451
100
AcDbArc
50
180.000000000000
51
270.000000000000
0
ARC
5
87b
100
AcDbEntity
8
0-2
6
CONTINUOUS
62
3
100
AcDbCircle
10
140.144702088319
20
143.937302144833
30
0.0
40
1.000000014901
100
AcDbArc
50
90.000000000000
51
180.000000000000
0
ARC
5
87c
100
AcDbEntity
8
0-2
6
CONTINUOUS
62
3
100
AcDbCircle
10
140.144702088319
20
117.437401749954
30
0.0
40
1.000000014901
100
AcDbArc
50
180.000000000000
51
270.000000000000
0
CIRCLE
5
87d
100
AcDbEntity
8
0-303
6
CONTINUOUS
62
3
100
AcDbCircle
10
39.857800593927
20
33.548300499909
30
0.0
40
5.656900084294
0
CIRCLE
5
87e
100
AcDbEntity
8
0-303
6
CONTINUOUS
62
3
100
AcDbCircle
10
39.857800593927
20
33.548300499909
30
0.0
40
6.456900096215
0
CIRCLE
5
87f
100
AcDbEntity
8
0-303
6
CONTINUOUS
62
4
100
AcDbCircle
10
39.857800593927
20
33.548300499909
30
0.0
40
5.736900085486
0
CIRCLE
5
880
100
AcDbEntity
8
0-303
6
CONTINUOUS
62
4
100
AcDbCircle
10
39.857800593927
20
33.548300499909
30
0.0
40
5.896900087871
0
CIRCLE
5
881
100
AcDbEntity
8
0-303
6
CONTINUOUS
62
4
100
AcDbCircle
10
39.857800593927
20
33.548300499909
30
0.0
40
6.056900090255
0
CIRCLE
5
882
100
AcDbEntity
8
0-303
6
CONTINUOUS
62
4
100
AcDbCircle
10
39.857800593927
20
33.548300499909
30
0.0
40
6.216900092639
0
CIRCLE
5
883
100
AcDbEntity
8
0-303
6
CONTINUOUS
62
4
100
AcDbCircle
10
39.857800593927
20
33.548300499909
30
0.0
40
6.376900095023
0
ARC
5
884
100
AcDbEntity
8
0-101
6
CONTINUOUS
62
3
100
AcDbCircle
10
212.575603167623
20
312.340104654230
30
0.0
40
1.000000014901
100
AcDbArc
50
1.604187011719
51
90.000000000000
0
ARC
5
885
100
AcDbEntity
8
0-101
6
CONTINUOUS
62
3
100
AcDbCircle
10
212.575603167623
20
312.340104654230
30
0.0
40
1.000000014901
100
AcDbArc
50
1.604187011719
51
90.000000000000
0
ARC
5
886
100
AcDbEntity
8
0-101
6
CONTINUOUS
62
3
100
AcDbCircle
10
212.575603167623
20
312.340104654230
30
0.0
40
2.000000029802
100
AcDbArc
50
1.604187011719
51
90.000000000000
0
ARC
5
887
100
AcDbEntity
8
0-101
6
CONTINUOUS
62
3
100
AcDbCircle
10
216.192803221524
20
290.340204326406
30
0.0
40
1.000000014901
100
AcDbArc
50
181.604141235352
51
270.000000000000
0
ARC
5
888
100
AcDbEntity
8
0-101
6
CONTINUOUS
62
3
100
AcDbCircle
10
216.192803221524
20
290.340204326406
30
0.0
40
2.000000029802
100
AcDbArc
50
181.604141235352
51
270.000000000000
0
ARC
5
889
100
AcDbEntity
8
0-101
6
CONTINUOUS
62
3
100
AcDbCircle
10
175.965202622086
20
312.340104654230
30
0.0
40
1.000000014901
100
AcDbArc
50
90.000000000000
51
178.395812988281
0
ARC
5
88a
100
AcDbEntity
8
0-101
6
CONTINUOUS
62
3
100
AcDbCircle
10
175.965202622086
20
312.340104654230
30
0.0
40
2.000000029802
100
AcDbArc
50
90.000000000000
51
178.395812988281
0
ARC
5
88b
100
AcDbEntity
8
0-101
6
CONTINUOUS
62
3
100
AcDbCircle
10
259.465303866334
20
312.340104654230
30
0.0
40
1.000000014901
100
AcDbArc
50
90.000000000000
51
178.395812988281
0
ARC
5
88c
100
AcDbEntity
8
0-101
6
CONTINUOUS
62
3
100
AcDbCircle
10
259.465303866334
20
312.340104654230
30
0.0
40
2.000000029802
100
AcDbArc
50
90.000000000000
51
178.395812988281
0
ARC
5
88d
100
AcDbEntity
8
0-101
6
CONTINUOUS
62
3
100
AcDbCircle
10
255.848003812432
20
290.340204326406
30
0.0
40
1.000000014901
100
AcDbArc
50
270.000000000000
51
358.395858764648
0
ARC
5
88e
100
AcDbEntity
8
0-101
6
CONTINUOUS
62
3
100
AcDbCircle
10
255.848003812432
20
290.340204326406
30
0.0
40
2.000000029802
100
AcDbArc
50
270.000000000000
51
358.395858764648
0
ARC
5
88f
100
AcDbEntity
8
0-101
6
CONTINUOUS
62
3
100
AcDbCircle
10
342.965105110578
20
312.340104654230
30
0.0
40
1.000000014901
100
AcDbArc
50
90.000000000000
51
178.395812988281
0
ARC
5
890
100
AcDbEntity
8
0-101
6
CONTINUOUS
62
3
100
AcDbCircle
10
342.965105110578
20
312.340104654230
30
0.0
40
2.000000029802
100
AcDbArc
50
90.000000000000
51
178.395812988281
0
ARC
5
891
100
AcDbEntity
8
0-101
6
CONTINUOUS
62
3
100
AcDbCircle
10
339.348105056681
20
290.340204326406
30
0.0
40
1.000000014901
100
AcDbArc
50
270.000000000000
51
358.395858764648
0
ARC
5
892
100
AcDbEntity
8
0-101
6
CONTINUOUS
62
3
100
AcDbCircle
10
339.348105056681
20
290.340204326406
30
0.0
40
2.000000029802
100
AcDbArc
50
270.000000000000
51
358.395858764648
0
ARC
5
893
100
AcDbEntity
8
0-101
6
CONTINUOUS
62
3
100
AcDbCircle
10
296.075604411870
20
312.340104654230
30
0.0
40
1.000000014901
100
AcDbArc
50
1.604187011719
51
90.000000000000
0
ARC
5
894
100
AcDbEntity
8
0-101
6
CONTINUOUS
62
3
100
AcDbCircle
10
296.075604411870
20
312.340104654230
30
0.0
40
2.000000029802
100
AcDbArc
50
1.604187011719
51
90.000000000000
0
ARC
5
895
100
AcDbEntity
8
0-101
6
CONTINUOUS
62
3
100
AcDbCircle
10
299.692704465769
20
290.340204326406
30
0.0
40
1.000000014901
100
AcDbArc
50
181.604141235352
51
270.000000000000
0
ARC
5
896
100
AcDbEntity
8
0-101
6
CONTINUOUS
62
3
100
AcDbCircle
10
299.692704465769
20
290.340204326406
30
0.0
40
2.000000029802
100
AcDbArc
50
181.604141235352
51
270.000000000000
0
ARC
5
897
100
AcDbEntity
8
0-101
6
CONTINUOUS
62
3
100
AcDbCircle
10
172.390102568813
20
291.840204348758
30
0.0
40
1.000000014901
100
AcDbArc
50
270.000000000000
51
358.395812988281
0
ARC
5
898
100
AcDbEntity
8
0-101
6
CONTINUOUS
62
3
100
AcDbCircle
10
172.390102568813
20
291.840204348758
30
0.0
40
2.000000029802
100
AcDbArc
50
270.000000000000
51
358.395812988281
0
ARC
5
899
100
AcDbEntity
8
0-101
6
CONTINUOUS
62
3
100
AcDbCircle
10
379.575605656117
20
312.340104654230
30
0.0
40
1.000000014901
100
AcDbArc
50
1.604187011719
51
90.000000000000
0
ARC
5
89a
100
AcDbEntity
8
0-101
6
CONTINUOUS
62
3
100
AcDbCircle
10
379.575605656117
20
312.340104654230
30
0.0
40
2.000000029802
100
AcDbArc
50
1.604187011719
51
90.000000000000
0
ARC
5
89b
100
AcDbEntity
8
0-101
6
CONTINUOUS
62
3
100
AcDbCircle
10
373.270405562162
20
290.090204322681
30
0.0
40
1.750000026077
100
AcDbArc
50
90.000000000000
51
270.000000000000
0
ARC
5
89c
100
AcDbEntity
8
0-101
6
CONTINUOUS
62
3
100
AcDbCircle
10
373.270405562162
20
290.090204322681
30
0.0
40
0.750000011176
100
AcDbArc
50
90.000000000000
51
270.000000000000
0
ARC
5
89d
100
AcDbEntity
8
0-101
6
CONTINUOUS
62
3
100
AcDbCircle
10
380.121605664253
20
292.840104363658
30
0.0
40
1.000000014901
100
AcDbArc
50
270.000000000000
51
361.604110717773
0
ARC
5
89e
100
AcDbEntity
8
0-101
6
CONTINUOUS
62
3
100
AcDbCircle
10
380.121605664253
20
292.840104363658
30
0.0
40
2.000000029802
100
AcDbArc
50
270.000000000000
51
361.604110717773
0
ARC
5
89f
100
AcDbEntity
8
0-101
6
CONTINUOUS
62
3
100
AcDbCircle
10
463.075506900363
20
312.340104654230
30
0.0
40
1.000000014901
100
AcDbArc
50
1.604187011719
51
90.000000000000
0
ARC
5
8a0
100
AcDbEntity
8
0-101
6
CONTINUOUS
62
3
100
AcDbCircle
10
463.075506900363
20
312.340104654230
30
0.0
40
1.000000014901
100
AcDbArc
50
1.604187011719
51
90.000000000000
0
ARC
5
8a1
100
AcDbEntity
8
0-101
6
CONTINUOUS
62
3
100
AcDbCircle
10
463.075506900363
20
312.340104654230
30
0.0
40
2.000000029802
100
AcDbArc
50
1.604187011719
51
90.000000000000
0
ARC
5
8a2
100
AcDbEntity
8
0-101
6
CONTINUOUS
62
3
100
AcDbCircle
10
466.692706954263
20
290.340204326406
30
0.0
40
1.000000014901
100
AcDbArc
50
181.604141235352
51
270.000000000000
0
ARC
5
8a3
100
AcDbEntity
8
0-101
6
CONTINUOUS
62
3
100
AcDbCircle
10
466.692706954263
20
290.340204326406
30
0.0
40
2.000000029802
100
AcDbArc
50
181.604141235352
51
270.000000000000
0
ARC
5
8a4
100
AcDbEntity
8
0-101
6
CONTINUOUS
62
3
100
AcDbCircle
10
426.465106354825
20
312.340104654230
30
0.0
40
1.000000014901
100
AcDbArc
50
90.000000000000
51
178.395812988281
0
ARC
5
8a5
100
AcDbEntity
8
0-101
6
CONTINUOUS
62
3
100
AcDbCircle
10
426.465106354825
20
312.340104654230
30
0.0
40
2.000000029802
100
AcDbArc
50
90.000000000000
51
178.395812988281
0
ARC
5
8a6
100
AcDbEntity
8
0-101
6
CONTINUOUS
62
3
100
AcDbCircle
10
509.965107599072
20
312.340104654230
30
0.0
40
1.000000014901
100
AcDbArc
50
90.000000000000
51
178.395812988281
0
ARC
5
8a7
100
AcDbEntity
8
0-101
6
CONTINUOUS
62
3
100
AcDbCircle
10
509.965107599072
20
312.340104654230
30
0.0
40
2.000000029802
100
AcDbArc
50
90.000000000000
51
178.395812988281
0
ARC
5
8a8
100
AcDbEntity
8
0-101
6
CONTINUOUS
62
3
100
AcDbCircle
10
506.347907545172
20
290.340204326406
30
0.0
40
1.000000014901
100
AcDbArc
50
270.000000000000
51
358.395858764648
0
ARC
5
8a9
100
AcDbEntity
8
0-101
6
CONTINUOUS
62
3
100
AcDbCircle
10
506.347907545172
20
290.340204326406
30
0.0
40
2.000000029802
100
AcDbArc
50
270.000000000000
51
358.395858764648
0
ARC
5
8aa
100
AcDbEntity
8
0-101
6
CONTINUOUS
62
3
100
AcDbCircle
10
593.465008843318
20
312.340104654230
30
0.0
40
1.000000014901
100
AcDbArc
50
90.000000000000
51
178.395812988281
0
ARC
5
8ab
100
AcDbEntity
8
0-101
6
CONTINUOUS
62
3
100
AcDbCircle
10
593.465008843318
20
312.340104654230
30
0.0
40
2.000000029802
100
AcDbArc
50
90.000000000000
51
178.395812988281
0
ARC
5
8ac
100
AcDbEntity
8
0-101
6
CONTINUOUS
62
3
100
AcDbCircle
10
589.847908789419
20
290.340204326406
30
0.0
40
1.000000014901
100
AcDbArc
50
270.000000000000
51
358.395858764648
0
ARC
5
8ad
100
AcDbEntity
8
0-101
6
CONTINUOUS
62
3
100
AcDbCircle
10
589.847908789419
20
290.340204326406
30
0.0
40
2.000000029802
100
AcDbArc
50
270.000000000000
51
358.395858764648
0
ARC
5
8ae
100
AcDbEntity
8
0-101
6
CONTINUOUS
62
3
100
AcDbCircle
10
546.575508144610
20
312.340104654230
30
0.0
40
1.000000014901
100
AcDbArc
50
1.604187011719
51
90.000000000000
0
ARC
5
8af
100
AcDbEntity
8
0-101
6
CONTINUOUS
62
3
100
AcDbCircle
10
546.575508144610
20
312.340104654230
30
0.0
40
2.000000029802
100
AcDbArc
50
1.604187011719
51
90.000000000000
0
ARC
5
8b0
100
AcDbEntity
8
0-101
6
CONTINUOUS
62
3
100
AcDbCircle
10
550.192608198509
20
290.340204326406
30
0.0
40
1.000000014901
100
AcDbArc
50
181.604141235352
51
270.000000000000
0
ARC
5
8b1
100
AcDbEntity
8
0-101
6
CONTINUOUS
62
3
100
AcDbCircle
10
550.192608198509
20
290.340204326406
30
0.0
40
2.000000029802
100
AcDbArc
50
181.604141235352
51
270.000000000000
0
ARC
5
8b2
100
AcDbEntity
8
0-101
6
CONTINUOUS
62
3
100
AcDbCircle
10
422.890006301552
20
291.840204348758
30
0.0
40
1.000000014901
100
AcDbArc
50
270.000000000000
51
358.395812988281
0
ARC
5
8b3
100
AcDbEntity
8
0-101
6
CONTINUOUS
62
3
100
AcDbCircle
10
422.890006301552
20
291.840204348758
30
0.0
40
2.000000029802
100
AcDbArc
50
270.000000000000
51
358.395812988281
0
ARC
5
8b4
100
AcDbEntity
8
0-101
6
CONTINUOUS
62
3
100
AcDbCircle
10
630.075509388857
20
312.340104654230
30
0.0
40
1.000000014901
100
AcDbArc
50
1.604187011719
51
90.000000000000
0
ARC
5
8b5
100
AcDbEntity
8
0-101
6
CONTINUOUS
62
3
100
AcDbCircle
10
630.075509388857
20
312.340104654230
30
0.0
40
2.000000029802
100
AcDbArc
50
1.604187011719
51
90.000000000000
0
ARC
5
8b6
100
AcDbEntity
8
0-101
6
CONTINUOUS
62
3
100
AcDbCircle
10
623.770209294900
20
290.090204322681
30
0.0
40
1.750000026077
100
AcDbArc
50
90.000000000000
51
270.000000000000
0
ARC
5
8b7
100
AcDbEntity
8
0-101
6
CONTINUOUS
62
3
100
AcDbCircle
10
623.770209294900
20
290.090204322681
30
0.0
40
0.750000011176
100
AcDbArc
50
90.000000000000
51
270.000000000000
0
ARC
5
8b8
100
AcDbEntity
8
0-101
6
CONTINUOUS
62
3
100
AcDbCircle
10
630.621509396993
20
292.840104363658
30
0.0
40
1.000000014901
100
AcDbArc
50
270.000000000000
51
361.604110717773
0
ARC
5
8b9
100
AcDbEntity
8
0-101
6
CONTINUOUS
62
3
100
AcDbCircle
10
630.621509396993
20
292.840104363658
30
0.0
40
2.000000029802
100
AcDbArc
50
270.000000000000
51
361.604110717773
0
ARC
5
8ba
100
AcDbEntity
8
0-101
6
CONTINUOUS
62
4
100
AcDbCircle
10
406.020506050177
20
289.990004321188
30
0.0
40
0.250000003725
100
AcDbArc
50
0.000000000000
51
90.000000000000
0
ARC
5
8bb
100
AcDbEntity
8
0-101
6
CONTINUOUS
62
4
100
AcDbCircle
10
406.020506050177
20
289.590104315229
30
0.0
40
0.250000003725
100
AcDbArc
50
270.000000000000
51
360.000000000000
0
ARC
5
8bc
100
AcDbEntity
8
0-101
6
CONTINUOUS
62
4
100
AcDbCircle
10
398.020305930965
20
289.990004321188
30
0.0
40
0.250000003725
100
AcDbArc
50
90.000000000000
51
180.000000000000
0
ARC
5
8bd
100
AcDbEntity
8
0-101
6
CONTINUOUS
62
4
100
AcDbCircle
10
398.020305930965
20
289.590104315229
30
0.0
40
0.250000003725
100
AcDbArc
50
180.000000000000
51
270.000000000000
0
ARC
5
8be
100
AcDbEntity
8
0-101
6
CONTINUOUS
62
3
100
AcDbCircle
10
401.505805982903
20
-281.458304194055
30
0.0
40
571.698608518973
100
AcDbArc
50
87.856369018555
51
92.308486938477
0
ARC
5
8bf
100
AcDbEntity
8
0-101
6
CONTINUOUS
62
3
100
AcDbCircle
10
401.505805982903
20
-281.458304194055
30
0.0
40
572.698608533874
100
AcDbArc
50
87.856369018555
51
92.309539794922
0
ARC
5
8c0
100
AcDbEntity
8
0-101
6
CONTINUOUS
62
3
100
AcDbCircle
10
129.075601923376
20
312.340004654229
30
0.0
40
1.000000014901
100
AcDbArc
50
1.604187011719
51
90.000000000000
0
ARC
5
8c1
100
AcDbEntity
8
0-101
6
CONTINUOUS
62
3
100
AcDbCircle
10
129.075601923376
20
312.340004654229
30
0.0
40
2.000000029802
100
AcDbArc
50
1.604187011719
51
90.000000000000
0
ARC
5
8c2
100
AcDbEntity
8
0-101
6
CONTINUOUS
62
3
100
AcDbCircle
10
122.770301829420
20
290.090104322679
30
0.0
40
1.750000026077
100
AcDbArc
50
90.000000000000
51
270.000000000000
0
ARC
5
8c3
100
AcDbEntity
8
0-101
6
CONTINUOUS
62
3
100
AcDbCircle
10
122.770301829420
20
290.090104322679
30
0.0
40
0.750000011176
100
AcDbArc
50
90.000000000000
51
270.000000000000
0
ARC
5
8c4
100
AcDbEntity
8
0-101
6
CONTINUOUS
62
3
100
AcDbCircle
10
129.621601931512
20
292.840004363656
30
0.0
40
1.000000014901
100
AcDbArc
50
270.000000000000
51
361.604110717773
0
ARC
5
8c5
100
AcDbEntity
8
0-101
6
CONTINUOUS
62
3
100
AcDbCircle
10
129.621601931512
20
292.840004363656
30
0.0
40
2.000000029802
100
AcDbArc
50
270.000000000000
51
361.604110717773
0
ARC
5
8c6
100
AcDbEntity
8
0-101
6
CONTINUOUS
62
4
100
AcDbCircle
10
155.520402317435
20
289.989904321186
30
0.0
40
0.250000003725
100
AcDbArc
50
0.000000000000
51
90.000000000000
0
ARC
5
8c7
100
AcDbEntity
8
0-101
6
CONTINUOUS
62
4
100
AcDbCircle
10
155.520402317435
20
289.589904315226
30
0.0
40
0.250000003725
100
AcDbArc
50
270.000000000000
51
360.000000000000
0
ARC
5
8c8
100
AcDbEntity
8
0-101
6
CONTINUOUS
62
4
100
AcDbCircle
10
147.520302198224
20
289.989904321186
30
0.0
40
0.250000003725
100
AcDbArc
50
90.000000000000
51
180.000000000000
0
ARC
5
8c9
100
AcDbEntity
8
0-101
6
CONTINUOUS
62
4
100
AcDbCircle
10
147.520302198224
20
289.589904315226
30
0.0
40
0.250000003725
100
AcDbArc
50
180.000000000000
51
270.000000000000
0
ARC
5
8ca
100
AcDbEntity
8
0-101
6
CONTINUOUS
62
3
100
AcDbCircle
10
151.005802250162
20
-281.458504194058
30
0.0
40
571.698608518973
100
AcDbArc
50
87.856369018555
51
92.308486938477
0
ARC
5
8cb
100
AcDbEntity
8
0-101
6
CONTINUOUS
62
3
100
AcDbCircle
10
151.005802250162
20
-281.458504194058
30
0.0
40
572.698608533874
100
AcDbArc
50
87.856369018555
51
92.309539794922
0
ARC
5
8cc
100
AcDbEntity
8
0-101
6
CONTINUOUS
62
3
100
AcDbCircle
10
713.575410633102
20
312.340104654230
30
0.0
40
1.000000014901
100
AcDbArc
50
1.604187011719
51
90.000000000000
0
ARC
5
8cd
100
AcDbEntity
8
0-101
6
CONTINUOUS
62
3
100
AcDbCircle
10
713.575410633102
20
312.340104654230
30
0.0
40
1.000000014901
100
AcDbArc
50
1.604187011719
51
90.000000000000
0
ARC
5
8ce
100
AcDbEntity
8
0-101
6
CONTINUOUS
62
3
100
AcDbCircle
10
713.575410633102
20
312.340104654230
30
0.0
40
2.000000029802
100
AcDbArc
50
1.604187011719
51
90.000000000000
0
ARC
5
8cf
100
AcDbEntity
8
0-101
6
CONTINUOUS
62
3
100
AcDbCircle
10
717.192610687003
20
290.340204326406
30
0.0
40
1.000000014901
100
AcDbArc
50
181.604141235352
51
270.000000000000
0
ARC
5
8d0
100
AcDbEntity
8
0-101
6
CONTINUOUS
62
3
100
AcDbCircle
10
717.192610687003
20
290.340204326406
30
0.0
40
2.000000029802
100
AcDbArc
50
181.604141235352
51
270.000000000000
0
ARC
5
8d1
100
AcDbEntity
8
0-101
6
CONTINUOUS
62
3
100
AcDbCircle
10
676.964910087563
20
312.340104654230
30
0.0
40
1.000000014901
100
AcDbArc
50
90.000000000000
51
178.395812988281
0
ARC
5
8d2
100
AcDbEntity
8
0-101
6
CONTINUOUS
62
3
100
AcDbCircle
10
676.964910087563
20
312.340104654230
30
0.0
40
2.000000029802
100
AcDbArc
50
90.000000000000
51
178.395812988281
0
ARC
5
8d3
100
AcDbEntity
8
0-101
6
CONTINUOUS
62
3
100
AcDbCircle
10
673.389910034291
20
291.840204348758
30
0.0
40
1.000000014901
100
AcDbArc
50
270.000000000000
51
358.395812988281
0
ARC
5
8d4
100
AcDbEntity
8
0-101
6
CONTINUOUS
62
3
100
AcDbCircle
10
673.389910034291
20
291.840204348758
30
0.0
40
2.000000029802
100
AcDbArc
50
270.000000000000
51
358.395812988281
0
ARC
5
8d5
100
AcDbEntity
8
0-101
6
CONTINUOUS
62
4
100
AcDbCircle
10
656.520309782915
20
289.990004321188
30
0.0
40
0.250000003725
100
AcDbArc
50
0.000000000000
51
90.000000000000
0
ARC
5
8d6
100
AcDbEntity
8
0-101
6
CONTINUOUS
62
4
100
AcDbCircle
10
656.520309782915
20
289.590104315229
30
0.0
40
0.250000003725
100
AcDbArc
50
270.000000000000
51
360.000000000000
0
ARC
5
8d7
100
AcDbEntity
8
0-101
6
CONTINUOUS
62
4
100
AcDbCircle
10
648.520209663704
20
289.990004321188
30
0.0
40
0.250000003725
100
AcDbArc
50
90.000000000000
51
180.000000000000
0
ARC
5
8d8
100
AcDbEntity
8
0-101
6
CONTINUOUS
62
4
100
AcDbCircle
10
648.520209663704
20
289.590104315229
30
0.0
40
0.250000003725
100
AcDbArc
50
180.000000000000
51
270.000000000000
0
ARC
5
8d9
100
AcDbEntity
8
0-101
6
CONTINUOUS
62
3
100
AcDbCircle
10
652.005709715642
20
-281.458304194055
30
0.0
40
571.698608518973
100
AcDbArc
50
87.856369018555
51
92.308486938477
0
ARC
5
8da
100
AcDbEntity
8
0-101
6
CONTINUOUS
62
3
100
AcDbCircle
10
652.005709715642
20
-281.458304194055
30
0.0
40
572.698608533874
100
AcDbArc
50
87.856369018555
51
92.309539794922
0
ARC
5
8db
100
AcDbEntity
8
0-000
6
CONTINUOUS
62
3
100
AcDbCircle
10
158.394702360265
20
117.187401746228
30
0.0
40
0.750000011176
100
AcDbArc
50
270.000000000000
51
450.000000000000
0
ARC
5
8dc
100
AcDbEntity
8
0-000
6
CONTINUOUS
62
3
100
AcDbCircle
10
158.394702360265
20
117.187401746228
30
0.0
40
0.250000003725
100
AcDbArc
50
270.000000000000
51
450.000000000000
0
ARC
5
8dd
100
AcDbEntity
8
0-000
6
CONTINUOUS
62
4
100
AcDbCircle
10
889.811013259217
20
299.040104456045
30
0.0
40
0.300000004470
100
AcDbArc
50
10.386993408203
51
90.000000000000
0
ARC
5
8de
100
AcDbEntity
8
0-000
6
CONTINUOUS
62
4
100
AcDbCircle
10
894.910913335212
20
299.040104456045
30
0.0
40
0.300000004470
100
AcDbArc
50
90.000000000000
51
169.608993530273
0
ARC
5
8df
100
AcDbEntity
8
0-000
6
CONTINUOUS
62
4
100
AcDbCircle
10
897.111013367996
20
300.040004470944
30
0.0
40
0.250000003725
100
AcDbArc
50
0.000000000000
51
90.000000000000
0
ARC
5
8e0
100
AcDbEntity
8
0-000
6
CONTINUOUS
62
4
100
AcDbCircle
10
897.111013367996
20
299.590104464240
30
0.0
40
0.250000003725
100
AcDbArc
50
270.000000000000
51
360.000000000000
0
ARC
5
8e1
100
AcDbEntity
8
0-000
6
CONTINUOUS
62
4
100
AcDbCircle
10
887.610913226433
20
300.040004470944
30
0.0
40
0.250000003725
100
AcDbArc
50
90.000000000000
51
180.000000000000
0
ARC
5
8e2
100
AcDbEntity
8
0-000
6
CONTINUOUS
62
4
100
AcDbCircle
10
887.610913226433
20
299.590104464240
30
0.0
40
0.250000003725
100
AcDbArc
50
180.000000000000
51
270.000000000000
0
ARC
5
8e3
100
AcDbEntity
8
0-000
6
CONTINUOUS
62
4
100
AcDbCircle
10
873.322113013513
20
299.989904470198
30
0.0
40
0.250000003725
100
AcDbArc
50
0.000000000000
51
90.000000000000
0
ARC
5
8e4
100
AcDbEntity
8
0-000
6
CONTINUOUS
62
4
100
AcDbCircle
10
873.322113013513
20
299.590004464239
30
0.0
40
0.250000003725
100
AcDbArc
50
270.000000000000
51
360.000000000000
0
ARC
5
8e5
100
AcDbEntity
8
0-000
6
CONTINUOUS
62
4
100
AcDbCircle
10
865.322012894303
20
299.989904470198
30
0.0
40
0.250000003725
100
AcDbArc
50
90.000000000000
51
180.000000000000
0
ARC
5
8e6
100
AcDbEntity
8
0-000
6
CONTINUOUS
62
4
100
AcDbCircle
10
865.322012894303
20
299.590004464239
30
0.0
40
0.250000003725
100
AcDbArc
50
180.000000000000
51
270.000000000000
0
POINT
5
8e7
100
AcDbEntity
8
0-303
62
3
100
AcDbPoint
10
27.378700407974
20
571.820408520788
30
0.0
0
POINT
5
8e8
100
AcDbEntity
8
0-000
62
3
100
AcDbPoint
10
152.520402272731
20
455.131206781983
30
0.0
0
POINT
5
8e9
100
AcDbEntity
8
0-000
62
3
100
AcDbPoint
10
403.020306005470
20
455.131206781983
30
0.0
0
POINT
5
8ea
100
AcDbEntity
8
0-000
62
3
100
AcDbPoint
10
403.020306005470
20
455.131206781983
30
0.0
0
POINT
5
8eb
100
AcDbEntity
8
0-000
62
3
100
AcDbPoint
10
131.020501952358
20
496.131107392929
30
0.0
0
POINT
5
8ec
100
AcDbEntity
8
0-000
62
3
100
AcDbPoint
10
174.020402593106
20
496.131107392929
30
0.0
0
POINT
5
8ed
100
AcDbEntity
8
0-000
62
3
100
AcDbPoint
10
214.520403196603
20
496.131107392929
30
0.0
0
POINT
5
8ee
100
AcDbEntity
8
0-000
62
3
100
AcDbPoint
10
257.520403837353
20
496.131107392929
30
0.0
0
POINT
5
8ef
100
AcDbEntity
8
0-000
62
3
100
AcDbPoint
10
298.020504440851
20
496.131107392929
30
0.0
0
POINT
5
8f0
100
AcDbEntity
8
0-000
62
3
100
AcDbPoint
10
341.020205081597
20
496.131107392929
30
0.0
0
POINT
5
8f1
100
AcDbEntity
8
0-000
62
3
100
AcDbPoint
10
381.520305685095
20
496.131107392929
30
0.0
0
POINT
5
8f2
100
AcDbEntity
8
0-000
62
3
100
AcDbPoint
10
174.020402593106
20
506.131207541943
30
0.0
0
POINT
5
8f3
100
AcDbEntity
8
0-000
62
3
100
AcDbPoint
10
381.520305685095
20
506.131207541943
30
0.0
0
POINT
5
8f4
100
AcDbEntity
8
0-000
62
3
100
AcDbPoint
10
131.020301952355
20
339.340105056562
30
0.0
0
POINT
5
8f5
100
AcDbEntity
8
0-000
62
3
100
AcDbPoint
10
381.520205685094
20
339.340105056562
30
0.0
0
POINT
5
8f6
100
AcDbEntity
8
0-000
62
3
100
AcDbPoint
10
321.020204783574
20
455.131106781982
30
0.0
0
POINT
5
8f7
100
AcDbEntity
8
0-000
62
3
100
AcDbPoint
10
321.020204783574
20
481.131107169412
30
0.0
0
POINT
5
8f8
100
AcDbEntity
8
0-000
62
3
100
AcDbPoint
10
154.020402295083
20
457.629406819209
30
0.0
0
POINT
5
8f9
100
AcDbEntity
8
0-000
62
3
100
AcDbPoint
10
154.020402295083
20
481.131107169412
30
0.0
0
POINT
5
8fa
100
AcDbEntity
8
0-000
62
3
100
AcDbPoint
10
122.451601824671
20
436.631206506312
30
0.0
0
POINT
5
8fb
100
AcDbEntity
8
0-000
62
3
100
AcDbPoint
10
174.389302598603
20
436.631206506312
30
0.0
0
POINT
5
8fc
100
AcDbEntity
8
0-000
62
3
100
AcDbPoint
10
371.520305536084
20
436.631206506312
30
0.0
0
POINT
5
8fd
100
AcDbEntity
8
0-000
62
3
100
AcDbPoint
10
413.520206161931
20
436.631206506312
30
0.0
0
POINT
5
8fe
100
AcDbEntity
8
0-2
62
3
100
AcDbPoint
10
304.144804532111
20
126.620001886785
30
0.0
0
POINT
5
8ff
100
AcDbEntity
8
0-2
62
3
100
AcDbPoint
10
304.144804532111
20
176.619902631842
30
0.0
0
POINT
5
900
100
AcDbEntity
8
0-2
62
3
100
AcDbPoint
10
355.644805299521
20
124.119901849531
30
0.0
0
POINT
5
901
100
AcDbEntity
8
0-2
62
3
100
AcDbPoint
10
355.644805299521
20
94.120001402497
30
0.0
0
POINT
5
902
100
AcDbEntity
8
0-2
62
3
100
AcDbPoint
10
314.644804688573
20
137.119902043246
30
0.0
0
POINT
5
903
100
AcDbEntity
8
0-2
62
3
100
AcDbPoint
10
345.644905150510
20
137.119902043246
30
0.0
0
POINT
5
904
100
AcDbEntity
8
0-2
62
3
100
AcDbPoint
10
345.644905150510
20
84.120001253486
30
0.0
0
POINT
5
905
100
AcDbEntity
8
0-2
62
3
100
AcDbPoint
10
355.644805299521
20
127.120001894236
30
0.0
0
POINT
5
906
100
AcDbEntity
8
0-2
62
3
100
AcDbPoint
10
340.644805076003
20
84.120001253486
30
0.0
0
POINT
5
907
100
AcDbEntity
8
0-2
62
3
100
AcDbPoint
10
504.144807512343
20
126.620001886785
30
0.0
0
POINT
5
908
100
AcDbEntity
8
0-2
62
3
100
AcDbPoint
10
504.144807512343
20
176.619902631842
30
0.0
0
POINT
5
909
100
AcDbEntity
8
0-2
62
3
100
AcDbPoint
10
555.644808279753
20
124.119901849531
30
0.0
0
POINT
5
90a
100
AcDbEntity
8
0-2
62
3
100
AcDbPoint
10
555.644808279753
20
74.120001104474
30
0.0
0
POINT
5
90b
100
AcDbEntity
8
0-2
62
3
100
AcDbPoint
10
514.644807668805
20
137.119902043246
30
0.0
0
POINT
5
90c
100
AcDbEntity
8
0-2
62
3
100
AcDbPoint
10
545.644908130743
20
137.119902043246
30
0.0
0
POINT
5
90d
100
AcDbEntity
8
0-2
62
3
100
AcDbPoint
10
545.644908130743
20
64.120000955462
30
0.0
0
POINT
5
90e
100
AcDbEntity
8
0-2
62
3
100
AcDbPoint
10
555.644808279753
20
127.120001894236
30
0.0
0
POINT
5
90f
100
AcDbEntity
8
0-2
62
3
100
AcDbPoint
10
485.644907236673
20
64.120000955462
30
0.0
0
POINT
5
910
100
AcDbEntity
8
0-2
62
3
100
AcDbPoint
10
465.644906938650
20
64.120000955462
30
0.0
0
POINT
5
911
100
AcDbEntity
8
0-2
62
3
100
AcDbPoint
10
455.644906789638
20
74.120001104474
30
0.0
0
POINT
5
912
100
AcDbEntity
8
0-2
62
3
100
AcDbPoint
10
455.644906789638
20
89.120001327992
30
0.0
0
POINT
5
913
100
AcDbEntity
8
0-2
62
3
100
AcDbPoint
10
139.144702073418
20
154.937302308746
30
0.0
0
POINT
5
914
100
AcDbEntity
8
0-2
62
3
100
AcDbPoint
10
189.144702818476
20
154.937302308746
30
0.0
0
POINT
5
915
100
AcDbEntity
8
0-2
62
3
100
AcDbPoint
10
129.144701924406
20
144.937302159734
30
0.0
0
POINT
5
916
100
AcDbEntity
8
0-2
62
3
100
AcDbPoint
10
129.144701924406
20
116.437401735052
30
0.0
0
POINT
5
917
100
AcDbEntity
8
0-101
62
3
100
AcDbPoint
10
152.520502272733
20
288.340204296604
30
0.0
0
POINT
5
918
100
AcDbEntity
8
0-101
62
3
100
AcDbPoint
10
653.520109738208
20
288.340204296604
30
0.0
0
POINT
5
919
100
AcDbEntity
8
0-101
62
3
100
AcDbPoint
10
653.520109738208
20
288.340204296604
30
0.0
0
POINT
5
91a
100
AcDbEntity
8
0-000
62
3
100
AcDbPoint
10
159.144702371441
20
106.437301586039
30
0.0
0
POINT
5
91b
100
AcDbEntity
8
0-000
62
3
100
AcDbPoint
10
139.144702073418
20
91.437201362520
30
0.0
0
POINT
5
91c
100
AcDbEntity
8
0-000
62
3
100
AcDbPoint
10
159.144702371441
20
91.437201362520
30
0.0
0
POINT
5
91d
100
AcDbEntity
8
0-000
62
3
100
AcDbPoint
10
151.144702252232
20
106.437301586039
30
0.0
0
POINT
5
91e
100
AcDbEntity
8
0-000
62
3
100
AcDbPoint
10
632.020109417833
20
339.340105056562
30
0.0
0
POINT
5
91f
100
AcDbEntity
8
0-000
62
3
100
AcDbPoint
10
131.020401952356
20
516.131107690953
30
0.0
0
POINT
5
920
100
AcDbEntity
8
0-000
62
3
100
AcDbPoint
10
381.520305685095
20
516.131107690953
30
0.0
0
TEXT
5
921
100
AcDbEntity
8
0-303
62
3
100
AcDbText
10
407.795
20
37.027
30
0.0
40
3.000
1
受領　　日附
41
1.167
50
0.000
100
AcDbText
0
TEXT
5
922
100
AcDbEntity
8
0-303
62
3
100
AcDbText
10
506.904
20
22.311
30
0.0
40
3.000
1
施工者
41
1.167
50
0.000
100
AcDbText
0
TEXT
5
923
100
AcDbEntity
8
0-303
62
3
100
AcDbText
10
506.904
20
37.126
30
0.0
40
3.000
1
設計者
41
1.167
50
0.000
100
AcDbText
0
TEXT
5
924
100
AcDbEntity
8
0-303
62
3
100
AcDbText
10
609.646
20
22.040
30
0.0
40
3.000
1
作図
41
1.167
50
0.000
100
AcDbText
0
TEXT
5
925
100
AcDbEntity
8
0-303
62
3
100
AcDbText
10
645.559
20
22.305
30
0.0
40
3.000
1
図面名
41
1.167
50
0.000
100
AcDbText
0
TEXT
5
926
100
AcDbEntity
8
0-303
62
3
100
AcDbText
10
609.646
20
36.854
30
0.0
40
3.000
1
日附
41
1.167
50
0.000
100
AcDbText
0
TEXT
5
927
100
AcDbEntity
8
0-303
62
3
100
AcDbText
10
645.559
20
37.120
30
0.0
40
3.000
1
工事件名
41
1.167
50
0.000
100
AcDbText
0
TEXT
5
928
100
AcDbEntity
8
0-303
62
3
100
AcDbText
10
620.714
20
36.729
30
0.0
40
3.000
1
年　月　日
41
1.167
50
0.000
100
AcDbText
0
TEXT
5
929
100
AcDbEntity
8
0-303
62
3
100
AcDbText
10
620.714
20
21.914
30
0.0
40
3.000
1
年　月　日
41
1.167
50
0.000
100
AcDbText
0
TEXT
5
92a
100
AcDbEntity
8
0-303
62
3
100
AcDbText
10
771.731
20
37.120
30
0.0
40
3.000
1
設計番号
41
1.167
50
0.000
100
AcDbText
0
TEXT
5
92b
100
AcDbEntity
8
0-303
62
3
100
AcDbText
10
193.389
20
33.735
30
0.0
40
3.000
1
. 　.　 
41
1.167
50
0.000
100
AcDbText
0
TEXT
5
92c
100
AcDbEntity
8
0-303
62
3
100
AcDbText
10
193.389
20
28.797
30
0.0
40
3.000
1
. 　.　 
41
1.167
50
0.000
100
AcDbText
0
TEXT
5
92d
100
AcDbEntity
8
0-303
62
3
100
AcDbText
10
193.389
20
23.859
30
0.0
40
3.000
1
. 　.　 
41
1.167
50
0.000
100
AcDbText
0
TEXT
5
92e
100
AcDbEntity
8
0-303
62
3
100
AcDbText
10
193.389
20
18.920
30
0.0
40
3.000
1
. 　.　 
41
1.167
50
0.000
100
AcDbText
0
TEXT
5
92f
100
AcDbEntity
8
0-303
62
3
100
AcDbText
10
193.389
20
13.982
30
0.0
40
3.000
1
. 　.　 
41
1.167
50
0.000
100
AcDbText
0
TEXT
5
930
100
AcDbEntity
8
0-303
62
3
100
AcDbText
10
517.035
20
30.588
30
0.0
40
4.000
1
　　　　　　　　　　
41
1.125
50
0.000
100
AcDbText
0
TEXT
5
931
100
AcDbEntity
8
0-303
62
3
100
AcDbText
10
517.035
20
15.773
30
0.0
40
4.000
1
　　　　　　　　　　
41
1.125
50
0.000
100
AcDbText
0
TEXT
5
932
100
AcDbEntity
8
0-303
62
3
100
AcDbText
10
658.767
20
31.362
30
0.0
40
4.000
1
　　　　　　　　　　　　　
41
1.125
50
0.000
100
AcDbText
0
TEXT
5
933
100
AcDbEntity
8
0-303
62
3
100
AcDbText
10
188.903
20
37.395
30
0.0
40
3.000
1
年　月　日
41
1.167
50
0.000
100
AcDbText
0
TEXT
5
934
100
AcDbEntity
8
0-303
62
3
100
AcDbText
10
436.381
20
36.735
30
0.0
40
3.000
1
年　　月　　日
41
1.167
50
0.000
100
AcDbText
0
TEXT
5
935
100
AcDbEntity
8
0-303
62
3
100
AcDbText
10
442.657
20
31.524
30
0.0
40
3.000
1
.　 　.
41
1.167
50
0.000
100
AcDbText
0
TEXT
5
936
100
AcDbEntity
8
0-303
62
3
100
AcDbText
10
407.795
20
22.212
30
0.0
40
3.000
1
受領　　日附
41
1.167
50
0.000
100
AcDbText
0
TEXT
5
937
100
AcDbEntity
8
0-303
62
3
100
AcDbText
10
436.381
20
21.920
30
0.0
40
3.000
1
年　　月　　日
41
1.167
50
0.000
100
AcDbText
0
TEXT
5
938
100
AcDbEntity
8
0-303
62
3
100
AcDbText
10
442.657
20
16.709
30
0.0
40
3.000
1
.　 　.
41
1.167
50
0.000
100
AcDbText
0
TEXT
5
939
100
AcDbEntity
8
0-303
62
3
100
AcDbText
10
624.100
20
30.667
30
0.0
40
3.000
1
.　　.　
41
1.167
50
0.000
100
AcDbText
0
TEXT
5
93a
100
AcDbEntity
8
0-303
62
3
100
AcDbText
10
771.731
20
22.305
30
0.0
40
3.000
1
縮　尺
41
1.167
50
0.000
100
AcDbText
0
TEXT
5
93b
100
AcDbEntity
8
0-303
62
3
100
AcDbText
10
783.350
20
20.225
30
0.0
40
4.000
1
Ａ１－１／１　
41
1.125
50
0.000
100
AcDbText
0
TEXT
5
93c
100
AcDbEntity
8
0-303
62
3
100
AcDbText
10
783.350
20
12.817
30
0.0
40
4.000
1
Ａ３－１／２　
41
1.125
50
0.000
100
AcDbText
0
TEXT
5
93d
100
AcDbEntity
8
0-000
62
3
100
AcDbText
10
148.770
20
496.631
30
0.0
40
7.000
1
43
41
1.143
50
0.000
100
AcDbText
0
TEXT
5
93e
100
AcDbEntity
8
0-000
62
3
100
AcDbText
10
186.520
20
496.631
30
0.0
40
7.000
1
40.5
41
1.143
50
0.000
100
AcDbText
0
TEXT
5
93f
100
AcDbEntity
8
0-000
62
3
100
AcDbText
10
232.270
20
496.631
30
0.0
40
7.000
1
43
41
1.143
50
0.000
100
AcDbText
0
TEXT
5
940
100
AcDbEntity
8
0-000
62
3
100
AcDbText
10
270.020
20
496.631
30
0.0
40
7.000
1
40.5
41
1.143
50
0.000
100
AcDbText
0
TEXT
5
941
100
AcDbEntity
8
0-000
62
3
100
AcDbText
10
315.770
20
496.631
30
0.0
40
7.000
1
43
41
1.143
50
0.000
100
AcDbText
0
TEXT
5
942
100
AcDbEntity
8
0-000
62
3
100
AcDbText
10
353.520
20
496.631
30
0.0
40
7.000
1
40.5
41
1.143
50
0.000
100
AcDbText
0
TEXT
5
943
100
AcDbEntity
8
0-000
62
3
100
AcDbText
10
268.020
20
506.631
30
0.0
40
7.000
1
207.5
41
1.143
50
0.000
100
AcDbText
0
TEXT
5
944
100
AcDbEntity
8
0-000
62
3
100
AcDbText
10
246.520
20
339.840
30
0.0
40
7.000
1
250.5
41
1.143
50
0.000
100
AcDbText
0
TEXT
5
945
100
AcDbEntity
8
0-000
62
3
100
AcDbText
10
320.520
20
464.381
30
0.0
40
7.000
1
26
41
1.143
50
90.000
100
AcDbText
0
TEXT
5
946
100
AcDbEntity
8
0-000
62
3
100
AcDbText
10
153.520
20
461.630
30
0.0
40
7.000
1
23.5
41
1.143
50
90.000
100
AcDbText
0
TEXT
5
947
100
AcDbEntity
8
0-000
62
3
100
AcDbText
10
388.770
20
437.131
30
0.0
40
7.000
1
42
41
1.143
50
0.000
100
AcDbText
0
TEXT
5
948
100
AcDbEntity
8
0-000
62
3
100
AcDbText
10
143.670
20
437.131
30
0.0
40
7.000
1
53
41
1.143
50
0.000
100
AcDbText
0
TEXT
5
949
100
AcDbEntity
8
0-303
62
3
100
AcDbText
10
778.539
20
29.845
30
0.0
40
5.000
1
KS-BIG-K
41
1.100
50
0.000
100
AcDbText
0
TEXT
5
94a
100
AcDbEntity
8
0-2
62
3
100
AcDbText
10
292.529
20
147.599
30
0.0
40
7.000
1
50
41
1.143
50
0.000
100
AcDbText
0
TEXT
5
94b
100
AcDbEntity
8
0-2
62
3
100
AcDbText
10
325.895
20
138.120
30
0.0
40
7.000
1
31
41
1.143
50
0.000
100
AcDbText
0
TEXT
5
94c
100
AcDbEntity
8
0-2
62
3
100
AcDbText
10
356.530
20
122.428
30
0.0
40
7.000
1
 3
41
1.143
50
0.000
100
AcDbText
0
TEXT
5
94d
100
AcDbEntity
8
0-2
62
3
100
AcDbText
10
341.735
20
75.120
30
0.0
40
7.000
1
5
41
1.143
50
0.000
100
AcDbText
0
TEXT
5
94e
100
AcDbEntity
8
0-2
62
3
100
AcDbText
10
358.227
20
104.121
30
0.0
40
7.000
1
30
41
1.143
50
0.000
100
AcDbText
0
TEXT
5
94f
100
AcDbEntity
8
0-2
62
3
100
AcDbText
10
492.529
20
147.599
30
0.0
40
7.000
1
50
41
1.143
50
0.000
100
AcDbText
0
TEXT
5
950
100
AcDbEntity
8
0-2
62
3
100
AcDbText
10
525.895
20
138.120
30
0.0
40
7.000
1
31
41
1.143
50
0.000
100
AcDbText
0
TEXT
5
951
100
AcDbEntity
8
0-2
62
3
100
AcDbText
10
556.530
20
122.428
30
0.0
40
7.000
1
 3
41
1.143
50
0.000
100
AcDbText
0
TEXT
5
952
100
AcDbEntity
8
0-2
62
3
100
AcDbText
10
471.895
20
56.620
30
0.0
40
7.000
1
20
41
1.143
50
0.000
100
AcDbText
0
TEXT
5
953
100
AcDbEntity
8
0-2
62
3
100
AcDbText
10
511.895
20
56.620
30
0.0
40
7.000
1
60
41
1.143
50
0.000
100
AcDbText
0
TEXT
5
954
100
AcDbEntity
8
0-2
62
3
100
AcDbText
10
445.291
20
78.042
30
0.0
40
7.000
1
15
41
1.143
50
0.000
100
AcDbText
0
TEXT
5
955
100
AcDbEntity
8
0-2
62
3
100
AcDbText
10
159.895
20
155.937
30
0.0
40
7.000
1
50
41
1.143
50
0.000
100
AcDbText
0
TEXT
5
956
100
AcDbEntity
8
0-2
62
3
100
AcDbText
10
119.114
20
127.804
30
0.0
40
7.000
1
28
41
1.143
50
0.000
100
AcDbText
0
TEXT
5
957
100
AcDbEntity
8
0-303
62
3
100
AcDbText
10
83.178
20
13.785
30
0.0
40
4.000
1
電話（０５４）２６３－２２８０（代表）
41
1.125
50
0.000
100
AcDbText
0
TEXT
5
958
100
AcDbEntity
8
0-303
62
3
100
AcDbText
10
61.073
20
29.382
30
0.0
40
8.000
1
小　池　弥　太　郎　商　店
41
1.125
50
0.000
100
AcDbText
0
TEXT
5
959
100
AcDbEntity
8
0-303
62
3
100
AcDbText
10
83.176
20
21.201
30
0.0
40
4.000
1
静岡県静岡市葵区流通センター１６番
41
1.125
50
0.000
100
AcDbText
0
TEXT
5
95a
100
AcDbEntity
8
0-303
62
3
100
AcDbText
10
49.950
20
33.676
30
0.0
40
3.000
1
株
41
1.167
50
0.000
100
AcDbText
0
TEXT
5
95b
100
AcDbEntity
8
0-303
62
3
100
AcDbText
10
53.525
20
30.051
30
0.0
40
3.000
1
社
41
1.167
50
360.000
100
AcDbText
0
TEXT
5
95c
100
AcDbEntity
8
0-303
62
3
100
AcDbText
10
49.925
20
30.051
30
0.0
40
3.000
1
会
41
1.167
50
360.000
100
AcDbText
0
TEXT
5
95d
100
AcDbEntity
8
0-303
62
3
100
AcDbText
10
53.325
20
33.576
30
0.0
40
3.000
1
式
41
1.167
50
360.000
100
AcDbText
0
TEXT
5
95e
100
AcDbEntity
8
0-303
62
3
100
AcDbText
10
658.767
20
16.546
30
0.0
40
4.000
1
ザ・デッＫ（大型角スパン）　断面図
41
1.125
50
0.000
100
AcDbText
0
TEXT
5
95f
100
AcDbEntity
8
0-000
62
3
100
AcDbText
10
49.097
20
542.988
30
0.0
40
8.000
1
ザ・デッＫ（大型角スパン）（有効巾　２５０ｍｍ）
41
1.125
50
0.000
100
AcDbText
0
TEXT
5
960
100
AcDbEntity
8
0-000
62
3
100
AcDbText
10
153.395
20
98.437
30
0.0
40
7.000
1
8
41
1.143
50
0.000
100
AcDbText
0
TEXT
5
961
100
AcDbEntity
8
0-2
62
3
100
AcDbText
10
117.956
20
198.195
30
0.0
40
7.000
1
ＢＫ－１０１（廻り縁）
41
1.143
50
0.000
100
AcDbText
0
TEXT
5
962
100
AcDbEntity
8
0-2
62
3
100
AcDbText
10
117.956
20
188.195
30
0.0
40
7.000
1
Ｌ＝２０００～３０００
41
1.143
50
0.000
100
AcDbText
0
TEXT
5
963
100
AcDbEntity
8
0-2
62
3
100
AcDbText
10
277.956
20
188.195
30
0.0
40
7.000
1
Ｌ＝２０００～３０００
41
1.143
50
0.000
100
AcDbText
0
TEXT
5
964
100
AcDbEntity
8
0-2
62
3
100
AcDbText
10
277.956
20
198.195
30
0.0
40
7.000
1
ＢＫ－２０２（土台水切・接続水切）
41
1.143
50
0.000
100
AcDbText
0
TEXT
5
965
100
AcDbEntity
8
0-2
62
3
100
AcDbText
10
558.227
20
96.121
30
0.0
40
7.000
1
50
41
1.143
50
0.000
100
AcDbText
0
TEXT
5
966
100
AcDbEntity
8
0-2
62
3
100
AcDbText
10
477.956
20
198.195
30
0.0
40
7.000
1
ＢＫ－１５０（天井見切水切）
41
1.143
50
0.000
100
AcDbText
0
TEXT
5
967
100
AcDbEntity
8
0-2
62
3
100
AcDbText
10
477.956
20
188.195
30
0.0
40
7.000
1
Ｌ＝２０００～３０００
41
1.143
50
0.000
100
AcDbText
0
TEXT
5
968
100
AcDbEntity
8
0-000
62
3
100
AcDbText
10
497.020
20
339.840
30
0.0
40
7.000
1
250.5
41
1.143
50
0.000
100
AcDbText
0
TEXT
5
969
100
AcDbEntity
8
0-000
62
3
100
AcDbText
10
246.520
20
516.631
30
0.0
40
7.000
1
250.5
41
1.143
50
0.000
100
AcDbText
0
TEXT
5
96a
100
AcDbEntity
8
0-303
62
3
100
AcDbText
10
611.241
20
15.334
30
0.0
40
3.000
1
   2020-10-16
41
1.167
50
0.000
100
AcDbText
0
TEXT
5
96b
100
AcDbEntity
8
0-101
62
3
100
AcDbText
10
49.097
20
366.197
30
0.0
40
8.000
1
ザ・デッＫ（大型角スパン嵌合参考図）
41
1.125
50
0.000
100
AcDbText
0
TEXT
5
96c
100
AcDbEntity
8
0-000
62
3
100
AcDbText
10
145.395
20
83.937
30
0.0
40
7.000
1
20
41
1.143
50
0.000
100
AcDbText
0
ENDSEC
0
EOF
