0
SECTION
2
HEADER
9
$ACADVER
1
AC1009
9
$DWGCODEPAGE
3
ANSI_932
9
$EXTMIN
10
0.000
20
0.000
30
0.0
9
$EXTMAX
10
841.000
20
594.000
30
0.0
9
$LTSCALE
40
2.000
9
$PDMODE
70
0
9
$PDSIZE
40
40.0
0
ENDSEC
0
SECTION
2
TABLES
0
TABLE
2
LTYPE
70
9
0
LTYPE
5
1f4
2
CONTINUOUS
70
64
3
SolidLine
72
65
73
0
40
0.0
0
LTYPE
5
1f5
2
DOT
70
64
3
--  --  --  --  --  --  --  --     
72
65
73
2
40
3.000
49
1.000
49
-2.000
0
LTYPE
5
1f6
2
DASHED
70
64
3
----    ----    ----    ----    
72
65
73
2
40
5.000
49
2.000
49
-3.000
0
LTYPE
5
1f7
2
DASHED2
70
64
3
------  ------  ------  ------ 
72
65
73
2
40
10.000
49
4.000
49
-6.000
0
LTYPE
5
1f8
2
CENTER
70
64
3
----- - ----- - ----- - ----- - 
72
65
73
4
40
10.000
49
6.000
49
-3.000
49
1.000
49
-3.000
0
LTYPE
5
1f9
2
CENTER2
70
64
3
----------  --  ----------  -- 
72
65
73
4
40
17.000
49
12.000
49
-5.000
49
2.000
49
-5.000
0
LTYPE
5
1fa
2
PHANTOM
70
64
3
--- - - --- - - --- - - --- - -
72
65
73
6
40
13.000
49
5.000
49
-3.000
49
1.000
49
-3.000
49
1.000
49
-3.000
0
LTYPE
5
1fb
2
PHANTOM2
70
64
3
--------  -  -  --------  -  -
72
65
73
6
40
20.000
49
6.000
49
-5.000
49
2.000
49
-5.000
49
2.000
49
-5.000
0
LTYPE
5
1fc
2
HIDDEN
70
64
3
-   -   -   -   -   -   -   -   
72
65
73
2
40
3.000
49
0.500
49
-2.500
0
ENDTAB
0
TABLE
2
STYLE
70
1
0
STYLE
5
1fd
100
AcDbSymbolTableRecord
100
AcDbTextStyleTableRecord
2
STANDARD
70
0
40
0.0
41
1.0
50
0.0
71
0
42
0.0
3
txt.shx
4
extfont.shx
0
STYLE
5
1fe
100
AcDbSymbolTableRecord
100
AcDbTextStyleTableRecord
2
TATEGAKI
70
4
40
0.0
41
1.0
50
0.0
71
0
42
0.0
3
txt.shx
4
extfont.shx
0
STYLE
5
1ff
100
AcDbSymbolTableRecord
100
AcDbTextStyleTableRecord
2
DIM
70
0
40
0.0
41
0.75
50
0.0
71
0
42
0.0
3
txt.shx
4
extfont.shx
0
STYLE
5
200
100
AcDbSymbolTableRecord
100
AcDbTextStyleTableRecord
2
_Gothic__
70
0
40
0.0
41
1.0
50
0.0
71
0
42
0.0
3
MS Gothic
4

0
STYLE
5
201
100
AcDbSymbolTableRecord
100
AcDbTextStyleTableRecord
2
_TateGothic_
70
4
40
0.0
41
1.0
50
0.0
71
0
42
0.0
3
@MS Gothic
4

0
ENDTAB
0
TABLE
2
LAYER
5
403
100
AcDbSymbolTable
70
10
0
LAYER
5
404
100
AcDbSymbolTableRecord
100
AcDbLayerTableRecord
2
0-0
70
0
62
7
6
CONTINUOUS
0
LAYER
5
405
100
AcDbSymbolTableRecord
100
AcDbLayerTableRecord
2
F-0
70
0
62
7
6
CONTINUOUS
0
LAYER
5
406
100
AcDbSymbolTableRecord
100
AcDbLayerTableRecord
2
F-E_J_ADD
70
0
62
-7
6
CONTINUOUS
0
LAYER
5
407
100
AcDbSymbolTableRecord
100
AcDbLayerTableRecord
2
F-F
70
0
62
7
6
CONTINUOUS
0
ENDTAB
0
ENDSEC
0
SECTION
2
ENTITIES
0
LINE
5
408
100
AcDbEntity
8
0-0
6
CONTINUOUS
62
3
100
AcDbLine
10
292.170000000000
20
396.760000000000
30
0.0
11
303.400000000000
21
408.400000000000
31
0.0
0
LINE
5
409
100
AcDbEntity
8
0-0
6
CONTINUOUS
62
3
100
AcDbLine
10
303.400000000000
20
408.400000000000
30
0.0
11
317.780000000000
21
426.720000000000
31
0.0
0
LINE
5
40a
100
AcDbEntity
8
0-0
6
CONTINUOUS
62
3
100
AcDbLine
10
291.810000000000
20
397.110000000000
30
0.0
11
303.040000000000
21
408.750000000000
31
0.0
0
LINE
5
40b
100
AcDbEntity
8
0-0
6
CONTINUOUS
62
3
100
AcDbLine
10
303.010000000000
20
408.710000000000
30
0.0
11
317.390000000000
21
427.030000000000
31
0.0
0
LINE
5
40c
100
AcDbEntity
8
0-0
6
CONTINUOUS
62
3
100
AcDbLine
10
290.730000000000
20
396.150000000000
30
0.0
11
256.580000000000
21
396.150000000000
31
0.0
0
LINE
5
40d
100
AcDbEntity
8
0-0
6
CONTINUOUS
62
3
100
AcDbLine
10
290.660000000000
20
396.650000000000
30
0.0
11
256.580000000000
21
396.650000000000
31
0.0
0
LINE
5
40e
100
AcDbEntity
8
0-0
6
CONTINUOUS
62
3
100
AcDbLine
10
220.990000000000
20
396.760000000000
30
0.0
11
209.760000000000
21
408.400000000000
31
0.0
0
LINE
5
40f
100
AcDbEntity
8
0-0
6
CONTINUOUS
62
3
100
AcDbLine
10
209.760000000000
20
408.400000000000
30
0.0
11
195.380000000000
21
426.720000000000
31
0.0
0
LINE
5
410
100
AcDbEntity
8
0-0
6
CONTINUOUS
62
3
100
AcDbLine
10
221.350000000000
20
397.110000000000
30
0.0
11
210.120000000000
21
408.750000000000
31
0.0
0
LINE
5
411
100
AcDbEntity
8
0-0
6
CONTINUOUS
62
3
100
AcDbLine
10
210.150000000000
20
408.710000000000
30
0.0
11
195.770000000000
21
427.030000000000
31
0.0
0
LINE
5
412
100
AcDbEntity
8
0-0
6
CONTINUOUS
62
3
100
AcDbLine
10
222.430000000000
20
396.150000000000
30
0.0
11
256.580000000000
21
396.150000000000
31
0.0
0
LINE
5
413
100
AcDbEntity
8
0-0
6
CONTINUOUS
62
3
100
AcDbLine
10
222.500000000000
20
396.650000000000
30
0.0
11
256.580000000000
21
396.650000000000
31
0.0
0
LINE
5
414
100
AcDbEntity
8
0-0
6
CONTINUOUS
62
3
100
AcDbLine
10
173.400000000000
20
408.400000000000
30
0.0
11
187.780000000000
21
426.720000000000
31
0.0
0
LINE
5
415
100
AcDbEntity
8
0-0
6
CONTINUOUS
62
3
100
AcDbLine
10
173.010000000000
20
408.710000000000
30
0.0
11
187.390000000000
21
427.030000000000
31
0.0
0
LINE
5
416
100
AcDbEntity
8
0-0
6
CONTINUOUS
62
3
100
AcDbLine
10
350.990000000000
20
396.760000000000
30
0.0
11
339.760000000000
21
408.400000000000
31
0.0
0
LINE
5
417
100
AcDbEntity
8
0-0
6
CONTINUOUS
62
3
100
AcDbLine
10
339.760000000000
20
408.400000000000
30
0.0
11
325.380000000000
21
426.720000000000
31
0.0
0
LINE
5
418
100
AcDbEntity
8
0-0
6
CONTINUOUS
62
3
100
AcDbLine
10
351.350000000000
20
397.110000000000
30
0.0
11
340.120000000000
21
408.750000000000
31
0.0
0
LINE
5
419
100
AcDbEntity
8
0-0
6
CONTINUOUS
62
3
100
AcDbLine
10
340.150000000000
20
408.710000000000
30
0.0
11
325.770000000000
21
427.030000000000
31
0.0
0
LINE
5
41a
100
AcDbEntity
8
0-0
6
CONTINUOUS
62
3
100
AcDbLine
10
352.430000000000
20
396.150000000000
30
0.0
11
386.580000000000
21
396.150000000000
31
0.0
0
LINE
5
41b
100
AcDbEntity
8
0-0
6
CONTINUOUS
62
3
100
AcDbLine
10
352.500000000000
20
396.650000000000
30
0.0
11
386.580000000000
21
396.650000000000
31
0.0
0
LINE
5
41c
100
AcDbEntity
8
0-0
6
CONTINUOUS
62
3
100
AcDbLine
10
480.990000000000
20
396.760000000000
30
0.0
11
469.760000000000
21
408.400000000000
31
0.0
0
LINE
5
41d
100
AcDbEntity
8
0-0
6
CONTINUOUS
62
3
100
AcDbLine
10
469.760000000000
20
408.400000000000
30
0.0
11
455.380000000000
21
426.720000000000
31
0.0
0
LINE
5
41e
100
AcDbEntity
8
0-0
6
CONTINUOUS
62
3
100
AcDbLine
10
481.350000000000
20
397.110000000000
30
0.0
11
470.120000000000
21
408.750000000000
31
0.0
0
LINE
5
41f
100
AcDbEntity
8
0-0
6
CONTINUOUS
62
3
100
AcDbLine
10
470.150000000000
20
408.710000000000
30
0.0
11
455.770000000000
21
427.030000000000
31
0.0
0
LINE
5
420
100
AcDbEntity
8
0-0
6
CONTINUOUS
62
3
100
AcDbLine
10
482.430000000000
20
396.150000000000
30
0.0
11
516.580000000000
21
396.150000000000
31
0.0
0
LINE
5
421
100
AcDbEntity
8
0-0
6
CONTINUOUS
62
3
100
AcDbLine
10
482.500000000000
20
396.650000000000
30
0.0
11
516.580000000000
21
396.650000000000
31
0.0
0
LINE
5
422
100
AcDbEntity
8
0-0
6
CONTINUOUS
62
3
100
AcDbLine
10
552.170000000000
20
396.760000000000
30
0.0
11
563.400000000000
21
408.400000000000
31
0.0
0
LINE
5
423
100
AcDbEntity
8
0-0
6
CONTINUOUS
62
3
100
AcDbLine
10
563.400000000000
20
408.400000000000
30
0.0
11
577.780000000000
21
426.720000000000
31
0.0
0
LINE
5
424
100
AcDbEntity
8
0-0
6
CONTINUOUS
62
3
100
AcDbLine
10
551.810000000000
20
397.110000000000
30
0.0
11
563.040000000000
21
408.750000000000
31
0.0
0
LINE
5
425
100
AcDbEntity
8
0-0
6
CONTINUOUS
62
3
100
AcDbLine
10
563.010000000000
20
408.710000000000
30
0.0
11
577.390000000000
21
427.030000000000
31
0.0
0
LINE
5
426
100
AcDbEntity
8
0-0
6
CONTINUOUS
62
3
100
AcDbLine
10
550.730000000000
20
396.150000000000
30
0.0
11
516.580000000000
21
396.150000000000
31
0.0
0
LINE
5
427
100
AcDbEntity
8
0-0
6
CONTINUOUS
62
3
100
AcDbLine
10
550.660000000000
20
396.650000000000
30
0.0
11
516.580000000000
21
396.650000000000
31
0.0
0
LINE
5
428
100
AcDbEntity
8
0-0
6
CONTINUOUS
62
3
100
AcDbLine
10
610.990000000000
20
396.760000000000
30
0.0
11
599.760000000000
21
408.400000000000
31
0.0
0
LINE
5
429
100
AcDbEntity
8
0-0
6
CONTINUOUS
62
3
100
AcDbLine
10
599.760000000000
20
408.400000000000
30
0.0
11
585.380000000000
21
426.720000000000
31
0.0
0
LINE
5
42a
100
AcDbEntity
8
0-0
6
CONTINUOUS
62
3
100
AcDbLine
10
611.350000000000
20
397.110000000000
30
0.0
11
600.120000000000
21
408.750000000000
31
0.0
0
LINE
5
42b
100
AcDbEntity
8
0-0
6
CONTINUOUS
62
3
100
AcDbLine
10
600.150000000000
20
408.710000000000
30
0.0
11
585.770000000000
21
427.030000000000
31
0.0
0
LINE
5
42c
100
AcDbEntity
8
0-0
6
CONTINUOUS
62
3
100
AcDbLine
10
612.430000000000
20
396.150000000000
30
0.0
11
646.580000000000
21
396.150000000000
31
0.0
0
LINE
5
42d
100
AcDbEntity
8
0-0
6
CONTINUOUS
62
3
100
AcDbLine
10
612.500000000000
20
396.650000000000
30
0.0
11
646.580000000000
21
396.650000000000
31
0.0
0
LINE
5
42e
100
AcDbEntity
8
0-0
6
CONTINUOUS
62
3
100
AcDbLine
10
422.170000000000
20
396.760000000000
30
0.0
11
433.400000000000
21
408.400000000000
31
0.0
0
LINE
5
42f
100
AcDbEntity
8
0-0
6
CONTINUOUS
62
3
100
AcDbLine
10
433.400000000000
20
408.400000000000
30
0.0
11
447.780000000000
21
426.720000000000
31
0.0
0
LINE
5
430
100
AcDbEntity
8
0-0
6
CONTINUOUS
62
3
100
AcDbLine
10
421.810000000000
20
397.110000000000
30
0.0
11
433.040000000000
21
408.750000000000
31
0.0
0
LINE
5
431
100
AcDbEntity
8
0-0
6
CONTINUOUS
62
3
100
AcDbLine
10
433.010000000000
20
408.710000000000
30
0.0
11
447.390000000000
21
427.030000000000
31
0.0
0
LINE
5
432
100
AcDbEntity
8
0-0
6
CONTINUOUS
62
3
100
AcDbLine
10
420.730000000000
20
396.150000000000
30
0.0
11
386.580000000000
21
396.150000000000
31
0.0
0
LINE
5
433
100
AcDbEntity
8
0-0
6
CONTINUOUS
62
3
100
AcDbLine
10
420.660000000000
20
396.650000000000
30
0.0
11
386.580000000000
21
396.650000000000
31
0.0
0
LINE
5
434
100
AcDbEntity
8
0-0
6
CONTINUOUS
62
3
100
AcDbLine
10
40.580000000000
20
405.620000000000
30
0.0
11
47.620000000000
21
415.330000000000
31
0.0
0
LINE
5
435
100
AcDbEntity
8
0-0
6
CONTINUOUS
62
3
100
AcDbLine
10
48.020000000000
20
415.040000000000
30
0.0
11
47.620000000000
21
415.330000000000
31
0.0
0
LINE
5
436
100
AcDbEntity
8
0-0
6
CONTINUOUS
62
3
100
AcDbLine
10
48.020000000000
20
415.040000000000
30
0.0
11
40.970000000000
21
405.310000000000
31
0.0
0
LINE
5
437
100
AcDbEntity
8
0-0
6
CONTINUOUS
62
3
100
AcDbLine
10
160.660000000000
20
397.150000000000
30
0.0
11
126.580000000000
21
397.150000000000
31
0.0
0
LINE
5
438
100
AcDbEntity
8
0-0
6
CONTINUOUS
62
3
100
AcDbLine
10
39.790000000000
20
406.240000000000
30
0.0
11
57.020000000000
21
427.370000000000
31
0.0
0
LINE
5
439
100
AcDbEntity
8
0-0
6
CONTINUOUS
62
3
100
AcDbLine
10
56.640000000000
20
427.690000000000
30
0.0
11
39.400000000000
21
406.550000000000
31
0.0
0
LINE
5
43a
100
AcDbEntity
8
0-0
6
CONTINUOUS
62
3
100
AcDbLine
10
80.540000000000
20
409.020000000000
30
0.0
11
66.150000000000
21
427.350000000000
31
0.0
0
LINE
5
43b
100
AcDbEntity
8
0-0
6
CONTINUOUS
62
3
100
AcDbLine
10
162.100000000000
20
397.760000000000
30
0.0
11
173.400000000000
21
408.400000000000
31
0.0
0
LINE
5
43c
100
AcDbEntity
8
0-0
6
CONTINUOUS
62
3
100
AcDbLine
10
161.760000000000
20
398.120000000000
30
0.0
11
173.060000000000
21
408.770000000000
31
0.0
0
LINE
5
43d
100
AcDbEntity
8
0-0
6
CONTINUOUS
62
3
100
AcDbLine
10
80.940000000000
20
409.330000000000
30
0.0
11
66.540000000000
21
427.660000000000
31
0.0
0
LINE
5
43e
100
AcDbEntity
8
0-0
6
CONTINUOUS
62
3
100
AcDbLine
10
91.410000000000
20
397.760000000000
30
0.0
11
80.480000000000
21
409.100000000000
31
0.0
0
LINE
5
43f
100
AcDbEntity
8
0-0
6
CONTINUOUS
62
3
100
AcDbLine
10
92.850000000000
20
397.150000000000
30
0.0
11
126.580000000000
21
397.150000000000
31
0.0
0
LINE
5
440
100
AcDbEntity
8
0-0
6
CONTINUOUS
62
3
100
AcDbLine
10
91.770000000000
20
398.110000000000
30
0.0
11
80.840000000000
21
409.440000000000
31
0.0
0
LINE
5
441
100
AcDbEntity
8
0-0
6
CONTINUOUS
62
3
100
AcDbLine
10
92.850000000000
20
397.650000000000
30
0.0
11
126.580000000000
21
397.650000000000
31
0.0
0
LINE
5
442
100
AcDbEntity
8
0-0
6
CONTINUOUS
62
3
100
AcDbLine
10
160.660000000000
20
397.650000000000
30
0.0
11
126.580000000000
21
397.650000000000
31
0.0
0
LINE
5
443
100
AcDbEntity
8
0-0
6
CONTINUOUS
62
3
100
AcDbLine
10
729.760000000000
20
408.400000000000
30
0.0
11
715.380000000000
21
426.720000000000
31
0.0
0
LINE
5
444
100
AcDbEntity
8
0-0
6
CONTINUOUS
62
3
100
AcDbLine
10
741.350000000000
20
397.110000000000
30
0.0
11
730.120000000000
21
408.750000000000
31
0.0
0
LINE
5
445
100
AcDbEntity
8
0-0
6
CONTINUOUS
62
3
100
AcDbLine
10
742.500000000000
20
396.650000000000
30
0.0
11
776.580000000000
21
396.650000000000
31
0.0
0
LINE
5
446
100
AcDbEntity
8
0-0
6
CONTINUOUS
62
3
100
AcDbLine
10
680.730000000000
20
396.150000000000
30
0.0
11
646.580000000000
21
396.150000000000
31
0.0
0
LINE
5
447
100
AcDbEntity
8
0-0
6
CONTINUOUS
62
3
100
AcDbLine
10
680.660000000000
20
396.650000000000
30
0.0
11
646.580000000000
21
396.650000000000
31
0.0
0
LINE
5
448
100
AcDbEntity
8
0-0
6
CONTINUOUS
62
3
100
AcDbLine
10
690.360000000000
20
404.530000000000
30
0.0
11
681.810000000000
21
397.110000000000
31
0.0
0
LINE
5
449
100
AcDbEntity
8
0-0
6
CONTINUOUS
62
3
100
AcDbLine
10
690.680000000000
20
404.150000000000
30
0.0
11
682.140000000000
21
396.730000000000
31
0.0
0
LINE
5
44a
100
AcDbEntity
8
0-0
6
CONTINUOUS
62
3
100
AcDbLine
10
690.760000000000
20
404.220000000000
30
0.0
11
701.770000000000
21
418.770000000000
31
0.0
0
LINE
5
44b
100
AcDbEntity
8
0-0
6
CONTINUOUS
62
3
100
AcDbLine
10
690.360000000000
20
404.530000000000
30
0.0
11
701.430000000000
21
419.150000000000
31
0.0
0
LINE
5
44c
100
AcDbEntity
8
0-0
6
CONTINUOUS
62
3
100
AcDbLine
10
730.150000000000
20
408.710000000000
30
0.0
11
715.760000000000
21
427.040000000000
31
0.0
0
LINE
5
44d
100
AcDbEntity
8
0-0
6
CONTINUOUS
62
3
100
AcDbLine
10
791.580000000000
20
396.650000000000
30
0.0
11
776.580000000000
21
396.650000000000
31
0.0
0
LINE
5
44e
100
AcDbEntity
8
0-0
6
CONTINUOUS
62
3
100
AcDbLine
10
791.580000000000
20
396.150000000000
30
0.0
11
776.580000000000
21
396.150000000000
31
0.0
0
LINE
5
44f
100
AcDbEntity
8
0-0
6
CONTINUOUS
62
3
100
AcDbLine
10
791.580000000000
20
396.650000000000
30
0.0
11
791.580000000000
21
396.150000000000
31
0.0
0
LINE
5
450
100
AcDbEntity
8
0-0
6
CONTINUOUS
62
3
100
AcDbLine
10
742.430000000000
20
396.150000000000
30
0.0
11
776.580000000000
21
396.150000000000
31
0.0
0
LINE
5
451
100
AcDbEntity
8
0-0
6
CONTINUOUS
62
3
100
AcDbLine
10
740.990000000000
20
396.760000000000
30
0.0
11
729.760000000000
21
408.400000000000
31
0.0
0
LINE
5
452
100
AcDbEntity
8
0-0
6
CONTINUOUS
62
7
100
AcDbLine
10
61.580000000000
20
458.960000000000
30
0.0
11
191.580000000000
21
458.960000000000
31
0.0
0
LINE
5
453
100
AcDbEntity
8
0-0
6
CONTINUOUS
62
7
100
AcDbLine
10
61.580000000000
20
443.960000000000
30
0.0
11
61.580000000000
21
458.960000000000
31
0.0
0
LINE
5
454
100
AcDbEntity
8
0-0
6
CONTINUOUS
62
7
100
AcDbLine
10
191.580000000000
20
443.960000000000
30
0.0
11
191.580000000000
21
458.960000000000
31
0.0
0
LINE
5
455
100
AcDbEntity
8
0-0
6
CONTINUOUS
62
7
100
AcDbLine
10
191.580000000000
20
458.960000000000
30
0.0
11
321.580000000000
21
458.960000000000
31
0.0
0
LINE
5
456
100
AcDbEntity
8
0-0
6
CONTINUOUS
62
7
100
AcDbLine
10
321.580000000000
20
443.960000000000
30
0.0
11
321.580000000000
21
458.960000000000
31
0.0
0
LINE
5
457
100
AcDbEntity
8
0-0
6
CONTINUOUS
62
7
100
AcDbLine
10
321.580000000000
20
458.960000000000
30
0.0
11
451.580000000000
21
458.960000000000
31
0.0
0
LINE
5
458
100
AcDbEntity
8
0-0
6
CONTINUOUS
62
7
100
AcDbLine
10
451.580000000000
20
443.960000000000
30
0.0
11
451.580000000000
21
458.960000000000
31
0.0
0
LINE
5
459
100
AcDbEntity
8
0-0
6
CONTINUOUS
62
7
100
AcDbLine
10
451.580000000000
20
458.960000000000
30
0.0
11
581.580000000000
21
458.960000000000
31
0.0
0
LINE
5
45a
100
AcDbEntity
8
0-0
6
CONTINUOUS
62
7
100
AcDbLine
10
581.580000000000
20
443.960000000000
30
0.0
11
581.580000000000
21
458.960000000000
31
0.0
0
LINE
5
45b
100
AcDbEntity
8
0-0
6
CONTINUOUS
62
7
100
AcDbLine
10
581.580000000000
20
458.960000000000
30
0.0
11
711.580000000000
21
458.960000000000
31
0.0
0
LINE
5
45c
100
AcDbEntity
8
0-0
6
CONTINUOUS
62
7
100
AcDbLine
10
711.580000000000
20
443.960000000000
30
0.0
11
711.580000000000
21
458.960000000000
31
0.0
0
LINE
5
45d
100
AcDbEntity
8
0-0
6
CONTINUOUS
62
7
100
AcDbLine
10
611.580000000000
20
366.150000000000
30
0.0
11
681.580000000000
21
366.150000000000
31
0.0
0
LINE
5
45e
100
AcDbEntity
8
0-0
6
CONTINUOUS
62
7
100
AcDbLine
10
611.580000000000
20
381.150000000000
30
0.0
11
611.580000000000
21
366.150000000000
31
0.0
0
LINE
5
45f
100
AcDbEntity
8
0-0
6
CONTINUOUS
62
7
100
AcDbLine
10
681.580000000000
20
381.150000000000
30
0.0
11
681.580000000000
21
366.150000000000
31
0.0
0
LINE
5
460
100
AcDbEntity
8
0-0
6
CONTINUOUS
62
7
100
AcDbLine
10
681.580000000000
20
366.150000000000
30
0.0
11
741.580000000000
21
366.150000000000
31
0.0
0
LINE
5
461
100
AcDbEntity
8
0-0
6
CONTINUOUS
62
7
100
AcDbLine
10
741.580000000000
20
381.150000000000
30
0.0
11
741.580000000000
21
366.150000000000
31
0.0
0
LINE
5
462
100
AcDbEntity
8
0-0
6
CONTINUOUS
62
7
100
AcDbLine
10
61.580000000000
20
483.960000000000
30
0.0
11
711.580000000000
21
483.960000000000
31
0.0
0
LINE
5
463
100
AcDbEntity
8
0-0
6
CONTINUOUS
62
7
100
AcDbLine
10
61.580000000000
20
458.960000000000
30
0.0
11
61.580000000000
21
483.960000000000
31
0.0
0
LINE
5
464
100
AcDbEntity
8
0-0
6
CONTINUOUS
62
7
100
AcDbLine
10
711.580000000000
20
458.960000000000
30
0.0
11
711.580000000000
21
483.960000000000
31
0.0
0
LINE
5
465
100
AcDbEntity
8
0-0
6
CONTINUOUS
62
7
100
AcDbLine
10
741.580000000000
20
366.150000000000
30
0.0
11
791.580000000000
21
366.150000000000
31
0.0
0
LINE
5
466
100
AcDbEntity
8
0-0
6
CONTINUOUS
62
7
100
AcDbLine
10
791.580000000000
20
381.150000000000
30
0.0
11
791.580000000000
21
366.150000000000
31
0.0
0
LINE
5
467
100
AcDbEntity
8
0-0
6
CONTINUOUS
62
7
100
AcDbLine
10
516.580000000000
20
396.650000000000
30
0.0
11
516.580000000000
21
428.960000000000
31
0.0
0
LINE
5
468
100
AcDbEntity
8
0-0
6
CONTINUOUS
62
7
100
AcDbLine
10
466.580000000000
20
428.960000000000
30
0.0
11
516.580000000000
21
428.960000000000
31
0.0
0
LINE
5
469
100
AcDbEntity
8
F-0
6
CONTINUOUS
62
3
100
AcDbLine
10
27.380000000000
20
306.630000000000
30
0.0
11
815.820000000000
21
306.630000000000
31
0.0
0
LINE
5
46a
100
AcDbEntity
8
F-0
6
CONTINUOUS
62
3
100
AcDbLine
10
27.380000000000
20
551.820000000000
30
0.0
11
815.820000000000
21
551.820000000000
31
0.0
0
LINE
5
46b
100
AcDbEntity
8
F-0
6
CONTINUOUS
62
3
100
AcDbLine
10
27.380000000000
20
286.630000000000
30
0.0
11
815.820000000000
21
286.630000000000
31
0.0
0
LINE
5
46c
100
AcDbEntity
8
F-F
6
CONTINUOUS
62
2
100
AcDbLine
10
27.380000000000
20
11.820000000000
30
0.0
11
27.380000000000
21
571.820000000000
31
0.0
0
LINE
5
46d
100
AcDbEntity
8
F-F
6
CONTINUOUS
62
2
100
AcDbLine
10
642.380000000000
20
41.450000000000
30
0.0
11
642.380000000000
21
11.820000000000
31
0.0
0
LINE
5
46e
100
AcDbEntity
8
F-F
6
CONTINUOUS
62
2
100
AcDbLine
10
607.270000000000
20
41.450000000000
30
0.0
11
607.270000000000
21
11.820000000000
31
0.0
0
LINE
5
46f
100
AcDbEntity
8
F-F
6
CONTINUOUS
62
2
100
AcDbLine
10
768.560000000000
20
11.820000000000
30
0.0
11
768.560000000000
21
41.450000000000
31
0.0
0
LINE
5
470
100
AcDbEntity
8
F-F
6
CONTINUOUS
62
2
100
AcDbLine
10
403.450000000000
20
41.450000000000
30
0.0
11
403.450000000000
21
11.820000000000
31
0.0
0
LINE
5
471
100
AcDbEntity
8
F-F
6
CONTINUOUS
62
2
100
AcDbLine
10
504.870000000000
20
41.450000000000
30
0.0
11
504.870000000000
21
11.820000000000
31
0.0
0
LINE
5
472
100
AcDbEntity
8
F-F
6
CONTINUOUS
62
2
100
AcDbLine
10
403.450000000000
20
31.570000000000
30
0.0
11
184.880000000000
21
31.570000000000
31
0.0
0
LINE
5
473
100
AcDbEntity
8
F-F
6
CONTINUOUS
62
2
100
AcDbLine
10
403.450000000000
20
21.690000000000
30
0.0
11
184.880000000000
21
21.690000000000
31
0.0
0
LINE
5
474
100
AcDbEntity
8
F-F
6
CONTINUOUS
62
2
100
AcDbLine
10
403.450000000000
20
16.760000000000
30
0.0
11
184.880000000000
21
16.760000000000
31
0.0
0
LINE
5
475
100
AcDbEntity
8
F-F
6
CONTINUOUS
62
2
100
AcDbLine
10
403.450000000000
20
36.510000000000
30
0.0
11
184.880000000000
21
36.510000000000
31
0.0
0
LINE
5
476
100
AcDbEntity
8
F-F
6
CONTINUOUS
62
2
100
AcDbLine
10
211.210000000000
20
41.450000000000
30
0.0
11
211.210000000000
21
11.820000000000
31
0.0
0
LINE
5
477
100
AcDbEntity
8
F-F
6
CONTINUOUS
62
2
100
AcDbLine
10
184.880000000000
20
41.450000000000
30
0.0
11
184.880000000000
21
11.820000000000
31
0.0
0
LINE
5
478
100
AcDbEntity
8
F-F
6
CONTINUOUS
62
2
100
AcDbLine
10
815.820000000000
20
11.820000000000
30
0.0
11
815.820000000000
21
571.820000000000
31
0.0
0
LINE
5
479
100
AcDbEntity
8
F-F
6
CONTINUOUS
62
2
100
AcDbLine
10
27.380000000000
20
571.820000000000
30
0.0
11
815.820000000000
21
571.820000000000
31
0.0
0
LINE
5
47a
100
AcDbEntity
8
F-F
6
CONTINUOUS
62
2
100
AcDbLine
10
27.380000000000
20
11.820000000000
30
0.0
11
815.820000000000
21
11.820000000000
31
0.0
0
LINE
5
47b
100
AcDbEntity
8
F-F
6
CONTINUOUS
62
2
100
AcDbLine
10
815.820000000000
20
41.450000000000
30
0.0
11
27.380000000000
21
41.450000000000
31
0.0
0
LINE
5
47c
100
AcDbEntity
8
F-F
6
CONTINUOUS
62
2
100
AcDbLine
10
184.880000000000
20
26.630000000000
30
0.0
11
815.820000000000
21
26.630000000000
31
0.0
0
LINE
5
47d
100
AcDbEntity
8
0-0
6
CONTINUOUS
62
7
100
AcDbLine
10
254.980000000000
20
139.610000000000
30
0.0
11
235.020000000000
21
120.270000000000
31
0.0
0
LINE
5
47e
100
AcDbEntity
8
0-0
6
CONTINUOUS
62
7
100
AcDbLine
10
250.520000000000
20
144.070000000000
30
0.0
11
230.570000000000
21
124.720000000000
31
0.0
0
LINE
5
47f
100
AcDbEntity
8
0-0
6
CONTINUOUS
62
7
100
AcDbLine
10
295.570000000000
20
139.610000000000
30
0.0
11
315.520000000000
21
120.270000000000
31
0.0
0
LINE
5
480
100
AcDbEntity
8
0-0
6
CONTINUOUS
62
7
100
AcDbLine
10
300.020000000000
20
144.070000000000
30
0.0
11
319.980000000000
21
124.720000000000
31
0.0
0
LINE
5
481
100
AcDbEntity
8
0-0
6
CONTINUOUS
62
3
100
AcDbLine
10
245.880000000000
20
141.000000000000
30
0.0
11
257.110000000000
21
152.640000000000
31
0.0
0
LINE
5
482
100
AcDbEntity
8
0-0
6
CONTINUOUS
62
3
100
AcDbLine
10
257.110000000000
20
152.640000000000
30
0.0
11
271.490000000000
21
170.960000000000
31
0.0
0
LINE
5
483
100
AcDbEntity
8
0-0
6
CONTINUOUS
62
3
100
AcDbLine
10
245.520000000000
20
141.350000000000
30
0.0
11
256.750000000000
21
152.990000000000
31
0.0
0
LINE
5
484
100
AcDbEntity
8
0-0
6
CONTINUOUS
62
3
100
AcDbLine
10
256.720000000000
20
152.950000000000
30
0.0
11
271.100000000000
21
171.270000000000
31
0.0
0
LINE
5
485
100
AcDbEntity
8
0-0
6
CONTINUOUS
62
3
100
AcDbLine
10
244.440000000000
20
140.390000000000
30
0.0
11
210.290000000000
21
140.390000000000
31
0.0
0
LINE
5
486
100
AcDbEntity
8
0-0
6
CONTINUOUS
62
3
100
AcDbLine
10
244.370000000000
20
140.890000000000
30
0.0
11
210.290000000000
21
140.890000000000
31
0.0
0
LINE
5
487
100
AcDbEntity
8
0-0
6
CONTINUOUS
62
3
100
AcDbLine
10
304.700000000000
20
141.000000000000
30
0.0
11
293.470000000000
21
152.640000000000
31
0.0
0
LINE
5
488
100
AcDbEntity
8
0-0
6
CONTINUOUS
62
3
100
AcDbLine
10
293.470000000000
20
152.640000000000
30
0.0
11
279.090000000000
21
170.960000000000
31
0.0
0
LINE
5
489
100
AcDbEntity
8
0-0
6
CONTINUOUS
62
3
100
AcDbLine
10
305.060000000000
20
141.350000000000
30
0.0
11
293.830000000000
21
152.990000000000
31
0.0
0
LINE
5
48a
100
AcDbEntity
8
0-0
6
CONTINUOUS
62
3
100
AcDbLine
10
293.860000000000
20
152.950000000000
30
0.0
11
279.480000000000
21
171.270000000000
31
0.0
0
LINE
5
48b
100
AcDbEntity
8
0-0
6
CONTINUOUS
62
3
100
AcDbLine
10
306.140000000000
20
140.390000000000
30
0.0
11
340.290000000000
21
140.390000000000
31
0.0
0
LINE
5
48c
100
AcDbEntity
8
0-0
6
CONTINUOUS
62
3
100
AcDbLine
10
306.210000000000
20
140.890000000000
30
0.0
11
340.290000000000
21
140.890000000000
31
0.0
0
LINE
5
48d
100
AcDbEntity
8
0-0
6
CONTINUOUS
62
3
100
AcDbLine
10
434.700000000000
20
141.000000000000
30
0.0
11
423.470000000000
21
152.640000000000
31
0.0
0
LINE
5
48e
100
AcDbEntity
8
0-0
6
CONTINUOUS
62
3
100
AcDbLine
10
423.470000000000
20
152.640000000000
30
0.0
11
409.090000000000
21
170.960000000000
31
0.0
0
LINE
5
48f
100
AcDbEntity
8
0-0
6
CONTINUOUS
62
3
100
AcDbLine
10
435.060000000000
20
141.350000000000
30
0.0
11
423.830000000000
21
152.990000000000
31
0.0
0
LINE
5
490
100
AcDbEntity
8
0-0
6
CONTINUOUS
62
3
100
AcDbLine
10
423.860000000000
20
152.950000000000
30
0.0
11
409.480000000000
21
171.270000000000
31
0.0
0
LINE
5
491
100
AcDbEntity
8
0-0
6
CONTINUOUS
62
3
100
AcDbLine
10
436.140000000000
20
140.390000000000
30
0.0
11
470.290000000000
21
140.390000000000
31
0.0
0
LINE
5
492
100
AcDbEntity
8
0-0
6
CONTINUOUS
62
3
100
AcDbLine
10
436.210000000000
20
140.890000000000
30
0.0
11
470.290000000000
21
140.890000000000
31
0.0
0
LINE
5
493
100
AcDbEntity
8
0-0
6
CONTINUOUS
62
3
100
AcDbLine
10
505.880000000000
20
141.000000000000
30
0.0
11
517.110000000000
21
152.640000000000
31
0.0
0
LINE
5
494
100
AcDbEntity
8
0-0
6
CONTINUOUS
62
3
100
AcDbLine
10
517.110000000000
20
152.640000000000
30
0.0
11
531.490000000000
21
170.960000000000
31
0.0
0
LINE
5
495
100
AcDbEntity
8
0-0
6
CONTINUOUS
62
3
100
AcDbLine
10
505.520000000000
20
141.350000000000
30
0.0
11
516.750000000000
21
152.990000000000
31
0.0
0
LINE
5
496
100
AcDbEntity
8
0-0
6
CONTINUOUS
62
3
100
AcDbLine
10
516.720000000000
20
152.950000000000
30
0.0
11
531.100000000000
21
171.270000000000
31
0.0
0
LINE
5
497
100
AcDbEntity
8
0-0
6
CONTINUOUS
62
3
100
AcDbLine
10
504.440000000000
20
140.390000000000
30
0.0
11
470.290000000000
21
140.390000000000
31
0.0
0
LINE
5
498
100
AcDbEntity
8
0-0
6
CONTINUOUS
62
3
100
AcDbLine
10
504.370000000000
20
140.890000000000
30
0.0
11
470.290000000000
21
140.890000000000
31
0.0
0
LINE
5
499
100
AcDbEntity
8
0-0
6
CONTINUOUS
62
3
100
AcDbLine
10
564.700000000000
20
141.000000000000
30
0.0
11
553.470000000000
21
152.640000000000
31
0.0
0
LINE
5
49a
100
AcDbEntity
8
0-0
6
CONTINUOUS
62
3
100
AcDbLine
10
553.470000000000
20
152.640000000000
30
0.0
11
539.090000000000
21
170.960000000000
31
0.0
0
LINE
5
49b
100
AcDbEntity
8
0-0
6
CONTINUOUS
62
3
100
AcDbLine
10
565.060000000000
20
141.350000000000
30
0.0
11
553.830000000000
21
152.990000000000
31
0.0
0
LINE
5
49c
100
AcDbEntity
8
0-0
6
CONTINUOUS
62
3
100
AcDbLine
10
553.860000000000
20
152.950000000000
30
0.0
11
539.480000000000
21
171.270000000000
31
0.0
0
LINE
5
49d
100
AcDbEntity
8
0-0
6
CONTINUOUS
62
3
100
AcDbLine
10
566.140000000000
20
140.390000000000
30
0.0
11
600.290000000000
21
140.390000000000
31
0.0
0
LINE
5
49e
100
AcDbEntity
8
0-0
6
CONTINUOUS
62
3
100
AcDbLine
10
566.210000000000
20
140.890000000000
30
0.0
11
600.290000000000
21
140.890000000000
31
0.0
0
LINE
5
49f
100
AcDbEntity
8
0-0
6
CONTINUOUS
62
3
100
AcDbLine
10
375.880000000000
20
141.000000000000
30
0.0
11
387.110000000000
21
152.640000000000
31
0.0
0
LINE
5
4a0
100
AcDbEntity
8
0-0
6
CONTINUOUS
62
3
100
AcDbLine
10
387.110000000000
20
152.640000000000
30
0.0
11
401.490000000000
21
170.960000000000
31
0.0
0
LINE
5
4a1
100
AcDbEntity
8
0-0
6
CONTINUOUS
62
3
100
AcDbLine
10
375.520000000000
20
141.350000000000
30
0.0
11
386.750000000000
21
152.990000000000
31
0.0
0
LINE
5
4a2
100
AcDbEntity
8
0-0
6
CONTINUOUS
62
3
100
AcDbLine
10
386.720000000000
20
152.950000000000
30
0.0
11
401.100000000000
21
171.270000000000
31
0.0
0
LINE
5
4a3
100
AcDbEntity
8
0-0
6
CONTINUOUS
62
3
100
AcDbLine
10
374.440000000000
20
140.390000000000
30
0.0
11
340.290000000000
21
140.390000000000
31
0.0
0
LINE
5
4a4
100
AcDbEntity
8
0-0
6
CONTINUOUS
62
3
100
AcDbLine
10
374.370000000000
20
140.890000000000
30
0.0
11
340.290000000000
21
140.890000000000
31
0.0
0
LINE
5
4a5
100
AcDbEntity
8
0-0
6
CONTINUOUS
62
7
100
AcDbLine
10
514.980000000000
20
139.610000000000
30
0.0
11
495.020000000000
21
120.270000000000
31
0.0
0
LINE
5
4a6
100
AcDbEntity
8
0-0
6
CONTINUOUS
62
7
100
AcDbLine
10
510.520000000000
20
144.070000000000
30
0.0
11
490.570000000000
21
124.720000000000
31
0.0
0
LINE
5
4a7
100
AcDbEntity
8
0-0
6
CONTINUOUS
62
7
100
AcDbLine
10
425.570000000000
20
139.610000000000
30
0.0
11
445.520000000000
21
120.270000000000
31
0.0
0
LINE
5
4a8
100
AcDbEntity
8
0-0
6
CONTINUOUS
62
7
100
AcDbLine
10
430.020000000000
20
144.070000000000
30
0.0
11
449.980000000000
21
124.720000000000
31
0.0
0
LINE
5
4a9
100
AcDbEntity
8
0-0
6
CONTINUOUS
62
7
100
AcDbLine
10
384.980000000000
20
139.610000000000
30
0.0
11
365.020000000000
21
120.270000000000
31
0.0
0
LINE
5
4aa
100
AcDbEntity
8
0-0
6
CONTINUOUS
62
7
100
AcDbLine
10
380.520000000000
20
144.070000000000
30
0.0
11
360.570000000000
21
124.720000000000
31
0.0
0
LINE
5
4ab
100
AcDbEntity
8
0-0
6
CONTINUOUS
62
7
100
AcDbLine
10
555.570000000000
20
139.610000000000
30
0.0
11
575.520000000000
21
120.270000000000
31
0.0
0
LINE
5
4ac
100
AcDbEntity
8
0-0
6
CONTINUOUS
62
7
100
AcDbLine
10
560.020000000000
20
144.070000000000
30
0.0
11
579.980000000000
21
124.720000000000
31
0.0
0
LINE
5
4ad
100
AcDbEntity
8
0-0
6
CONTINUOUS
62
7
100
AcDbLine
10
265.270000000000
20
154.940000000000
30
0.0
11
265.270000000000
21
152.860000000000
31
0.0
0
LINE
5
4ae
100
AcDbEntity
8
0-0
6
CONTINUOUS
62
7
100
AcDbLine
10
285.270000000000
20
154.940000000000
30
0.0
11
285.270000000000
21
152.860000000000
31
0.0
0
LINE
5
4af
100
AcDbEntity
8
0-0
6
CONTINUOUS
62
7
100
AcDbLine
10
272.030000000000
20
162.340000000000
30
0.0
11
278.510000000000
21
163.420000000000
31
0.0
0
LINE
5
4b0
100
AcDbEntity
8
0-0
6
CONTINUOUS
62
7
100
AcDbLine
10
272.030000000000
20
164.500000000000
30
0.0
11
278.510000000000
21
165.590000000000
31
0.0
0
LINE
5
4b1
100
AcDbEntity
8
0-0
6
CONTINUOUS
62
7
100
AcDbLine
10
272.570000000000
20
157.320000000000
30
0.0
11
272.570000000000
21
136.780000000000
31
0.0
0
LINE
5
4b2
100
AcDbEntity
8
0-0
6
CONTINUOUS
62
7
100
AcDbLine
10
273.070000000000
20
167.190000000000
30
0.0
11
277.470000000000
21
167.190000000000
31
0.0
0
LINE
5
4b3
100
AcDbEntity
8
0-0
6
CONTINUOUS
62
7
100
AcDbLine
10
277.470000000000
20
167.190000000000
30
0.0
11
277.470000000000
21
161.300000000000
31
0.0
0
LINE
5
4b4
100
AcDbEntity
8
0-0
6
CONTINUOUS
62
7
100
AcDbLine
10
273.070000000000
20
167.190000000000
30
0.0
11
273.070000000000
21
161.300000000000
31
0.0
0
LINE
5
4b5
100
AcDbEntity
8
0-0
6
CONTINUOUS
62
7
100
AcDbLine
10
210.270000000000
20
110.020000000000
30
0.0
11
272.570000000000
21
110.020000000000
31
0.0
0
LINE
5
4b6
100
AcDbEntity
8
0-0
6
CONTINUOUS
62
7
100
AcDbLine
10
277.970000000000
20
110.020000000000
30
0.0
11
600.270000000000
21
110.020000000000
31
0.0
0
LINE
5
4b7
100
AcDbEntity
8
0-0
6
CONTINUOUS
62
7
100
AcDbLine
10
210.270000000000
20
90.020000000000
30
0.0
11
272.570000000000
21
90.020000000000
31
0.0
0
LINE
5
4b8
100
AcDbEntity
8
0-0
6
CONTINUOUS
62
7
100
AcDbLine
10
277.970000000000
20
90.020000000000
30
0.0
11
600.270000000000
21
90.020000000000
31
0.0
0
LINE
5
4b9
100
AcDbEntity
8
0-0
6
CONTINUOUS
62
7
100
AcDbLine
10
272.570000000000
20
136.780000000000
30
0.0
11
272.570000000000
21
87.520000000000
31
0.0
0
LINE
5
4ba
100
AcDbEntity
8
0-0
6
CONTINUOUS
62
7
100
AcDbLine
10
277.970000000000
20
136.780000000000
30
0.0
11
277.970000000000
21
87.520000000000
31
0.0
0
LINE
5
4bb
100
AcDbEntity
8
0-0
6
CONTINUOUS
62
7
100
AcDbLine
10
397.270000000000
20
171.250000000000
30
0.0
11
399.630000000000
21
169.400000000000
31
0.0
0
LINE
5
4bc
100
AcDbEntity
8
0-0
6
CONTINUOUS
62
7
100
AcDbLine
10
395.270000000000
20
170.320000000000
30
0.0
11
396.060000000000
21
169.700000000000
31
0.0
0
LINE
5
4bd
100
AcDbEntity
8
0-0
6
CONTINUOUS
62
7
100
AcDbLine
10
413.270000000000
20
171.250000000000
30
0.0
11
410.910000000000
21
169.400000000000
31
0.0
0
LINE
5
4be
100
AcDbEntity
8
0-0
6
CONTINUOUS
62
7
100
AcDbLine
10
415.270000000000
20
170.320000000000
30
0.0
11
414.490000000000
21
169.700000000000
31
0.0
0
LINE
5
4bf
100
AcDbEntity
8
0-0
6
CONTINUOUS
62
7
100
AcDbLine
10
402.030000000000
20
118.690000000000
30
0.0
11
408.510000000000
21
119.770000000000
31
0.0
0
LINE
5
4c0
100
AcDbEntity
8
0-0
6
CONTINUOUS
62
7
100
AcDbLine
10
402.030000000000
20
120.850000000000
30
0.0
11
408.510000000000
21
121.940000000000
31
0.0
0
LINE
5
4c1
100
AcDbEntity
8
0-0
6
CONTINUOUS
62
7
100
AcDbLine
10
402.030000000000
20
125.180000000000
30
0.0
11
408.510000000000
21
126.260000000000
31
0.0
0
LINE
5
4c2
100
AcDbEntity
8
0-0
6
CONTINUOUS
62
7
100
AcDbLine
10
402.030000000000
20
123.020000000000
30
0.0
11
408.510000000000
21
124.100000000000
31
0.0
0
LINE
5
4c3
100
AcDbEntity
8
0-0
6
CONTINUOUS
62
7
100
AcDbLine
10
402.030000000000
20
127.340000000000
30
0.0
11
408.510000000000
21
128.420000000000
31
0.0
0
LINE
5
4c4
100
AcDbEntity
8
0-0
6
CONTINUOUS
62
7
100
AcDbLine
10
402.030000000000
20
129.500000000000
30
0.0
11
408.510000000000
21
130.580000000000
31
0.0
0
LINE
5
4c5
100
AcDbEntity
8
0-0
6
CONTINUOUS
62
7
100
AcDbLine
10
402.030000000000
20
131.660000000000
30
0.0
11
408.510000000000
21
132.750000000000
31
0.0
0
LINE
5
4c6
100
AcDbEntity
8
0-0
6
DOT
62
7
100
AcDbLine
10
402.030000000000
20
105.720000000000
30
0.0
11
408.510000000000
21
106.800000000000
31
0.0
0
LINE
5
4c7
100
AcDbEntity
8
0-0
6
DOT
62
7
100
AcDbLine
10
402.030000000000
20
107.880000000000
30
0.0
11
408.510000000000
21
108.960000000000
31
0.0
0
LINE
5
4c8
100
AcDbEntity
8
0-0
6
CONTINUOUS
62
7
100
AcDbLine
10
402.030000000000
20
112.210000000000
30
0.0
11
408.510000000000
21
113.290000000000
31
0.0
0
LINE
5
4c9
100
AcDbEntity
8
0-0
6
CONTINUOUS
62
7
100
AcDbLine
10
402.030000000000
20
110.050000000000
30
0.0
11
408.510000000000
21
111.130000000000
31
0.0
0
LINE
5
4ca
100
AcDbEntity
8
0-0
6
CONTINUOUS
62
7
100
AcDbLine
10
402.030000000000
20
114.370000000000
30
0.0
11
408.510000000000
21
115.450000000000
31
0.0
0
LINE
5
4cb
100
AcDbEntity
8
0-0
6
CONTINUOUS
62
7
100
AcDbLine
10
402.030000000000
20
116.530000000000
30
0.0
11
408.510000000000
21
117.610000000000
31
0.0
0
LINE
5
4cc
100
AcDbEntity
8
0-0
6
DOT
62
7
100
AcDbLine
10
402.030000000000
20
92.750000000000
30
0.0
11
408.510000000000
21
93.830000000000
31
0.0
0
LINE
5
4cd
100
AcDbEntity
8
0-0
6
DOT
62
7
100
AcDbLine
10
402.030000000000
20
94.910000000000
30
0.0
11
408.510000000000
21
95.990000000000
31
0.0
0
LINE
5
4ce
100
AcDbEntity
8
0-0
6
DOT
62
7
100
AcDbLine
10
402.030000000000
20
99.240000000000
30
0.0
11
408.510000000000
21
100.320000000000
31
0.0
0
LINE
5
4cf
100
AcDbEntity
8
0-0
6
DOT
62
7
100
AcDbLine
10
402.030000000000
20
97.070000000000
30
0.0
11
408.510000000000
21
98.150000000000
31
0.0
0
LINE
5
4d0
100
AcDbEntity
8
0-0
6
DOT
62
7
100
AcDbLine
10
402.030000000000
20
101.400000000000
30
0.0
11
408.510000000000
21
102.480000000000
31
0.0
0
LINE
5
4d1
100
AcDbEntity
8
0-0
6
DOT
62
7
100
AcDbLine
10
402.030000000000
20
103.560000000000
30
0.0
11
408.510000000000
21
104.640000000000
31
0.0
0
LINE
5
4d2
100
AcDbEntity
8
0-0
6
CONTINUOUS
62
7
100
AcDbLine
10
402.030000000000
20
79.780000000000
30
0.0
11
408.510000000000
21
80.860000000000
31
0.0
0
LINE
5
4d3
100
AcDbEntity
8
0-0
6
CONTINUOUS
62
7
100
AcDbLine
10
402.030000000000
20
81.940000000000
30
0.0
11
408.510000000000
21
83.020000000000
31
0.0
0
LINE
5
4d4
100
AcDbEntity
8
0-0
6
CONTINUOUS
62
7
100
AcDbLine
10
402.030000000000
20
86.260000000000
30
0.0
11
408.510000000000
21
87.340000000000
31
0.0
0
LINE
5
4d5
100
AcDbEntity
8
0-0
6
CONTINUOUS
62
7
100
AcDbLine
10
402.030000000000
20
84.100000000000
30
0.0
11
408.510000000000
21
85.180000000000
31
0.0
0
LINE
5
4d6
100
AcDbEntity
8
0-0
6
CONTINUOUS
62
7
100
AcDbLine
10
402.030000000000
20
88.430000000000
30
0.0
11
408.510000000000
21
89.510000000000
31
0.0
0
LINE
5
4d7
100
AcDbEntity
8
0-0
6
DOT
62
7
100
AcDbLine
10
402.030000000000
20
90.590000000000
30
0.0
11
408.510000000000
21
91.670000000000
31
0.0
0
LINE
5
4d8
100
AcDbEntity
8
0-0
6
CONTINUOUS
62
7
100
AcDbLine
10
402.030000000000
20
73.290000000000
30
0.0
11
408.510000000000
21
74.370000000000
31
0.0
0
LINE
5
4d9
100
AcDbEntity
8
0-0
6
CONTINUOUS
62
7
100
AcDbLine
10
402.030000000000
20
75.450000000000
30
0.0
11
408.510000000000
21
76.530000000000
31
0.0
0
LINE
5
4da
100
AcDbEntity
8
0-0
6
CONTINUOUS
62
7
100
AcDbLine
10
402.030000000000
20
77.620000000000
30
0.0
11
408.510000000000
21
78.700000000000
31
0.0
0
LINE
5
4db
100
AcDbEntity
8
0-0
6
CONTINUOUS
62
7
100
AcDbLine
10
400.280000000000
20
178.290000000000
30
0.0
11
400.280000000000
21
177.890000000000
31
0.0
0
LINE
5
4dc
100
AcDbEntity
8
0-0
6
CONTINUOUS
62
7
100
AcDbLine
10
402.570000000000
20
178.290000000000
30
0.0
11
402.570000000000
21
177.890000000000
31
0.0
0
LINE
5
4dd
100
AcDbEntity
8
0-0
6
CONTINUOUS
62
7
100
AcDbLine
10
407.980000000000
20
178.290000000000
30
0.0
11
407.980000000000
21
177.890000000000
31
0.0
0
LINE
5
4de
100
AcDbEntity
8
0-0
6
CONTINUOUS
62
7
100
AcDbLine
10
410.270000000000
20
178.290000000000
30
0.0
11
410.270000000000
21
177.890000000000
31
0.0
0
LINE
5
4df
100
AcDbEntity
8
0-0
6
CONTINUOUS
62
7
100
AcDbLine
10
395.270000000000
20
170.320000000000
30
0.0
11
398.000000000000
21
173.800000000000
31
0.0
0
LINE
5
4e0
100
AcDbEntity
8
0-0
6
CONTINUOUS
62
7
100
AcDbLine
10
396.060000000000
20
169.700000000000
30
0.0
11
398.780000000000
21
173.170000000000
31
0.0
0
LINE
5
4e1
100
AcDbEntity
8
0-0
6
CONTINUOUS
62
7
100
AcDbLine
10
397.660000000000
20
170.940000000000
30
0.0
11
399.170000000000
21
172.860000000000
31
0.0
0
LINE
5
4e2
100
AcDbEntity
8
0-0
6
CONTINUOUS
62
7
100
AcDbLine
10
398.060000000000
20
170.630000000000
30
0.0
11
399.560000000000
21
172.540000000000
31
0.0
0
LINE
5
4e3
100
AcDbEntity
8
0-0
6
CONTINUOUS
62
7
100
AcDbLine
10
398.450000000000
20
170.320000000000
30
0.0
11
399.950000000000
21
172.230000000000
31
0.0
0
LINE
5
4e4
100
AcDbEntity
8
0-0
6
CONTINUOUS
62
7
100
AcDbLine
10
398.840000000000
20
170.010000000000
30
0.0
11
400.330000000000
21
171.910000000000
31
0.0
0
LINE
5
4e5
100
AcDbEntity
8
0-0
6
CONTINUOUS
62
7
100
AcDbLine
10
399.240000000000
20
169.710000000000
30
0.0
11
400.720000000000
21
171.590000000000
31
0.0
0
LINE
5
4e6
100
AcDbEntity
8
0-0
6
CONTINUOUS
62
7
100
AcDbLine
10
412.880000000000
20
170.940000000000
30
0.0
11
411.370000000000
21
172.860000000000
31
0.0
0
LINE
5
4e7
100
AcDbEntity
8
0-0
6
CONTINUOUS
62
7
100
AcDbLine
10
412.490000000000
20
170.630000000000
30
0.0
11
410.990000000000
21
172.540000000000
31
0.0
0
LINE
5
4e8
100
AcDbEntity
8
0-0
6
CONTINUOUS
62
7
100
AcDbLine
10
412.090000000000
20
170.320000000000
30
0.0
11
410.600000000000
21
172.230000000000
31
0.0
0
LINE
5
4e9
100
AcDbEntity
8
0-0
6
CONTINUOUS
62
7
100
AcDbLine
10
411.700000000000
20
170.010000000000
30
0.0
11
410.210000000000
21
171.910000000000
31
0.0
0
LINE
5
4ea
100
AcDbEntity
8
0-0
6
CONTINUOUS
62
7
100
AcDbLine
10
411.310000000000
20
169.710000000000
30
0.0
11
409.820000000000
21
171.590000000000
31
0.0
0
LINE
5
4eb
100
AcDbEntity
8
0-0
6
CONTINUOUS
62
7
100
AcDbLine
10
415.270000000000
20
170.320000000000
30
0.0
11
412.540000000000
21
173.800000000000
31
0.0
0
LINE
5
4ec
100
AcDbEntity
8
0-0
6
CONTINUOUS
62
7
100
AcDbLine
10
414.490000000000
20
169.700000000000
30
0.0
11
411.760000000000
21
173.170000000000
31
0.0
0
LINE
5
4ed
100
AcDbEntity
8
0-0
6
CONTINUOUS
62
7
100
AcDbLine
10
407.980000000000
20
181.190000000000
30
0.0
11
410.120000000000
21
189.190000000000
31
0.0
0
LINE
5
4ee
100
AcDbEntity
8
0-0
6
CONTINUOUS
62
7
100
AcDbLine
10
407.980000000000
20
181.190000000000
30
0.0
11
413.830000000000
21
187.050000000000
31
0.0
0
LINE
5
4ef
100
AcDbEntity
8
0-0
6
CONTINUOUS
62
7
100
AcDbLine
10
407.980000000000
20
181.190000000000
30
0.0
11
421.120000000000
21
203.960000000000
31
0.0
0
LINE
5
4f0
100
AcDbEntity
8
0-0
6
CONTINUOUS
62
7
100
AcDbLine
10
422.880000000000
20
154.210000000000
30
0.0
11
425.020000000000
21
162.210000000000
31
0.0
0
LINE
5
4f1
100
AcDbEntity
8
0-0
6
CONTINUOUS
62
7
100
AcDbLine
10
422.880000000000
20
154.210000000000
30
0.0
11
428.730000000000
21
160.060000000000
31
0.0
0
LINE
5
4f2
100
AcDbEntity
8
0-0
6
CONTINUOUS
62
7
100
AcDbLine
10
407.980000000000
20
176.810000000000
30
0.0
11
407.980000000000
21
110.020000000000
31
0.0
0
LINE
5
4f3
100
AcDbEntity
8
0-0
6
CONTINUOUS
62
7
100
AcDbLine
10
402.570000000000
20
176.810000000000
30
0.0
11
402.570000000000
21
110.020000000000
31
0.0
0
LINE
5
4f4
100
AcDbEntity
8
0-0
6
CONTINUOUS
62
7
100
AcDbLine
10
407.980000000000
20
90.020000000000
30
0.0
11
407.980000000000
21
84.910000000000
31
0.0
0
LINE
5
4f5
100
AcDbEntity
8
0-0
6
CONTINUOUS
62
7
100
AcDbLine
10
402.570000000000
20
90.020000000000
30
0.0
11
402.570000000000
21
84.910000000000
31
0.0
0
LINE
5
4f6
100
AcDbEntity
8
0-0
6
DOT
62
7
100
AcDbLine
10
402.570000000000
20
110.020000000000
30
0.0
11
402.570000000000
21
90.020000000000
31
0.0
0
LINE
5
4f7
100
AcDbEntity
8
0-0
6
DOT
62
7
100
AcDbLine
10
407.980000000000
20
110.020000000000
30
0.0
11
407.980000000000
21
90.020000000000
31
0.0
0
LINE
5
4f8
100
AcDbEntity
8
0-0
6
CONTINUOUS
62
7
100
AcDbLine
10
277.970000000000
20
87.520000000000
30
0.0
11
280.120000000000
21
79.520000000000
31
0.0
0
LINE
5
4f9
100
AcDbEntity
8
0-0
6
CONTINUOUS
62
7
100
AcDbLine
10
277.970000000000
20
87.520000000000
30
0.0
11
283.830000000000
21
81.660000000000
31
0.0
0
LINE
5
4fa
100
AcDbEntity
8
0-0
6
CONTINUOUS
62
7
100
AcDbLine
10
277.970000000000
20
87.520000000000
30
0.0
11
285.280000000000
21
74.870000000000
31
0.0
0
LINE
5
4fb
100
AcDbEntity
8
0-0
6
CONTINUOUS
62
7
100
AcDbLine
10
502.350000000000
20
127.370000000000
30
0.0
11
504.490000000000
21
119.370000000000
31
0.0
0
LINE
5
4fc
100
AcDbEntity
8
0-0
6
CONTINUOUS
62
7
100
AcDbLine
10
502.350000000000
20
127.370000000000
30
0.0
11
508.210000000000
21
121.520000000000
31
0.0
0
LINE
5
4fd
100
AcDbEntity
8
0-0
6
CONTINUOUS
62
7
100
AcDbLine
10
428.630000000000
20
90.020000000000
30
0.0
11
430.780000000000
21
82.020000000000
31
0.0
0
LINE
5
4fe
100
AcDbEntity
8
0-0
6
CONTINUOUS
62
7
100
AcDbLine
10
428.630000000000
20
90.020000000000
30
0.0
11
434.490000000000
21
84.160000000000
31
0.0
0
LINE
5
4ff
100
AcDbEntity
8
0-0
6
CONTINUOUS
62
7
100
AcDbLine
10
502.350000000000
20
127.370000000000
30
0.0
11
532.310000000000
21
75.490000000000
31
0.0
0
LINE
5
500
100
AcDbEntity
8
0-0
6
CONTINUOUS
62
7
100
AcDbLine
10
428.630000000000
20
90.020000000000
30
0.0
11
437.020000000000
21
75.490000000000
31
0.0
0
LINE
5
501
100
AcDbEntity
8
F-F
6
CONTINUOUS
62
3
100
AcDbLine
10
35.860000000000
20
29.550000000000
30
0.0
11
35.860000000000
21
37.550000000000
31
0.0
0
LINE
5
502
100
AcDbEntity
8
F-F
6
CONTINUOUS
62
3
100
AcDbLine
10
35.860000000000
20
37.550000000000
30
0.0
11
43.860000000000
21
37.550000000000
31
0.0
0
LINE
5
503
100
AcDbEntity
8
F-F
6
CONTINUOUS
62
3
100
AcDbLine
10
43.860000000000
20
37.550000000000
30
0.0
11
43.860000000000
21
29.550000000000
31
0.0
0
LINE
5
504
100
AcDbEntity
8
F-F
6
CONTINUOUS
62
3
100
AcDbLine
10
43.860000000000
20
29.550000000000
30
0.0
11
35.860000000000
21
29.550000000000
31
0.0
0
LINE
5
505
100
AcDbEntity
8
F-F
6
CONTINUOUS
62
3
100
AcDbLine
10
36.660000000000
20
30.630000000000
30
0.0
11
36.660000000000
21
36.750000000000
31
0.0
0
LINE
5
506
100
AcDbEntity
8
F-F
6
CONTINUOUS
62
3
100
AcDbLine
10
43.060000000000
20
30.350000000000
30
0.0
11
36.940000000000
21
30.350000000000
31
0.0
0
LINE
5
507
100
AcDbEntity
8
F-F
6
CONTINUOUS
62
3
100
AcDbLine
10
36.660000000000
20
36.750000000000
30
0.0
11
42.770000000000
21
36.750000000000
31
0.0
0
LINE
5
508
100
AcDbEntity
8
F-F
6
CONTINUOUS
62
3
100
AcDbLine
10
42.770000000000
20
36.750000000000
30
0.0
11
36.660000000000
21
30.630000000000
31
0.0
0
LINE
5
509
100
AcDbEntity
8
F-F
6
CONTINUOUS
62
3
100
AcDbLine
10
43.060000000000
20
36.470000000000
30
0.0
11
36.940000000000
21
30.350000000000
31
0.0
0
LINE
5
50a
100
AcDbEntity
8
F-F
6
CONTINUOUS
62
3
100
AcDbLine
10
43.060000000000
20
36.470000000000
30
0.0
11
43.060000000000
21
30.350000000000
31
0.0
0
LINE
5
50b
100
AcDbEntity
8
F-F
6
CONTINUOUS
62
4
100
AcDbLine
10
35.860000000000
20
37.470000000000
30
0.0
11
43.860000000000
21
37.470000000000
31
0.0
0
LINE
5
50c
100
AcDbEntity
8
F-F
6
CONTINUOUS
62
4
100
AcDbLine
10
35.860000000000
20
37.310000000000
30
0.0
11
43.860000000000
21
37.310000000000
31
0.0
0
LINE
5
50d
100
AcDbEntity
8
F-F
6
CONTINUOUS
62
4
100
AcDbLine
10
35.860000000000
20
37.150000000000
30
0.0
11
43.860000000000
21
37.150000000000
31
0.0
0
LINE
5
50e
100
AcDbEntity
8
F-F
6
CONTINUOUS
62
4
100
AcDbLine
10
35.860000000000
20
36.990000000000
30
0.0
11
43.860000000000
21
36.990000000000
31
0.0
0
LINE
5
50f
100
AcDbEntity
8
F-F
6
CONTINUOUS
62
4
100
AcDbLine
10
35.860000000000
20
36.830000000000
30
0.0
11
43.860000000000
21
36.830000000000
31
0.0
0
LINE
5
510
100
AcDbEntity
8
F-F
6
CONTINUOUS
62
4
100
AcDbLine
10
35.860000000000
20
30.270000000000
30
0.0
11
43.860000000000
21
30.270000000000
31
0.0
0
LINE
5
511
100
AcDbEntity
8
F-F
6
CONTINUOUS
62
4
100
AcDbLine
10
35.860000000000
20
30.110000000000
30
0.0
11
43.860000000000
21
30.110000000000
31
0.0
0
LINE
5
512
100
AcDbEntity
8
F-F
6
CONTINUOUS
62
4
100
AcDbLine
10
35.860000000000
20
29.950000000000
30
0.0
11
43.860000000000
21
29.950000000000
31
0.0
0
LINE
5
513
100
AcDbEntity
8
F-F
6
CONTINUOUS
62
4
100
AcDbLine
10
35.860000000000
20
29.790000000000
30
0.0
11
43.860000000000
21
29.790000000000
31
0.0
0
LINE
5
514
100
AcDbEntity
8
F-F
6
CONTINUOUS
62
4
100
AcDbLine
10
35.860000000000
20
29.630000000000
30
0.0
11
43.860000000000
21
29.630000000000
31
0.0
0
LINE
5
515
100
AcDbEntity
8
F-F
6
CONTINUOUS
62
4
100
AcDbLine
10
35.860000000000
20
30.750000000000
30
0.0
11
36.660000000000
21
30.750000000000
31
0.0
0
LINE
5
516
100
AcDbEntity
8
F-F
6
CONTINUOUS
62
4
100
AcDbLine
10
35.860000000000
20
30.910000000000
30
0.0
11
36.660000000000
21
30.910000000000
31
0.0
0
LINE
5
517
100
AcDbEntity
8
F-F
6
CONTINUOUS
62
4
100
AcDbLine
10
35.860000000000
20
31.070000000000
30
0.0
11
36.660000000000
21
31.070000000000
31
0.0
0
LINE
5
518
100
AcDbEntity
8
F-F
6
CONTINUOUS
62
4
100
AcDbLine
10
35.860000000000
20
31.230000000000
30
0.0
11
36.660000000000
21
31.230000000000
31
0.0
0
LINE
5
519
100
AcDbEntity
8
F-F
6
CONTINUOUS
62
4
100
AcDbLine
10
35.860000000000
20
31.390000000000
30
0.0
11
36.660000000000
21
31.390000000000
31
0.0
0
LINE
5
51a
100
AcDbEntity
8
F-F
6
CONTINUOUS
62
4
100
AcDbLine
10
35.860000000000
20
31.550000000000
30
0.0
11
36.660000000000
21
31.550000000000
31
0.0
0
LINE
5
51b
100
AcDbEntity
8
F-F
6
CONTINUOUS
62
4
100
AcDbLine
10
35.860000000000
20
31.710000000000
30
0.0
11
36.660000000000
21
31.710000000000
31
0.0
0
LINE
5
51c
100
AcDbEntity
8
F-F
6
CONTINUOUS
62
4
100
AcDbLine
10
35.860000000000
20
31.870000000000
30
0.0
11
36.660000000000
21
31.870000000000
31
0.0
0
LINE
5
51d
100
AcDbEntity
8
F-F
6
CONTINUOUS
62
4
100
AcDbLine
10
35.860000000000
20
32.030000000000
30
0.0
11
36.660000000000
21
32.030000000000
31
0.0
0
LINE
5
51e
100
AcDbEntity
8
F-F
6
CONTINUOUS
62
4
100
AcDbLine
10
35.860000000000
20
32.190000000000
30
0.0
11
36.660000000000
21
32.190000000000
31
0.0
0
LINE
5
51f
100
AcDbEntity
8
F-F
6
CONTINUOUS
62
4
100
AcDbLine
10
35.860000000000
20
32.350000000000
30
0.0
11
36.660000000000
21
32.350000000000
31
0.0
0
LINE
5
520
100
AcDbEntity
8
F-F
6
CONTINUOUS
62
4
100
AcDbLine
10
35.860000000000
20
32.510000000000
30
0.0
11
36.660000000000
21
32.510000000000
31
0.0
0
LINE
5
521
100
AcDbEntity
8
F-F
6
CONTINUOUS
62
4
100
AcDbLine
10
35.860000000000
20
32.670000000000
30
0.0
11
36.660000000000
21
32.670000000000
31
0.0
0
LINE
5
522
100
AcDbEntity
8
F-F
6
CONTINUOUS
62
4
100
AcDbLine
10
35.860000000000
20
32.830000000000
30
0.0
11
36.660000000000
21
32.830000000000
31
0.0
0
LINE
5
523
100
AcDbEntity
8
F-F
6
CONTINUOUS
62
4
100
AcDbLine
10
35.860000000000
20
32.990000000000
30
0.0
11
36.660000000000
21
32.990000000000
31
0.0
0
LINE
5
524
100
AcDbEntity
8
F-F
6
CONTINUOUS
62
4
100
AcDbLine
10
35.860000000000
20
33.150000000000
30
0.0
11
36.660000000000
21
33.150000000000
31
0.0
0
LINE
5
525
100
AcDbEntity
8
F-F
6
CONTINUOUS
62
4
100
AcDbLine
10
35.860000000000
20
33.310000000000
30
0.0
11
36.660000000000
21
33.310000000000
31
0.0
0
LINE
5
526
100
AcDbEntity
8
F-F
6
CONTINUOUS
62
4
100
AcDbLine
10
35.860000000000
20
33.470000000000
30
0.0
11
36.660000000000
21
33.470000000000
31
0.0
0
LINE
5
527
100
AcDbEntity
8
F-F
6
CONTINUOUS
62
4
100
AcDbLine
10
35.860000000000
20
33.630000000000
30
0.0
11
36.660000000000
21
33.630000000000
31
0.0
0
LINE
5
528
100
AcDbEntity
8
F-F
6
CONTINUOUS
62
4
100
AcDbLine
10
35.860000000000
20
33.790000000000
30
0.0
11
36.660000000000
21
33.790000000000
31
0.0
0
LINE
5
529
100
AcDbEntity
8
F-F
6
CONTINUOUS
62
4
100
AcDbLine
10
35.860000000000
20
33.950000000000
30
0.0
11
36.660000000000
21
33.950000000000
31
0.0
0
LINE
5
52a
100
AcDbEntity
8
F-F
6
CONTINUOUS
62
4
100
AcDbLine
10
35.860000000000
20
34.110000000000
30
0.0
11
36.660000000000
21
34.110000000000
31
0.0
0
LINE
5
52b
100
AcDbEntity
8
F-F
6
CONTINUOUS
62
4
100
AcDbLine
10
35.860000000000
20
34.270000000000
30
0.0
11
36.660000000000
21
34.270000000000
31
0.0
0
LINE
5
52c
100
AcDbEntity
8
F-F
6
CONTINUOUS
62
4
100
AcDbLine
10
35.860000000000
20
34.430000000000
30
0.0
11
36.660000000000
21
34.430000000000
31
0.0
0
LINE
5
52d
100
AcDbEntity
8
F-F
6
CONTINUOUS
62
4
100
AcDbLine
10
35.860000000000
20
34.910000000000
30
0.0
11
36.660000000000
21
34.910000000000
31
0.0
0
LINE
5
52e
100
AcDbEntity
8
F-F
6
CONTINUOUS
62
4
100
AcDbLine
10
35.860000000000
20
35.390000000000
30
0.0
11
36.660000000000
21
35.390000000000
31
0.0
0
LINE
5
52f
100
AcDbEntity
8
F-F
6
CONTINUOUS
62
4
100
AcDbLine
10
35.860000000000
20
35.550000000000
30
0.0
11
36.660000000000
21
35.550000000000
31
0.0
0
LINE
5
530
100
AcDbEntity
8
F-F
6
CONTINUOUS
62
4
100
AcDbLine
10
35.860000000000
20
35.710000000000
30
0.0
11
36.660000000000
21
35.710000000000
31
0.0
0
LINE
5
531
100
AcDbEntity
8
F-F
6
CONTINUOUS
62
4
100
AcDbLine
10
35.860000000000
20
35.870000000000
30
0.0
11
36.660000000000
21
35.870000000000
31
0.0
0
LINE
5
532
100
AcDbEntity
8
F-F
6
CONTINUOUS
62
4
100
AcDbLine
10
35.860000000000
20
36.670000000000
30
0.0
11
36.660000000000
21
36.670000000000
31
0.0
0
LINE
5
533
100
AcDbEntity
8
F-F
6
CONTINUOUS
62
4
100
AcDbLine
10
35.860000000000
20
36.510000000000
30
0.0
11
36.660000000000
21
36.510000000000
31
0.0
0
LINE
5
534
100
AcDbEntity
8
F-F
6
CONTINUOUS
62
4
100
AcDbLine
10
35.860000000000
20
36.350000000000
30
0.0
11
36.660000000000
21
36.350000000000
31
0.0
0
LINE
5
535
100
AcDbEntity
8
F-F
6
CONTINUOUS
62
4
100
AcDbLine
10
35.860000000000
20
36.190000000000
30
0.0
11
36.660000000000
21
36.190000000000
31
0.0
0
LINE
5
536
100
AcDbEntity
8
F-F
6
CONTINUOUS
62
4
100
AcDbLine
10
35.860000000000
20
36.030000000000
30
0.0
11
36.660000000000
21
36.030000000000
31
0.0
0
LINE
5
537
100
AcDbEntity
8
F-F
6
CONTINUOUS
62
4
100
AcDbLine
10
35.860000000000
20
35.070000000000
30
0.0
11
36.660000000000
21
35.070000000000
31
0.0
0
LINE
5
538
100
AcDbEntity
8
F-F
6
CONTINUOUS
62
4
100
AcDbLine
10
35.860000000000
20
35.230000000000
30
0.0
11
36.660000000000
21
35.230000000000
31
0.0
0
LINE
5
539
100
AcDbEntity
8
F-F
6
CONTINUOUS
62
4
100
AcDbLine
10
35.860000000000
20
34.750000000000
30
0.0
11
36.660000000000
21
34.750000000000
31
0.0
0
LINE
5
53a
100
AcDbEntity
8
F-F
6
CONTINUOUS
62
4
100
AcDbLine
10
35.860000000000
20
34.590000000000
30
0.0
11
36.660000000000
21
34.590000000000
31
0.0
0
LINE
5
53b
100
AcDbEntity
8
F-F
6
CONTINUOUS
62
4
100
AcDbLine
10
36.930000000000
20
30.910000000000
30
0.0
11
37.500000000000
21
30.910000000000
31
0.0
0
LINE
5
53c
100
AcDbEntity
8
F-F
6
CONTINUOUS
62
4
100
AcDbLine
10
36.770000000000
20
30.750000000000
30
0.0
11
37.340000000000
21
30.750000000000
31
0.0
0
LINE
5
53d
100
AcDbEntity
8
F-F
6
CONTINUOUS
62
4
100
AcDbLine
10
35.860000000000
20
30.590000000000
30
0.0
11
37.180000000000
21
30.590000000000
31
0.0
0
LINE
5
53e
100
AcDbEntity
8
F-F
6
CONTINUOUS
62
4
100
AcDbLine
10
35.860000000000
20
30.430000000000
30
0.0
11
37.020000000000
21
30.430000000000
31
0.0
0
LINE
5
53f
100
AcDbEntity
8
F-F
6
CONTINUOUS
62
4
100
AcDbLine
10
37.890000000000
20
31.870000000000
30
0.0
11
38.460000000000
21
31.870000000000
31
0.0
0
LINE
5
540
100
AcDbEntity
8
F-F
6
CONTINUOUS
62
4
100
AcDbLine
10
37.730000000000
20
31.710000000000
30
0.0
11
38.300000000000
21
31.710000000000
31
0.0
0
LINE
5
541
100
AcDbEntity
8
F-F
6
CONTINUOUS
62
4
100
AcDbLine
10
37.570000000000
20
31.550000000000
30
0.0
11
38.140000000000
21
31.550000000000
31
0.0
0
LINE
5
542
100
AcDbEntity
8
F-F
6
CONTINUOUS
62
4
100
AcDbLine
10
37.420000000000
20
31.390000000000
30
0.0
11
37.980000000000
21
31.390000000000
31
0.0
0
LINE
5
543
100
AcDbEntity
8
F-F
6
CONTINUOUS
62
4
100
AcDbLine
10
37.250000000000
20
31.230000000000
30
0.0
11
37.820000000000
21
31.230000000000
31
0.0
0
LINE
5
544
100
AcDbEntity
8
F-F
6
CONTINUOUS
62
4
100
AcDbLine
10
37.090000000000
20
31.070000000000
30
0.0
11
37.660000000000
21
31.070000000000
31
0.0
0
LINE
5
545
100
AcDbEntity
8
F-F
6
CONTINUOUS
62
4
100
AcDbLine
10
36.660000000000
20
36.750000000000
30
0.0
11
36.660000000000
21
36.910000000000
31
0.0
0
LINE
5
546
100
AcDbEntity
8
F-F
6
CONTINUOUS
62
4
100
AcDbLine
10
43.060000000000
20
30.750000000000
30
0.0
11
43.860000000000
21
30.750000000000
31
0.0
0
LINE
5
547
100
AcDbEntity
8
F-F
6
CONTINUOUS
62
4
100
AcDbLine
10
43.060000000000
20
30.910000000000
30
0.0
11
43.860000000000
21
30.910000000000
31
0.0
0
LINE
5
548
100
AcDbEntity
8
F-F
6
CONTINUOUS
62
4
100
AcDbLine
10
43.060000000000
20
31.070000000000
30
0.0
11
43.860000000000
21
31.070000000000
31
0.0
0
LINE
5
549
100
AcDbEntity
8
F-F
6
CONTINUOUS
62
4
100
AcDbLine
10
43.060000000000
20
31.230000000000
30
0.0
11
43.860000000000
21
31.230000000000
31
0.0
0
LINE
5
54a
100
AcDbEntity
8
F-F
6
CONTINUOUS
62
4
100
AcDbLine
10
43.060000000000
20
31.390000000000
30
0.0
11
43.860000000000
21
31.390000000000
31
0.0
0
LINE
5
54b
100
AcDbEntity
8
F-F
6
CONTINUOUS
62
4
100
AcDbLine
10
43.060000000000
20
31.550000000000
30
0.0
11
43.860000000000
21
31.550000000000
31
0.0
0
LINE
5
54c
100
AcDbEntity
8
F-F
6
CONTINUOUS
62
4
100
AcDbLine
10
43.060000000000
20
31.710000000000
30
0.0
11
43.860000000000
21
31.710000000000
31
0.0
0
LINE
5
54d
100
AcDbEntity
8
F-F
6
CONTINUOUS
62
4
100
AcDbLine
10
43.060000000000
20
31.870000000000
30
0.0
11
43.860000000000
21
31.870000000000
31
0.0
0
LINE
5
54e
100
AcDbEntity
8
F-F
6
CONTINUOUS
62
4
100
AcDbLine
10
43.060000000000
20
32.030000000000
30
0.0
11
43.860000000000
21
32.030000000000
31
0.0
0
LINE
5
54f
100
AcDbEntity
8
F-F
6
CONTINUOUS
62
4
100
AcDbLine
10
43.060000000000
20
32.190000000000
30
0.0
11
43.860000000000
21
32.190000000000
31
0.0
0
LINE
5
550
100
AcDbEntity
8
F-F
6
CONTINUOUS
62
4
100
AcDbLine
10
43.060000000000
20
32.350000000000
30
0.0
11
43.860000000000
21
32.350000000000
31
0.0
0
LINE
5
551
100
AcDbEntity
8
F-F
6
CONTINUOUS
62
4
100
AcDbLine
10
43.060000000000
20
32.510000000000
30
0.0
11
43.860000000000
21
32.510000000000
31
0.0
0
LINE
5
552
100
AcDbEntity
8
F-F
6
CONTINUOUS
62
4
100
AcDbLine
10
43.060000000000
20
32.670000000000
30
0.0
11
43.860000000000
21
32.670000000000
31
0.0
0
LINE
5
553
100
AcDbEntity
8
F-F
6
CONTINUOUS
62
4
100
AcDbLine
10
43.060000000000
20
32.990000000000
30
0.0
11
43.860000000000
21
32.990000000000
31
0.0
0
LINE
5
554
100
AcDbEntity
8
F-F
6
CONTINUOUS
62
4
100
AcDbLine
10
43.060000000000
20
33.150000000000
30
0.0
11
43.860000000000
21
33.150000000000
31
0.0
0
LINE
5
555
100
AcDbEntity
8
F-F
6
CONTINUOUS
62
4
100
AcDbLine
10
43.060000000000
20
33.310000000000
30
0.0
11
43.860000000000
21
33.310000000000
31
0.0
0
LINE
5
556
100
AcDbEntity
8
F-F
6
CONTINUOUS
62
4
100
AcDbLine
10
43.060000000000
20
33.470000000000
30
0.0
11
43.860000000000
21
33.470000000000
31
0.0
0
LINE
5
557
100
AcDbEntity
8
F-F
6
CONTINUOUS
62
4
100
AcDbLine
10
43.060000000000
20
33.630000000000
30
0.0
11
43.860000000000
21
33.630000000000
31
0.0
0
LINE
5
558
100
AcDbEntity
8
F-F
6
CONTINUOUS
62
4
100
AcDbLine
10
43.060000000000
20
33.790000000000
30
0.0
11
43.860000000000
21
33.790000000000
31
0.0
0
LINE
5
559
100
AcDbEntity
8
F-F
6
CONTINUOUS
62
4
100
AcDbLine
10
43.060000000000
20
33.950000000000
30
0.0
11
43.860000000000
21
33.950000000000
31
0.0
0
LINE
5
55a
100
AcDbEntity
8
F-F
6
CONTINUOUS
62
4
100
AcDbLine
10
43.060000000000
20
34.110000000000
30
0.0
11
43.860000000000
21
34.110000000000
31
0.0
0
LINE
5
55b
100
AcDbEntity
8
F-F
6
CONTINUOUS
62
4
100
AcDbLine
10
43.060000000000
20
34.270000000000
30
0.0
11
43.860000000000
21
34.270000000000
31
0.0
0
LINE
5
55c
100
AcDbEntity
8
F-F
6
CONTINUOUS
62
4
100
AcDbLine
10
43.060000000000
20
34.430000000000
30
0.0
11
43.860000000000
21
34.430000000000
31
0.0
0
LINE
5
55d
100
AcDbEntity
8
F-F
6
CONTINUOUS
62
4
100
AcDbLine
10
43.060000000000
20
34.910000000000
30
0.0
11
43.860000000000
21
34.910000000000
31
0.0
0
LINE
5
55e
100
AcDbEntity
8
F-F
6
CONTINUOUS
62
4
100
AcDbLine
10
43.060000000000
20
35.390000000000
30
0.0
11
43.860000000000
21
35.390000000000
31
0.0
0
LINE
5
55f
100
AcDbEntity
8
F-F
6
CONTINUOUS
62
4
100
AcDbLine
10
43.060000000000
20
35.550000000000
30
0.0
11
43.860000000000
21
35.550000000000
31
0.0
0
LINE
5
560
100
AcDbEntity
8
F-F
6
CONTINUOUS
62
4
100
AcDbLine
10
43.060000000000
20
35.710000000000
30
0.0
11
43.860000000000
21
35.710000000000
31
0.0
0
LINE
5
561
100
AcDbEntity
8
F-F
6
CONTINUOUS
62
4
100
AcDbLine
10
43.060000000000
20
35.870000000000
30
0.0
11
43.860000000000
21
35.870000000000
31
0.0
0
LINE
5
562
100
AcDbEntity
8
F-F
6
CONTINUOUS
62
4
100
AcDbLine
10
43.060000000000
20
36.350000000000
30
0.0
11
43.860000000000
21
36.350000000000
31
0.0
0
LINE
5
563
100
AcDbEntity
8
F-F
6
CONTINUOUS
62
4
100
AcDbLine
10
43.060000000000
20
36.190000000000
30
0.0
11
43.860000000000
21
36.190000000000
31
0.0
0
LINE
5
564
100
AcDbEntity
8
F-F
6
CONTINUOUS
62
4
100
AcDbLine
10
43.060000000000
20
36.030000000000
30
0.0
11
43.860000000000
21
36.030000000000
31
0.0
0
LINE
5
565
100
AcDbEntity
8
F-F
6
CONTINUOUS
62
4
100
AcDbLine
10
43.060000000000
20
35.070000000000
30
0.0
11
43.860000000000
21
35.070000000000
31
0.0
0
LINE
5
566
100
AcDbEntity
8
F-F
6
CONTINUOUS
62
4
100
AcDbLine
10
43.060000000000
20
35.230000000000
30
0.0
11
43.860000000000
21
35.230000000000
31
0.0
0
LINE
5
567
100
AcDbEntity
8
F-F
6
CONTINUOUS
62
4
100
AcDbLine
10
43.060000000000
20
34.750000000000
30
0.0
11
43.860000000000
21
34.750000000000
31
0.0
0
LINE
5
568
100
AcDbEntity
8
F-F
6
CONTINUOUS
62
4
100
AcDbLine
10
43.060000000000
20
34.590000000000
30
0.0
11
43.860000000000
21
34.590000000000
31
0.0
0
LINE
5
569
100
AcDbEntity
8
F-F
6
CONTINUOUS
62
4
100
AcDbLine
10
43.060000000000
20
30.430000000000
30
0.0
11
43.860000000000
21
30.430000000000
31
0.0
0
LINE
5
56a
100
AcDbEntity
8
F-F
6
CONTINUOUS
62
4
100
AcDbLine
10
43.060000000000
20
30.590000000000
30
0.0
11
43.860000000000
21
30.590000000000
31
0.0
0
LINE
5
56b
100
AcDbEntity
8
F-F
6
CONTINUOUS
62
4
100
AcDbLine
10
42.690000000000
20
36.670000000000
30
0.0
11
43.860000000000
21
36.670000000000
31
0.0
0
LINE
5
56c
100
AcDbEntity
8
F-F
6
CONTINUOUS
62
4
100
AcDbLine
10
42.530000000000
20
36.510000000000
30
0.0
11
43.860000000000
21
36.510000000000
31
0.0
0
LINE
5
56d
100
AcDbEntity
8
F-F
6
CONTINUOUS
62
4
100
AcDbLine
10
38.530000000000
20
32.510000000000
30
0.0
11
39.100000000000
21
32.510000000000
31
0.0
0
LINE
5
56e
100
AcDbEntity
8
F-F
6
CONTINUOUS
62
4
100
AcDbLine
10
38.370000000000
20
32.350000000000
30
0.0
11
38.940000000000
21
32.350000000000
31
0.0
0
LINE
5
56f
100
AcDbEntity
8
F-F
6
CONTINUOUS
62
4
100
AcDbLine
10
38.210000000000
20
32.190000000000
30
0.0
11
38.780000000000
21
32.190000000000
31
0.0
0
LINE
5
570
100
AcDbEntity
8
F-F
6
CONTINUOUS
62
4
100
AcDbLine
10
38.050000000000
20
32.030000000000
30
0.0
11
38.620000000000
21
32.030000000000
31
0.0
0
LINE
5
571
100
AcDbEntity
8
F-F
6
CONTINUOUS
62
4
100
AcDbLine
10
39.170000000000
20
33.150000000000
30
0.0
11
39.740000000000
21
33.150000000000
31
0.0
0
LINE
5
572
100
AcDbEntity
8
F-F
6
CONTINUOUS
62
4
100
AcDbLine
10
39.010000000000
20
32.990000000000
30
0.0
11
39.580000000000
21
32.990000000000
31
0.0
0
LINE
5
573
100
AcDbEntity
8
F-F
6
CONTINUOUS
62
4
100
AcDbLine
10
38.850000000000
20
32.830000000000
30
0.0
11
39.420000000000
21
32.830000000000
31
0.0
0
LINE
5
574
100
AcDbEntity
8
F-F
6
CONTINUOUS
62
4
100
AcDbLine
10
38.690000000000
20
32.670000000000
30
0.0
11
39.260000000000
21
32.670000000000
31
0.0
0
LINE
5
575
100
AcDbEntity
8
F-F
6
CONTINUOUS
62
4
100
AcDbLine
10
39.810000000000
20
33.790000000000
30
0.0
11
40.380000000000
21
33.790000000000
31
0.0
0
LINE
5
576
100
AcDbEntity
8
F-F
6
CONTINUOUS
62
4
100
AcDbLine
10
39.650000000000
20
33.630000000000
30
0.0
11
40.220000000000
21
33.630000000000
31
0.0
0
LINE
5
577
100
AcDbEntity
8
F-F
6
CONTINUOUS
62
4
100
AcDbLine
10
39.490000000000
20
33.470000000000
30
0.0
11
40.060000000000
21
33.470000000000
31
0.0
0
LINE
5
578
100
AcDbEntity
8
F-F
6
CONTINUOUS
62
4
100
AcDbLine
10
39.330000000000
20
33.310000000000
30
0.0
11
39.900000000000
21
33.310000000000
31
0.0
0
LINE
5
579
100
AcDbEntity
8
F-F
6
CONTINUOUS
62
4
100
AcDbLine
10
40.450000000000
20
34.430000000000
30
0.0
11
41.020000000000
21
34.430000000000
31
0.0
0
LINE
5
57a
100
AcDbEntity
8
F-F
6
CONTINUOUS
62
4
100
AcDbLine
10
40.290000000000
20
34.270000000000
30
0.0
11
40.860000000000
21
34.270000000000
31
0.0
0
LINE
5
57b
100
AcDbEntity
8
F-F
6
CONTINUOUS
62
4
100
AcDbLine
10
40.130000000000
20
34.110000000000
30
0.0
11
40.700000000000
21
34.110000000000
31
0.0
0
LINE
5
57c
100
AcDbEntity
8
F-F
6
CONTINUOUS
62
4
100
AcDbLine
10
39.970000000000
20
33.950000000000
30
0.0
11
40.540000000000
21
33.950000000000
31
0.0
0
LINE
5
57d
100
AcDbEntity
8
F-F
6
CONTINUOUS
62
4
100
AcDbLine
10
41.090000000000
20
35.070000000000
30
0.0
11
41.660000000000
21
35.070000000000
31
0.0
0
LINE
5
57e
100
AcDbEntity
8
F-F
6
CONTINUOUS
62
4
100
AcDbLine
10
40.930000000000
20
34.910000000000
30
0.0
11
41.500000000000
21
34.910000000000
31
0.0
0
LINE
5
57f
100
AcDbEntity
8
F-F
6
CONTINUOUS
62
4
100
AcDbLine
10
40.770000000000
20
34.750000000000
30
0.0
11
41.340000000000
21
34.750000000000
31
0.0
0
LINE
5
580
100
AcDbEntity
8
F-F
6
CONTINUOUS
62
4
100
AcDbLine
10
40.610000000000
20
34.590000000000
30
0.0
11
41.180000000000
21
34.590000000000
31
0.0
0
LINE
5
581
100
AcDbEntity
8
F-F
6
CONTINUOUS
62
4
100
AcDbLine
10
41.730000000000
20
35.710000000000
30
0.0
11
42.300000000000
21
35.710000000000
31
0.0
0
LINE
5
582
100
AcDbEntity
8
F-F
6
CONTINUOUS
62
4
100
AcDbLine
10
41.570000000000
20
35.550000000000
30
0.0
11
42.140000000000
21
35.550000000000
31
0.0
0
LINE
5
583
100
AcDbEntity
8
F-F
6
CONTINUOUS
62
4
100
AcDbLine
10
41.410000000000
20
35.390000000000
30
0.0
11
41.980000000000
21
35.390000000000
31
0.0
0
LINE
5
584
100
AcDbEntity
8
F-F
6
CONTINUOUS
62
4
100
AcDbLine
10
41.250000000000
20
35.230000000000
30
0.0
11
41.820000000000
21
35.230000000000
31
0.0
0
LINE
5
585
100
AcDbEntity
8
F-F
6
CONTINUOUS
62
4
100
AcDbLine
10
42.370000000000
20
36.350000000000
30
0.0
11
42.940000000000
21
36.350000000000
31
0.0
0
LINE
5
586
100
AcDbEntity
8
F-F
6
CONTINUOUS
62
4
100
AcDbLine
10
42.210000000000
20
36.190000000000
30
0.0
11
42.780000000000
21
36.190000000000
31
0.0
0
LINE
5
587
100
AcDbEntity
8
F-F
6
CONTINUOUS
62
4
100
AcDbLine
10
42.050000000000
20
36.030000000000
30
0.0
11
42.620000000000
21
36.030000000000
31
0.0
0
LINE
5
588
100
AcDbEntity
8
F-F
6
CONTINUOUS
62
4
100
AcDbLine
10
41.890000000000
20
35.870000000000
30
0.0
11
42.460000000000
21
35.870000000000
31
0.0
0
LINE
5
589
100
AcDbEntity
8
F-F
6
CONTINUOUS
62
4
100
AcDbLine
10
43.060000000000
20
32.830000000000
30
0.0
11
43.860000000000
21
32.830000000000
31
0.0
0
LINE
5
58a
100
AcDbEntity
8
0-0
6
CONTINUOUS
62
7
100
AcDbLine
10
422.880000000000
20
154.210000000000
30
0.0
11
437.060000000000
21
178.770000000000
31
0.0
0
LINE
5
58b
100
AcDbEntity
8
0-0
6
CONTINUOUS
62
7
100
AcDbLine
10
273.070000000000
20
167.190000000000
30
0.0
11
270.930000000000
21
175.190000000000
31
0.0
0
LINE
5
58c
100
AcDbEntity
8
0-0
6
CONTINUOUS
62
7
100
AcDbLine
10
273.070000000000
20
167.190000000000
30
0.0
11
267.220000000000
21
173.040000000000
31
0.0
0
LINE
5
58d
100
AcDbEntity
8
0-0
6
CONTINUOUS
62
7
100
AcDbLine
10
273.070000000000
20
167.190000000000
30
0.0
11
259.920000000000
21
189.960000000000
31
0.0
0
LINE
5
58e
100
AcDbEntity
8
0-0
6
CONTINUOUS
62
7
100
AcDbLine
10
270.280000000000
20
158.400000000000
30
0.0
11
280.260000000000
21
158.400000000000
31
0.0
0
LINE
5
58f
100
AcDbEntity
8
0-0
6
CONTINUOUS
62
7
100
AcDbLine
10
280.260000000000
20
158.400000000000
30
0.0
11
280.260000000000
21
161.300000000000
31
0.0
0
LINE
5
590
100
AcDbEntity
8
0-0
6
CONTINUOUS
62
7
100
AcDbLine
10
280.260000000000
20
161.300000000000
30
0.0
11
277.970000000000
21
161.300000000000
31
0.0
0
LINE
5
591
100
AcDbEntity
8
0-0
6
CONTINUOUS
62
7
100
AcDbLine
10
277.970000000000
20
161.300000000000
30
0.0
11
272.570000000000
21
161.300000000000
31
0.0
0
LINE
5
592
100
AcDbEntity
8
0-0
6
CONTINUOUS
62
7
100
AcDbLine
10
272.570000000000
20
161.300000000000
30
0.0
11
270.280000000000
21
161.300000000000
31
0.0
0
LINE
5
593
100
AcDbEntity
8
0-0
6
CONTINUOUS
62
7
100
AcDbLine
10
270.280000000000
20
161.300000000000
30
0.0
11
270.280000000000
21
158.400000000000
31
0.0
0
LINE
5
594
100
AcDbEntity
8
0-0
6
CONTINUOUS
62
7
100
AcDbLine
10
272.570000000000
20
161.300000000000
30
0.0
11
272.570000000000
21
158.400000000000
31
0.0
0
LINE
5
595
100
AcDbEntity
8
0-0
6
CONTINUOUS
62
7
100
AcDbLine
10
272.570000000000
20
158.400000000000
30
0.0
11
277.970000000000
21
158.400000000000
31
0.0
0
LINE
5
596
100
AcDbEntity
8
0-0
6
CONTINUOUS
62
7
100
AcDbLine
10
277.970000000000
20
158.400000000000
30
0.0
11
277.970000000000
21
161.300000000000
31
0.0
0
LINE
5
597
100
AcDbEntity
8
0-0
6
CONTINUOUS
62
7
100
AcDbLine
10
277.970000000000
20
136.780000000000
30
0.0
11
277.970000000000
21
157.320000000000
31
0.0
0
LINE
5
598
100
AcDbEntity
8
0-0
6
CONTINUOUS
62
7
100
AcDbLine
10
277.970000000000
20
157.320000000000
30
0.0
11
272.570000000000
21
157.320000000000
31
0.0
0
LINE
5
599
100
AcDbEntity
8
0-0
6
CONTINUOUS
62
7
100
AcDbLine
10
268.790000000000
20
157.320000000000
30
0.0
11
281.760000000000
21
157.320000000000
31
0.0
0
LINE
5
59a
100
AcDbEntity
8
0-0
6
CONTINUOUS
62
7
100
AcDbLine
10
281.760000000000
20
157.320000000000
30
0.0
11
281.760000000000
21
158.400000000000
31
0.0
0
LINE
5
59b
100
AcDbEntity
8
0-0
6
CONTINUOUS
62
7
100
AcDbLine
10
281.760000000000
20
158.400000000000
30
0.0
11
268.790000000000
21
158.400000000000
31
0.0
0
LINE
5
59c
100
AcDbEntity
8
0-0
6
CONTINUOUS
62
7
100
AcDbLine
10
268.790000000000
20
158.400000000000
30
0.0
11
268.790000000000
21
157.320000000000
31
0.0
0
LINE
5
59d
100
AcDbEntity
8
0-0
6
CONTINUOUS
62
7
100
AcDbLine
10
398.790000000000
20
176.810000000000
30
0.0
11
411.760000000000
21
176.810000000000
31
0.0
0
LINE
5
59e
100
AcDbEntity
8
0-0
6
CONTINUOUS
62
7
100
AcDbLine
10
411.760000000000
20
176.810000000000
30
0.0
11
411.760000000000
21
177.890000000000
31
0.0
0
LINE
5
59f
100
AcDbEntity
8
0-0
6
CONTINUOUS
62
7
100
AcDbLine
10
411.760000000000
20
177.890000000000
30
0.0
11
398.790000000000
21
177.890000000000
31
0.0
0
LINE
5
5a0
100
AcDbEntity
8
0-0
6
CONTINUOUS
62
7
100
AcDbLine
10
398.790000000000
20
177.890000000000
30
0.0
11
398.790000000000
21
176.810000000000
31
0.0
0
LINE
5
5a1
100
AcDbEntity
8
0-0
6
CONTINUOUS
62
7
100
AcDbLine
10
406.350000000000
20
63.290000000000
30
0.0
11
405.270000000000
21
64.370000000000
31
0.0
0
LINE
5
5a2
100
AcDbEntity
8
0-0
6
CONTINUOUS
62
7
100
AcDbLine
10
405.270000000000
20
64.370000000000
30
0.0
11
406.000000000000
21
65.840000000000
31
0.0
0
LINE
5
5a3
100
AcDbEntity
8
0-0
6
CONTINUOUS
62
7
100
AcDbLine
10
406.000000000000
20
65.840000000000
30
0.0
11
404.350000000000
21
66.780000000000
31
0.0
0
LINE
5
5a4
100
AcDbEntity
8
0-0
6
CONTINUOUS
62
7
100
AcDbLine
10
404.350000000000
20
66.780000000000
30
0.0
11
402.570000000000
21
64.370000000000
31
0.0
0
LINE
5
5a5
100
AcDbEntity
8
0-0
6
CONTINUOUS
62
7
100
AcDbLine
10
402.570000000000
20
84.910000000000
30
0.0
11
402.570000000000
21
64.370000000000
31
0.0
0
LINE
5
5a6
100
AcDbEntity
8
0-0
6
CONTINUOUS
62
7
100
AcDbLine
10
402.570000000000
20
64.370000000000
30
0.0
11
405.270000000000
21
62.210000000000
31
0.0
0
LINE
5
5a7
100
AcDbEntity
8
0-0
6
CONTINUOUS
62
7
100
AcDbLine
10
405.270000000000
20
62.210000000000
30
0.0
11
407.970000000000
21
64.370000000000
31
0.0
0
LINE
5
5a8
100
AcDbEntity
8
0-0
6
CONTINUOUS
62
7
100
AcDbLine
10
407.970000000000
20
64.370000000000
30
0.0
11
407.970000000000
21
84.910000000000
31
0.0
0
LINE
5
5a9
100
AcDbEntity
8
0-0
6
CONTINUOUS
62
7
100
AcDbLine
10
410.270000000000
20
178.290000000000
30
0.0
11
410.270000000000
21
181.190000000000
31
0.0
0
LINE
5
5aa
100
AcDbEntity
8
0-0
6
CONTINUOUS
62
7
100
AcDbLine
10
410.270000000000
20
181.190000000000
30
0.0
11
407.980000000000
21
181.190000000000
31
0.0
0
LINE
5
5ab
100
AcDbEntity
8
0-0
6
CONTINUOUS
62
7
100
AcDbLine
10
407.980000000000
20
181.190000000000
30
0.0
11
402.570000000000
21
181.190000000000
31
0.0
0
LINE
5
5ac
100
AcDbEntity
8
0-0
6
CONTINUOUS
62
7
100
AcDbLine
10
402.570000000000
20
181.190000000000
30
0.0
11
400.280000000000
21
181.190000000000
31
0.0
0
LINE
5
5ad
100
AcDbEntity
8
0-0
6
CONTINUOUS
62
7
100
AcDbLine
10
400.280000000000
20
181.190000000000
30
0.0
11
400.280000000000
21
178.290000000000
31
0.0
0
LINE
5
5ae
100
AcDbEntity
8
0-0
6
CONTINUOUS
62
7
100
AcDbLine
10
402.570000000000
20
181.190000000000
30
0.0
11
402.570000000000
21
178.290000000000
31
0.0
0
LINE
5
5af
100
AcDbEntity
8
0-0
6
CONTINUOUS
62
7
100
AcDbLine
10
407.980000000000
20
178.290000000000
30
0.0
11
407.980000000000
21
181.190000000000
31
0.0
0
ARC
5
5b0
100
AcDbEntity
8
0-0
6
CONTINUOUS
62
3
100
AcDbCircle
10
290.730000000000
20
398.150000000000
30
0.0
40
1.999999969650
100
AcDbArc
50
270.000000000000
51
316.032836914063
0
ARC
5
5b1
100
AcDbEntity
8
0-0
6
CONTINUOUS
62
3
100
AcDbCircle
10
321.580000000000
20
423.460000000000
30
0.0
40
4.999999924124
100
AcDbArc
50
90.000000000000
51
139.395996093750
0
ARC
5
5b2
100
AcDbEntity
8
0-0
6
CONTINUOUS
62
3
100
AcDbCircle
10
321.580000000000
20
423.460000000000
30
0.0
40
5.499999916537
100
AcDbArc
50
90.000000000000
51
139.395996093750
0
ARC
5
5b3
100
AcDbEntity
8
0-0
6
CONTINUOUS
62
3
100
AcDbCircle
10
290.730000000000
20
398.150000000000
30
0.0
40
1.499999977237
100
AcDbArc
50
270.000000000000
51
316.032836914063
0
ARC
5
5b4
100
AcDbEntity
8
0-0
6
CONTINUOUS
62
3
100
AcDbCircle
10
222.430000000000
20
398.150000000000
30
0.0
40
1.999999969650
100
AcDbArc
50
223.967163085938
51
270.000000000000
0
ARC
5
5b5
100
AcDbEntity
8
0-0
6
CONTINUOUS
62
3
100
AcDbCircle
10
191.580000000000
20
423.460000000000
30
0.0
40
4.999999924124
100
AcDbArc
50
40.603988647461
51
90.000000000000
0
ARC
5
5b6
100
AcDbEntity
8
0-0
6
CONTINUOUS
62
3
100
AcDbCircle
10
191.580000000000
20
423.460000000000
30
0.0
40
5.499999916537
100
AcDbArc
50
40.603988647461
51
90.000000000000
0
ARC
5
5b7
100
AcDbEntity
8
0-0
6
CONTINUOUS
62
3
100
AcDbCircle
10
222.430000000000
20
398.150000000000
30
0.0
40
1.499999977237
100
AcDbArc
50
223.967163085938
51
270.000000000000
0
ARC
5
5b8
100
AcDbEntity
8
0-0
6
CONTINUOUS
62
3
100
AcDbCircle
10
191.580000000000
20
423.460000000000
30
0.0
40
4.999999924124
100
AcDbArc
50
90.000000000000
51
139.395996093750
0
ARC
5
5b9
100
AcDbEntity
8
0-0
6
CONTINUOUS
62
3
100
AcDbCircle
10
191.580000000000
20
423.460000000000
30
0.0
40
5.499999916537
100
AcDbArc
50
90.000000000000
51
139.395996093750
0
ARC
5
5ba
100
AcDbEntity
8
0-0
6
CONTINUOUS
62
3
100
AcDbCircle
10
352.430000000000
20
398.150000000000
30
0.0
40
1.999999969650
100
AcDbArc
50
223.967163085938
51
270.000000000000
0
ARC
5
5bb
100
AcDbEntity
8
0-0
6
CONTINUOUS
62
3
100
AcDbCircle
10
321.580000000000
20
423.460000000000
30
0.0
40
4.999999924124
100
AcDbArc
50
40.603988647461
51
90.000000000000
0
ARC
5
5bc
100
AcDbEntity
8
0-0
6
CONTINUOUS
62
3
100
AcDbCircle
10
321.580000000000
20
423.460000000000
30
0.0
40
5.499999916537
100
AcDbArc
50
40.603988647461
51
90.000000000000
0
ARC
5
5bd
100
AcDbEntity
8
0-0
6
CONTINUOUS
62
3
100
AcDbCircle
10
352.430000000000
20
398.150000000000
30
0.0
40
1.499999977237
100
AcDbArc
50
223.967163085938
51
270.000000000000
0
ARC
5
5be
100
AcDbEntity
8
0-0
6
CONTINUOUS
62
3
100
AcDbCircle
10
482.430000000000
20
398.150000000000
30
0.0
40
1.999999969650
100
AcDbArc
50
223.967163085938
51
270.000000000000
0
ARC
5
5bf
100
AcDbEntity
8
0-0
6
CONTINUOUS
62
3
100
AcDbCircle
10
451.580000000000
20
423.460000000000
30
0.0
40
4.999999924124
100
AcDbArc
50
40.603988647461
51
90.000000000000
0
ARC
5
5c0
100
AcDbEntity
8
0-0
6
CONTINUOUS
62
3
100
AcDbCircle
10
451.580000000000
20
423.460000000000
30
0.0
40
5.499999916537
100
AcDbArc
50
40.603988647461
51
90.000000000000
0
ARC
5
5c1
100
AcDbEntity
8
0-0
6
CONTINUOUS
62
3
100
AcDbCircle
10
482.430000000000
20
398.150000000000
30
0.0
40
1.499999977237
100
AcDbArc
50
223.967163085938
51
270.000000000000
0
ARC
5
5c2
100
AcDbEntity
8
0-0
6
CONTINUOUS
62
3
100
AcDbCircle
10
550.730000000000
20
398.150000000000
30
0.0
40
1.999999969650
100
AcDbArc
50
270.000000000000
51
316.032836914063
0
ARC
5
5c3
100
AcDbEntity
8
0-0
6
CONTINUOUS
62
3
100
AcDbCircle
10
581.580000000000
20
423.460000000000
30
0.0
40
4.999999924124
100
AcDbArc
50
90.000000000000
51
139.395996093750
0
ARC
5
5c4
100
AcDbEntity
8
0-0
6
CONTINUOUS
62
3
100
AcDbCircle
10
581.580000000000
20
423.460000000000
30
0.0
40
5.499999916537
100
AcDbArc
50
90.000000000000
51
139.395996093750
0
ARC
5
5c5
100
AcDbEntity
8
0-0
6
CONTINUOUS
62
3
100
AcDbCircle
10
550.730000000000
20
398.150000000000
30
0.0
40
1.499999977237
100
AcDbArc
50
270.000000000000
51
316.032836914063
0
ARC
5
5c6
100
AcDbEntity
8
0-0
6
CONTINUOUS
62
3
100
AcDbCircle
10
612.430000000000
20
398.150000000000
30
0.0
40
1.999999969650
100
AcDbArc
50
223.967163085938
51
270.000000000000
0
ARC
5
5c7
100
AcDbEntity
8
0-0
6
CONTINUOUS
62
3
100
AcDbCircle
10
581.580000000000
20
423.460000000000
30
0.0
40
4.999999924124
100
AcDbArc
50
40.603988647461
51
90.000000000000
0
ARC
5
5c8
100
AcDbEntity
8
0-0
6
CONTINUOUS
62
3
100
AcDbCircle
10
581.580000000000
20
423.460000000000
30
0.0
40
5.499999916537
100
AcDbArc
50
40.603988647461
51
90.000000000000
0
ARC
5
5c9
100
AcDbEntity
8
0-0
6
CONTINUOUS
62
3
100
AcDbCircle
10
612.430000000000
20
398.150000000000
30
0.0
40
1.499999977237
100
AcDbArc
50
223.967163085938
51
270.000000000000
0
ARC
5
5ca
100
AcDbEntity
8
0-0
6
CONTINUOUS
62
3
100
AcDbCircle
10
420.730000000000
20
398.150000000000
30
0.0
40
1.999999969650
100
AcDbArc
50
270.000000000000
51
316.032836914063
0
ARC
5
5cb
100
AcDbEntity
8
0-0
6
CONTINUOUS
62
3
100
AcDbCircle
10
451.580000000000
20
423.460000000000
30
0.0
40
4.999999924124
100
AcDbArc
50
90.000000000000
51
139.395996093750
0
ARC
5
5cc
100
AcDbEntity
8
0-0
6
CONTINUOUS
62
3
100
AcDbCircle
10
451.580000000000
20
423.460000000000
30
0.0
40
5.499999916537
100
AcDbArc
50
90.000000000000
51
139.395996093750
0
ARC
5
5cd
100
AcDbEntity
8
0-0
6
CONTINUOUS
62
3
100
AcDbCircle
10
420.730000000000
20
398.150000000000
30
0.0
40
1.499999977237
100
AcDbArc
50
270.000000000000
51
316.032836914063
0
ARC
5
5ce
100
AcDbEntity
8
0-0
6
CONTINUOUS
62
3
100
AcDbCircle
10
40.190000000000
20
405.930000000000
30
0.0
40
0.999982178916
100
AcDbArc
50
141.861587524414
51
321.861587524414
0
ARC
5
5cf
100
AcDbEntity
8
0-0
6
CONTINUOUS
62
3
100
AcDbCircle
10
40.190000000000
20
405.930000000000
30
0.0
40
0.499991089458
100
AcDbArc
50
141.861587524414
51
321.861587524414
0
ARC
5
5d0
100
AcDbEntity
8
0-0
6
CONTINUOUS
62
3
100
AcDbCircle
10
61.580000000000
20
423.460000000000
30
0.0
40
5.999999908949
100
AcDbArc
50
90.000000000000
51
139.395996093750
0
ARC
5
5d1
100
AcDbEntity
8
0-0
6
CONTINUOUS
62
3
100
AcDbCircle
10
61.580000000000
20
423.460000000000
30
0.0
40
6.499999901362
100
AcDbArc
50
90.000000000000
51
139.395996093750
0
ARC
5
5d2
100
AcDbEntity
8
0-0
6
CONTINUOUS
62
3
100
AcDbCircle
10
61.580000000000
20
423.460000000000
30
0.0
40
5.999999908949
100
AcDbArc
50
40.395202636719
51
90.000000000000
0
ARC
5
5d3
100
AcDbEntity
8
0-0
6
CONTINUOUS
62
3
100
AcDbCircle
10
160.660000000000
20
399.150000000000
30
0.0
40
1.999999969650
100
AcDbArc
50
270.000000000000
51
316.032836914063
0
ARC
5
5d4
100
AcDbEntity
8
0-0
6
CONTINUOUS
62
3
100
AcDbCircle
10
160.660000000000
20
399.150000000000
30
0.0
40
1.499999977237
100
AcDbArc
50
270.000000000000
51
316.032836914063
0
ARC
5
5d5
100
AcDbEntity
8
0-0
6
CONTINUOUS
62
3
100
AcDbCircle
10
61.580000000000
20
423.460000000000
30
0.0
40
6.499999901362
100
AcDbArc
50
40.395202636719
51
90.000000000000
0
ARC
5
5d6
100
AcDbEntity
8
0-0
6
CONTINUOUS
62
3
100
AcDbCircle
10
92.850000000000
20
399.150000000000
30
0.0
40
1.999999969650
100
AcDbArc
50
223.967163085938
51
270.000000000000
0
ARC
5
5d7
100
AcDbEntity
8
0-0
6
CONTINUOUS
62
3
100
AcDbCircle
10
92.850000000000
20
399.150000000000
30
0.0
40
1.499999977237
100
AcDbArc
50
223.966842651367
51
270.000000000000
0
ARC
5
5d8
100
AcDbEntity
8
0-0
6
CONTINUOUS
62
3
100
AcDbCircle
10
742.430000000000
20
398.150000000000
30
0.0
40
1.999999969650
100
AcDbArc
50
223.967163085938
51
270.000000000000
0
ARC
5
5d9
100
AcDbEntity
8
0-0
6
CONTINUOUS
62
3
100
AcDbCircle
10
711.580000000000
20
423.460000000000
30
0.0
40
4.999999924124
100
AcDbArc
50
40.603988647461
51
90.000000000000
0
ARC
5
5da
100
AcDbEntity
8
0-0
6
CONTINUOUS
62
3
100
AcDbCircle
10
742.430000000000
20
398.150000000000
30
0.0
40
1.499999977237
100
AcDbArc
50
223.967163085938
51
270.000000000000
0
ARC
5
5db
100
AcDbEntity
8
0-0
6
CONTINUOUS
62
3
100
AcDbCircle
10
680.730000000000
20
398.150000000000
30
0.0
40
1.999999969650
100
AcDbArc
50
270.000000000000
51
316.032836914063
0
ARC
5
5dc
100
AcDbEntity
8
0-0
6
CONTINUOUS
62
3
100
AcDbCircle
10
680.730000000000
20
398.150000000000
30
0.0
40
1.499999977237
100
AcDbArc
50
270.000000000000
51
316.032836914063
0
ARC
5
5dd
100
AcDbEntity
8
0-0
6
CONTINUOUS
62
3
100
AcDbCircle
10
711.580000000000
20
423.460000000000
30
0.0
40
4.999999924124
100
AcDbArc
50
90.000000000000
51
139.073181152344
0
ARC
5
5de
100
AcDbEntity
8
0-0
6
CONTINUOUS
62
3
100
AcDbCircle
10
711.580000000000
20
423.460000000000
30
0.0
40
5.499999916537
100
AcDbArc
50
90.000000000000
51
140.335266113281
0
ARC
5
5df
100
AcDbEntity
8
0-0
6
CONTINUOUS
62
3
100
AcDbCircle
10
695.220000000000
20
430.000000000000
30
0.0
40
13.000780166045
100
AcDbArc
50
300.255752563477
51
345.480651855469
0
ARC
5
5e0
100
AcDbEntity
8
0-0
6
CONTINUOUS
62
3
100
AcDbCircle
10
695.220000000000
20
430.000000000000
30
0.0
40
12.500780173632
100
AcDbArc
50
299.801605224609
51
345.999893188477
0
ARC
5
5e1
100
AcDbEntity
8
0-0
6
CONTINUOUS
62
3
100
AcDbCircle
10
711.580000000000
20
423.460000000000
30
0.0
40
5.499999916537
100
AcDbArc
50
40.500747680664
51
90.000000000000
0
ARC
5
5e2
100
AcDbEntity
8
0-0
6
CONTINUOUS
62
7
100
AcDbCircle
10
210.270000000000
20
145.020000000000
30
0.0
40
28.700000957979
100
AcDbArc
50
269.999969482422
51
314.999954223633
0
ARC
5
5e3
100
AcDbEntity
8
0-0
6
CONTINUOUS
62
7
100
AcDbCircle
10
210.270000000000
20
145.020000000000
30
0.0
40
35.000001017210
100
AcDbArc
50
269.999969482422
51
314.999969482422
0
ARC
5
5e4
100
AcDbEntity
8
0-0
6
CONTINUOUS
62
7
100
AcDbCircle
10
340.270000000000
20
145.020000000000
30
0.0
40
28.700000957979
100
AcDbArc
50
224.999984741211
51
269.999969482422
0
ARC
5
5e5
100
AcDbEntity
8
0-0
6
CONTINUOUS
62
7
100
AcDbCircle
10
340.270000000000
20
145.020000000000
30
0.0
40
35.000001017210
100
AcDbArc
50
224.999969482422
51
269.999969482422
0
ARC
5
5e6
100
AcDbEntity
8
0-0
6
CONTINUOUS
62
3
100
AcDbCircle
10
244.440000000000
20
142.390000000000
30
0.0
40
1.999999969650
100
AcDbArc
50
270.000000000000
51
316.032836914063
0
ARC
5
5e7
100
AcDbEntity
8
0-0
6
CONTINUOUS
62
3
100
AcDbCircle
10
275.290000000000
20
167.710000000000
30
0.0
40
4.999999924124
100
AcDbArc
50
90.000000000000
51
139.395996093750
0
ARC
5
5e8
100
AcDbEntity
8
0-0
6
CONTINUOUS
62
3
100
AcDbCircle
10
275.290000000000
20
167.710000000000
30
0.0
40
5.499999916537
100
AcDbArc
50
90.000000000000
51
139.395996093750
0
ARC
5
5e9
100
AcDbEntity
8
0-0
6
CONTINUOUS
62
3
100
AcDbCircle
10
244.440000000000
20
142.390000000000
30
0.0
40
1.499999977237
100
AcDbArc
50
270.000000000000
51
316.032836914063
0
ARC
5
5ea
100
AcDbEntity
8
0-0
6
CONTINUOUS
62
3
100
AcDbCircle
10
306.140000000000
20
142.390000000000
30
0.0
40
1.999999969650
100
AcDbArc
50
223.967163085938
51
270.000000000000
0
ARC
5
5eb
100
AcDbEntity
8
0-0
6
CONTINUOUS
62
3
100
AcDbCircle
10
275.290000000000
20
167.710000000000
30
0.0
40
4.999999924124
100
AcDbArc
50
40.603988647461
51
90.000000000000
0
ARC
5
5ec
100
AcDbEntity
8
0-0
6
CONTINUOUS
62
3
100
AcDbCircle
10
275.290000000000
20
167.710000000000
30
0.0
40
5.499999916537
100
AcDbArc
50
40.603988647461
51
90.000000000000
0
ARC
5
5ed
100
AcDbEntity
8
0-0
6
CONTINUOUS
62
3
100
AcDbCircle
10
306.140000000000
20
142.390000000000
30
0.0
40
1.499999977237
100
AcDbArc
50
223.967163085938
51
270.000000000000
0
ARC
5
5ee
100
AcDbEntity
8
0-0
6
CONTINUOUS
62
3
100
AcDbCircle
10
436.140000000000
20
142.390000000000
30
0.0
40
1.999999969650
100
AcDbArc
50
223.967163085938
51
270.000000000000
0
ARC
5
5ef
100
AcDbEntity
8
0-0
6
CONTINUOUS
62
3
100
AcDbCircle
10
436.140000000000
20
142.390000000000
30
0.0
40
1.499999977237
100
AcDbArc
50
223.967163085938
51
270.000000000000
0
ARC
5
5f0
100
AcDbEntity
8
0-0
6
CONTINUOUS
62
3
100
AcDbCircle
10
504.440000000000
20
142.390000000000
30
0.0
40
1.999999969650
100
AcDbArc
50
270.000000000000
51
316.032836914063
0
ARC
5
5f1
100
AcDbEntity
8
0-0
6
CONTINUOUS
62
3
100
AcDbCircle
10
535.290000000000
20
167.710000000000
30
0.0
40
4.999999924124
100
AcDbArc
50
90.000000000000
51
139.395996093750
0
ARC
5
5f2
100
AcDbEntity
8
0-0
6
CONTINUOUS
62
3
100
AcDbCircle
10
535.290000000000
20
167.710000000000
30
0.0
40
5.499999916537
100
AcDbArc
50
90.000000000000
51
139.395996093750
0
ARC
5
5f3
100
AcDbEntity
8
0-0
6
CONTINUOUS
62
3
100
AcDbCircle
10
504.440000000000
20
142.390000000000
30
0.0
40
1.499999977237
100
AcDbArc
50
270.000000000000
51
316.032836914063
0
ARC
5
5f4
100
AcDbEntity
8
0-0
6
CONTINUOUS
62
3
100
AcDbCircle
10
566.140000000000
20
142.390000000000
30
0.0
40
1.999999969650
100
AcDbArc
50
223.967163085938
51
270.000000000000
0
ARC
5
5f5
100
AcDbEntity
8
0-0
6
CONTINUOUS
62
3
100
AcDbCircle
10
535.290000000000
20
167.710000000000
30
0.0
40
4.999999924124
100
AcDbArc
50
40.603988647461
51
90.000000000000
0
ARC
5
5f6
100
AcDbEntity
8
0-0
6
CONTINUOUS
62
3
100
AcDbCircle
10
535.290000000000
20
167.710000000000
30
0.0
40
5.499999916537
100
AcDbArc
50
40.603988647461
51
90.000000000000
0
ARC
5
5f7
100
AcDbEntity
8
0-0
6
CONTINUOUS
62
3
100
AcDbCircle
10
566.140000000000
20
142.390000000000
30
0.0
40
1.499999977237
100
AcDbArc
50
223.967163085938
51
270.000000000000
0
ARC
5
5f8
100
AcDbEntity
8
0-0
6
CONTINUOUS
62
3
100
AcDbCircle
10
374.440000000000
20
142.390000000000
30
0.0
40
1.999999969650
100
AcDbArc
50
270.000000000000
51
316.032836914063
0
ARC
5
5f9
100
AcDbEntity
8
0-0
6
CONTINUOUS
62
3
100
AcDbCircle
10
374.440000000000
20
142.390000000000
30
0.0
40
1.499999977237
100
AcDbArc
50
270.000000000000
51
316.032836914063
0
ARC
5
5fa
100
AcDbEntity
8
0-0
6
CONTINUOUS
62
7
100
AcDbCircle
10
535.270000000000
20
119.320000000000
30
0.0
40
28.700000957979
100
AcDbArc
50
90.000015258789
51
134.999954223633
0
ARC
5
5fb
100
AcDbEntity
8
0-0
6
CONTINUOUS
62
7
100
AcDbCircle
10
535.270000000000
20
119.320000000000
30
0.0
40
35.000001017210
100
AcDbArc
50
90.000015258789
51
134.999969482422
0
ARC
5
5fc
100
AcDbEntity
8
0-0
6
CONTINUOUS
62
7
100
AcDbCircle
10
470.270000000000
20
145.020000000000
30
0.0
40
28.700000957979
100
AcDbArc
50
269.999969482422
51
314.999954223633
0
ARC
5
5fd
100
AcDbEntity
8
0-0
6
CONTINUOUS
62
7
100
AcDbCircle
10
470.270000000000
20
145.020000000000
30
0.0
40
35.000001017210
100
AcDbArc
50
269.999969482422
51
314.999969482422
0
ARC
5
5fe
100
AcDbEntity
8
0-0
6
CONTINUOUS
62
7
100
AcDbCircle
10
470.270000000000
20
145.020000000000
30
0.0
40
28.700000957979
100
AcDbArc
50
224.999984741211
51
269.999969482422
0
ARC
5
5ff
100
AcDbEntity
8
0-0
6
CONTINUOUS
62
7
100
AcDbCircle
10
470.270000000000
20
145.020000000000
30
0.0
40
35.000001017210
100
AcDbArc
50
224.999969482422
51
269.999969482422
0
ARC
5
600
100
AcDbEntity
8
0-0
6
CONTINUOUS
62
7
100
AcDbCircle
10
340.270000000000
20
145.020000000000
30
0.0
40
28.700000957979
100
AcDbArc
50
269.999969482422
51
314.999954223633
0
ARC
5
601
100
AcDbEntity
8
0-0
6
CONTINUOUS
62
7
100
AcDbCircle
10
340.270000000000
20
145.020000000000
30
0.0
40
35.000001017210
100
AcDbArc
50
269.999969482422
51
314.999969482422
0
ARC
5
602
100
AcDbEntity
8
0-0
6
CONTINUOUS
62
7
100
AcDbCircle
10
535.270000000000
20
119.320000000000
30
0.0
40
28.700000957979
100
AcDbArc
50
44.999984741211
51
89.999923706055
0
ARC
5
603
100
AcDbEntity
8
0-0
6
CONTINUOUS
62
7
100
AcDbCircle
10
535.270000000000
20
119.320000000000
30
0.0
40
35.000001017210
100
AcDbArc
50
44.999969482422
51
89.999923706055
0
ARC
5
604
100
AcDbEntity
8
0-0
6
CONTINUOUS
62
7
100
AcDbCircle
10
600.270000000000
20
145.020000000000
30
0.0
40
28.700000957979
100
AcDbArc
50
224.999984741211
51
269.999969482422
0
ARC
5
605
100
AcDbEntity
8
0-0
6
CONTINUOUS
62
7
100
AcDbCircle
10
600.270000000000
20
145.020000000000
30
0.0
40
35.000001017210
100
AcDbArc
50
224.999969482422
51
269.999969482422
0
ARC
5
606
100
AcDbEntity
8
0-0
6
CONTINUOUS
62
7
100
AcDbCircle
10
275.270000000000
20
119.320000000000
30
0.0
40
38.000002520024
100
AcDbArc
50
90.000015258789
51
113.916549682617
0
ARC
5
607
100
AcDbEntity
8
0-0
6
CONTINUOUS
62
7
100
AcDbCircle
10
275.270000000000
20
119.320000000000
30
0.0
40
38.000002520024
100
AcDbArc
50
66.083328247070
51
89.999923706055
0
ARC
5
608
100
AcDbEntity
8
0-0
6
CONTINUOUS
62
7
100
AcDbCircle
10
290.470000000000
20
153.600000000000
30
0.0
40
0.500003718105
100
AcDbArc
50
246.082901000977
51
66.082901000977
0
ARC
5
609
100
AcDbEntity
8
0-0
6
CONTINUOUS
62
7
100
AcDbCircle
10
260.070000000000
20
153.600000000000
30
0.0
40
0.500003718105
100
AcDbArc
50
113.917098999023
51
293.917098999023
0
ARC
5
60a
100
AcDbEntity
8
0-0
6
CONTINUOUS
62
7
100
AcDbCircle
10
275.270000000000
20
87.520000000000
30
0.0
40
2.702435342893
100
AcDbArc
50
180.000000000000
51
0.000000000000
0
ARC
5
60b
100
AcDbEntity
8
0-0
6
CONTINUOUS
62
7
100
AcDbCircle
10
275.270000000000
20
119.320000000000
30
0.0
40
35.000001017210
100
AcDbArc
50
44.999969482422
51
85.571624755859
0
ARC
5
60c
100
AcDbEntity
8
0-0
6
CONTINUOUS
62
7
100
AcDbCircle
10
275.270000000000
20
119.320000000000
30
0.0
40
35.000001017210
100
AcDbArc
50
94.428497314453
51
134.999969482422
0
ARC
5
60d
100
AcDbEntity
8
0-0
6
CONTINUOUS
62
7
100
AcDbCircle
10
275.270000000000
20
119.320000000000
30
0.0
40
28.700000957979
100
AcDbArc
50
95.403244018555
51
134.999954223633
0
ARC
5
60e
100
AcDbEntity
8
0-0
6
CONTINUOUS
62
7
100
AcDbCircle
10
275.270000000000
20
119.320000000000
30
0.0
40
28.700000957979
100
AcDbArc
50
44.999984741211
51
84.596923828125
0
ARC
5
60f
100
AcDbEntity
8
0-0
6
CONTINUOUS
62
7
100
AcDbCircle
10
275.270000000000
20
119.320000000000
30
0.0
40
37.000000986860
100
AcDbArc
50
94.188644409180
51
113.916549682617
0
ARC
5
610
100
AcDbEntity
8
0-0
6
CONTINUOUS
62
7
100
AcDbCircle
10
275.270000000000
20
119.320000000000
30
0.0
40
37.000000986860
100
AcDbArc
50
66.083328247070
51
85.811370849609
0
ARC
5
611
100
AcDbEntity
8
0-0
6
CONTINUOUS
62
7
100
AcDbCircle
10
275.270000000000
20
119.320000000000
30
0.0
40
37.000000986860
100
AcDbArc
50
89.999862670898
51
89.999923706055
0
ARC
5
612
100
AcDbEntity
8
0-0
6
CONTINUOUS
62
3
100
AcDbCircle
10
405.290000000000
20
167.710000000000
30
0.0
40
5.499999916537
100
AcDbArc
50
40.603988647461
51
60.766510009766
0
ARC
5
613
100
AcDbEntity
8
0-0
6
CONTINUOUS
62
3
100
AcDbCircle
10
405.290000000000
20
167.710000000000
30
0.0
40
4.999999924124
100
AcDbArc
50
40.603988647461
51
57.506301879883
0
ARC
5
614
100
AcDbEntity
8
0-0
6
CONTINUOUS
62
3
100
AcDbCircle
10
405.290000000000
20
167.710000000000
30
0.0
40
5.499999916537
100
AcDbArc
50
119.626098632813
51
139.395996093750
0
ARC
5
615
100
AcDbEntity
8
0-0
6
CONTINUOUS
62
3
100
AcDbCircle
10
405.290000000000
20
167.710000000000
30
0.0
40
4.999999924124
100
AcDbArc
50
122.940811157227
51
139.395996093750
0
ARC
5
616
100
AcDbEntity
8
0-0
6
CONTINUOUS
62
7
100
AcDbCircle
10
405.270000000000
20
119.320000000000
30
0.0
40
35.000001017210
100
AcDbArc
50
44.999969482422
51
85.568130493164
0
ARC
5
617
100
AcDbEntity
8
0-0
6
CONTINUOUS
62
7
100
AcDbCircle
10
405.270000000000
20
119.320000000000
30
0.0
40
28.700000957979
100
AcDbArc
50
44.999984741211
51
84.592651367188
0
ARC
5
618
100
AcDbEntity
8
0-0
6
CONTINUOUS
62
7
100
AcDbCircle
10
405.270000000000
20
119.320000000000
30
0.0
40
35.000001017210
100
AcDbArc
50
94.424880981445
51
134.999969482422
0
ARC
5
619
100
AcDbEntity
8
0-0
6
CONTINUOUS
62
7
100
AcDbCircle
10
405.270000000000
20
119.320000000000
30
0.0
40
28.700000957979
100
AcDbArc
50
95.398818969727
51
134.999954223633
0
ARC
5
61a
100
AcDbEntity
8
0-0
6
CONTINUOUS
62
7
100
AcDbCircle
10
405.290000000000
20
167.710000000000
30
0.0
40
9.499999855836
100
AcDbArc
50
106.630340576172
51
140.074188232422
0
ARC
5
61b
100
AcDbEntity
8
0-0
6
CONTINUOUS
62
7
100
AcDbCircle
10
405.290000000000
20
167.710000000000
30
0.0
40
5.999999908949
100
AcDbArc
50
116.945541381836
51
139.609588623047
0
ARC
5
61c
100
AcDbEntity
8
0-0
6
CONTINUOUS
62
7
100
AcDbCircle
10
405.290000000000
20
167.710000000000
30
0.0
40
6.499999901362
100
AcDbArc
50
114.726455688477
51
139.697525024414
0
ARC
5
61d
100
AcDbEntity
8
0-0
6
CONTINUOUS
62
7
100
AcDbCircle
10
405.290000000000
20
167.710000000000
30
0.0
40
6.999999893774
100
AcDbArc
50
112.855499267578
51
139.775924682617
0
ARC
5
61e
100
AcDbEntity
8
0-0
6
CONTINUOUS
62
7
100
AcDbCircle
10
405.290000000000
20
167.710000000000
30
0.0
40
7.499999886186
100
AcDbArc
50
111.254684448242
51
139.846237182617
0
ARC
5
61f
100
AcDbEntity
8
0-0
6
CONTINUOUS
62
7
100
AcDbCircle
10
405.290000000000
20
167.710000000000
30
0.0
40
7.999999878599
100
AcDbArc
50
109.868194580078
51
139.910034179688
0
ARC
5
620
100
AcDbEntity
8
0-0
6
CONTINUOUS
62
7
100
AcDbCircle
10
405.290000000000
20
167.710000000000
30
0.0
40
8.499999871011
100
AcDbArc
50
108.654815673828
51
139.971130371094
0
ARC
5
621
100
AcDbEntity
8
0-0
6
CONTINUOUS
62
7
100
AcDbCircle
10
405.250000000000
20
167.710000000000
30
0.0
40
5.999999908949
100
AcDbArc
50
40.390411376953
51
63.054443359375
0
ARC
5
622
100
AcDbEntity
8
0-0
6
CONTINUOUS
62
7
100
AcDbCircle
10
405.250000000000
20
167.710000000000
30
0.0
40
6.499999901362
100
AcDbArc
50
40.302474975586
51
65.273544311523
0
ARC
5
623
100
AcDbEntity
8
0-0
6
CONTINUOUS
62
7
100
AcDbCircle
10
405.250000000000
20
167.710000000000
30
0.0
40
6.999999893774
100
AcDbArc
50
40.224060058594
51
67.144485473633
0
ARC
5
624
100
AcDbEntity
8
0-0
6
CONTINUOUS
62
7
100
AcDbCircle
10
405.250000000000
20
167.710000000000
30
0.0
40
7.499999886186
100
AcDbArc
50
40.153747558594
51
68.745285034180
0
ARC
5
625
100
AcDbEntity
8
0-0
6
CONTINUOUS
62
7
100
AcDbCircle
10
405.250000000000
20
167.710000000000
30
0.0
40
7.999999878599
100
AcDbArc
50
40.089965820313
51
70.131805419922
0
ARC
5
626
100
AcDbEntity
8
0-0
6
CONTINUOUS
62
7
100
AcDbCircle
10
405.250000000000
20
167.710000000000
30
0.0
40
9.499999855836
100
AcDbArc
50
39.925811767578
51
73.343002319336
0
ARC
5
627
100
AcDbEntity
8
0-0
6
CONTINUOUS
62
7
100
AcDbCircle
10
405.250000000000
20
167.710000000000
30
0.0
40
8.499999871011
100
AcDbArc
50
40.028869628906
51
71.315032958984
0
CIRCLE
5
628
100
AcDbEntity
8
F-F
6
CONTINUOUS
62
3
100
AcDbCircle
10
39.860000000000
20
33.550000000000
30
0.0
40
5.656854879605
0
CIRCLE
5
629
100
AcDbEntity
8
F-F
6
CONTINUOUS
62
3
100
AcDbCircle
10
39.860000000000
20
33.550000000000
30
0.0
40
6.456854635214
0
CIRCLE
5
62a
100
AcDbEntity
8
F-F
6
CONTINUOUS
62
4
100
AcDbCircle
10
39.860000000000
20
33.550000000000
30
0.0
40
5.736855280960
0
CIRCLE
5
62b
100
AcDbEntity
8
F-F
6
CONTINUOUS
62
4
100
AcDbCircle
10
39.860000000000
20
33.550000000000
30
0.0
40
5.896853761158
0
CIRCLE
5
62c
100
AcDbEntity
8
F-F
6
CONTINUOUS
62
4
100
AcDbCircle
10
39.860000000000
20
33.550000000000
30
0.0
40
6.056854563867
0
CIRCLE
5
62d
100
AcDbEntity
8
F-F
6
CONTINUOUS
62
4
100
AcDbCircle
10
39.860000000000
20
33.550000000000
30
0.0
40
6.216853431151
0
CIRCLE
5
62e
100
AcDbEntity
8
F-F
6
CONTINUOUS
62
4
100
AcDbCircle
10
39.860000000000
20
33.550000000000
30
0.0
40
6.376853072605
0
TEXT
5
62f
100
AcDbEntity
8
0-0
62
3
100
AcDbText
10
120.079
20
460.964
30
0.0
40
9.750
1
130
41
1.100
50
0.000
100
AcDbText
0
TEXT
5
630
100
AcDbEntity
8
0-0
62
3
100
AcDbText
10
250.079
20
460.964
30
0.0
40
9.750
1
130
41
1.100
50
0.000
100
AcDbText
0
TEXT
5
631
100
AcDbEntity
8
0-0
62
3
100
AcDbText
10
380.079
20
460.964
30
0.0
40
9.750
1
130
41
1.100
50
0.000
100
AcDbText
0
TEXT
5
632
100
AcDbEntity
8
0-0
62
3
100
AcDbText
10
510.079
20
460.964
30
0.0
40
9.750
1
130
41
1.100
50
0.000
100
AcDbText
0
TEXT
5
633
100
AcDbEntity
8
0-0
62
3
100
AcDbText
10
640.079
20
460.964
30
0.0
40
9.750
1
130
41
1.100
50
0.000
100
AcDbText
0
TEXT
5
634
100
AcDbEntity
8
0-0
62
3
100
AcDbText
10
642.329
20
368.147
30
0.0
40
9.750
1
70
41
1.100
50
0.000
100
AcDbText
0
TEXT
5
635
100
AcDbEntity
8
0-0
62
3
100
AcDbText
10
707.329
20
368.147
30
0.0
40
9.750
1
60
41
1.100
50
0.000
100
AcDbText
0
TEXT
5
636
100
AcDbEntity
8
0-0
62
3
100
AcDbText
10
380.079
20
485.964
30
0.0
40
9.750
1
650
41
1.100
50
0.000
100
AcDbText
0
TEXT
5
637
100
AcDbEntity
8
0-0
62
3
100
AcDbText
10
762.329
20
368.147
30
0.0
40
9.750
1
50
41
1.100
50
0.000
100
AcDbText
0
TEXT
5
638
100
AcDbEntity
8
0-0
62
3
100
AcDbText
10
514.579
20
408.555
30
0.0
40
9.750
1
32
41
1.100
50
90.000
100
AcDbText
0
TEXT
5
639
100
AcDbEntity
8
F-F
62
3
100
AcDbText
10
265.928
20
37.427
30
0.0
40
2.925
1
変　　　　　　更　　　　　　記　　　　　　事
41
1.167
50
0.000
100
AcDbText
0
TEXT
5
63a
100
AcDbEntity
8
F-F
62
3
100
AcDbText
10
407.795
20
37.027
30
0.0
40
2.925
1
受領　　日附
41
1.167
50
0.000
100
AcDbText
0
TEXT
5
63b
100
AcDbEntity
8
F-F
62
3
100
AcDbText
10
506.904
20
22.311
30
0.0
40
2.925
1
施工者
41
1.167
50
0.000
100
AcDbText
0
TEXT
5
63c
100
AcDbEntity
8
F-F
62
3
100
AcDbText
10
506.904
20
37.126
30
0.0
40
2.925
1
設計者
41
1.167
50
0.000
100
AcDbText
0
TEXT
5
63d
100
AcDbEntity
8
F-F
62
3
100
AcDbText
10
609.646
20
22.040
30
0.0
40
2.925
1
作図
41
1.167
50
0.000
100
AcDbText
0
TEXT
5
63e
100
AcDbEntity
8
F-F
62
3
100
AcDbText
10
645.559
20
22.305
30
0.0
40
2.925
1
図面名
41
1.167
50
0.000
100
AcDbText
0
TEXT
5
63f
100
AcDbEntity
8
F-F
62
3
100
AcDbText
10
609.646
20
36.854
30
0.0
40
2.925
1
日附
41
1.167
50
0.000
100
AcDbText
0
TEXT
5
640
100
AcDbEntity
8
F-F
62
3
100
AcDbText
10
645.559
20
37.120
30
0.0
40
2.925
1
工事件名
41
1.167
50
0.000
100
AcDbText
0
TEXT
5
641
100
AcDbEntity
8
F-F
62
3
100
AcDbText
10
620.714
20
36.729
30
0.0
40
2.925
1
年　月　日
41
1.167
50
0.000
100
AcDbText
0
TEXT
5
642
100
AcDbEntity
8
F-F
62
3
100
AcDbText
10
620.714
20
21.914
30
0.0
40
2.925
1
年　月　日
41
1.167
50
0.000
100
AcDbText
0
TEXT
5
643
100
AcDbEntity
8
F-F
62
3
100
AcDbText
10
771.731
20
37.120
30
0.0
40
2.925
1
設計番号
41
1.167
50
0.000
100
AcDbText
0
TEXT
5
644
100
AcDbEntity
8
F-F
62
3
100
AcDbText
10
771.731
20
22.305
30
0.0
40
2.925
1
縮　尺
41
1.167
50
0.000
100
AcDbText
0
TEXT
5
645
100
AcDbEntity
8
F-F
62
3
100
AcDbText
10
193.389
20
33.735
30
0.0
40
2.925
1
. 　.　 
41
1.167
50
0.000
100
AcDbText
0
TEXT
5
646
100
AcDbEntity
8
F-F
62
3
100
AcDbText
10
193.389
20
28.797
30
0.0
40
2.925
1
. 　.　 
41
1.167
50
0.000
100
AcDbText
0
TEXT
5
647
100
AcDbEntity
8
F-F
62
3
100
AcDbText
10
193.389
20
23.858
30
0.0
40
2.925
1
. 　.　 
41
1.167
50
0.000
100
AcDbText
0
TEXT
5
648
100
AcDbEntity
8
F-F
62
3
100
AcDbText
10
193.389
20
18.920
30
0.0
40
2.925
1
. 　.　 
41
1.167
50
0.000
100
AcDbText
0
TEXT
5
649
100
AcDbEntity
8
F-F
62
3
100
AcDbText
10
193.389
20
13.982
30
0.0
40
2.925
1
. 　.　 
41
1.167
50
0.000
100
AcDbText
0
TEXT
5
64a
100
AcDbEntity
8
F-F
62
3
100
AcDbText
10
517.035
20
30.588
30
0.0
40
3.900
1
　　　　　　　　　　
41
1.125
50
0.000
100
AcDbText
0
TEXT
5
64b
100
AcDbEntity
8
F-F
62
3
100
AcDbText
10
517.035
20
15.773
30
0.0
40
3.900
1
　　　　　　　　　　
41
1.125
50
0.000
100
AcDbText
0
TEXT
5
64c
100
AcDbEntity
8
F-F
62
3
100
AcDbText
10
658.767
20
31.361
30
0.0
40
3.900
1
　　　　　　　　　　　　　
41
1.125
50
0.000
100
AcDbText
0
TEXT
5
64d
100
AcDbEntity
8
F-F
62
3
100
AcDbText
10
188.903
20
37.394
30
0.0
40
2.925
1
年　月　日
41
1.167
50
0.000
100
AcDbText
0
TEXT
5
64e
100
AcDbEntity
8
F-F
62
3
100
AcDbText
10
436.381
20
36.735
30
0.0
40
2.925
1
年　　月　　日
41
1.167
50
0.000
100
AcDbText
0
TEXT
5
64f
100
AcDbEntity
8
F-F
62
3
100
AcDbText
10
442.657
20
31.524
30
0.0
40
2.925
1
.　 　.
41
1.167
50
0.000
100
AcDbText
0
TEXT
5
650
100
AcDbEntity
8
F-F
62
3
100
AcDbText
10
407.795
20
22.212
30
0.0
40
2.925
1
受領　　日附
41
1.167
50
0.000
100
AcDbText
0
TEXT
5
651
100
AcDbEntity
8
F-F
62
3
100
AcDbText
10
436.381
20
21.920
30
0.0
40
2.925
1
年　　月　　日
41
1.167
50
0.000
100
AcDbText
0
TEXT
5
652
100
AcDbEntity
8
F-F
62
3
100
AcDbText
10
442.657
20
16.709
30
0.0
40
2.925
1
.　 　.
41
1.167
50
0.000
100
AcDbText
0
TEXT
5
653
100
AcDbEntity
8
F-F
62
3
100
AcDbText
10
624.100
20
30.667
30
0.0
40
2.925
1
.　　.　
41
1.167
50
0.000
100
AcDbText
0
TEXT
5
654
100
AcDbEntity
8
F-F
62
3
100
AcDbText
10
775.279
20
17.924
30
0.0
40
2.925
1
Ａ１－１／１
41
1.167
50
0.000
100
AcDbText
0
TEXT
5
655
100
AcDbEntity
8
F-F
62
3
100
AcDbText
10
775.279
20
12.924
30
0.0
40
2.925
1
Ａ３－１／２
41
1.167
50
0.000
100
AcDbText
0
TEXT
5
656
100
AcDbEntity
8
F-0
62
3
100
AcDbText
10
115.498
20
558.978
30
0.0
40
6.825
1
ＫＲ カバールーフ２型　断面図
41
1.143
50
0.000
100
AcDbText
0
TEXT
5
657
100
AcDbEntity
8
0-0
62
3
100
AcDbText
10
276.486
20
65.286
30
0.0
40
6.825
1
既設フックボルト
41
1.143
50
0.000
100
AcDbText
0
TEXT
5
658
100
AcDbEntity
8
0-0
62
3
100
AcDbText
10
428.231
20
65.907
30
0.0
40
6.825
1
既設Ｃ型鋼
41
1.143
50
0.000
100
AcDbText
0
TEXT
5
659
100
AcDbEntity
8
F-F
62
3
100
AcDbText
10
83.178
20
13.785
30
0.0
40
3.900
1
電話（０５４）２６３－２２８０（代表）
41
1.125
50
0.000
100
AcDbText
0
TEXT
5
65a
100
AcDbEntity
8
F-F
62
3
100
AcDbText
10
61.073
20
29.382
30
0.0
40
7.800
1
小　池　弥　太　郎　商　店
41
1.125
50
0.000
100
AcDbText
0
TEXT
5
65b
100
AcDbEntity
8
F-F
62
3
100
AcDbText
10
83.176
20
21.201
30
0.0
40
3.900
1
静岡県静岡市葵区流通センター１６番
41
1.125
50
0.000
100
AcDbText
0
TEXT
5
65c
100
AcDbEntity
8
F-F
62
3
100
AcDbText
10
49.950
20
33.676
30
0.0
40
2.925
1
株
41
1.167
50
0.000
100
AcDbText
0
TEXT
5
65d
100
AcDbEntity
8
F-F
62
3
100
AcDbText
10
53.525
20
30.051
30
0.0
40
2.925
1
社
41
1.167
50
0.000
100
AcDbText
0
TEXT
5
65e
100
AcDbEntity
8
F-F
62
3
100
AcDbText
10
49.925
20
30.051
30
0.0
40
2.925
1
会
41
1.167
50
0.000
100
AcDbText
0
TEXT
5
65f
100
AcDbEntity
8
F-F
62
3
100
AcDbText
10
53.325
20
33.576
30
0.0
40
2.925
1
式
41
1.167
50
0.000
100
AcDbText
0
TEXT
5
660
100
AcDbEntity
8
0-0
62
3
100
AcDbText
10
430.931
20
191.071
30
0.0
40
6.825
1
新設ＫＲカバールーフ２型
41
1.143
50
0.000
100
AcDbText
0
TEXT
5
661
100
AcDbEntity
8
0-0
62
3
100
AcDbText
10
430.931
20
181.071
30
0.0
40
6.825
1
（断熱材裏貼はオプション）
41
1.143
50
0.000
100
AcDbText
0
TEXT
5
662
100
AcDbEntity
8
0-0
62
3
100
AcDbText
10
205.472
20
202.527
30
0.0
40
6.825
1
　　既設フックボルト
41
1.143
50
0.000
100
AcDbText
0
TEXT
5
663
100
AcDbEntity
8
F-0
62
3
100
AcDbText
10
74.529
20
245.276
30
0.0
40
6.825
1
※ 無粉塵工法（間接固定工法）は問い合わせお願いします。（サドル工法・スライドイン工法、等）
41
1.143
50
0.000
100
AcDbText
0
TEXT
5
664
100
AcDbEntity
8
F-F
62
3
100
AcDbText
10
658.767
20
16.546
30
0.0
40
3.900
1
ＫＲ カバールーフ２型　断面図
41
1.125
50
0.000
100
AcDbText
0
TEXT
5
665
100
AcDbEntity
8
F-F
62
3
100
AcDbText
10
773.772
20
30.427
30
0.0
40
3.900
1
ＫＲ－ＫＢ２－０１
41
1.125
50
0.000
100
AcDbText
0
TEXT
5
666
100
AcDbEntity
8
0-0
62
3
100
AcDbText
10
205.472
20
192.527
30
0.0
40
6.825
1
（ナットより上部余長部をカット）
41
1.143
50
0.000
100
AcDbText
0
TEXT
5
667
100
AcDbEntity
8
F-0
62
3
100
AcDbText
10
74.529
20
257.276
30
0.0
40
6.825
1
※ ２００４年１０月１日以前に建築された建物にはアスベスト含有スレート屋根材等が使用されている可能性があります。
41
1.143
50
0.000
100
AcDbText
0
TEXT
5
668
100
AcDbEntity
8
0-0
62
3
100
AcDbText
10
409.124
20
206.087
30
0.0
40
6.825
1
カバールーフビス 6×115(SUS品又は(亜)ﾒｯｷ品)
41
1.143
50
0.000
100
AcDbText
0
TEXT
5
669
100
AcDbEntity
8
F-0
62
3
100
AcDbText
10
74.529
20
525.414
30
0.0
40
6.825
1
ラジアル仕様　Ｒ＝２５０以上可（プレス押凸仕様）
41
1.143
50
0.000
100
AcDbText
0
TEXT
5
66a
100
AcDbEntity
8
F-0
62
3
100
AcDbText
10
115.498
20
293.792
30
0.0
40
6.825
1
ＫＲ カバールーフ２型　改修工法　断面図　※ノンアスベスト製品への改修用製品
41
1.143
50
0.000
100
AcDbText
0
TEXT
5
66b
100
AcDbEntity
8
F-0
62
3
100
AcDbText
10
74.529
20
269.276
30
0.0
40
6.825
1
※ ビス貫通時に発生する粉塵対策が必要な工法です。（アスベスト含有建材は除外工法となります）
41
1.143
50
0.000
100
AcDbText
0
TEXT
5
66c
100
AcDbEntity
8
F-F
62
3
100
AcDbText
10
611.241
20
15.334
30
0.0
40
2.925
1
MA 2021-04-01
41
1.167
50
0.000
100
AcDbText
0
TEXT
5
66d
100
AcDbEntity
8
0-0
62
3
100
AcDbText
10
523.515
20
65.907
30
0.0
40
6.825
1
既設大波スレート（ノンアスベスト製品）
41
1.143
50
0.000
100
AcDbText
0
POINT
5
66e
100
AcDbEntity
8
0-0
62
3
100
AcDbPoint
10
61.580000000000
20
458.960000000000
30
0.0
0
POINT
5
66f
100
AcDbEntity
8
0-0
62
3
100
AcDbPoint
10
191.580000000000
20
458.960000000000
30
0.0
0
POINT
5
670
100
AcDbEntity
8
0-0
62
3
100
AcDbPoint
10
321.580000000000
20
458.960000000000
30
0.0
0
POINT
5
671
100
AcDbEntity
8
0-0
62
3
100
AcDbPoint
10
451.580000000000
20
458.960000000000
30
0.0
0
POINT
5
672
100
AcDbEntity
8
0-0
62
3
100
AcDbPoint
10
581.580000000000
20
458.960000000000
30
0.0
0
POINT
5
673
100
AcDbEntity
8
0-0
62
3
100
AcDbPoint
10
711.580000000000
20
458.960000000000
30
0.0
0
POINT
5
674
100
AcDbEntity
8
0-0
62
3
100
AcDbPoint
10
611.580000000000
20
366.150000000000
30
0.0
0
POINT
5
675
100
AcDbEntity
8
0-0
62
3
100
AcDbPoint
10
681.580000000000
20
366.150000000000
30
0.0
0
POINT
5
676
100
AcDbEntity
8
0-0
62
3
100
AcDbPoint
10
741.580000000000
20
366.150000000000
30
0.0
0
POINT
5
677
100
AcDbEntity
8
0-0
62
3
100
AcDbPoint
10
61.580000000000
20
483.960000000000
30
0.0
0
POINT
5
678
100
AcDbEntity
8
0-0
62
3
100
AcDbPoint
10
711.580000000000
20
483.960000000000
30
0.0
0
POINT
5
679
100
AcDbEntity
8
0-0
62
3
100
AcDbPoint
10
791.580000000000
20
366.150000000000
30
0.0
0
POINT
5
67a
100
AcDbEntity
8
0-0
62
3
100
AcDbPoint
10
516.580000000000
20
396.650000000000
30
0.0
0
POINT
5
67b
100
AcDbEntity
8
0-0
62
3
100
AcDbPoint
10
516.580000000000
20
428.960000000000
30
0.0
0
POINT
5
67c
100
AcDbEntity
8
F-F
62
3
100
AcDbPoint
10
27.380000000000
20
571.820000000000
30
0.0
0
ENDSEC
0
EOF
