0
SECTION
2
HEADER
9
$ACADVER
1
AC1015
9
$ACADMAINTVER
 70
6
9
$DWGCODEPAGE
3
ANSI_932
9
$EXTMIN
10
0.000
20
0.000
30
0.0
9
$EXTMAX
10
1682.000
20
1188.000
30
0.0
9
$LIMMIN
10
0.000
20
0.000
9
$LIMMAX
10
1682.000
20
1188.000
9
$DIMSCALE
40
2.000000
9
$LTSCALE
40
2.000
9
$PDMODE
70
0
9
$PDSIZE
40
40.0
9
$HANDSEED
5
61e73
9
$UNITMODE
70
0
9
$VISRETAIN
70
0
9
$PLINEGEN
70
0
9
$PSLTSCALE
70
1
9
$TREEDEPTH
70
3020
9
$CMLSTYLE
2
STANDARD
9
$CMLJUST
70
0
9
$CMLSCALE
40
1.0
9
$PROXYGRAPHICS
70
1
9
$MEASUREMENT
70
0
9
$CELWEIGHT
370
-1
9
$ENDCAPS
280
0
9
$JOINSTYLE
280
0
9
$LWDISPLAY
290
0
9
$INSUNITS
70
0
9
$HYPERLINKBASE
1

9
$STYLESHEET
1

9
$XEDIT
290
1
9
$CEPSNTYPE
380
0
9
$PSTYLEMODE
290
1
9
$FINGERPRINTGUID
2
{5F082321-0195-11D3-BDFB-0060B0CD5109}
9
$VERSIONGUID
2
{12943756-294D-11D3-98C2-0060B087942D}
9
$EXTNAMES
290
1
9
$PSVPSCALE
40
0.0
9
$OLESTARTUP
290
0
0
ENDSEC
0
SECTION
  2
CLASSES
0
ENDSEC
0
SECTION
2
TABLES
0
TABLE
2
VPORT
5
190
100
AcDbSymbolTable
70
2
0
VPORT
5
191
100
AcDbSymbolTableRecord
100
AcDbViewportTableRecord
2
*ACTIVE
70
0
10
0.0
20
0.0
11
1.0
21
1.0
12
841.000
22
594.000
13
0.0
23
0.0
14
1.0
24
1.0
15
0.0
25
0.0
16
0.0
26
0.0
36
1.0
17
0.0
27
0.0
37
0.0
40
1218.841
41
2.0
42
50.0
43
0.0
44
0.0
50
0.0
51
0.0
71
0
72
1000
73
1
74
1
75
0
76
0
77
0
78
0
0
ENDTAB
0
TABLE
2
LTYPE
5
1f4
100
AcDbSymbolTable
70
9
0
LTYPE
5
1f5
100
AcDbSymbolTableRecord
100
AcDbLinetypeTableRecord
2
BYBLOCK
70
 64
3

72
 65
73
  0
40
0.0
0
LTYPE
5
1f6
100
AcDbSymbolTableRecord
100
AcDbLinetypeTableRecord
2
BYLAYER
70
 64
3

72
 65
73
  0
40
0.0
0
LTYPE
5
1f7
100
AcDbSymbolTableRecord
100
AcDbLinetypeTableRecord
2
CONTINUOUS
70
64
3
SolidLine
72
65
73
0
40
0.0
0
LTYPE
5
1f8
100
AcDbSymbolTableRecord
100
AcDbLinetypeTableRecord
2
DOT
70
64
3
--  --  --  --  --  --  --  --     
72
65
73
2
40
3.000
49
1.000
74
0
49
-2.000
74
0
0
LTYPE
5
1f9
100
AcDbSymbolTableRecord
100
AcDbLinetypeTableRecord
2
DASHED
70
64
3
----    ----    ----    ----    
72
65
73
2
40
5.000
49
2.000
74
0
49
-3.000
74
0
0
LTYPE
5
1fa
100
AcDbSymbolTableRecord
100
AcDbLinetypeTableRecord
2
DASHED2
70
64
3
------  ------  ------  ------ 
72
65
73
2
40
10.000
49
4.000
74
0
49
-6.000
74
0
0
LTYPE
5
1fb
100
AcDbSymbolTableRecord
100
AcDbLinetypeTableRecord
2
CENTER
70
64
3
----- - ----- - ----- - ----- - 
72
65
73
4
40
10.000
49
6.000
74
0
49
-3.000
74
0
49
1.000
74
0
49
-3.000
74
0
0
LTYPE
5
1fc
100
AcDbSymbolTableRecord
100
AcDbLinetypeTableRecord
2
CENTER2
70
64
3
----------  --  ----------  -- 
72
65
73
4
40
17.000
49
12.000
74
0
49
-5.000
74
0
49
2.000
74
0
49
-5.000
74
0
0
LTYPE
5
1fd
100
AcDbSymbolTableRecord
100
AcDbLinetypeTableRecord
2
PHANTOM
70
64
3
--- - - --- - - --- - - --- - -
72
65
73
6
40
13.000
49
5.000
74
0
49
-3.000
74
0
49
1.000
74
0
49
-3.000
74
0
49
1.000
74
0
49
-3.000
74
0
0
LTYPE
5
1fe
100
AcDbSymbolTableRecord
100
AcDbLinetypeTableRecord
2
PHANTOM2
70
64
3
--------  -  -  --------  -  -
72
65
73
6
40
20.000
49
6.000
74
0
49
-5.000
74
0
49
2.000
74
0
49
-5.000
74
0
49
2.000
74
0
49
-5.000
74
0
0
LTYPE
5
1ff
100
AcDbSymbolTableRecord
100
AcDbLinetypeTableRecord
2
HIDDEN
70
64
3
-   -   -   -   -   -   -   -   
72
65
73
2
40
3.000
49
0.500
74
0
49
-2.500
74
0
0
ENDTAB
0
TABLE
2
STYLE
5
200
100
AcDbSymbolTable
70
1
0
STYLE
5
201
100
AcDbSymbolTableRecord
100
AcDbTextStyleTableRecord
2
STANDARD
70
0
40
0.0
41
1.0
50
0.0
71
0
42
0.0
3
txt.shx
4
extfont.shx
0
STYLE
5
202
100
AcDbSymbolTableRecord
100
AcDbTextStyleTableRecord
2
TATEGAKI
70
4
40
0.0
41
1.0
50
0.0
71
0
42
0.0
3
txt.shx
4
extfont.shx
0
STYLE
5
203
100
AcDbSymbolTableRecord
100
AcDbTextStyleTableRecord
2
DIM
70
0
40
0.0
41
0.75
50
0.0
71
0
42
0.0
3
txt.shx
4
extfont.shx
0
STYLE
5
204
100
AcDbSymbolTableRecord
100
AcDbTextStyleTableRecord
2
_Gothic_
70
0
40
1.0
41
1.0
50
0.0
71
0
42
10.0
3

4

1001
ACAD
1000
MS Gothic
1071
32817
0
STYLE
5
205
100
AcDbSymbolTableRecord
100
AcDbTextStyleTableRecord
2
_TateGothic_
70
4
40
0.0
41
1.0
50
0.0
71
0
42
0.0
3
@MS Gothic
4

0
ENDTAB
0
TABLE
2
VIEW
5
206
100
AcDbSymbolTable
70
0
0
ENDTAB
0
TABLE
2
UCS
5
207
100
AcDbSymbolTable
70
0
0
ENDTAB
0
TABLE
2
APPID
5
208
100
AcDbSymbolTable
70
1
0
APPID
5
209
100
AcDbSymbolTableRecord
100
AcDbRegAppTableRecord
2
ACAD
70
0
0
ENDTAB
0
TABLE
2
DIMSTYLE
5
403
330
0
100
AcDbSymbolTable
70
1
100
AcDbDimStyleTable
71
0
0
DIMSTYLE
105
404
330
402
100
AcDbSymbolTableRecord
100
AcDbDimStyleTableRecord
2
JAC_DIM
70
0
41
4.000
42
0.000
44
0.0
73
0
74
0
77
1
78
8
79
2
140
0.000
170
0
171
2
172
0
173
0
174
0
175
0
176
0
177
0
178
0
270
2
271
0
272
0
273
2
274
2
340
201
275
0
280
0
281
0
282
0
283
0
284
0
285
0
286
0
287
3
288
0
0
ENDTAB
0
TABLE
2
BLOCK_RECORD
5
405
100
AcDbSymbolTable
70
0
0
BLOCK_RECORD
5
406
100
AcDbSymbolTableRecord
100
AcDbBlockTableRecord
2
*MODEL_SPACE
0
BLOCK_RECORD
5
407
100
AcDbSymbolTableRecord
100
AcDbBlockTableRecord
2
*PAPER_SPACE
0
BLOCK_RECORD
5
408
100
AcDbSymbolTableRecord
100
AcDbBlockTableRecord
2
_JACCONVERT_
0
ENDTAB
0
TABLE
2
LAYER
5
409
100
AcDbSymbolTable
70
10
0
LAYER
5
40a
100
AcDbSymbolTableRecord
100
AcDbLayerTableRecord
2
0
70
0
62
7
6
CONTINUOUS
370
-3
390
14
0
LAYER
5
40b
100
AcDbSymbolTableRecord
100
AcDbLayerTableRecord
2
0-0
70
0
62
7
6
CONTINUOUS
370
-3
390
14
0
LAYER
5
40c
100
AcDbSymbolTableRecord
100
AcDbLayerTableRecord
2
0-1
70
0
62
7
6
CONTINUOUS
370
-3
390
14
0
LAYER
5
40d
100
AcDbSymbolTableRecord
100
AcDbLayerTableRecord
2
0-2
70
0
62
7
6
CONTINUOUS
370
-3
390
14
0
LAYER
5
40e
100
AcDbSymbolTableRecord
100
AcDbLayerTableRecord
2
F-E_J_ADD
70
0
62
-7
6
CONTINUOUS
290
0
370
-3
390
14
0
LAYER
5
40f
100
AcDbSymbolTableRecord
100
AcDbLayerTableRecord
2
F-F
70
0
62
7
6
CONTINUOUS
370
-3
390
14
0
ENDTAB
0
ENDSEC
0
SECTION
2
BLOCKS
0
BLOCK
5
410
100
AcDbEntity
67
1
8
0
100
AcDbBlockBegin
2
*MODEL_SPACE
70
0
10
0.0
20
0.0
30
0.0
3
*MODEL_SPACE
1

0
ENDBLK
5
411
100
AcDbEntity
8
0
100
AcDbBlockEnd
0
BLOCK
5
412
100
AcDbEntity
67
1
8
0
100
AcDbBlockBegin
2
*PAPER_SPACE
70
0
10
0.0
20
0.0
30
0.0
3
*PAPER_SPACE
1

0
ENDBLK
5
413
100
AcDbEntity
67
1
8
0
100
AcDbBlockEnd
0
BLOCK
5
414
100
AcDbEntity
8
0
100
AcDbBlockBegin
2
_JACCONVERT_
70
2
10
0.0
20
0.0
30
0.0
3
_JACCONVERT_
1
_JACCONVERT_
0
ATTDEF
5
415
100
AcDbEntity
8
0
62
0
100
AcDbText
10
0.0
20
0.0
30
0.0
40
1.0
1
User:460950EB0890EC0964308A
100
AcDbAttributeDefinition
3

2
USER
70
8
0
ATTDEF
5
416
100
AcDbEntity
8
0
62
0
100
AcDbText
10
0.0
20
2.0
30
0.0
40
1.0
1
Date:15/05/26 15:43
100
AcDbAttributeDefinition
3

2
REVDATE
70
8
0
ATTDEF
5
417
100
AcDbEntity
8
0
62
0
100
AcDbText
10
0.0
20
4.0
30
0.0
40
1.0
1
File:KR333　断面図.dxf
100
AcDbAttributeDefinition
3

2
FNAME
70
8
0
ATTDEF
5
418
100
AcDbEntity
8
0
62
0
100
AcDbText
10
0.0
20
6.0
30
0.0
40
1.0
1
JacConvert Version3.09 copyright (c) 2001-2013 K.Nakahara
100
AcDbAttributeDefinition
3

2
VER
70
8
0
ENDBLK
5
419
100
AcDbEntity
67
1
8
0
100
AcDbBlockEnd
0
ENDSEC
0
SECTION
2
ENTITIES
0
LINE
5
41a
100
AcDbEntity
8
F-F
6
CONTINUOUS
62
2
100
AcDbLine
10
54.760000000000
20
23.630000000000
30
0.0
11
54.760000000000
21
1143.640000000000
31
0.0
0
LINE
5
41b
100
AcDbEntity
8
F-F
6
CONTINUOUS
62
2
100
AcDbLine
10
1284.760000000000
20
82.890000000000
30
0.0
11
1284.760000000000
21
23.630000000000
31
0.0
0
LINE
5
41c
100
AcDbEntity
8
F-F
6
CONTINUOUS
62
2
100
AcDbLine
10
1214.540000000000
20
82.890000000000
30
0.0
11
1214.540000000000
21
23.630000000000
31
0.0
0
LINE
5
41d
100
AcDbEntity
8
F-F
6
CONTINUOUS
62
2
100
AcDbLine
10
1537.120000000000
20
23.630000000000
30
0.0
11
1537.120000000000
21
82.890000000000
31
0.0
0
LINE
5
41e
100
AcDbEntity
8
F-F
6
CONTINUOUS
62
2
100
AcDbLine
10
806.890000000000
20
82.890000000000
30
0.0
11
806.890000000000
21
23.630000000000
31
0.0
0
LINE
5
41f
100
AcDbEntity
8
F-F
6
CONTINUOUS
62
2
100
AcDbLine
10
1009.740000000000
20
82.890000000000
30
0.0
11
1009.740000000000
21
23.630000000000
31
0.0
0
LINE
5
420
100
AcDbEntity
8
F-F
6
CONTINUOUS
62
2
100
AcDbLine
10
806.890000000000
20
63.140000000000
30
0.0
11
369.760000000000
21
63.140000000000
31
0.0
0
LINE
5
421
100
AcDbEntity
8
F-F
6
CONTINUOUS
62
2
100
AcDbLine
10
806.890000000000
20
43.390000000000
30
0.0
11
369.760000000000
21
43.390000000000
31
0.0
0
LINE
5
422
100
AcDbEntity
8
F-F
6
CONTINUOUS
62
2
100
AcDbLine
10
806.890000000000
20
33.510000000000
30
0.0
11
369.760000000000
21
33.510000000000
31
0.0
0
LINE
5
423
100
AcDbEntity
8
F-F
6
CONTINUOUS
62
2
100
AcDbLine
10
806.890000000000
20
73.020000000000
30
0.0
11
369.760000000000
21
73.020000000000
31
0.0
0
LINE
5
424
100
AcDbEntity
8
F-F
6
CONTINUOUS
62
2
100
AcDbLine
10
422.420000000000
20
82.890000000000
30
0.0
11
422.420000000000
21
23.630000000000
31
0.0
0
LINE
5
425
100
AcDbEntity
8
F-F
6
CONTINUOUS
62
2
100
AcDbLine
10
369.760000000000
20
82.890000000000
30
0.0
11
369.760000000000
21
23.630000000000
31
0.0
0
LINE
5
426
100
AcDbEntity
8
F-F
6
CONTINUOUS
62
2
100
AcDbLine
10
1631.650000000000
20
23.630000000000
30
0.0
11
1631.650000000000
21
1143.640000000000
31
0.0
0
LINE
5
427
100
AcDbEntity
8
F-F
6
CONTINUOUS
62
2
100
AcDbLine
10
54.760000000000
20
1143.640000000000
30
0.0
11
1631.650000000000
21
1143.640000000000
31
0.0
0
LINE
5
428
100
AcDbEntity
8
F-F
6
CONTINUOUS
62
2
100
AcDbLine
10
54.760000000000
20
23.630000000000
30
0.0
11
1631.650000000000
21
23.630000000000
31
0.0
0
LINE
5
429
100
AcDbEntity
8
F-F
6
CONTINUOUS
62
2
100
AcDbLine
10
1631.650000000000
20
82.890000000000
30
0.0
11
54.760000000000
21
82.890000000000
31
0.0
0
LINE
5
42a
100
AcDbEntity
8
F-F
6
CONTINUOUS
62
2
100
AcDbLine
10
369.760000000000
20
53.260000000000
30
0.0
11
1631.650000000000
21
53.260000000000
31
0.0
0
POLYLINE
5
42b
100
AcDbEntity
8
F-F
6
CONTINUOUS
62
  3
100
AcDb2dPolyline
66
1
10
0.0
20
0.0
30
0.0
70
0
0
VERTEX
5
42c
100
AcDbEntity
8
F-F
6
CONTINUOUS
62
  3
100
AcDbVertex
100
AcDb2dVertex
10
80.840000000000
20
58.090000000000
30
0.0
0
VERTEX
5
42d
100
AcDbEntity
8
F-F
6
CONTINUOUS
62
  3
100
AcDbVertex
100
AcDb2dVertex
10
80.840000000000
20
74.090000000000
30
0.0
0
VERTEX
5
42e
100
AcDbEntity
8
F-F
6
CONTINUOUS
62
  3
100
AcDbVertex
100
AcDb2dVertex
10
96.840000000000
20
74.090000000000
30
0.0
0
VERTEX
5
42f
100
AcDbEntity
8
F-F
6
CONTINUOUS
62
  3
100
AcDbVertex
100
AcDb2dVertex
10
96.840000000000
20
58.090000000000
30
0.0
0
VERTEX
5
430
100
AcDbEntity
8
F-F
6
CONTINUOUS
62
  3
100
AcDbVertex
100
AcDb2dVertex
10
80.840000000000
20
58.090000000000
30
0.0
0
SEQEND
5
431
100
AcDbEntity
8
F-F
0
LINE
5
432
100
AcDbEntity
8
F-F
6
CONTINUOUS
62
3
100
AcDbLine
10
82.440000000000
20
60.260000000000
30
0.0
11
82.440000000000
21
72.490000000000
31
0.0
0
LINE
5
433
100
AcDbEntity
8
F-F
6
CONTINUOUS
62
3
100
AcDbLine
10
95.240000000000
20
59.690000000000
30
0.0
11
83.000000000000
21
59.690000000000
31
0.0
0
POLYLINE
5
434
100
AcDbEntity
8
F-F
6
CONTINUOUS
62
  3
100
AcDb2dPolyline
66
1
10
0.0
20
0.0
30
0.0
70
0
0
VERTEX
5
435
100
AcDbEntity
8
F-F
6
CONTINUOUS
62
  3
100
AcDbVertex
100
AcDb2dVertex
10
82.440000000000
20
72.490000000000
30
0.0
0
VERTEX
5
436
100
AcDbEntity
8
F-F
6
CONTINUOUS
62
  3
100
AcDbVertex
100
AcDb2dVertex
10
94.670000000000
20
72.490000000000
30
0.0
0
VERTEX
5
437
100
AcDbEntity
8
F-F
6
CONTINUOUS
62
  3
100
AcDbVertex
100
AcDb2dVertex
10
82.440000000000
20
60.260000000000
30
0.0
0
SEQEND
5
438
100
AcDbEntity
8
F-F
0
LINE
5
439
100
AcDbEntity
8
F-F
6
CONTINUOUS
62
3
100
AcDbLine
10
95.240000000000
20
71.930000000000
30
0.0
11
83.000000000000
21
59.690000000000
31
0.0
0
LINE
5
43a
100
AcDbEntity
8
F-F
6
CONTINUOUS
62
3
100
AcDbLine
10
95.240000000000
20
71.930000000000
30
0.0
11
95.240000000000
21
59.690000000000
31
0.0
0
LINE
5
43b
100
AcDbEntity
8
F-F
6
CONTINUOUS
62
4
100
AcDbLine
10
80.840000000000
20
73.930000000000
30
0.0
11
96.840000000000
21
73.930000000000
31
0.0
0
LINE
5
43c
100
AcDbEntity
8
F-F
6
CONTINUOUS
62
4
100
AcDbLine
10
80.840000000000
20
73.610000000000
30
0.0
11
96.840000000000
21
73.610000000000
31
0.0
0
LINE
5
43d
100
AcDbEntity
8
F-F
6
CONTINUOUS
62
4
100
AcDbLine
10
80.840000000000
20
73.290000000000
30
0.0
11
96.840000000000
21
73.290000000000
31
0.0
0
LINE
5
43e
100
AcDbEntity
8
F-F
6
CONTINUOUS
62
4
100
AcDbLine
10
80.840000000000
20
72.970000000000
30
0.0
11
96.840000000000
21
72.970000000000
31
0.0
0
LINE
5
43f
100
AcDbEntity
8
F-F
6
CONTINUOUS
62
4
100
AcDbLine
10
80.840000000000
20
72.650000000000
30
0.0
11
96.840000000000
21
72.650000000000
31
0.0
0
LINE
5
440
100
AcDbEntity
8
F-F
6
CONTINUOUS
62
4
100
AcDbLine
10
80.840000000000
20
59.530000000000
30
0.0
11
96.840000000000
21
59.530000000000
31
0.0
0
LINE
5
441
100
AcDbEntity
8
F-F
6
CONTINUOUS
62
4
100
AcDbLine
10
80.840000000000
20
59.210000000000
30
0.0
11
96.840000000000
21
59.210000000000
31
0.0
0
LINE
5
442
100
AcDbEntity
8
F-F
6
CONTINUOUS
62
4
100
AcDbLine
10
80.840000000000
20
58.890000000000
30
0.0
11
96.840000000000
21
58.890000000000
31
0.0
0
LINE
5
443
100
AcDbEntity
8
F-F
6
CONTINUOUS
62
4
100
AcDbLine
10
80.840000000000
20
58.570000000000
30
0.0
11
96.840000000000
21
58.570000000000
31
0.0
0
LINE
5
444
100
AcDbEntity
8
F-F
6
CONTINUOUS
62
4
100
AcDbLine
10
80.840000000000
20
58.250000000000
30
0.0
11
96.840000000000
21
58.250000000000
31
0.0
0
LINE
5
445
100
AcDbEntity
8
F-F
6
CONTINUOUS
62
4
100
AcDbLine
10
80.840000000000
20
60.490000000000
30
0.0
11
82.440000000000
21
60.490000000000
31
0.0
0
LINE
5
446
100
AcDbEntity
8
F-F
6
CONTINUOUS
62
4
100
AcDbLine
10
80.840000000000
20
60.810000000000
30
0.0
11
82.440000000000
21
60.810000000000
31
0.0
0
LINE
5
447
100
AcDbEntity
8
F-F
6
CONTINUOUS
62
4
100
AcDbLine
10
80.840000000000
20
61.130000000000
30
0.0
11
82.440000000000
21
61.130000000000
31
0.0
0
LINE
5
448
100
AcDbEntity
8
F-F
6
CONTINUOUS
62
4
100
AcDbLine
10
80.840000000000
20
61.450000000000
30
0.0
11
82.440000000000
21
61.450000000000
31
0.0
0
LINE
5
449
100
AcDbEntity
8
F-F
6
CONTINUOUS
62
4
100
AcDbLine
10
80.840000000000
20
61.770000000000
30
0.0
11
82.440000000000
21
61.770000000000
31
0.0
0
LINE
5
44a
100
AcDbEntity
8
F-F
6
CONTINUOUS
62
4
100
AcDbLine
10
80.840000000000
20
62.090000000000
30
0.0
11
82.440000000000
21
62.090000000000
31
0.0
0
LINE
5
44b
100
AcDbEntity
8
F-F
6
CONTINUOUS
62
4
100
AcDbLine
10
80.840000000000
20
62.410000000000
30
0.0
11
82.440000000000
21
62.410000000000
31
0.0
0
LINE
5
44c
100
AcDbEntity
8
F-F
6
CONTINUOUS
62
4
100
AcDbLine
10
80.840000000000
20
62.730000000000
30
0.0
11
82.440000000000
21
62.730000000000
31
0.0
0
LINE
5
44d
100
AcDbEntity
8
F-F
6
CONTINUOUS
62
4
100
AcDbLine
10
80.840000000000
20
63.050000000000
30
0.0
11
82.440000000000
21
63.050000000000
31
0.0
0
LINE
5
44e
100
AcDbEntity
8
F-F
6
CONTINUOUS
62
4
100
AcDbLine
10
80.840000000000
20
63.370000000000
30
0.0
11
82.440000000000
21
63.370000000000
31
0.0
0
LINE
5
44f
100
AcDbEntity
8
F-F
6
CONTINUOUS
62
4
100
AcDbLine
10
80.840000000000
20
63.690000000000
30
0.0
11
82.440000000000
21
63.690000000000
31
0.0
0
LINE
5
450
100
AcDbEntity
8
F-F
6
CONTINUOUS
62
4
100
AcDbLine
10
80.840000000000
20
64.010000000000
30
0.0
11
82.440000000000
21
64.010000000000
31
0.0
0
LINE
5
451
100
AcDbEntity
8
F-F
6
CONTINUOUS
62
4
100
AcDbLine
10
80.840000000000
20
64.330000000000
30
0.0
11
82.440000000000
21
64.330000000000
31
0.0
0
LINE
5
452
100
AcDbEntity
8
F-F
6
CONTINUOUS
62
4
100
AcDbLine
10
80.840000000000
20
64.650000000000
30
0.0
11
82.440000000000
21
64.650000000000
31
0.0
0
LINE
5
453
100
AcDbEntity
8
F-F
6
CONTINUOUS
62
4
100
AcDbLine
10
80.840000000000
20
64.970000000000
30
0.0
11
82.440000000000
21
64.970000000000
31
0.0
0
LINE
5
454
100
AcDbEntity
8
F-F
6
CONTINUOUS
62
4
100
AcDbLine
10
80.840000000000
20
65.290000000000
30
0.0
11
82.440000000000
21
65.290000000000
31
0.0
0
LINE
5
455
100
AcDbEntity
8
F-F
6
CONTINUOUS
62
4
100
AcDbLine
10
80.840000000000
20
65.610000000000
30
0.0
11
82.440000000000
21
65.610000000000
31
0.0
0
LINE
5
456
100
AcDbEntity
8
F-F
6
CONTINUOUS
62
4
100
AcDbLine
10
80.840000000000
20
65.930000000000
30
0.0
11
82.440000000000
21
65.930000000000
31
0.0
0
LINE
5
457
100
AcDbEntity
8
F-F
6
CONTINUOUS
62
4
100
AcDbLine
10
80.840000000000
20
66.250000000000
30
0.0
11
82.440000000000
21
66.250000000000
31
0.0
0
LINE
5
458
100
AcDbEntity
8
F-F
6
CONTINUOUS
62
4
100
AcDbLine
10
80.840000000000
20
66.570000000000
30
0.0
11
82.440000000000
21
66.570000000000
31
0.0
0
LINE
5
459
100
AcDbEntity
8
F-F
6
CONTINUOUS
62
4
100
AcDbLine
10
80.840000000000
20
66.890000000000
30
0.0
11
82.440000000000
21
66.890000000000
31
0.0
0
LINE
5
45a
100
AcDbEntity
8
F-F
6
CONTINUOUS
62
4
100
AcDbLine
10
80.840000000000
20
67.210000000000
30
0.0
11
82.440000000000
21
67.210000000000
31
0.0
0
LINE
5
45b
100
AcDbEntity
8
F-F
6
CONTINUOUS
62
4
100
AcDbLine
10
80.840000000000
20
67.530000000000
30
0.0
11
82.440000000000
21
67.530000000000
31
0.0
0
LINE
5
45c
100
AcDbEntity
8
F-F
6
CONTINUOUS
62
4
100
AcDbLine
10
80.840000000000
20
67.850000000000
30
0.0
11
82.440000000000
21
67.850000000000
31
0.0
0
LINE
5
45d
100
AcDbEntity
8
F-F
6
CONTINUOUS
62
4
100
AcDbLine
10
80.840000000000
20
68.810000000000
30
0.0
11
82.440000000000
21
68.810000000000
31
0.0
0
LINE
5
45e
100
AcDbEntity
8
F-F
6
CONTINUOUS
62
4
100
AcDbLine
10
80.840000000000
20
69.770000000000
30
0.0
11
82.440000000000
21
69.770000000000
31
0.0
0
LINE
5
45f
100
AcDbEntity
8
F-F
6
CONTINUOUS
62
4
100
AcDbLine
10
80.840000000000
20
70.090000000000
30
0.0
11
82.440000000000
21
70.090000000000
31
0.0
0
LINE
5
460
100
AcDbEntity
8
F-F
6
CONTINUOUS
62
4
100
AcDbLine
10
80.840000000000
20
70.410000000000
30
0.0
11
82.440000000000
21
70.410000000000
31
0.0
0
LINE
5
461
100
AcDbEntity
8
F-F
6
CONTINUOUS
62
4
100
AcDbLine
10
80.840000000000
20
70.730000000000
30
0.0
11
82.440000000000
21
70.730000000000
31
0.0
0
LINE
5
462
100
AcDbEntity
8
F-F
6
CONTINUOUS
62
4
100
AcDbLine
10
80.840000000000
20
72.330000000000
30
0.0
11
82.440000000000
21
72.330000000000
31
0.0
0
LINE
5
463
100
AcDbEntity
8
F-F
6
CONTINUOUS
62
4
100
AcDbLine
10
80.840000000000
20
72.010000000000
30
0.0
11
82.440000000000
21
72.010000000000
31
0.0
0
LINE
5
464
100
AcDbEntity
8
F-F
6
CONTINUOUS
62
4
100
AcDbLine
10
80.840000000000
20
71.690000000000
30
0.0
11
82.440000000000
21
71.690000000000
31
0.0
0
LINE
5
465
100
AcDbEntity
8
F-F
6
CONTINUOUS
62
4
100
AcDbLine
10
80.840000000000
20
71.370000000000
30
0.0
11
82.440000000000
21
71.370000000000
31
0.0
0
LINE
5
466
100
AcDbEntity
8
F-F
6
CONTINUOUS
62
4
100
AcDbLine
10
80.840000000000
20
71.050000000000
30
0.0
11
82.440000000000
21
71.050000000000
31
0.0
0
LINE
5
467
100
AcDbEntity
8
F-F
6
CONTINUOUS
62
4
100
AcDbLine
10
80.840000000000
20
69.130000000000
30
0.0
11
82.440000000000
21
69.130000000000
31
0.0
0
LINE
5
468
100
AcDbEntity
8
F-F
6
CONTINUOUS
62
4
100
AcDbLine
10
80.840000000000
20
69.450000000000
30
0.0
11
82.440000000000
21
69.450000000000
31
0.0
0
LINE
5
469
100
AcDbEntity
8
F-F
6
CONTINUOUS
62
4
100
AcDbLine
10
80.840000000000
20
68.490000000000
30
0.0
11
82.440000000000
21
68.490000000000
31
0.0
0
LINE
5
46a
100
AcDbEntity
8
F-F
6
CONTINUOUS
62
4
100
AcDbLine
10
80.840000000000
20
68.170000000000
30
0.0
11
82.440000000000
21
68.170000000000
31
0.0
0
LINE
5
46b
100
AcDbEntity
8
F-F
6
CONTINUOUS
62
4
100
AcDbLine
10
82.990000000000
20
60.810000000000
30
0.0
11
84.120000000000
21
60.810000000000
31
0.0
0
LINE
5
46c
100
AcDbEntity
8
F-F
6
CONTINUOUS
62
4
100
AcDbLine
10
82.670000000000
20
60.490000000000
30
0.0
11
83.800000000000
21
60.490000000000
31
0.0
0
LINE
5
46d
100
AcDbEntity
8
F-F
6
CONTINUOUS
62
4
100
AcDbLine
10
80.840000000000
20
60.170000000000
30
0.0
11
83.480000000000
21
60.170000000000
31
0.0
0
LINE
5
46e
100
AcDbEntity
8
F-F
6
CONTINUOUS
62
4
100
AcDbLine
10
80.840000000000
20
59.850000000000
30
0.0
11
83.160000000000
21
59.850000000000
31
0.0
0
LINE
5
46f
100
AcDbEntity
8
F-F
6
CONTINUOUS
62
4
100
AcDbLine
10
84.910000000000
20
62.730000000000
30
0.0
11
86.040000000000
21
62.730000000000
31
0.0
0
LINE
5
470
100
AcDbEntity
8
F-F
6
CONTINUOUS
62
4
100
AcDbLine
10
84.590000000000
20
62.410000000000
30
0.0
11
85.720000000000
21
62.410000000000
31
0.0
0
LINE
5
471
100
AcDbEntity
8
F-F
6
CONTINUOUS
62
4
100
AcDbLine
10
84.270000000000
20
62.090000000000
30
0.0
11
85.400000000000
21
62.090000000000
31
0.0
0
LINE
5
472
100
AcDbEntity
8
F-F
6
CONTINUOUS
62
4
100
AcDbLine
10
83.950000000000
20
61.770000000000
30
0.0
11
85.080000000000
21
61.770000000000
31
0.0
0
LINE
5
473
100
AcDbEntity
8
F-F
6
CONTINUOUS
62
4
100
AcDbLine
10
83.630000000000
20
61.450000000000
30
0.0
11
84.760000000000
21
61.450000000000
31
0.0
0
LINE
5
474
100
AcDbEntity
8
F-F
6
CONTINUOUS
62
4
100
AcDbLine
10
83.310000000000
20
61.130000000000
30
0.0
11
84.440000000000
21
61.130000000000
31
0.0
0
LINE
5
475
100
AcDbEntity
8
F-F
6
CONTINUOUS
62
4
100
AcDbLine
10
82.440000000000
20
72.490000000000
30
0.0
11
82.440000000000
21
72.810000000000
31
0.0
0
LINE
5
476
100
AcDbEntity
8
F-F
6
CONTINUOUS
62
4
100
AcDbLine
10
95.240000000000
20
60.490000000000
30
0.0
11
96.840000000000
21
60.490000000000
31
0.0
0
LINE
5
477
100
AcDbEntity
8
F-F
6
CONTINUOUS
62
4
100
AcDbLine
10
95.240000000000
20
60.810000000000
30
0.0
11
96.840000000000
21
60.810000000000
31
0.0
0
LINE
5
478
100
AcDbEntity
8
F-F
6
CONTINUOUS
62
4
100
AcDbLine
10
95.240000000000
20
61.130000000000
30
0.0
11
96.840000000000
21
61.130000000000
31
0.0
0
LINE
5
479
100
AcDbEntity
8
F-F
6
CONTINUOUS
62
4
100
AcDbLine
10
95.240000000000
20
61.450000000000
30
0.0
11
96.840000000000
21
61.450000000000
31
0.0
0
LINE
5
47a
100
AcDbEntity
8
F-F
6
CONTINUOUS
62
4
100
AcDbLine
10
95.240000000000
20
61.770000000000
30
0.0
11
96.840000000000
21
61.770000000000
31
0.0
0
LINE
5
47b
100
AcDbEntity
8
F-F
6
CONTINUOUS
62
4
100
AcDbLine
10
95.240000000000
20
62.090000000000
30
0.0
11
96.840000000000
21
62.090000000000
31
0.0
0
LINE
5
47c
100
AcDbEntity
8
F-F
6
CONTINUOUS
62
4
100
AcDbLine
10
95.240000000000
20
62.410000000000
30
0.0
11
96.840000000000
21
62.410000000000
31
0.0
0
LINE
5
47d
100
AcDbEntity
8
F-F
6
CONTINUOUS
62
4
100
AcDbLine
10
95.240000000000
20
62.730000000000
30
0.0
11
96.840000000000
21
62.730000000000
31
0.0
0
LINE
5
47e
100
AcDbEntity
8
F-F
6
CONTINUOUS
62
4
100
AcDbLine
10
95.240000000000
20
63.050000000000
30
0.0
11
96.840000000000
21
63.050000000000
31
0.0
0
LINE
5
47f
100
AcDbEntity
8
F-F
6
CONTINUOUS
62
4
100
AcDbLine
10
95.240000000000
20
63.370000000000
30
0.0
11
96.840000000000
21
63.370000000000
31
0.0
0
LINE
5
480
100
AcDbEntity
8
F-F
6
CONTINUOUS
62
4
100
AcDbLine
10
95.240000000000
20
63.690000000000
30
0.0
11
96.840000000000
21
63.690000000000
31
0.0
0
LINE
5
481
100
AcDbEntity
8
F-F
6
CONTINUOUS
62
4
100
AcDbLine
10
95.240000000000
20
64.010000000000
30
0.0
11
96.840000000000
21
64.010000000000
31
0.0
0
LINE
5
482
100
AcDbEntity
8
F-F
6
CONTINUOUS
62
4
100
AcDbLine
10
95.240000000000
20
64.330000000000
30
0.0
11
96.840000000000
21
64.330000000000
31
0.0
0
LINE
5
483
100
AcDbEntity
8
F-F
6
CONTINUOUS
62
4
100
AcDbLine
10
95.240000000000
20
64.970000000000
30
0.0
11
96.840000000000
21
64.970000000000
31
0.0
0
LINE
5
484
100
AcDbEntity
8
F-F
6
CONTINUOUS
62
4
100
AcDbLine
10
95.240000000000
20
65.290000000000
30
0.0
11
96.840000000000
21
65.290000000000
31
0.0
0
LINE
5
485
100
AcDbEntity
8
F-F
6
CONTINUOUS
62
4
100
AcDbLine
10
95.240000000000
20
65.610000000000
30
0.0
11
96.840000000000
21
65.610000000000
31
0.0
0
LINE
5
486
100
AcDbEntity
8
F-F
6
CONTINUOUS
62
4
100
AcDbLine
10
95.240000000000
20
65.930000000000
30
0.0
11
96.840000000000
21
65.930000000000
31
0.0
0
LINE
5
487
100
AcDbEntity
8
F-F
6
CONTINUOUS
62
4
100
AcDbLine
10
95.240000000000
20
66.250000000000
30
0.0
11
96.840000000000
21
66.250000000000
31
0.0
0
LINE
5
488
100
AcDbEntity
8
F-F
6
CONTINUOUS
62
4
100
AcDbLine
10
95.240000000000
20
66.570000000000
30
0.0
11
96.840000000000
21
66.570000000000
31
0.0
0
LINE
5
489
100
AcDbEntity
8
F-F
6
CONTINUOUS
62
4
100
AcDbLine
10
95.240000000000
20
66.890000000000
30
0.0
11
96.840000000000
21
66.890000000000
31
0.0
0
LINE
5
48a
100
AcDbEntity
8
F-F
6
CONTINUOUS
62
4
100
AcDbLine
10
95.240000000000
20
67.210000000000
30
0.0
11
96.840000000000
21
67.210000000000
31
0.0
0
LINE
5
48b
100
AcDbEntity
8
F-F
6
CONTINUOUS
62
4
100
AcDbLine
10
95.240000000000
20
67.530000000000
30
0.0
11
96.840000000000
21
67.530000000000
31
0.0
0
LINE
5
48c
100
AcDbEntity
8
F-F
6
CONTINUOUS
62
4
100
AcDbLine
10
95.240000000000
20
67.850000000000
30
0.0
11
96.840000000000
21
67.850000000000
31
0.0
0
LINE
5
48d
100
AcDbEntity
8
F-F
6
CONTINUOUS
62
4
100
AcDbLine
10
95.240000000000
20
68.810000000000
30
0.0
11
96.840000000000
21
68.810000000000
31
0.0
0
LINE
5
48e
100
AcDbEntity
8
F-F
6
CONTINUOUS
62
4
100
AcDbLine
10
95.240000000000
20
69.770000000000
30
0.0
11
96.840000000000
21
69.770000000000
31
0.0
0
LINE
5
48f
100
AcDbEntity
8
F-F
6
CONTINUOUS
62
4
100
AcDbLine
10
95.240000000000
20
70.090000000000
30
0.0
11
96.840000000000
21
70.090000000000
31
0.0
0
LINE
5
490
100
AcDbEntity
8
F-F
6
CONTINUOUS
62
4
100
AcDbLine
10
95.240000000000
20
70.410000000000
30
0.0
11
96.840000000000
21
70.410000000000
31
0.0
0
LINE
5
491
100
AcDbEntity
8
F-F
6
CONTINUOUS
62
4
100
AcDbLine
10
95.240000000000
20
70.730000000000
30
0.0
11
96.840000000000
21
70.730000000000
31
0.0
0
LINE
5
492
100
AcDbEntity
8
F-F
6
CONTINUOUS
62
4
100
AcDbLine
10
95.240000000000
20
71.690000000000
30
0.0
11
96.840000000000
21
71.690000000000
31
0.0
0
LINE
5
493
100
AcDbEntity
8
F-F
6
CONTINUOUS
62
4
100
AcDbLine
10
95.240000000000
20
71.370000000000
30
0.0
11
96.840000000000
21
71.370000000000
31
0.0
0
LINE
5
494
100
AcDbEntity
8
F-F
6
CONTINUOUS
62
4
100
AcDbLine
10
95.240000000000
20
71.050000000000
30
0.0
11
96.840000000000
21
71.050000000000
31
0.0
0
LINE
5
495
100
AcDbEntity
8
F-F
6
CONTINUOUS
62
4
100
AcDbLine
10
95.240000000000
20
69.130000000000
30
0.0
11
96.840000000000
21
69.130000000000
31
0.0
0
LINE
5
496
100
AcDbEntity
8
F-F
6
CONTINUOUS
62
4
100
AcDbLine
10
95.240000000000
20
69.450000000000
30
0.0
11
96.840000000000
21
69.450000000000
31
0.0
0
LINE
5
497
100
AcDbEntity
8
F-F
6
CONTINUOUS
62
4
100
AcDbLine
10
95.240000000000
20
68.490000000000
30
0.0
11
96.840000000000
21
68.490000000000
31
0.0
0
LINE
5
498
100
AcDbEntity
8
F-F
6
CONTINUOUS
62
4
100
AcDbLine
10
95.240000000000
20
68.170000000000
30
0.0
11
96.840000000000
21
68.170000000000
31
0.0
0
LINE
5
499
100
AcDbEntity
8
F-F
6
CONTINUOUS
62
4
100
AcDbLine
10
95.240000000000
20
59.850000000000
30
0.0
11
96.840000000000
21
59.850000000000
31
0.0
0
LINE
5
49a
100
AcDbEntity
8
F-F
6
CONTINUOUS
62
4
100
AcDbLine
10
95.240000000000
20
60.170000000000
30
0.0
11
96.840000000000
21
60.170000000000
31
0.0
0
LINE
5
49b
100
AcDbEntity
8
F-F
6
CONTINUOUS
62
4
100
AcDbLine
10
94.510000000000
20
72.330000000000
30
0.0
11
96.840000000000
21
72.330000000000
31
0.0
0
LINE
5
49c
100
AcDbEntity
8
F-F
6
CONTINUOUS
62
4
100
AcDbLine
10
94.190000000000
20
72.010000000000
30
0.0
11
96.840000000000
21
72.010000000000
31
0.0
0
LINE
5
49d
100
AcDbEntity
8
F-F
6
CONTINUOUS
62
4
100
AcDbLine
10
86.190000000000
20
64.010000000000
30
0.0
11
87.320000000000
21
64.010000000000
31
0.0
0
LINE
5
49e
100
AcDbEntity
8
F-F
6
CONTINUOUS
62
4
100
AcDbLine
10
85.870000000000
20
63.690000000000
30
0.0
11
87.000000000000
21
63.690000000000
31
0.0
0
LINE
5
49f
100
AcDbEntity
8
F-F
6
CONTINUOUS
62
4
100
AcDbLine
10
85.550000000000
20
63.370000000000
30
0.0
11
86.680000000000
21
63.370000000000
31
0.0
0
LINE
5
4a0
100
AcDbEntity
8
F-F
6
CONTINUOUS
62
4
100
AcDbLine
10
85.230000000000
20
63.050000000000
30
0.0
11
86.360000000000
21
63.050000000000
31
0.0
0
LINE
5
4a1
100
AcDbEntity
8
F-F
6
CONTINUOUS
62
4
100
AcDbLine
10
87.470000000000
20
65.290000000000
30
0.0
11
88.600000000000
21
65.290000000000
31
0.0
0
LINE
5
4a2
100
AcDbEntity
8
F-F
6
CONTINUOUS
62
4
100
AcDbLine
10
87.150000000000
20
64.970000000000
30
0.0
11
88.280000000000
21
64.970000000000
31
0.0
0
LINE
5
4a3
100
AcDbEntity
8
F-F
6
CONTINUOUS
62
4
100
AcDbLine
10
86.830000000000
20
64.650000000000
30
0.0
11
87.960000000000
21
64.650000000000
31
0.0
0
LINE
5
4a4
100
AcDbEntity
8
F-F
6
CONTINUOUS
62
4
100
AcDbLine
10
86.510000000000
20
64.330000000000
30
0.0
11
87.640000000000
21
64.330000000000
31
0.0
0
LINE
5
4a5
100
AcDbEntity
8
F-F
6
CONTINUOUS
62
4
100
AcDbLine
10
88.750000000000
20
66.570000000000
30
0.0
11
89.880000000000
21
66.570000000000
31
0.0
0
LINE
5
4a6
100
AcDbEntity
8
F-F
6
CONTINUOUS
62
4
100
AcDbLine
10
88.430000000000
20
66.250000000000
30
0.0
11
89.560000000000
21
66.250000000000
31
0.0
0
LINE
5
4a7
100
AcDbEntity
8
F-F
6
CONTINUOUS
62
4
100
AcDbLine
10
88.110000000000
20
65.930000000000
30
0.0
11
89.240000000000
21
65.930000000000
31
0.0
0
LINE
5
4a8
100
AcDbEntity
8
F-F
6
CONTINUOUS
62
4
100
AcDbLine
10
87.790000000000
20
65.610000000000
30
0.0
11
88.920000000000
21
65.610000000000
31
0.0
0
LINE
5
4a9
100
AcDbEntity
8
F-F
6
CONTINUOUS
62
4
100
AcDbLine
10
90.030000000000
20
67.850000000000
30
0.0
11
91.160000000000
21
67.850000000000
31
0.0
0
LINE
5
4aa
100
AcDbEntity
8
F-F
6
CONTINUOUS
62
4
100
AcDbLine
10
89.710000000000
20
67.530000000000
30
0.0
11
90.840000000000
21
67.530000000000
31
0.0
0
LINE
5
4ab
100
AcDbEntity
8
F-F
6
CONTINUOUS
62
4
100
AcDbLine
10
89.390000000000
20
67.210000000000
30
0.0
11
90.520000000000
21
67.210000000000
31
0.0
0
LINE
5
4ac
100
AcDbEntity
8
F-F
6
CONTINUOUS
62
4
100
AcDbLine
10
89.070000000000
20
66.890000000000
30
0.0
11
90.200000000000
21
66.890000000000
31
0.0
0
LINE
5
4ad
100
AcDbEntity
8
F-F
6
CONTINUOUS
62
4
100
AcDbLine
10
91.310000000000
20
69.130000000000
30
0.0
11
92.440000000000
21
69.130000000000
31
0.0
0
LINE
5
4ae
100
AcDbEntity
8
F-F
6
CONTINUOUS
62
4
100
AcDbLine
10
90.990000000000
20
68.810000000000
30
0.0
11
92.120000000000
21
68.810000000000
31
0.0
0
LINE
5
4af
100
AcDbEntity
8
F-F
6
CONTINUOUS
62
4
100
AcDbLine
10
90.670000000000
20
68.490000000000
30
0.0
11
91.800000000000
21
68.490000000000
31
0.0
0
LINE
5
4b0
100
AcDbEntity
8
F-F
6
CONTINUOUS
62
4
100
AcDbLine
10
90.350000000000
20
68.170000000000
30
0.0
11
91.480000000000
21
68.170000000000
31
0.0
0
LINE
5
4b1
100
AcDbEntity
8
F-F
6
CONTINUOUS
62
4
100
AcDbLine
10
92.590000000000
20
70.410000000000
30
0.0
11
93.720000000000
21
70.410000000000
31
0.0
0
LINE
5
4b2
100
AcDbEntity
8
F-F
6
CONTINUOUS
62
4
100
AcDbLine
10
92.270000000000
20
70.090000000000
30
0.0
11
93.400000000000
21
70.090000000000
31
0.0
0
LINE
5
4b3
100
AcDbEntity
8
F-F
6
CONTINUOUS
62
4
100
AcDbLine
10
91.950000000000
20
69.770000000000
30
0.0
11
93.080000000000
21
69.770000000000
31
0.0
0
LINE
5
4b4
100
AcDbEntity
8
F-F
6
CONTINUOUS
62
4
100
AcDbLine
10
91.630000000000
20
69.450000000000
30
0.0
11
92.760000000000
21
69.450000000000
31
0.0
0
LINE
5
4b5
100
AcDbEntity
8
F-F
6
CONTINUOUS
62
4
100
AcDbLine
10
93.870000000000
20
71.690000000000
30
0.0
11
95.000000000000
21
71.690000000000
31
0.0
0
LINE
5
4b6
100
AcDbEntity
8
F-F
6
CONTINUOUS
62
4
100
AcDbLine
10
93.550000000000
20
71.370000000000
30
0.0
11
94.680000000000
21
71.370000000000
31
0.0
0
LINE
5
4b7
100
AcDbEntity
8
F-F
6
CONTINUOUS
62
4
100
AcDbLine
10
93.230000000000
20
71.050000000000
30
0.0
11
94.360000000000
21
71.050000000000
31
0.0
0
LINE
5
4b8
100
AcDbEntity
8
F-F
6
CONTINUOUS
62
4
100
AcDbLine
10
92.910000000000
20
70.730000000000
30
0.0
11
94.040000000000
21
70.730000000000
31
0.0
0
LINE
5
4b9
100
AcDbEntity
8
F-F
6
CONTINUOUS
62
4
100
AcDbLine
10
95.240000000000
20
64.650000000000
30
0.0
11
96.840000000000
21
64.650000000000
31
0.0
0
LINE
5
4ba
100
AcDbEntity
8
0-0
6
CONTINUOUS
62
4
100
AcDbLine
10
1121.690000000000
20
1007.960000000000
30
0.0
11
1121.690000000000
21
947.960000000000
31
0.0
0
LINE
5
4bb
100
AcDbEntity
8
0-0
6
CONTINUOUS
62
4
100
AcDbLine
10
788.690000000000
20
1007.960000000000
30
0.0
11
788.690000000000
21
947.960000000000
31
0.0
0
LINE
5
4bc
100
AcDbEntity
8
0-0
6
CONTINUOUS
62
4
100
AcDbLine
10
1055.130000000000
20
916.540000000000
30
0.0
11
958.790000000000
21
916.540000000000
31
0.0
0
LINE
5
4bd
100
AcDbEntity
8
0-0
6
CONTINUOUS
62
4
100
AcDbLine
10
824.690000000000
20
977.960000000000
30
0.0
11
824.690000000000
21
947.960000000000
31
0.0
0
LINE
5
4be
100
AcDbEntity
8
0-0
6
CONTINUOUS
62
4
100
AcDbLine
10
908.690000000000
20
710.540000000000
30
0.0
11
908.690000000000
21
734.540000000000
31
0.0
0
LINE
5
4bf
100
AcDbEntity
8
0-0
6
CONTINUOUS
62
4
100
AcDbLine
10
789.690000000000
20
1007.960000000000
30
0.0
11
1121.690000000000
21
1007.960000000000
31
0.0
0
LINE
5
4c0
100
AcDbEntity
8
0-0
6
CONTINUOUS
62
4
100
AcDbLine
10
1107.190000000000
20
977.960000000000
30
0.0
11
1107.190000000000
21
947.960000000000
31
0.0
0
LINE
5
4c1
100
AcDbEntity
8
0-0
6
CONTINUOUS
62
4
100
AcDbLine
10
834.690000000000
20
916.540000000000
30
0.0
11
865.120000000000
21
916.540000000000
31
0.0
0
LINE
5
4c2
100
AcDbEntity
8
0-0
6
CONTINUOUS
62
4
100
AcDbLine
10
834.690000000000
20
939.540000000000
30
0.0
11
865.120000000000
21
939.540000000000
31
0.0
0
LINE
5
4c3
100
AcDbEntity
8
0-0
6
CONTINUOUS
62
4
100
AcDbLine
10
865.120000000000
20
916.540000000000
30
0.0
11
865.120000000000
21
939.540000000000
31
0.0
0
LINE
5
4c4
100
AcDbEntity
8
0-0
6
CONTINUOUS
62
4
100
AcDbLine
10
834.690000000000
20
909.540000000000
30
0.0
11
865.120000000000
21
909.540000000000
31
0.0
0
LINE
5
4c5
100
AcDbEntity
8
0-0
6
CONTINUOUS
62
4
100
AcDbLine
10
865.120000000000
20
916.540000000000
30
0.0
11
865.120000000000
21
909.540000000000
31
0.0
0
LINE
5
4c6
100
AcDbEntity
8
0-0
6
CONTINUOUS
62
4
100
AcDbLine
10
956.190000000000
20
710.540000000000
30
0.0
11
908.690000000000
21
710.540000000000
31
0.0
0
LINE
5
4c7
100
AcDbEntity
8
0-0
6
CONTINUOUS
62
4
100
AcDbLine
10
958.790000000000
20
916.540000000000
30
0.0
11
958.790000000000
21
750.540000000000
31
0.0
0
LINE
5
4c8
100
AcDbEntity
8
0-0
6
CONTINUOUS
62
7
100
AcDbLine
10
789.690000000000
20
917.590000000000
30
0.0
11
789.690000000000
21
937.540000000000
31
0.0
0
LINE
5
4c9
100
AcDbEntity
8
0-0
6
CONTINUOUS
62
7
100
AcDbLine
10
790.480000000000
20
916.610000000000
30
0.0
11
824.010000000000
21
909.470000000000
31
0.0
0
LINE
5
4ca
100
AcDbEntity
8
0-0
6
CONTINUOUS
62
7
100
AcDbLine
10
823.810000000000
20
908.490000000000
30
0.0
11
790.270000000000
21
915.630000000000
31
0.0
0
LINE
5
4cb
100
AcDbEntity
8
0-0
6
CONTINUOUS
62
7
100
AcDbLine
10
788.690000000000
20
937.540000000000
30
0.0
11
788.690000000000
21
917.590000000000
31
0.0
0
LINE
5
4cc
100
AcDbEntity
8
0-0
6
CONTINUOUS
62
7
100
AcDbLine
10
908.360000000000
20
751.070000000000
30
0.0
11
825.280000000000
21
908.610000000000
31
0.0
0
LINE
5
4cd
100
AcDbEntity
8
0-0
6
CONTINUOUS
62
7
100
AcDbLine
10
824.480000000000
20
907.980000000000
30
0.0
11
907.480000000000
21
750.610000000000
31
0.0
0
LINE
5
4ce
100
AcDbEntity
8
0-0
6
CONTINUOUS
62
7
100
AcDbLine
10
909.240000000000
20
750.540000000000
30
0.0
11
956.190000000000
21
750.540000000000
31
0.0
0
LINE
5
4cf
100
AcDbEntity
8
0-0
6
CONTINUOUS
62
7
100
AcDbLine
10
909.240000000000
20
749.540000000000
30
0.0
11
956.190000000000
21
749.540000000000
31
0.0
0
LINE
5
4d0
100
AcDbEntity
8
0-0
6
CONTINUOUS
62
7
100
AcDbLine
10
1087.900000000000
20
907.980000000000
30
0.0
11
1004.900000000000
21
750.610000000000
31
0.0
0
LINE
5
4d1
100
AcDbEntity
8
0-0
6
CONTINUOUS
62
7
100
AcDbLine
10
1004.020000000000
20
751.070000000000
30
0.0
11
1087.010000000000
21
908.450000000000
31
0.0
0
LINE
5
4d2
100
AcDbEntity
8
0-0
6
CONTINUOUS
62
7
100
AcDbLine
10
1003.140000000000
20
750.540000000000
30
0.0
11
956.190000000000
21
750.540000000000
31
0.0
0
LINE
5
4d3
100
AcDbEntity
8
0-0
6
CONTINUOUS
62
7
100
AcDbLine
10
1003.140000000000
20
749.540000000000
30
0.0
11
956.190000000000
21
749.540000000000
31
0.0
0
LINE
5
4d4
100
AcDbEntity
8
0-0
6
CONTINUOUS
62
7
100
AcDbLine
10
1119.900000000000
20
916.180000000000
30
0.0
11
1088.360000000000
21
909.470000000000
31
0.0
0
LINE
5
4d5
100
AcDbEntity
8
0-0
6
CONTINUOUS
62
7
100
AcDbLine
10
1120.690000000000
20
917.160000000000
30
0.0
11
1120.690000000000
21
935.540000000000
31
0.0
0
LINE
5
4d6
100
AcDbEntity
8
0-0
6
CONTINUOUS
62
7
100
AcDbLine
10
1088.570000000000
20
908.490000000000
30
0.0
11
1120.110000000000
21
915.200000000000
31
0.0
0
LINE
5
4d7
100
AcDbEntity
8
0-0
6
CONTINUOUS
62
7
100
AcDbLine
10
1121.690000000000
20
935.540000000000
30
0.0
11
1121.690000000000
21
917.160000000000
31
0.0
0
LINE
5
4d8
100
AcDbEntity
8
0-0
6
CONTINUOUS
62
7
100
AcDbLine
10
1107.190000000000
20
937.540000000000
30
0.0
11
1119.690000000000
21
937.540000000000
31
0.0
0
POLYLINE
5
4d9
100
AcDbEntity
8
0-0
6
CONTINUOUS
62
  7
100
AcDb2dPolyline
66
1
10
0.0
20
0.0
30
0.0
70
0
0
VERTEX
5
4da
100
AcDbEntity
8
0-0
6
CONTINUOUS
62
  7
100
AcDbVertex
100
AcDb2dVertex
10
1107.190000000000
20
937.540000000000
30
0.0
0
VERTEX
5
4db
100
AcDbEntity
8
0-0
6
CONTINUOUS
62
  7
100
AcDbVertex
100
AcDb2dVertex
10
1107.190000000000
20
936.540000000000
30
0.0
0
VERTEX
5
4dc
100
AcDbEntity
8
0-0
6
CONTINUOUS
62
  7
100
AcDbVertex
100
AcDb2dVertex
10
1119.690000000000
20
936.540000000000
30
0.0
0
SEQEND
5
4dd
100
AcDbEntity
8
0-0
0
LINE
5
4de
100
AcDbEntity
8
0-0
6
CONTINUOUS
62
4
100
AcDbLine
10
1107.190000000000
20
977.960000000000
30
0.0
11
1121.690000000000
21
977.960000000000
31
0.0
0
LINE
5
4df
100
AcDbEntity
8
0-0
6
CONTINUOUS
62
4
100
AcDbLine
10
1003.690000000000
20
710.540000000000
30
0.0
11
1003.690000000000
21
734.540000000000
31
0.0
0
LINE
5
4e0
100
AcDbEntity
8
0-0
6
CONTINUOUS
62
4
100
AcDbLine
10
956.190000000000
20
710.540000000000
30
0.0
11
1003.690000000000
21
710.540000000000
31
0.0
0
LINE
5
4e1
100
AcDbEntity
8
0-0
6
CONTINUOUS
62
4
100
AcDbLine
10
769.690000000000
20
977.960000000000
30
0.0
11
823.690000000000
21
977.960000000000
31
0.0
0
LINE
5
4e2
100
AcDbEntity
8
0-0
6
CONTINUOUS
62
4
100
AcDbLine
10
769.690000000000
20
977.960000000000
30
0.0
11
769.690000000000
21
947.960000000000
31
0.0
0
LINE
5
4e3
100
AcDbEntity
8
0-2
6
CONTINUOUS
62
7
100
AcDbLine
10
1055.130000000000
20
507.060000000000
30
0.0
11
958.790000000000
21
507.060000000000
31
0.0
0
LINE
5
4e4
100
AcDbEntity
8
0-2
6
CONTINUOUS
62
7
100
AcDbLine
10
908.690000000000
20
301.060000000000
30
0.0
11
908.690000000000
21
325.060000000000
31
0.0
0
LINE
5
4e5
100
AcDbEntity
8
0-2
6
CONTINUOUS
62
7
100
AcDbLine
10
956.190000000000
20
301.060000000000
30
0.0
11
908.690000000000
21
301.060000000000
31
0.0
0
LINE
5
4e6
100
AcDbEntity
8
0-2
6
CONTINUOUS
62
7
100
AcDbLine
10
958.790000000000
20
507.060000000000
30
0.0
11
958.790000000000
21
341.060000000000
31
0.0
0
LINE
5
4e7
100
AcDbEntity
8
0-2
6
CONTINUOUS
62
7
100
AcDbLine
10
1087.900000000000
20
498.500000000000
30
0.0
11
1004.900000000000
21
341.130000000000
31
0.0
0
LINE
5
4e8
100
AcDbEntity
8
0-2
6
CONTINUOUS
62
7
100
AcDbLine
10
1004.020000000000
20
341.590000000000
30
0.0
11
1087.010000000000
21
498.960000000000
31
0.0
0
LINE
5
4e9
100
AcDbEntity
8
0-2
6
CONTINUOUS
62
7
100
AcDbLine
10
1003.140000000000
20
341.060000000000
30
0.0
11
956.190000000000
21
341.060000000000
31
0.0
0
LINE
5
4ea
100
AcDbEntity
8
0-2
6
CONTINUOUS
62
7
100
AcDbLine
10
1003.140000000000
20
340.060000000000
30
0.0
11
956.190000000000
21
340.060000000000
31
0.0
0
LINE
5
4eb
100
AcDbEntity
8
0-2
6
CONTINUOUS
62
7
100
AcDbLine
10
1119.900000000000
20
506.700000000000
30
0.0
11
1088.360000000000
21
499.990000000000
31
0.0
0
LINE
5
4ec
100
AcDbEntity
8
0-2
6
CONTINUOUS
62
7
100
AcDbLine
10
1120.690000000000
20
507.680000000000
30
0.0
11
1120.690000000000
21
526.060000000000
31
0.0
0
LINE
5
4ed
100
AcDbEntity
8
0-2
6
CONTINUOUS
62
7
100
AcDbLine
10
1088.570000000000
20
499.010000000000
30
0.0
11
1120.110000000000
21
505.720000000000
31
0.0
0
LINE
5
4ee
100
AcDbEntity
8
0-2
6
CONTINUOUS
62
7
100
AcDbLine
10
1121.690000000000
20
526.060000000000
30
0.0
11
1121.690000000000
21
507.680000000000
31
0.0
0
LINE
5
4ef
100
AcDbEntity
8
0-2
6
CONTINUOUS
62
7
100
AcDbLine
10
1003.690000000000
20
301.060000000000
30
0.0
11
1003.690000000000
21
325.060000000000
31
0.0
0
LINE
5
4f0
100
AcDbEntity
8
0-2
6
CONTINUOUS
62
7
100
AcDbLine
10
956.190000000000
20
301.060000000000
30
0.0
11
1003.690000000000
21
301.060000000000
31
0.0
0
LINE
5
4f1
100
AcDbEntity
8
0-2
6
CONTINUOUS
62
7
100
AcDbLine
10
1121.190000000000
20
529.560000000000
30
0.0
11
1108.100000000000
21
529.560000000000
31
0.0
0
LINE
5
4f2
100
AcDbEntity
8
0-2
6
CONTINUOUS
62
7
100
AcDbLine
10
1119.740000000000
20
514.260000000000
30
0.0
11
1119.410000000000
21
513.630000000000
31
0.0
0
LINE
5
4f3
100
AcDbEntity
8
0-2
6
CONTINUOUS
62
7
100
AcDbLine
10
1118.850000000000
20
514.720000000000
30
0.0
11
1118.490000000000
21
514.020000000000
31
0.0
0
LINE
5
4f4
100
AcDbEntity
8
0-2
6
CONTINUOUS
62
7
100
AcDbLine
10
1119.410000000000
20
513.630000000000
30
0.0
11
1118.490000000000
21
514.020000000000
31
0.0
0
LINE
5
4f5
100
AcDbEntity
8
0-2
6
CONTINUOUS
62
7
100
AcDbLine
10
1122.690000000000
20
530.260000000000
30
0.0
11
1108.100000000000
21
530.260000000000
31
0.0
0
LINE
5
4f6
100
AcDbEntity
8
0-2
6
CONTINUOUS
62
7
100
AcDbLine
10
1122.690000000000
20
531.260000000000
30
0.0
11
1108.100000000000
21
531.260000000000
31
0.0
0
LINE
5
4f7
100
AcDbEntity
8
0-2
6
CONTINUOUS
62
7
100
AcDbLine
10
1118.030000000000
20
519.660000000000
30
0.0
11
1106.870000000000
21
525.150000000000
31
0.0
0
LINE
5
4f8
100
AcDbEntity
8
0-2
6
CONTINUOUS
62
7
100
AcDbLine
10
1117.590000000000
20
518.760000000000
30
0.0
11
1106.430000000000
21
524.260000000000
31
0.0
0
LINE
5
4f9
100
AcDbEntity
8
0-2
6
CONTINUOUS
62
7
100
AcDbLine
10
1107.240000000000
20
528.060000000000
30
0.0
11
1119.690000000000
21
528.060000000000
31
0.0
0
LINE
5
4fa
100
AcDbEntity
8
0-2
6
CONTINUOUS
62
7
100
AcDbLine
10
1107.650000000000
20
528.560000000000
30
0.0
11
1121.190000000000
21
528.560000000000
31
0.0
0
POLYLINE
5
4fb
100
AcDbEntity
8
0-2
6
CONTINUOUS
62
  7
100
AcDb2dPolyline
66
1
10
0.0
20
0.0
30
0.0
70
0
0
VERTEX
5
4fc
100
AcDbEntity
8
0-2
6
CONTINUOUS
62
  7
100
AcDbVertex
100
AcDb2dVertex
10
1107.210000000000
20
526.660000000000
30
0.0
0
VERTEX
5
4fd
100
AcDbEntity
8
0-2
6
CONTINUOUS
62
  7
100
AcDbVertex
100
AcDb2dVertex
10
1113.520000000000
20
523.550000000000
30
0.0
0
VERTEX
5
4fe
100
AcDbEntity
8
0-2
6
CONTINUOUS
62
  7
100
AcDbVertex
100
AcDb2dVertex
10
1113.080000000000
20
522.650000000000
30
0.0
0
VERTEX
5
4ff
100
AcDbEntity
8
0-2
6
CONTINUOUS
62
  7
100
AcDbVertex
100
AcDb2dVertex
10
1107.090000000000
20
525.600000000000
30
0.0
0
SEQEND
5
500
100
AcDbEntity
8
0-2
0
LINE
5
501
100
AcDbEntity
8
0-2
6
CONTINUOUS
62
7
100
AcDbLine
10
1107.240000000000
20
528.060000000000
30
0.0
11
1107.240000000000
21
527.060000000000
31
0.0
0
LINE
5
502
100
AcDbEntity
8
0-2
6
CONTINUOUS
62
7
100
AcDbLine
10
1119.690000000000
20
527.060000000000
30
0.0
11
1107.240000000000
21
527.060000000000
31
0.0
0
LINE
5
503
100
AcDbEntity
8
0-2
6
CONTINUOUS
62
7
100
AcDbLine
10
1124.690000000000
20
509.300000000000
30
0.0
11
1124.690000000000
21
529.260000000000
31
0.0
0
LINE
5
504
100
AcDbEntity
8
0-2
6
CONTINUOUS
62
7
100
AcDbLine
10
1125.480000000000
20
508.320000000000
30
0.0
11
1159.010000000000
21
501.190000000000
31
0.0
0
LINE
5
505
100
AcDbEntity
8
0-2
6
CONTINUOUS
62
7
100
AcDbLine
10
1158.810000000000
20
500.210000000000
30
0.0
11
1125.270000000000
21
507.350000000000
31
0.0
0
LINE
5
506
100
AcDbEntity
8
0-2
6
CONTINUOUS
62
7
100
AcDbLine
10
1123.690000000000
20
529.260000000000
30
0.0
11
1123.690000000000
21
509.300000000000
31
0.0
0
LINE
5
507
100
AcDbEntity
8
0-2
6
CONTINUOUS
62
7
100
AcDbLine
10
1122.190000000000
20
527.560000000000
30
0.0
11
1122.190000000000
21
461.560000000000
31
0.0
0
LINE
5
508
100
AcDbEntity
8
0-2
6
CONTINUOUS
62
7
100
AcDbLine
10
1122.190000000000
20
510.560000000000
30
0.0
11
1123.190000000000
21
510.560000000000
31
0.0
0
LINE
5
509
100
AcDbEntity
8
0-2
6
CONTINUOUS
62
7
100
AcDbLine
10
1122.190000000000
20
461.560000000000
30
0.0
11
1123.190000000000
21
461.560000000000
31
0.0
0
LINE
5
50a
100
AcDbEntity
8
0-2
6
CONTINUOUS
62
7
100
AcDbLine
10
1123.190000000000
20
527.560000000000
30
0.0
11
1123.190000000000
21
461.560000000000
31
0.0
0
LINE
5
50b
100
AcDbEntity
8
0-2
6
CONTINUOUS
62
3
100
AcDbLine
10
1007.260000000000
20
332.760000000000
30
0.0
11
956.190000000000
21
332.760000000000
31
0.0
0
LINE
5
50c
100
AcDbEntity
8
0-2
6
CONTINUOUS
62
3
100
AcDbLine
10
1123.490000000000
20
456.560000000000
30
0.0
11
1176.710000000000
21
456.560000000000
31
0.0
0
LINE
5
50d
100
AcDbEntity
8
0-2
6
CONTINUOUS
62
3
100
AcDbLine
10
1176.710000000000
20
454.260000000000
30
0.0
11
1123.490000000000
21
454.260000000000
31
0.0
0
LINE
5
50e
100
AcDbEntity
8
0-2
6
CONTINUOUS
62
3
100
AcDbLine
10
1118.890000000000
20
499.250000000000
30
0.0
11
1118.890000000000
21
458.860000000000
31
0.0
0
LINE
5
50f
100
AcDbEntity
8
0-2
6
CONTINUOUS
62
3
100
AcDbLine
10
1121.190000000000
20
458.860000000000
30
0.0
11
1121.190000000000
21
499.250000000000
31
0.0
0
LINE
5
510
100
AcDbEntity
8
0-2
6
CONTINUOUS
62
3
100
AcDbLine
10
1091.440000000000
20
496.250000000000
30
0.0
11
1116.110000000000
21
501.500000000000
31
0.0
0
LINE
5
511
100
AcDbEntity
8
0-2
6
CONTINUOUS
62
3
100
AcDbLine
10
1089.860000000000
20
495.010000000000
30
0.0
11
1011.380000000000
21
335.330000000000
31
0.0
0
LINE
5
512
100
AcDbEntity
8
0-2
6
CONTINUOUS
62
3
100
AcDbLine
10
1090.970000000000
20
498.500000000000
30
0.0
11
1115.630000000000
21
503.750000000000
31
0.0
0
LINE
5
513
100
AcDbEntity
8
0-2
6
CONTINUOUS
62
3
100
AcDbLine
10
1009.320000000000
20
336.340000000000
30
0.0
11
1087.790000000000
21
496.030000000000
31
0.0
0
LINE
5
514
100
AcDbEntity
8
0-2
6
CONTINUOUS
62
7
100
AcDbLine
10
1132.000000000000
20
490.090000000000
30
0.0
11
1132.000000000000
21
473.020000000000
31
0.0
0
LINE
5
515
100
AcDbEntity
8
0-2
6
CONTINUOUS
62
7
100
AcDbLine
10
1131.390000000000
20
475.310000000000
30
0.0
11
1124.190000000000
21
475.310000000000
31
0.0
0
LINE
5
516
100
AcDbEntity
8
0-2
6
CONTINUOUS
62
7
100
AcDbLine
10
1124.190000000000
20
487.810000000000
30
0.0
11
1131.390000000000
21
487.810000000000
31
0.0
0
LINE
5
517
100
AcDbEntity
8
0-2
6
CONTINUOUS
62
7
100
AcDbLine
10
1124.190000000000
20
493.880000000000
30
0.0
11
1124.190000000000
21
469.230000000000
31
0.0
0
LINE
5
518
100
AcDbEntity
8
0-2
6
CONTINUOUS
62
3
100
AcDbLine
10
1124.190000000000
20
493.880000000000
30
0.0
11
1123.190000000000
21
493.880000000000
31
0.0
0
LINE
5
519
100
AcDbEntity
8
0-2
6
CONTINUOUS
62
3
100
AcDbLine
10
1124.190000000000
20
469.230000000000
30
0.0
11
1123.190000000000
21
469.230000000000
31
0.0
0
LINE
5
51a
100
AcDbEntity
8
0-2
6
CONTINUOUS
62
3
100
AcDbLine
10
1124.190000000000
20
469.230000000000
30
0.0
11
1124.190000000000
21
493.880000000000
31
0.0
0
POLYLINE
5
51b
100
AcDbEntity
8
0-2
6
CONTINUOUS
62
  3
100
AcDb2dPolyline
66
1
10
0.0
20
0.0
30
0.0
70
0
0
VERTEX
5
51c
100
AcDbEntity
8
0-2
6
CONTINUOUS
62
  3
100
AcDbVertex
100
AcDb2dVertex
10
1124.190000000000
20
492.380000000000
30
0.0
0
VERTEX
5
51d
100
AcDbEntity
8
0-2
6
CONTINUOUS
62
  3
100
AcDbVertex
100
AcDb2dVertex
10
1131.390000000000
20
492.380000000000
30
0.0
0
VERTEX
5
51e
100
AcDbEntity
8
0-2
6
CONTINUOUS
62
  3
100
AcDbVertex
100
AcDb2dVertex
10
1131.390000000000
20
470.730000000000
30
0.0
0
VERTEX
5
51f
100
AcDbEntity
8
0-2
6
CONTINUOUS
62
  3
100
AcDbVertex
100
AcDb2dVertex
10
1124.190000000000
20
470.730000000000
30
0.0
0
SEQEND
5
520
100
AcDbEntity
8
0-2
0
LINE
5
521
100
AcDbEntity
8
0-2
6
CONTINUOUS
62
3
100
AcDbLine
10
1124.190000000000
20
475.310000000000
30
0.0
11
1131.390000000000
21
475.310000000000
31
0.0
0
LINE
5
522
100
AcDbEntity
8
0-2
6
CONTINUOUS
62
3
100
AcDbLine
10
1124.190000000000
20
487.810000000000
30
0.0
11
1131.390000000000
21
487.810000000000
31
0.0
0
LINE
5
523
100
AcDbEntity
8
0-2
6
CONTINUOUS
62
3
100
AcDbLine
10
1132.000000000000
20
490.090000000000
30
0.0
11
1132.000000000000
21
473.020000000000
31
0.0
0
POLYLINE
5
524
100
AcDbEntity
8
0-2
6
CONTINUOUS
62
  3
100
AcDb2dPolyline
66
1
10
0.0
20
0.0
30
0.0
70
0
0
VERTEX
5
525
100
AcDbEntity
8
0-2
6
CONTINUOUS
62
  3
100
AcDbVertex
100
AcDb2dVertex
10
1132.000000000000
20
475.310000000000
30
0.0
0
VERTEX
5
526
100
AcDbEntity
8
0-2
6
CONTINUOUS
62
  3
100
AcDbVertex
100
AcDb2dVertex
10
1135.180000000000
20
475.310000000000
30
0.0
0
VERTEX
5
527
100
AcDbEntity
8
0-2
6
CONTINUOUS
62
  3
100
AcDbVertex
100
AcDb2dVertex
10
1137.000000000000
20
477.130000000000
30
0.0
0
VERTEX
5
528
100
AcDbEntity
8
0-2
6
CONTINUOUS
62
  3
100
AcDbVertex
100
AcDb2dVertex
10
1137.000000000000
20
485.980000000000
30
0.0
0
VERTEX
5
529
100
AcDbEntity
8
0-2
6
CONTINUOUS
62
  3
100
AcDbVertex
100
AcDb2dVertex
10
1135.180000000000
20
487.810000000000
30
0.0
0
VERTEX
5
52a
100
AcDbEntity
8
0-2
6
CONTINUOUS
62
  3
100
AcDbVertex
100
AcDb2dVertex
10
1132.000000000000
20
487.810000000000
30
0.0
0
SEQEND
5
52b
100
AcDbEntity
8
0-2
0
LINE
5
52c
100
AcDbEntity
8
0-2
6
CONTINUOUS
62
3
100
AcDbLine
10
1123.190000000000
20
493.880000000000
30
0.0
11
1123.190000000000
21
469.230000000000
31
0.0
0
LINE
5
52d
100
AcDbEntity
8
0-2
6
CENTER2
62
7
100
AcDbLine
10
1103.990000000000
20
481.560000000000
30
0.0
11
1148.220000000000
21
481.560000000000
31
0.0
0
LINE
5
52e
100
AcDbEntity
8
0-2
6
CONTINUOUS
62
7
100
AcDbLine
10
786.900000000000
20
506.700000000000
30
0.0
11
755.360000000000
21
499.990000000000
31
0.0
0
LINE
5
52f
100
AcDbEntity
8
0-2
6
CONTINUOUS
62
7
100
AcDbLine
10
787.690000000000
20
507.680000000000
30
0.0
11
787.690000000000
21
526.060000000000
31
0.0
0
LINE
5
530
100
AcDbEntity
8
0-2
6
CONTINUOUS
62
7
100
AcDbLine
10
755.570000000000
20
499.010000000000
30
0.0
11
787.110000000000
21
505.720000000000
31
0.0
0
LINE
5
531
100
AcDbEntity
8
0-2
6
CONTINUOUS
62
7
100
AcDbLine
10
788.690000000000
20
526.060000000000
30
0.0
11
788.690000000000
21
507.680000000000
31
0.0
0
LINE
5
532
100
AcDbEntity
8
0-2
6
CONTINUOUS
62
7
100
AcDbLine
10
788.190000000000
20
529.560000000000
30
0.0
11
775.100000000000
21
529.560000000000
31
0.0
0
LINE
5
533
100
AcDbEntity
8
0-2
6
CONTINUOUS
62
7
100
AcDbLine
10
786.740000000000
20
514.260000000000
30
0.0
11
786.410000000000
21
513.630000000000
31
0.0
0
LINE
5
534
100
AcDbEntity
8
0-2
6
CONTINUOUS
62
7
100
AcDbLine
10
785.850000000000
20
514.720000000000
30
0.0
11
785.490000000000
21
514.020000000000
31
0.0
0
LINE
5
535
100
AcDbEntity
8
0-2
6
CONTINUOUS
62
7
100
AcDbLine
10
786.410000000000
20
513.630000000000
30
0.0
11
785.490000000000
21
514.020000000000
31
0.0
0
LINE
5
536
100
AcDbEntity
8
0-2
6
CONTINUOUS
62
7
100
AcDbLine
10
789.690000000000
20
530.260000000000
30
0.0
11
775.100000000000
21
530.260000000000
31
0.0
0
LINE
5
537
100
AcDbEntity
8
0-2
6
CONTINUOUS
62
7
100
AcDbLine
10
789.690000000000
20
531.260000000000
30
0.0
11
775.100000000000
21
531.260000000000
31
0.0
0
LINE
5
538
100
AcDbEntity
8
0-2
6
CONTINUOUS
62
7
100
AcDbLine
10
785.030000000000
20
519.660000000000
30
0.0
11
773.870000000000
21
525.150000000000
31
0.0
0
LINE
5
539
100
AcDbEntity
8
0-2
6
CONTINUOUS
62
7
100
AcDbLine
10
784.590000000000
20
518.760000000000
30
0.0
11
773.430000000000
21
524.260000000000
31
0.0
0
LINE
5
53a
100
AcDbEntity
8
0-2
6
CONTINUOUS
62
7
100
AcDbLine
10
774.240000000000
20
528.060000000000
30
0.0
11
786.690000000000
21
528.060000000000
31
0.0
0
LINE
5
53b
100
AcDbEntity
8
0-2
6
CONTINUOUS
62
7
100
AcDbLine
10
774.650000000000
20
528.560000000000
30
0.0
11
788.190000000000
21
528.560000000000
31
0.0
0
POLYLINE
5
53c
100
AcDbEntity
8
0-2
6
CONTINUOUS
62
  7
100
AcDb2dPolyline
66
1
10
0.0
20
0.0
30
0.0
70
0
0
VERTEX
5
53d
100
AcDbEntity
8
0-2
6
CONTINUOUS
62
  7
100
AcDbVertex
100
AcDb2dVertex
10
774.210000000000
20
526.660000000000
30
0.0
0
VERTEX
5
53e
100
AcDbEntity
8
0-2
6
CONTINUOUS
62
  7
100
AcDbVertex
100
AcDb2dVertex
10
780.520000000000
20
523.550000000000
30
0.0
0
VERTEX
5
53f
100
AcDbEntity
8
0-2
6
CONTINUOUS
62
  7
100
AcDbVertex
100
AcDb2dVertex
10
780.080000000000
20
522.650000000000
30
0.0
0
VERTEX
5
540
100
AcDbEntity
8
0-2
6
CONTINUOUS
62
  7
100
AcDbVertex
100
AcDb2dVertex
10
774.090000000000
20
525.600000000000
30
0.0
0
SEQEND
5
541
100
AcDbEntity
8
0-2
0
LINE
5
542
100
AcDbEntity
8
0-2
6
CONTINUOUS
62
7
100
AcDbLine
10
774.240000000000
20
528.060000000000
30
0.0
11
774.240000000000
21
527.060000000000
31
0.0
0
LINE
5
543
100
AcDbEntity
8
0-2
6
CONTINUOUS
62
7
100
AcDbLine
10
786.690000000000
20
527.060000000000
30
0.0
11
774.240000000000
21
527.060000000000
31
0.0
0
LINE
5
544
100
AcDbEntity
8
0-2
6
CONTINUOUS
62
7
100
AcDbLine
10
791.690000000000
20
509.300000000000
30
0.0
11
791.690000000000
21
529.260000000000
31
0.0
0
LINE
5
545
100
AcDbEntity
8
0-2
6
CONTINUOUS
62
7
100
AcDbLine
10
792.480000000000
20
508.320000000000
30
0.0
11
826.010000000000
21
501.190000000000
31
0.0
0
LINE
5
546
100
AcDbEntity
8
0-2
6
CONTINUOUS
62
7
100
AcDbLine
10
825.810000000000
20
500.210000000000
30
0.0
11
792.270000000000
21
507.350000000000
31
0.0
0
LINE
5
547
100
AcDbEntity
8
0-2
6
CONTINUOUS
62
7
100
AcDbLine
10
790.690000000000
20
529.260000000000
30
0.0
11
790.690000000000
21
509.300000000000
31
0.0
0
LINE
5
548
100
AcDbEntity
8
0-2
6
CONTINUOUS
62
7
100
AcDbLine
10
789.190000000000
20
527.560000000000
30
0.0
11
789.190000000000
21
461.560000000000
31
0.0
0
LINE
5
549
100
AcDbEntity
8
0-2
6
CONTINUOUS
62
7
100
AcDbLine
10
789.190000000000
20
510.560000000000
30
0.0
11
790.190000000000
21
510.560000000000
31
0.0
0
LINE
5
54a
100
AcDbEntity
8
0-2
6
CONTINUOUS
62
7
100
AcDbLine
10
789.190000000000
20
461.560000000000
30
0.0
11
790.190000000000
21
461.560000000000
31
0.0
0
LINE
5
54b
100
AcDbEntity
8
0-2
6
CONTINUOUS
62
7
100
AcDbLine
10
790.190000000000
20
527.560000000000
30
0.0
11
790.190000000000
21
461.560000000000
31
0.0
0
LINE
5
54c
100
AcDbEntity
8
0-2
6
CONTINUOUS
62
3
100
AcDbLine
10
790.490000000000
20
456.560000000000
30
0.0
11
843.710000000000
21
456.560000000000
31
0.0
0
LINE
5
54d
100
AcDbEntity
8
0-2
6
CONTINUOUS
62
3
100
AcDbLine
10
843.710000000000
20
454.260000000000
30
0.0
11
790.490000000000
21
454.260000000000
31
0.0
0
LINE
5
54e
100
AcDbEntity
8
0-2
6
CONTINUOUS
62
3
100
AcDbLine
10
785.890000000000
20
499.250000000000
30
0.0
11
785.890000000000
21
458.860000000000
31
0.0
0
LINE
5
54f
100
AcDbEntity
8
0-2
6
CONTINUOUS
62
3
100
AcDbLine
10
788.190000000000
20
458.860000000000
30
0.0
11
788.190000000000
21
499.250000000000
31
0.0
0
LINE
5
550
100
AcDbEntity
8
0-2
6
CONTINUOUS
62
3
100
AcDbLine
10
758.440000000000
20
496.250000000000
30
0.0
11
783.110000000000
21
501.500000000000
31
0.0
0
LINE
5
551
100
AcDbEntity
8
0-2
6
CONTINUOUS
62
3
100
AcDbLine
10
757.970000000000
20
498.500000000000
30
0.0
11
782.630000000000
21
503.750000000000
31
0.0
0
LINE
5
552
100
AcDbEntity
8
0-2
6
CONTINUOUS
62
7
100
AcDbLine
10
799.000000000000
20
490.090000000000
30
0.0
11
799.000000000000
21
473.020000000000
31
0.0
0
LINE
5
553
100
AcDbEntity
8
0-2
6
CONTINUOUS
62
7
100
AcDbLine
10
798.390000000000
20
475.310000000000
30
0.0
11
791.190000000000
21
475.310000000000
31
0.0
0
LINE
5
554
100
AcDbEntity
8
0-2
6
CONTINUOUS
62
7
100
AcDbLine
10
791.190000000000
20
487.810000000000
30
0.0
11
798.390000000000
21
487.810000000000
31
0.0
0
LINE
5
555
100
AcDbEntity
8
0-2
6
CONTINUOUS
62
7
100
AcDbLine
10
791.190000000000
20
493.880000000000
30
0.0
11
791.190000000000
21
469.230000000000
31
0.0
0
LINE
5
556
100
AcDbEntity
8
0-2
6
CONTINUOUS
62
3
100
AcDbLine
10
791.190000000000
20
493.880000000000
30
0.0
11
790.190000000000
21
493.880000000000
31
0.0
0
LINE
5
557
100
AcDbEntity
8
0-2
6
CONTINUOUS
62
3
100
AcDbLine
10
791.190000000000
20
469.230000000000
30
0.0
11
790.190000000000
21
469.230000000000
31
0.0
0
LINE
5
558
100
AcDbEntity
8
0-2
6
CONTINUOUS
62
3
100
AcDbLine
10
791.190000000000
20
469.230000000000
30
0.0
11
791.190000000000
21
493.880000000000
31
0.0
0
POLYLINE
5
559
100
AcDbEntity
8
0-2
6
CONTINUOUS
62
  3
100
AcDb2dPolyline
66
1
10
0.0
20
0.0
30
0.0
70
0
0
VERTEX
5
55a
100
AcDbEntity
8
0-2
6
CONTINUOUS
62
  3
100
AcDbVertex
100
AcDb2dVertex
10
791.190000000000
20
492.380000000000
30
0.0
0
VERTEX
5
55b
100
AcDbEntity
8
0-2
6
CONTINUOUS
62
  3
100
AcDbVertex
100
AcDb2dVertex
10
798.390000000000
20
492.380000000000
30
0.0
0
VERTEX
5
55c
100
AcDbEntity
8
0-2
6
CONTINUOUS
62
  3
100
AcDbVertex
100
AcDb2dVertex
10
798.390000000000
20
470.730000000000
30
0.0
0
VERTEX
5
55d
100
AcDbEntity
8
0-2
6
CONTINUOUS
62
  3
100
AcDbVertex
100
AcDb2dVertex
10
791.190000000000
20
470.730000000000
30
0.0
0
SEQEND
5
55e
100
AcDbEntity
8
0-2
0
LINE
5
55f
100
AcDbEntity
8
0-2
6
CONTINUOUS
62
3
100
AcDbLine
10
791.190000000000
20
475.310000000000
30
0.0
11
798.390000000000
21
475.310000000000
31
0.0
0
LINE
5
560
100
AcDbEntity
8
0-2
6
CONTINUOUS
62
3
100
AcDbLine
10
791.190000000000
20
487.810000000000
30
0.0
11
798.390000000000
21
487.810000000000
31
0.0
0
LINE
5
561
100
AcDbEntity
8
0-2
6
CONTINUOUS
62
3
100
AcDbLine
10
799.000000000000
20
490.090000000000
30
0.0
11
799.000000000000
21
473.020000000000
31
0.0
0
POLYLINE
5
562
100
AcDbEntity
8
0-2
6
CONTINUOUS
62
  3
100
AcDb2dPolyline
66
1
10
0.0
20
0.0
30
0.0
70
0
0
VERTEX
5
563
100
AcDbEntity
8
0-2
6
CONTINUOUS
62
  3
100
AcDbVertex
100
AcDb2dVertex
10
799.000000000000
20
475.310000000000
30
0.0
0
VERTEX
5
564
100
AcDbEntity
8
0-2
6
CONTINUOUS
62
  3
100
AcDbVertex
100
AcDb2dVertex
10
802.180000000000
20
475.310000000000
30
0.0
0
VERTEX
5
565
100
AcDbEntity
8
0-2
6
CONTINUOUS
62
  3
100
AcDbVertex
100
AcDb2dVertex
10
804.000000000000
20
477.130000000000
30
0.0
0
VERTEX
5
566
100
AcDbEntity
8
0-2
6
CONTINUOUS
62
  3
100
AcDbVertex
100
AcDb2dVertex
10
804.000000000000
20
485.980000000000
30
0.0
0
VERTEX
5
567
100
AcDbEntity
8
0-2
6
CONTINUOUS
62
  3
100
AcDbVertex
100
AcDb2dVertex
10
802.180000000000
20
487.810000000000
30
0.0
0
VERTEX
5
568
100
AcDbEntity
8
0-2
6
CONTINUOUS
62
  3
100
AcDbVertex
100
AcDb2dVertex
10
799.000000000000
20
487.810000000000
30
0.0
0
SEQEND
5
569
100
AcDbEntity
8
0-2
0
LINE
5
56a
100
AcDbEntity
8
0-2
6
CONTINUOUS
62
3
100
AcDbLine
10
790.190000000000
20
493.880000000000
30
0.0
11
790.190000000000
21
469.230000000000
31
0.0
0
LINE
5
56b
100
AcDbEntity
8
0-2
6
CENTER2
62
7
100
AcDbLine
10
770.990000000000
20
481.560000000000
30
0.0
11
815.220000000000
21
481.560000000000
31
0.0
0
LINE
5
56c
100
AcDbEntity
8
0-2
6
CONTINUOUS
62
3
100
AcDbLine
10
907.120000000000
20
332.760000000000
30
0.0
11
956.190000000000
21
332.760000000000
31
0.0
0
LINE
5
56d
100
AcDbEntity
8
0-2
6
CONTINUOUS
62
7
100
AcDbLine
10
911.240000000000
20
340.060000000000
30
0.0
11
956.190000000000
21
340.060000000000
31
0.0
0
LINE
5
56e
100
AcDbEntity
8
0-2
6
CONTINUOUS
62
7
100
AcDbLine
10
911.240000000000
20
341.060000000000
30
0.0
11
956.190000000000
21
341.060000000000
31
0.0
0
LINE
5
56f
100
AcDbEntity
8
0-2
6
CONTINUOUS
62
7
100
AcDbLine
10
910.360000000000
20
341.590000000000
30
0.0
11
827.370000000000
21
500.170000000000
31
0.0
0
LINE
5
570
100
AcDbEntity
8
0-2
6
CONTINUOUS
62
7
100
AcDbLine
10
909.470000000000
20
341.130000000000
30
0.0
11
826.480000000000
21
499.700000000000
31
0.0
0
LINE
5
571
100
AcDbEntity
8
0-2
6
CONTINUOUS
62
3
100
AcDbLine
10
905.060000000000
20
336.340000000000
30
0.0
11
847.830000000000
21
453.990000000000
31
0.0
0
LINE
5
572
100
AcDbEntity
8
0-2
6
CONTINUOUS
62
3
100
AcDbLine
10
902.810000000000
20
335.250000000000
30
0.0
11
845.590000000000
21
452.890000000000
31
0.0
0
LINE
5
573
100
AcDbEntity
8
0-2
6
CONTINUOUS
62
3
100
AcDbLine
10
1240.120000000000
20
332.760000000000
30
0.0
11
1289.190000000000
21
332.760000000000
31
0.0
0
LINE
5
574
100
AcDbEntity
8
0-2
6
CONTINUOUS
62
3
100
AcDbLine
10
1240.120000000000
20
335.060000000000
30
0.0
11
1289.190000000000
21
335.060000000000
31
0.0
0
LINE
5
575
100
AcDbEntity
8
0-2
6
CONTINUOUS
62
7
100
AcDbLine
10
1244.240000000000
20
340.060000000000
30
0.0
11
1289.190000000000
21
340.060000000000
31
0.0
0
LINE
5
576
100
AcDbEntity
8
0-2
6
CONTINUOUS
62
7
100
AcDbLine
10
1244.240000000000
20
341.060000000000
30
0.0
11
1289.190000000000
21
341.060000000000
31
0.0
0
LINE
5
577
100
AcDbEntity
8
0-2
6
CONTINUOUS
62
7
100
AcDbLine
10
1243.360000000000
20
341.590000000000
30
0.0
11
1160.370000000000
21
500.170000000000
31
0.0
0
LINE
5
578
100
AcDbEntity
8
0-2
6
CONTINUOUS
62
7
100
AcDbLine
10
1242.470000000000
20
341.130000000000
30
0.0
11
1159.480000000000
21
499.700000000000
31
0.0
0
LINE
5
579
100
AcDbEntity
8
0-2
6
CONTINUOUS
62
3
100
AcDbLine
10
1238.060000000000
20
336.340000000000
30
0.0
11
1180.830000000000
21
453.990000000000
31
0.0
0
LINE
5
57a
100
AcDbEntity
8
0-2
6
CONTINUOUS
62
3
100
AcDbLine
10
1235.810000000000
20
335.250000000000
30
0.0
11
1178.590000000000
21
452.890000000000
31
0.0
0
LINE
5
57b
100
AcDbEntity
8
0-2
6
CONTINUOUS
62
7
100
AcDbLine
10
754.900000000000
20
498.500000000000
30
0.0
11
671.900000000000
21
341.130000000000
31
0.0
0
LINE
5
57c
100
AcDbEntity
8
0-2
6
CONTINUOUS
62
7
100
AcDbLine
10
671.020000000000
20
341.590000000000
30
0.0
11
754.010000000000
21
498.960000000000
31
0.0
0
LINE
5
57d
100
AcDbEntity
8
0-2
6
CONTINUOUS
62
7
100
AcDbLine
10
670.140000000000
20
341.060000000000
30
0.0
11
623.190000000000
21
341.060000000000
31
0.0
0
LINE
5
57e
100
AcDbEntity
8
0-2
6
CONTINUOUS
62
7
100
AcDbLine
10
670.140000000000
20
340.060000000000
30
0.0
11
623.190000000000
21
340.060000000000
31
0.0
0
LINE
5
57f
100
AcDbEntity
8
0-2
6
CONTINUOUS
62
3
100
AcDbLine
10
674.260000000000
20
335.060000000000
30
0.0
11
623.190000000000
21
335.060000000000
31
0.0
0
LINE
5
580
100
AcDbEntity
8
0-2
6
CONTINUOUS
62
3
100
AcDbLine
10
674.260000000000
20
332.760000000000
30
0.0
11
623.190000000000
21
332.760000000000
31
0.0
0
LINE
5
581
100
AcDbEntity
8
0-2
6
CONTINUOUS
62
3
100
AcDbLine
10
756.860000000000
20
495.010000000000
30
0.0
11
678.380000000000
21
335.330000000000
31
0.0
0
LINE
5
582
100
AcDbEntity
8
0-2
6
CONTINUOUS
62
3
100
AcDbLine
10
676.320000000000
20
336.340000000000
30
0.0
11
754.790000000000
21
496.030000000000
31
0.0
0
LINE
5
583
100
AcDbEntity
8
0-2
6
CENTER2
62
7
100
AcDbLine
10
789.690000000000
20
497.600000000000
30
0.0
11
789.690000000000
21
598.480000000000
31
0.0
0
LINE
5
584
100
AcDbEntity
8
0-2
6
CENTER2
62
7
100
AcDbLine
10
1122.690000000000
20
497.600000000000
30
0.0
11
1122.690000000000
21
598.480000000000
31
0.0
0
LINE
5
585
100
AcDbEntity
8
0-2
6
CONTINUOUS
62
7
100
AcDbLine
10
623.190000000000
20
598.480000000000
30
0.0
11
1289.190000000000
21
598.480000000000
31
0.0
0
LINE
5
586
100
AcDbEntity
8
0-2
6
CONTINUOUS
62
7
100
AcDbLine
10
623.190000000000
20
598.480000000000
30
0.0
11
632.850000000000
21
601.070000000000
31
0.0
0
LINE
5
587
100
AcDbEntity
8
0-2
6
CONTINUOUS
62
7
100
AcDbLine
10
623.190000000000
20
598.480000000000
30
0.0
11
632.850000000000
21
595.890000000000
31
0.0
0
LINE
5
588
100
AcDbEntity
8
0-2
6
CONTINUOUS
62
7
100
AcDbLine
10
1289.190000000000
20
598.480000000000
30
0.0
11
1279.530000000000
21
601.070000000000
31
0.0
0
LINE
5
589
100
AcDbEntity
8
0-2
6
CONTINUOUS
62
7
100
AcDbLine
10
1289.190000000000
20
598.480000000000
30
0.0
11
1279.530000000000
21
595.890000000000
31
0.0
0
LINE
5
58a
100
AcDbEntity
8
0-1
6
CONTINUOUS
62
3
100
AcDbLine
10
446.150000000000
20
504.160000000000
30
0.0
11
406.150000000000
21
504.160000000000
31
0.0
0
LINE
5
58b
100
AcDbEntity
8
0-1
6
CONTINUOUS
62
3
100
AcDbLine
10
446.150000000000
20
500.960000000000
30
0.0
11
406.150000000000
21
500.960000000000
31
0.0
0
LINE
5
58c
100
AcDbEntity
8
0-1
6
CONTINUOUS
62
3
100
AcDbLine
10
446.150000000000
20
456.560000000000
30
0.0
11
406.150000000000
21
456.560000000000
31
0.0
0
LINE
5
58d
100
AcDbEntity
8
0-1
6
DOT
62
3
100
AcDbLine
10
446.150000000000
20
451.770000000000
30
0.0
11
406.150000000000
21
451.770000000000
31
0.0
0
LINE
5
58e
100
AcDbEntity
8
0-1
6
CONTINUOUS
62
3
100
AcDbLine
10
446.150000000000
20
335.060000000000
30
0.0
11
406.150000000000
21
335.060000000000
31
0.0
0
LINE
5
58f
100
AcDbEntity
8
0-1
6
CONTINUOUS
62
3
100
AcDbLine
10
419.900000000000
20
492.380000000000
30
0.0
11
413.650000000000
21
481.560000000000
31
0.0
0
LINE
5
590
100
AcDbEntity
8
0-1
6
CONTINUOUS
62
3
100
AcDbLine
10
419.900000000000
20
470.730000000000
30
0.0
11
413.650000000000
21
481.560000000000
31
0.0
0
LINE
5
591
100
AcDbEntity
8
0-1
6
CONTINUOUS
62
3
100
AcDbLine
10
432.400000000000
20
492.380000000000
30
0.0
11
438.650000000000
21
481.560000000000
31
0.0
0
LINE
5
592
100
AcDbEntity
8
0-1
6
CONTINUOUS
62
3
100
AcDbLine
10
432.400000000000
20
470.730000000000
30
0.0
11
438.650000000000
21
481.560000000000
31
0.0
0
LINE
5
593
100
AcDbEntity
8
0-1
6
CONTINUOUS
62
3
100
AcDbLine
10
419.900000000000
20
470.730000000000
30
0.0
11
432.400000000000
21
470.730000000000
31
0.0
0
LINE
5
594
100
AcDbEntity
8
0-1
6
CONTINUOUS
62
3
100
AcDbLine
10
419.900000000000
20
492.380000000000
30
0.0
11
432.400000000000
21
492.380000000000
31
0.0
0
LINE
5
595
100
AcDbEntity
8
0-1
6
CONTINUOUS
62
7
100
AcDbLine
10
301.150000000000
20
531.260000000000
30
0.0
11
286.150000000000
21
531.260000000000
31
0.0
0
LINE
5
596
100
AcDbEntity
8
0-1
6
CONTINUOUS
62
7
100
AcDbLine
10
301.150000000000
20
507.060000000000
30
0.0
11
286.150000000000
21
507.060000000000
31
0.0
0
LINE
5
597
100
AcDbEntity
8
0-1
6
CONTINUOUS
62
3
100
AcDbLine
10
381.150000000000
20
323.860000000000
30
0.0
11
415.400000000000
21
323.860000000000
31
0.0
0
LINE
5
598
100
AcDbEntity
8
0-1
6
CONTINUOUS
62
3
100
AcDbLine
10
423.400000000000
20
244.360000000000
30
0.0
11
423.400000000000
21
315.860000000000
31
0.0
0
POLYLINE
5
599
100
AcDbEntity
8
0-1
6
CONTINUOUS
62
  3
100
AcDb2dPolyline
66
1
10
0.0
20
0.0
30
0.0
70
0
0
VERTEX
5
59a
100
AcDbEntity
8
0-1
6
CONTINUOUS
62
  3
100
AcDbVertex
100
AcDb2dVertex
10
471.150000000000
20
331.860000000000
30
0.0
0
VERTEX
5
59b
100
AcDbEntity
8
0-1
6
CONTINUOUS
62
  3
100
AcDbVertex
100
AcDb2dVertex
10
471.150000000000
20
323.860000000000
30
0.0
0
VERTEX
5
59c
100
AcDbEntity
8
0-1
6
CONTINUOUS
62
  3
100
AcDbVertex
100
AcDb2dVertex
10
436.900000000000
20
323.860000000000
30
0.0
0
SEQEND
5
59d
100
AcDbEntity
8
0-1
0
LINE
5
59e
100
AcDbEntity
8
0-1
6
CONTINUOUS
62
3
100
AcDbLine
10
428.900000000000
20
244.360000000000
30
0.0
11
428.900000000000
21
315.860000000000
31
0.0
0
LINE
5
59f
100
AcDbEntity
8
0-1
6
DOT
62
3
100
AcDbLine
10
406.150000000000
20
339.670000000000
30
0.0
11
446.150000000000
21
339.670000000000
31
0.0
0
LINE
5
5a0
100
AcDbEntity
8
0-1
6
CONTINUOUS
62
7
100
AcDbLine
10
406.150000000000
20
374.780000000000
30
0.0
11
446.150000000000
21
374.780000000000
31
0.0
0
LINE
5
5a1
100
AcDbEntity
8
0-1
6
CONTINUOUS
62
7
100
AcDbLine
10
474.150000000000
20
492.200000000000
30
0.0
11
487.140000000000
21
469.700000000000
31
0.0
0
LINE
5
5a2
100
AcDbEntity
8
0-1
6
CONTINUOUS
62
7
100
AcDbLine
10
406.150000000000
20
413.610000000000
30
0.0
11
393.160000000000
21
436.110000000000
31
0.0
0
LINE
5
5a3
100
AcDbEntity
8
0-1
6
CONTINUOUS
62
3
100
AcDbLine
10
406.150000000000
20
504.160000000000
30
0.0
11
406.150000000000
21
331.860000000000
31
0.0
0
LINE
5
5a4
100
AcDbEntity
8
0-1
6
CONTINUOUS
62
3
100
AcDbLine
10
446.150000000000
20
504.160000000000
30
0.0
11
446.150000000000
21
331.860000000000
31
0.0
0
LINE
5
5a5
100
AcDbEntity
8
0-1
6
DOT
62
3
100
AcDbLine
10
495.150000000000
20
513.660000000000
30
0.0
11
495.150000000000
21
529.560000000000
31
0.0
0
LINE
5
5a6
100
AcDbEntity
8
0-1
6
DOT
62
3
100
AcDbLine
10
444.150000000000
20
461.560000000000
30
0.0
11
426.150000000000
21
461.560000000000
31
0.0
0
LINE
5
5a7
100
AcDbEntity
8
0-1
6
DOT
62
3
100
AcDbLine
10
408.150000000000
20
461.560000000000
30
0.0
11
426.150000000000
21
461.560000000000
31
0.0
0
LINE
5
5a8
100
AcDbEntity
8
0-1
6
CONTINUOUS
62
7
100
AcDbLine
10
286.150000000000
20
531.260000000000
30
0.0
11
286.150000000000
21
507.060000000000
31
0.0
0
LINE
5
5a9
100
AcDbEntity
8
0-1
6
CONTINUOUS
62
7
100
AcDbLine
10
301.150000000000
20
339.670000000000
30
0.0
11
286.150000000000
21
339.670000000000
31
0.0
0
LINE
5
5aa
100
AcDbEntity
8
0-1
6
CONTINUOUS
62
3
100
AcDbLine
10
381.150000000000
20
331.860000000000
30
0.0
11
381.150000000000
21
323.860000000000
31
0.0
0
LINE
5
5ab
100
AcDbEntity
8
0-1
6
CONTINUOUS
62
3
100
AcDbLine
10
471.150000000000
20
331.860000000000
30
0.0
11
381.150000000000
21
331.860000000000
31
0.0
0
LINE
5
5ac
100
AcDbEntity
8
0-1
6
DOT
62
3
100
AcDbLine
10
426.150000000000
20
529.560000000000
30
0.0
11
495.150000000000
21
529.560000000000
31
0.0
0
LINE
5
5ad
100
AcDbEntity
8
0-1
6
DOT
62
3
100
AcDbLine
10
495.150000000000
20
513.660000000000
30
0.0
11
444.150000000000
21
461.560000000000
31
0.0
0
LINE
5
5ae
100
AcDbEntity
8
0-1
6
CONTINUOUS
62
7
100
AcDbLine
10
495.150000000000
20
540.560000000000
30
0.0
11
495.150000000000
21
555.560000000000
31
0.0
0
LINE
5
5af
100
AcDbEntity
8
0-1
6
DOT
62
3
100
AcDbLine
10
357.150000000000
20
513.660000000000
30
0.0
11
357.150000000000
21
529.560000000000
31
0.0
0
LINE
5
5b0
100
AcDbEntity
8
0-1
6
DOT
62
3
100
AcDbLine
10
357.150000000000
20
513.660000000000
30
0.0
11
408.150000000000
21
461.560000000000
31
0.0
0
LINE
5
5b1
100
AcDbEntity
8
0-1
6
DOT
62
3
100
AcDbLine
10
495.150000000000
20
522.650000000000
30
0.0
11
357.150000000000
21
522.650000000000
31
0.0
0
LINE
5
5b2
100
AcDbEntity
8
0-1
6
DOT
62
3
100
AcDbLine
10
426.150000000000
20
529.560000000000
30
0.0
11
357.150000000000
21
529.560000000000
31
0.0
0
POLYLINE
5
5b3
100
AcDbEntity
8
0-1
6
CONTINUOUS
62
  7
100
AcDb2dPolyline
66
1
10
0.0
20
0.0
30
0.0
70
0
0
VERTEX
5
5b4
100
AcDbEntity
8
0-1
6
CONTINUOUS
62
  7
100
AcDbVertex
100
AcDb2dVertex
10
357.150000000000
20
540.560000000000
30
0.0
0
VERTEX
5
5b5
100
AcDbEntity
8
0-1
6
CONTINUOUS
62
  7
100
AcDbVertex
100
AcDb2dVertex
10
357.150000000000
20
555.560000000000
30
0.0
0
VERTEX
5
5b6
100
AcDbEntity
8
0-1
6
CONTINUOUS
62
  7
100
AcDbVertex
100
AcDb2dVertex
10
495.150000000000
20
555.560000000000
30
0.0
0
SEQEND
5
5b7
100
AcDbEntity
8
0-1
0
LINE
5
5b8
100
AcDbEntity
8
0-0
6
CONTINUOUS
62
7
100
AcDbLine
10
762.070000000000
20
924.610000000000
30
0.0
11
761.410000000000
21
924.860000000000
31
0.0
0
LINE
5
5b9
100
AcDbEntity
8
0-0
6
CONTINUOUS
62
7
100
AcDbLine
10
762.430000000000
20
925.550000000000
30
0.0
11
761.690000000000
21
925.820000000000
31
0.0
0
LINE
5
5ba
100
AcDbEntity
8
0-0
6
CONTINUOUS
62
7
100
AcDbLine
10
761.410000000000
20
924.860000000000
30
0.0
11
761.690000000000
21
925.820000000000
31
0.0
0
LINE
5
5bb
100
AcDbEntity
8
0-0
6
CONTINUOUS
62
7
100
AcDbLine
10
772.040000000000
20
938.540000000000
30
0.0
11
787.690000000000
21
938.540000000000
31
0.0
0
LINE
5
5bc
100
AcDbEntity
8
0-0
6
CONTINUOUS
62
7
100
AcDbLine
10
771.100000000000
20
937.870000000000
30
0.0
11
767.230000000000
21
926.940000000000
31
0.0
0
LINE
5
5bd
100
AcDbEntity
8
0-0
6
CONTINUOUS
62
7
100
AcDbLine
10
787.690000000000
20
939.540000000000
30
0.0
11
772.040000000000
21
939.540000000000
31
0.0
0
LINE
5
5be
100
AcDbEntity
8
0-0
6
CONTINUOUS
62
7
100
AcDbLine
10
766.290000000000
20
927.270000000000
30
0.0
11
770.160000000000
21
938.210000000000
31
0.0
0
LINE
5
5bf
100
AcDbEntity
8
0-2
6
CONTINUOUS
62
2
100
AcDbLine
10
598.190000000000
20
331.860000000000
30
0.0
11
1314.190000000000
21
331.860000000000
31
0.0
0
LINE
5
5c0
100
AcDbEntity
8
0-2
6
CONTINUOUS
62
2
100
AcDbLine
10
598.190000000000
20
323.860000000000
30
0.0
11
1314.190000000000
21
323.860000000000
31
0.0
0
LINE
5
5c1
100
AcDbEntity
8
0-2
6
CONTINUOUS
62
4
100
AcDbLine
10
985.940000000000
20
335.060000000000
30
0.0
11
990.940000000000
21
340.060000000000
31
0.0
0
LINE
5
5c2
100
AcDbEntity
8
0-2
6
CONTINUOUS
62
4
100
AcDbLine
10
980.280000000000
20
335.060000000000
30
0.0
11
985.280000000000
21
340.060000000000
31
0.0
0
LINE
5
5c3
100
AcDbEntity
8
0-2
6
CONTINUOUS
62
4
100
AcDbLine
10
974.630000000000
20
335.060000000000
30
0.0
11
979.630000000000
21
340.060000000000
31
0.0
0
LINE
5
5c4
100
AcDbEntity
8
0-2
6
CONTINUOUS
62
4
100
AcDbLine
10
968.970000000000
20
335.060000000000
30
0.0
11
973.970000000000
21
340.060000000000
31
0.0
0
LINE
5
5c5
100
AcDbEntity
8
0-2
6
CONTINUOUS
62
4
100
AcDbLine
10
963.310000000000
20
335.060000000000
30
0.0
11
968.310000000000
21
340.060000000000
31
0.0
0
LINE
5
5c6
100
AcDbEntity
8
0-2
6
CONTINUOUS
62
4
100
AcDbLine
10
957.660000000000
20
335.060000000000
30
0.0
11
962.660000000000
21
340.060000000000
31
0.0
0
LINE
5
5c7
100
AcDbEntity
8
0-2
6
CONTINUOUS
62
4
100
AcDbLine
10
952.000000000000
20
335.060000000000
30
0.0
11
957.000000000000
21
340.060000000000
31
0.0
0
LINE
5
5c8
100
AcDbEntity
8
0-2
6
CONTINUOUS
62
4
100
AcDbLine
10
946.340000000000
20
335.060000000000
30
0.0
11
951.340000000000
21
340.060000000000
31
0.0
0
LINE
5
5c9
100
AcDbEntity
8
0-2
6
CONTINUOUS
62
4
100
AcDbLine
10
940.690000000000
20
335.060000000000
30
0.0
11
945.680000000000
21
340.060000000000
31
0.0
0
LINE
5
5ca
100
AcDbEntity
8
0-2
6
CONTINUOUS
62
4
100
AcDbLine
10
935.030000000000
20
335.060000000000
30
0.0
11
940.030000000000
21
340.060000000000
31
0.0
0
LINE
5
5cb
100
AcDbEntity
8
0-2
6
CONTINUOUS
62
4
100
AcDbLine
10
929.370000000000
20
335.060000000000
30
0.0
11
934.370000000000
21
340.060000000000
31
0.0
0
LINE
5
5cc
100
AcDbEntity
8
0-2
6
CONTINUOUS
62
4
100
AcDbLine
10
923.710000000000
20
335.060000000000
30
0.0
11
928.710000000000
21
340.060000000000
31
0.0
0
LINE
5
5cd
100
AcDbEntity
8
0-2
6
CONTINUOUS
62
4
100
AcDbLine
10
918.060000000000
20
335.060000000000
30
0.0
11
923.060000000000
21
340.060000000000
31
0.0
0
LINE
5
5ce
100
AcDbEntity
8
0-2
6
CONTINUOUS
62
4
100
AcDbLine
10
918.290000000000
20
340.060000000000
30
0.0
11
923.290000000000
21
335.060000000000
31
0.0
0
LINE
5
5cf
100
AcDbEntity
8
0-2
6
CONTINUOUS
62
4
100
AcDbLine
10
923.950000000000
20
340.060000000000
30
0.0
11
928.950000000000
21
335.060000000000
31
0.0
0
LINE
5
5d0
100
AcDbEntity
8
0-2
6
CONTINUOUS
62
4
100
AcDbLine
10
929.610000000000
20
340.060000000000
30
0.0
11
934.610000000000
21
335.060000000000
31
0.0
0
LINE
5
5d1
100
AcDbEntity
8
0-2
6
CONTINUOUS
62
4
100
AcDbLine
10
935.260000000000
20
340.060000000000
30
0.0
11
940.260000000000
21
335.060000000000
31
0.0
0
LINE
5
5d2
100
AcDbEntity
8
0-2
6
CONTINUOUS
62
4
100
AcDbLine
10
940.920000000000
20
340.060000000000
30
0.0
11
945.920000000000
21
335.060000000000
31
0.0
0
LINE
5
5d3
100
AcDbEntity
8
0-2
6
CONTINUOUS
62
4
100
AcDbLine
10
946.580000000000
20
340.060000000000
30
0.0
11
951.580000000000
21
335.060000000000
31
0.0
0
LINE
5
5d4
100
AcDbEntity
8
0-2
6
CONTINUOUS
62
4
100
AcDbLine
10
952.240000000000
20
340.060000000000
30
0.0
11
957.230000000000
21
335.060000000000
31
0.0
0
LINE
5
5d5
100
AcDbEntity
8
0-2
6
CONTINUOUS
62
4
100
AcDbLine
10
957.890000000000
20
340.060000000000
30
0.0
11
962.890000000000
21
335.060000000000
31
0.0
0
LINE
5
5d6
100
AcDbEntity
8
0-2
6
CONTINUOUS
62
4
100
AcDbLine
10
963.550000000000
20
340.060000000000
30
0.0
11
968.550000000000
21
335.060000000000
31
0.0
0
LINE
5
5d7
100
AcDbEntity
8
0-2
6
CONTINUOUS
62
4
100
AcDbLine
10
969.210000000000
20
340.060000000000
30
0.0
11
974.210000000000
21
335.060000000000
31
0.0
0
LINE
5
5d8
100
AcDbEntity
8
0-2
6
CONTINUOUS
62
4
100
AcDbLine
10
974.860000000000
20
340.060000000000
30
0.0
11
979.860000000000
21
335.060000000000
31
0.0
0
LINE
5
5d9
100
AcDbEntity
8
0-2
6
CONTINUOUS
62
4
100
AcDbLine
10
980.520000000000
20
340.060000000000
30
0.0
11
985.520000000000
21
335.060000000000
31
0.0
0
LINE
5
5da
100
AcDbEntity
8
0-2
6
CONTINUOUS
62
4
100
AcDbLine
10
986.180000000000
20
340.060000000000
30
0.0
11
991.180000000000
21
335.060000000000
31
0.0
0
LINE
5
5db
100
AcDbEntity
8
0-2
6
CONTINUOUS
62
4
100
AcDbLine
10
912.400000000000
20
335.060000000000
30
0.0
11
917.400000000000
21
340.060000000000
31
0.0
0
LINE
5
5dc
100
AcDbEntity
8
0-2
6
CONTINUOUS
62
4
100
AcDbLine
10
912.640000000000
20
340.060000000000
30
0.0
11
917.640000000000
21
335.060000000000
31
0.0
0
LINE
5
5dd
100
AcDbEntity
8
0-2
6
CONTINUOUS
62
7
100
AcDbLine
10
821.750000000000
20
496.980000000000
30
0.0
11
793.510000000000
21
502.990000000000
31
0.0
0
LINE
5
5de
100
AcDbEntity
8
0-2
6
CONTINUOUS
62
7
100
AcDbLine
10
787.470000000000
20
501.710000000000
30
0.0
11
793.510000000000
21
502.990000000000
31
0.0
0
LINE
5
5df
100
AcDbEntity
8
0-2
6
CONTINUOUS
62
4
100
AcDbLine
10
899.880000000000
20
350.820000000000
30
0.0
11
902.830000000000
21
353.770000000000
31
0.0
0
LINE
5
5e0
100
AcDbEntity
8
0-2
6
CONTINUOUS
62
4
100
AcDbLine
10
901.830000000000
20
347.110000000000
30
0.0
11
904.680000000000
21
349.970000000000
31
0.0
0
LINE
5
5e1
100
AcDbEntity
8
0-2
6
CONTINUOUS
62
4
100
AcDbLine
10
903.770000000000
20
343.400000000000
30
0.0
11
906.530000000000
21
346.160000000000
31
0.0
0
LINE
5
5e2
100
AcDbEntity
8
0-2
6
CONTINUOUS
62
4
100
AcDbLine
10
905.710000000000
20
339.680000000000
30
0.0
11
908.680000000000
21
342.650000000000
31
0.0
0
LINE
5
5e3
100
AcDbEntity
8
0-2
6
CONTINUOUS
62
4
100
AcDbLine
10
903.910000000000
20
343.130000000000
30
0.0
11
911.980000000000
21
335.060000000000
31
0.0
0
LINE
5
5e4
100
AcDbEntity
8
0-2
6
CONTINUOUS
62
4
100
AcDbLine
10
897.700000000000
20
354.990000000000
30
0.0
11
907.170000000000
21
345.520000000000
31
0.0
0
LINE
5
5e5
100
AcDbEntity
8
0-2
6
CONTINUOUS
62
4
100
AcDbLine
10
882.330000000000
20
393.000000000000
30
0.0
11
872.860000000000
21
402.470000000000
31
0.0
0
LINE
5
5e6
100
AcDbEntity
8
0-2
6
CONTINUOUS
62
4
100
AcDbLine
10
888.540000000000
20
381.130000000000
30
0.0
11
879.070000000000
21
390.600000000000
31
0.0
0
LINE
5
5e7
100
AcDbEntity
8
0-2
6
CONTINUOUS
62
4
100
AcDbLine
10
894.750000000000
20
369.260000000000
30
0.0
11
885.280000000000
21
378.730000000000
31
0.0
0
LINE
5
5e8
100
AcDbEntity
8
0-2
6
CONTINUOUS
62
4
100
AcDbLine
10
900.960000000000
20
357.390000000000
30
0.0
11
891.490000000000
21
366.860000000000
31
0.0
0
LINE
5
5e9
100
AcDbEntity
8
0-2
6
CONTINUOUS
62
3
100
AcDbLine
10
907.120000000000
20
335.060000000000
30
0.0
11
956.190000000000
21
335.060000000000
31
0.0
0
LINE
5
5ea
100
AcDbEntity
8
0-2
6
CONTINUOUS
62
4
100
AcDbLine
10
907.820000000000
20
336.140000000000
30
0.0
11
911.740000000000
21
340.060000000000
31
0.0
0
LINE
5
5eb
100
AcDbEntity
8
0-2
6
CONTINUOUS
62
4
100
AcDbLine
10
780.910000000000
20
503.380000000000
30
0.0
11
782.210000000000
21
504.680000000000
31
0.0
0
LINE
5
5ec
100
AcDbEntity
8
0-2
6
CONTINUOUS
62
4
100
AcDbLine
10
786.210000000000
20
503.030000000000
30
0.0
11
791.180000000000
21
507.990000000000
31
0.0
0
LINE
5
5ed
100
AcDbEntity
8
0-2
6
CONTINUOUS
62
4
100
AcDbLine
10
791.390000000000
20
502.540000000000
30
0.0
11
795.500000000000
21
506.660000000000
31
0.0
0
LINE
5
5ee
100
AcDbEntity
8
0-2
6
CONTINUOUS
62
4
100
AcDbLine
10
796.790000000000
20
502.290000000000
30
0.0
11
800.170000000000
21
505.670000000000
31
0.0
0
LINE
5
5ef
100
AcDbEntity
8
0-2
6
CONTINUOUS
62
4
100
AcDbLine
10
801.460000000000
20
501.300000000000
30
0.0
11
804.830000000000
21
504.670000000000
31
0.0
0
LINE
5
5f0
100
AcDbEntity
8
0-2
6
CONTINUOUS
62
4
100
AcDbLine
10
806.120000000000
20
500.310000000000
30
0.0
11
809.500000000000
21
503.680000000000
31
0.0
0
LINE
5
5f1
100
AcDbEntity
8
0-2
6
CONTINUOUS
62
4
100
AcDbLine
10
810.790000000000
20
499.320000000000
30
0.0
11
814.160000000000
21
502.690000000000
31
0.0
0
LINE
5
5f2
100
AcDbEntity
8
0-2
6
CONTINUOUS
62
4
100
AcDbLine
10
815.450000000000
20
498.320000000000
30
0.0
11
818.820000000000
21
501.700000000000
31
0.0
0
LINE
5
5f3
100
AcDbEntity
8
0-2
6
CONTINUOUS
62
4
100
AcDbLine
10
820.120000000000
20
497.330000000000
30
0.0
11
823.490000000000
21
500.700000000000
31
0.0
0
LINE
5
5f4
100
AcDbEntity
8
0-2
6
CONTINUOUS
62
4
100
AcDbLine
10
824.030000000000
20
495.590000000000
30
0.0
11
827.050000000000
21
498.610000000000
31
0.0
0
LINE
5
5f5
100
AcDbEntity
8
0-2
6
CONTINUOUS
62
7
100
AcDbLine
10
907.010000000000
20
337.200000000000
30
0.0
11
873.400000000000
21
401.420000000000
31
0.0
0
LINE
5
5f6
100
AcDbEntity
8
0-2
6
CONTINUOUS
62
7
100
AcDbLine
10
844.370000000000
20
456.900000000000
30
0.0
11
824.470000000000
21
494.930000000000
31
0.0
0
LINE
5
5f7
100
AcDbEntity
8
0-2
6
CONTINUOUS
62
4
100
AcDbLine
10
826.030000000000
20
491.930000000000
30
0.0
11
829.000000000000
21
494.900000000000
31
0.0
0
LINE
5
5f8
100
AcDbEntity
8
0-2
6
CONTINUOUS
62
4
100
AcDbLine
10
827.980000000000
20
488.220000000000
30
0.0
11
830.940000000000
21
491.180000000000
31
0.0
0
LINE
5
5f9
100
AcDbEntity
8
0-2
6
CONTINUOUS
62
4
100
AcDbLine
10
829.920000000000
20
484.510000000000
30
0.0
11
832.880000000000
21
487.470000000000
31
0.0
0
LINE
5
5fa
100
AcDbEntity
8
0-2
6
CONTINUOUS
62
4
100
AcDbLine
10
831.860000000000
20
480.790000000000
30
0.0
11
834.830000000000
21
483.760000000000
31
0.0
0
LINE
5
5fb
100
AcDbEntity
8
0-2
6
CONTINUOUS
62
4
100
AcDbLine
10
833.810000000000
20
477.080000000000
30
0.0
11
836.770000000000
21
480.040000000000
31
0.0
0
LINE
5
5fc
100
AcDbEntity
8
0-2
6
CONTINUOUS
62
4
100
AcDbLine
10
835.750000000000
20
473.370000000000
30
0.0
11
838.710000000000
21
476.330000000000
31
0.0
0
LINE
5
5fd
100
AcDbEntity
8
0-2
6
CONTINUOUS
62
4
100
AcDbLine
10
837.690000000000
20
469.650000000000
30
0.0
11
840.660000000000
21
472.620000000000
31
0.0
0
LINE
5
5fe
100
AcDbEntity
8
0-2
6
CONTINUOUS
62
4
100
AcDbLine
10
839.640000000000
20
465.940000000000
30
0.0
11
842.600000000000
21
468.900000000000
31
0.0
0
LINE
5
5ff
100
AcDbEntity
8
0-2
6
CONTINUOUS
62
4
100
AcDbLine
10
841.580000000000
20
462.230000000000
30
0.0
11
844.540000000000
21
465.190000000000
31
0.0
0
LINE
5
600
100
AcDbEntity
8
0-2
6
CONTINUOUS
62
4
100
AcDbLine
10
843.520000000000
20
458.510000000000
30
0.0
11
846.490000000000
21
461.480000000000
31
0.0
0
LINE
5
601
100
AcDbEntity
8
0-2
6
CONTINUOUS
62
4
100
AcDbLine
10
846.370000000000
20
455.710000000000
30
0.0
11
848.430000000000
21
457.760000000000
31
0.0
0
LINE
5
602
100
AcDbEntity
8
0-2
6
CONTINUOUS
62
4
100
AcDbLine
10
848.640000000000
20
452.320000000000
30
0.0
11
850.370000000000
21
454.050000000000
31
0.0
0
LINE
5
603
100
AcDbEntity
8
0-2
6
CONTINUOUS
62
4
100
AcDbLine
10
850.500000000000
20
448.510000000000
30
0.0
11
852.320000000000
21
450.340000000000
31
0.0
0
LINE
5
604
100
AcDbEntity
8
0-2
6
CONTINUOUS
62
4
100
AcDbLine
10
852.350000000000
20
444.710000000000
30
0.0
11
854.260000000000
21
446.620000000000
31
0.0
0
LINE
5
605
100
AcDbEntity
8
0-2
6
CONTINUOUS
62
4
100
AcDbLine
10
854.200000000000
20
440.900000000000
30
0.0
11
856.200000000000
21
442.910000000000
31
0.0
0
LINE
5
606
100
AcDbEntity
8
0-2
6
CONTINUOUS
62
4
100
AcDbLine
10
856.050000000000
20
437.100000000000
30
0.0
11
858.150000000000
21
439.200000000000
31
0.0
0
LINE
5
607
100
AcDbEntity
8
0-2
6
CONTINUOUS
62
4
100
AcDbLine
10
857.900000000000
20
433.290000000000
30
0.0
11
860.090000000000
21
435.480000000000
31
0.0
0
LINE
5
608
100
AcDbEntity
8
0-2
6
CONTINUOUS
62
4
100
AcDbLine
10
859.750000000000
20
429.490000000000
30
0.0
11
862.030000000000
21
431.770000000000
31
0.0
0
LINE
5
609
100
AcDbEntity
8
0-2
6
CONTINUOUS
62
4
100
AcDbLine
10
861.600000000000
20
425.680000000000
30
0.0
11
863.980000000000
21
428.060000000000
31
0.0
0
LINE
5
60a
100
AcDbEntity
8
0-2
6
CONTINUOUS
62
4
100
AcDbLine
10
863.450000000000
20
421.870000000000
30
0.0
11
865.920000000000
21
424.340000000000
31
0.0
0
LINE
5
60b
100
AcDbEntity
8
0-2
6
CONTINUOUS
62
4
100
AcDbLine
10
865.300000000000
20
418.070000000000
30
0.0
11
867.860000000000
21
420.630000000000
31
0.0
0
LINE
5
60c
100
AcDbEntity
8
0-2
6
CONTINUOUS
62
4
100
AcDbLine
10
867.160000000000
20
414.260000000000
30
0.0
11
869.810000000000
21
416.920000000000
31
0.0
0
LINE
5
60d
100
AcDbEntity
8
0-2
6
CONTINUOUS
62
4
100
AcDbLine
10
869.010000000000
20
410.460000000000
30
0.0
11
871.750000000000
21
413.200000000000
31
0.0
0
LINE
5
60e
100
AcDbEntity
8
0-2
6
CONTINUOUS
62
4
100
AcDbLine
10
870.860000000000
20
406.650000000000
30
0.0
11
873.690000000000
21
409.490000000000
31
0.0
0
LINE
5
60f
100
AcDbEntity
8
0-2
6
CONTINUOUS
62
4
100
AcDbLine
10
872.710000000000
20
402.850000000000
30
0.0
11
875.640000000000
21
405.780000000000
31
0.0
0
LINE
5
610
100
AcDbEntity
8
0-2
6
CONTINUOUS
62
4
100
AcDbLine
10
874.620000000000
20
399.100000000000
30
0.0
11
877.580000000000
21
402.060000000000
31
0.0
0
LINE
5
611
100
AcDbEntity
8
0-2
6
CONTINUOUS
62
4
100
AcDbLine
10
876.560000000000
20
395.380000000000
30
0.0
11
879.530000000000
21
398.350000000000
31
0.0
0
LINE
5
612
100
AcDbEntity
8
0-2
6
CONTINUOUS
62
4
100
AcDbLine
10
878.500000000000
20
391.670000000000
30
0.0
11
881.470000000000
21
394.640000000000
31
0.0
0
LINE
5
613
100
AcDbEntity
8
0-2
6
CONTINUOUS
62
4
100
AcDbLine
10
880.450000000000
20
387.960000000000
30
0.0
11
883.410000000000
21
390.920000000000
31
0.0
0
LINE
5
614
100
AcDbEntity
8
0-2
6
CONTINUOUS
62
4
100
AcDbLine
10
882.390000000000
20
384.240000000000
30
0.0
11
885.360000000000
21
387.210000000000
31
0.0
0
LINE
5
615
100
AcDbEntity
8
0-2
6
CONTINUOUS
62
4
100
AcDbLine
10
884.340000000000
20
380.530000000000
30
0.0
11
887.300000000000
21
383.490000000000
31
0.0
0
LINE
5
616
100
AcDbEntity
8
0-2
6
CONTINUOUS
62
4
100
AcDbLine
10
886.280000000000
20
376.820000000000
30
0.0
11
889.240000000000
21
379.780000000000
31
0.0
0
LINE
5
617
100
AcDbEntity
8
0-2
6
CONTINUOUS
62
4
100
AcDbLine
10
888.220000000000
20
373.100000000000
30
0.0
11
891.190000000000
21
376.070000000000
31
0.0
0
LINE
5
618
100
AcDbEntity
8
0-2
6
CONTINUOUS
62
4
100
AcDbLine
10
890.170000000000
20
369.390000000000
30
0.0
11
893.130000000000
21
372.350000000000
31
0.0
0
LINE
5
619
100
AcDbEntity
8
0-2
6
CONTINUOUS
62
4
100
AcDbLine
10
892.110000000000
20
365.680000000000
30
0.0
11
895.070000000000
21
368.640000000000
31
0.0
0
LINE
5
61a
100
AcDbEntity
8
0-2
6
CONTINUOUS
62
4
100
AcDbLine
10
894.050000000000
20
361.960000000000
30
0.0
11
897.020000000000
21
364.930000000000
31
0.0
0
LINE
5
61b
100
AcDbEntity
8
0-2
6
CONTINUOUS
62
4
100
AcDbLine
10
896.000000000000
20
358.250000000000
30
0.0
11
898.960000000000
21
361.210000000000
31
0.0
0
LINE
5
61c
100
AcDbEntity
8
0-2
6
CONTINUOUS
62
4
100
AcDbLine
10
897.940000000000
20
354.540000000000
30
0.0
11
900.900000000000
21
357.500000000000
31
0.0
0
LINE
5
61d
100
AcDbEntity
8
0-2
6
CONTINUOUS
62
4
100
AcDbLine
10
876.120000000000
20
404.860000000000
30
0.0
11
866.640000000000
21
414.340000000000
31
0.0
0
LINE
5
61e
100
AcDbEntity
8
0-2
6
CONTINUOUS
62
4
100
AcDbLine
10
869.900000000000
20
416.730000000000
30
0.0
11
860.430000000000
21
426.200000000000
31
0.0
0
LINE
5
61f
100
AcDbEntity
8
0-2
6
CONTINUOUS
62
4
100
AcDbLine
10
863.690000000000
20
428.600000000000
30
0.0
11
854.220000000000
21
438.070000000000
31
0.0
0
LINE
5
620
100
AcDbEntity
8
0-2
6
CONTINUOUS
62
4
100
AcDbLine
10
857.480000000000
20
440.470000000000
30
0.0
11
848.010000000000
21
449.940000000000
31
0.0
0
LINE
5
621
100
AcDbEntity
8
0-2
6
CONTINUOUS
62
4
100
AcDbLine
10
851.270000000000
20
452.340000000000
30
0.0
11
841.800000000000
21
461.810000000000
31
0.0
0
LINE
5
622
100
AcDbEntity
8
0-2
6
CONTINUOUS
62
4
100
AcDbLine
10
845.060000000000
20
464.200000000000
30
0.0
11
835.590000000000
21
473.680000000000
31
0.0
0
LINE
5
623
100
AcDbEntity
8
0-2
6
CONTINUOUS
62
4
100
AcDbLine
10
838.850000000000
20
476.070000000000
30
0.0
11
829.380000000000
21
485.540000000000
31
0.0
0
LINE
5
624
100
AcDbEntity
8
0-2
6
CONTINUOUS
62
4
100
AcDbLine
10
832.640000000000
20
487.940000000000
30
0.0
11
818.900000000000
21
501.680000000000
31
0.0
0
LINE
5
625
100
AcDbEntity
8
0-2
6
CONTINUOUS
62
4
100
AcDbLine
10
816.910000000000
20
498.020000000000
30
0.0
11
811.710000000000
21
503.210000000000
31
0.0
0
LINE
5
626
100
AcDbEntity
8
0-2
6
CONTINUOUS
62
4
100
AcDbLine
10
809.720000000000
20
499.540000000000
30
0.0
11
804.520000000000
21
504.740000000000
31
0.0
0
LINE
5
627
100
AcDbEntity
8
0-2
6
CONTINUOUS
62
4
100
AcDbLine
10
802.530000000000
20
501.070000000000
30
0.0
11
797.340000000000
21
506.270000000000
31
0.0
0
LINE
5
628
100
AcDbEntity
8
0-2
6
CONTINUOUS
62
4
100
AcDbLine
10
795.350000000000
20
502.600000000000
30
0.0
11
790.150000000000
21
507.800000000000
31
0.0
0
LINE
5
629
100
AcDbEntity
8
0-2
6
CONTINUOUS
62
4
100
AcDbLine
10
782.850000000000
20
503.790000000000
30
0.0
11
782.000000000000
21
504.630000000000
31
0.0
0
LINE
5
62a
100
AcDbEntity
8
0-2
6
CONTINUOUS
62
4
100
AcDbLine
10
790.040000000000
20
502.250000000000
30
0.0
11
786.670000000000
21
505.630000000000
31
0.0
0
LINE
5
62b
100
AcDbEntity
8
0-2
6
CONTINUOUS
62
4
100
AcDbLine
10
1285.000000000000
20
335.060000000000
30
0.0
11
1290.000000000000
21
340.060000000000
31
0.0
0
LINE
5
62c
100
AcDbEntity
8
0-2
6
CONTINUOUS
62
4
100
AcDbLine
10
1279.340000000000
20
335.060000000000
30
0.0
11
1284.340000000000
21
340.060000000000
31
0.0
0
LINE
5
62d
100
AcDbEntity
8
0-2
6
CONTINUOUS
62
4
100
AcDbLine
10
1273.690000000000
20
335.060000000000
30
0.0
11
1278.680000000000
21
340.060000000000
31
0.0
0
LINE
5
62e
100
AcDbEntity
8
0-2
6
CONTINUOUS
62
4
100
AcDbLine
10
1268.030000000000
20
335.060000000000
30
0.0
11
1273.030000000000
21
340.060000000000
31
0.0
0
LINE
5
62f
100
AcDbEntity
8
0-2
6
CONTINUOUS
62
4
100
AcDbLine
10
1262.370000000000
20
335.060000000000
30
0.0
11
1267.370000000000
21
340.060000000000
31
0.0
0
LINE
5
630
100
AcDbEntity
8
0-2
6
CONTINUOUS
62
4
100
AcDbLine
10
1256.710000000000
20
335.060000000000
30
0.0
11
1261.710000000000
21
340.060000000000
31
0.0
0
LINE
5
631
100
AcDbEntity
8
0-2
6
CONTINUOUS
62
4
100
AcDbLine
10
1251.060000000000
20
335.060000000000
30
0.0
11
1256.060000000000
21
340.060000000000
31
0.0
0
LINE
5
632
100
AcDbEntity
8
0-2
6
CONTINUOUS
62
4
100
AcDbLine
10
1251.290000000000
20
340.060000000000
30
0.0
11
1256.290000000000
21
335.060000000000
31
0.0
0
LINE
5
633
100
AcDbEntity
8
0-2
6
CONTINUOUS
62
4
100
AcDbLine
10
1256.950000000000
20
340.060000000000
30
0.0
11
1261.950000000000
21
335.060000000000
31
0.0
0
LINE
5
634
100
AcDbEntity
8
0-2
6
CONTINUOUS
62
4
100
AcDbLine
10
1262.610000000000
20
340.060000000000
30
0.0
11
1267.610000000000
21
335.060000000000
31
0.0
0
LINE
5
635
100
AcDbEntity
8
0-2
6
CONTINUOUS
62
4
100
AcDbLine
10
1268.260000000000
20
340.060000000000
30
0.0
11
1273.260000000000
21
335.060000000000
31
0.0
0
LINE
5
636
100
AcDbEntity
8
0-2
6
CONTINUOUS
62
4
100
AcDbLine
10
1273.920000000000
20
340.060000000000
30
0.0
11
1278.920000000000
21
335.060000000000
31
0.0
0
LINE
5
637
100
AcDbEntity
8
0-2
6
CONTINUOUS
62
4
100
AcDbLine
10
1279.580000000000
20
340.060000000000
30
0.0
11
1284.580000000000
21
335.060000000000
31
0.0
0
LINE
5
638
100
AcDbEntity
8
0-2
6
CONTINUOUS
62
4
100
AcDbLine
10
1285.240000000000
20
340.060000000000
30
0.0
11
1290.230000000000
21
335.060000000000
31
0.0
0
LINE
5
639
100
AcDbEntity
8
0-2
6
CONTINUOUS
62
4
100
AcDbLine
10
1245.400000000000
20
335.060000000000
30
0.0
11
1250.400000000000
21
340.060000000000
31
0.0
0
LINE
5
63a
100
AcDbEntity
8
0-2
6
CONTINUOUS
62
4
100
AcDbLine
10
1245.640000000000
20
340.060000000000
30
0.0
11
1250.640000000000
21
335.060000000000
31
0.0
0
LINE
5
63b
100
AcDbEntity
8
0-2
6
CONTINUOUS
62
7
100
AcDbLine
10
1154.750000000000
20
496.980000000000
30
0.0
11
1126.510000000000
21
502.990000000000
31
0.0
0
LINE
5
63c
100
AcDbEntity
8
0-2
6
CONTINUOUS
62
7
100
AcDbLine
10
1120.470000000000
20
501.710000000000
30
0.0
11
1126.510000000000
21
502.990000000000
31
0.0
0
LINE
5
63d
100
AcDbEntity
8
0-2
6
CONTINUOUS
62
4
100
AcDbLine
10
1232.880000000000
20
350.820000000000
30
0.0
11
1235.830000000000
21
353.770000000000
31
0.0
0
LINE
5
63e
100
AcDbEntity
8
0-2
6
CONTINUOUS
62
4
100
AcDbLine
10
1234.830000000000
20
347.110000000000
30
0.0
11
1237.680000000000
21
349.970000000000
31
0.0
0
LINE
5
63f
100
AcDbEntity
8
0-2
6
CONTINUOUS
62
4
100
AcDbLine
10
1236.770000000000
20
343.400000000000
30
0.0
11
1239.530000000000
21
346.160000000000
31
0.0
0
LINE
5
640
100
AcDbEntity
8
0-2
6
CONTINUOUS
62
4
100
AcDbLine
10
1238.710000000000
20
339.680000000000
30
0.0
11
1241.680000000000
21
342.650000000000
31
0.0
0
LINE
5
641
100
AcDbEntity
8
0-2
6
CONTINUOUS
62
4
100
AcDbLine
10
1236.910000000000
20
343.130000000000
30
0.0
11
1244.980000000000
21
335.060000000000
31
0.0
0
LINE
5
642
100
AcDbEntity
8
0-2
6
CONTINUOUS
62
4
100
AcDbLine
10
1230.700000000000
20
355.000000000000
30
0.0
11
1240.170000000000
21
345.520000000000
31
0.0
0
LINE
5
643
100
AcDbEntity
8
0-2
6
CONTINUOUS
62
4
100
AcDbLine
10
1215.330000000000
20
393.000000000000
30
0.0
11
1205.860000000000
21
402.470000000000
31
0.0
0
LINE
5
644
100
AcDbEntity
8
0-2
6
CONTINUOUS
62
4
100
AcDbLine
10
1221.540000000000
20
381.130000000000
30
0.0
11
1212.070000000000
21
390.600000000000
31
0.0
0
LINE
5
645
100
AcDbEntity
8
0-2
6
CONTINUOUS
62
4
100
AcDbLine
10
1227.750000000000
20
369.260000000000
30
0.0
11
1218.280000000000
21
378.730000000000
31
0.0
0
LINE
5
646
100
AcDbEntity
8
0-2
6
CONTINUOUS
62
4
100
AcDbLine
10
1233.960000000000
20
357.390000000000
30
0.0
11
1224.490000000000
21
366.860000000000
31
0.0
0
LINE
5
647
100
AcDbEntity
8
0-2
6
CONTINUOUS
62
4
100
AcDbLine
10
1240.820000000000
20
336.140000000000
30
0.0
11
1244.740000000000
21
340.060000000000
31
0.0
0
LINE
5
648
100
AcDbEntity
8
0-2
6
CONTINUOUS
62
4
100
AcDbLine
10
1113.910000000000
20
503.380000000000
30
0.0
11
1115.210000000000
21
504.680000000000
31
0.0
0
LINE
5
649
100
AcDbEntity
8
0-2
6
CONTINUOUS
62
4
100
AcDbLine
10
1119.210000000000
20
503.030000000000
30
0.0
11
1124.180000000000
21
507.990000000000
31
0.0
0
LINE
5
64a
100
AcDbEntity
8
0-2
6
CONTINUOUS
62
4
100
AcDbLine
10
1124.390000000000
20
502.540000000000
30
0.0
11
1128.500000000000
21
506.660000000000
31
0.0
0
LINE
5
64b
100
AcDbEntity
8
0-2
6
CONTINUOUS
62
4
100
AcDbLine
10
1129.790000000000
20
502.290000000000
30
0.0
11
1133.170000000000
21
505.670000000000
31
0.0
0
LINE
5
64c
100
AcDbEntity
8
0-2
6
CONTINUOUS
62
4
100
AcDbLine
10
1134.460000000000
20
501.300000000000
30
0.0
11
1137.830000000000
21
504.670000000000
31
0.0
0
LINE
5
64d
100
AcDbEntity
8
0-2
6
CONTINUOUS
62
4
100
AcDbLine
10
1139.120000000000
20
500.310000000000
30
0.0
11
1142.500000000000
21
503.680000000000
31
0.0
0
LINE
5
64e
100
AcDbEntity
8
0-2
6
CONTINUOUS
62
4
100
AcDbLine
10
1143.790000000000
20
499.320000000000
30
0.0
11
1147.160000000000
21
502.690000000000
31
0.0
0
LINE
5
64f
100
AcDbEntity
8
0-2
6
CONTINUOUS
62
4
100
AcDbLine
10
1148.450000000000
20
498.320000000000
30
0.0
11
1151.820000000000
21
501.700000000000
31
0.0
0
LINE
5
650
100
AcDbEntity
8
0-2
6
CONTINUOUS
62
4
100
AcDbLine
10
1153.120000000000
20
497.330000000000
30
0.0
11
1156.490000000000
21
500.700000000000
31
0.0
0
LINE
5
651
100
AcDbEntity
8
0-2
6
CONTINUOUS
62
4
100
AcDbLine
10
1157.030000000000
20
495.590000000000
30
0.0
11
1160.050000000000
21
498.610000000000
31
0.0
0
LINE
5
652
100
AcDbEntity
8
0-2
6
CONTINUOUS
62
7
100
AcDbLine
10
1240.010000000000
20
337.200000000000
30
0.0
11
1206.400000000000
21
401.420000000000
31
0.0
0
LINE
5
653
100
AcDbEntity
8
0-2
6
CONTINUOUS
62
7
100
AcDbLine
10
1177.370000000000
20
456.900000000000
30
0.0
11
1157.470000000000
21
494.930000000000
31
0.0
0
LINE
5
654
100
AcDbEntity
8
0-2
6
CONTINUOUS
62
4
100
AcDbLine
10
1159.030000000000
20
491.930000000000
30
0.0
11
1162.000000000000
21
494.900000000000
31
0.0
0
LINE
5
655
100
AcDbEntity
8
0-2
6
CONTINUOUS
62
4
100
AcDbLine
10
1160.980000000000
20
488.220000000000
30
0.0
11
1163.940000000000
21
491.180000000000
31
0.0
0
LINE
5
656
100
AcDbEntity
8
0-2
6
CONTINUOUS
62
4
100
AcDbLine
10
1162.920000000000
20
484.510000000000
30
0.0
11
1165.880000000000
21
487.470000000000
31
0.0
0
LINE
5
657
100
AcDbEntity
8
0-2
6
CONTINUOUS
62
4
100
AcDbLine
10
1164.860000000000
20
480.790000000000
30
0.0
11
1167.830000000000
21
483.760000000000
31
0.0
0
LINE
5
658
100
AcDbEntity
8
0-2
6
CONTINUOUS
62
4
100
AcDbLine
10
1166.810000000000
20
477.080000000000
30
0.0
11
1169.770000000000
21
480.040000000000
31
0.0
0
LINE
5
659
100
AcDbEntity
8
0-2
6
CONTINUOUS
62
4
100
AcDbLine
10
1168.750000000000
20
473.370000000000
30
0.0
11
1171.710000000000
21
476.330000000000
31
0.0
0
LINE
5
65a
100
AcDbEntity
8
0-2
6
CONTINUOUS
62
4
100
AcDbLine
10
1170.690000000000
20
469.650000000000
30
0.0
11
1173.660000000000
21
472.620000000000
31
0.0
0
LINE
5
65b
100
AcDbEntity
8
0-2
6
CONTINUOUS
62
4
100
AcDbLine
10
1172.640000000000
20
465.940000000000
30
0.0
11
1175.600000000000
21
468.900000000000
31
0.0
0
LINE
5
65c
100
AcDbEntity
8
0-2
6
CONTINUOUS
62
4
100
AcDbLine
10
1174.580000000000
20
462.230000000000
30
0.0
11
1177.540000000000
21
465.190000000000
31
0.0
0
LINE
5
65d
100
AcDbEntity
8
0-2
6
CONTINUOUS
62
4
100
AcDbLine
10
1176.520000000000
20
458.510000000000
30
0.0
11
1179.490000000000
21
461.480000000000
31
0.0
0
LINE
5
65e
100
AcDbEntity
8
0-2
6
CONTINUOUS
62
4
100
AcDbLine
10
1179.370000000000
20
455.710000000000
30
0.0
11
1181.430000000000
21
457.760000000000
31
0.0
0
LINE
5
65f
100
AcDbEntity
8
0-2
6
CONTINUOUS
62
4
100
AcDbLine
10
1181.640000000000
20
452.320000000000
30
0.0
11
1183.370000000000
21
454.050000000000
31
0.0
0
LINE
5
660
100
AcDbEntity
8
0-2
6
CONTINUOUS
62
4
100
AcDbLine
10
1183.500000000000
20
448.510000000000
30
0.0
11
1185.320000000000
21
450.340000000000
31
0.0
0
LINE
5
661
100
AcDbEntity
8
0-2
6
CONTINUOUS
62
4
100
AcDbLine
10
1185.350000000000
20
444.710000000000
30
0.0
11
1187.260000000000
21
446.620000000000
31
0.0
0
LINE
5
662
100
AcDbEntity
8
0-2
6
CONTINUOUS
62
4
100
AcDbLine
10
1187.200000000000
20
440.900000000000
30
0.0
11
1189.200000000000
21
442.910000000000
31
0.0
0
LINE
5
663
100
AcDbEntity
8
0-2
6
CONTINUOUS
62
4
100
AcDbLine
10
1189.050000000000
20
437.100000000000
30
0.0
11
1191.150000000000
21
439.200000000000
31
0.0
0
LINE
5
664
100
AcDbEntity
8
0-2
6
CONTINUOUS
62
4
100
AcDbLine
10
1190.900000000000
20
433.290000000000
30
0.0
11
1193.090000000000
21
435.480000000000
31
0.0
0
LINE
5
665
100
AcDbEntity
8
0-2
6
CONTINUOUS
62
4
100
AcDbLine
10
1192.750000000000
20
429.490000000000
30
0.0
11
1195.030000000000
21
431.770000000000
31
0.0
0
LINE
5
666
100
AcDbEntity
8
0-2
6
CONTINUOUS
62
4
100
AcDbLine
10
1194.600000000000
20
425.680000000000
30
0.0
11
1196.980000000000
21
428.060000000000
31
0.0
0
LINE
5
667
100
AcDbEntity
8
0-2
6
CONTINUOUS
62
4
100
AcDbLine
10
1196.450000000000
20
421.870000000000
30
0.0
11
1198.920000000000
21
424.340000000000
31
0.0
0
LINE
5
668
100
AcDbEntity
8
0-2
6
CONTINUOUS
62
4
100
AcDbLine
10
1198.300000000000
20
418.070000000000
30
0.0
11
1200.860000000000
21
420.630000000000
31
0.0
0
LINE
5
669
100
AcDbEntity
8
0-2
6
CONTINUOUS
62
4
100
AcDbLine
10
1200.160000000000
20
414.260000000000
30
0.0
11
1202.810000000000
21
416.920000000000
31
0.0
0
LINE
5
66a
100
AcDbEntity
8
0-2
6
CONTINUOUS
62
4
100
AcDbLine
10
1202.010000000000
20
410.460000000000
30
0.0
11
1204.750000000000
21
413.200000000000
31
0.0
0
LINE
5
66b
100
AcDbEntity
8
0-2
6
CONTINUOUS
62
4
100
AcDbLine
10
1203.860000000000
20
406.650000000000
30
0.0
11
1206.690000000000
21
409.490000000000
31
0.0
0
LINE
5
66c
100
AcDbEntity
8
0-2
6
CONTINUOUS
62
4
100
AcDbLine
10
1205.710000000000
20
402.850000000000
30
0.0
11
1208.640000000000
21
405.780000000000
31
0.0
0
LINE
5
66d
100
AcDbEntity
8
0-2
6
CONTINUOUS
62
4
100
AcDbLine
10
1207.620000000000
20
399.100000000000
30
0.0
11
1210.580000000000
21
402.060000000000
31
0.0
0
LINE
5
66e
100
AcDbEntity
8
0-2
6
CONTINUOUS
62
4
100
AcDbLine
10
1209.560000000000
20
395.390000000000
30
0.0
11
1212.530000000000
21
398.350000000000
31
0.0
0
LINE
5
66f
100
AcDbEntity
8
0-2
6
CONTINUOUS
62
4
100
AcDbLine
10
1211.510000000000
20
391.670000000000
30
0.0
11
1214.470000000000
21
394.640000000000
31
0.0
0
LINE
5
670
100
AcDbEntity
8
0-2
6
CONTINUOUS
62
4
100
AcDbLine
10
1213.450000000000
20
387.960000000000
30
0.0
11
1216.410000000000
21
390.920000000000
31
0.0
0
LINE
5
671
100
AcDbEntity
8
0-2
6
CONTINUOUS
62
4
100
AcDbLine
10
1215.390000000000
20
384.240000000000
30
0.0
11
1218.360000000000
21
387.210000000000
31
0.0
0
LINE
5
672
100
AcDbEntity
8
0-2
6
CONTINUOUS
62
4
100
AcDbLine
10
1217.340000000000
20
380.530000000000
30
0.0
11
1220.300000000000
21
383.500000000000
31
0.0
0
LINE
5
673
100
AcDbEntity
8
0-2
6
CONTINUOUS
62
4
100
AcDbLine
10
1219.280000000000
20
376.820000000000
30
0.0
11
1222.240000000000
21
379.780000000000
31
0.0
0
LINE
5
674
100
AcDbEntity
8
0-2
6
CONTINUOUS
62
4
100
AcDbLine
10
1221.220000000000
20
373.100000000000
30
0.0
11
1224.190000000000
21
376.070000000000
31
0.0
0
LINE
5
675
100
AcDbEntity
8
0-2
6
CONTINUOUS
62
4
100
AcDbLine
10
1223.170000000000
20
369.390000000000
30
0.0
11
1226.130000000000
21
372.350000000000
31
0.0
0
LINE
5
676
100
AcDbEntity
8
0-2
6
CONTINUOUS
62
4
100
AcDbLine
10
1225.110000000000
20
365.680000000000
30
0.0
11
1228.070000000000
21
368.640000000000
31
0.0
0
LINE
5
677
100
AcDbEntity
8
0-2
6
CONTINUOUS
62
4
100
AcDbLine
10
1227.050000000000
20
361.960000000000
30
0.0
11
1230.020000000000
21
364.930000000000
31
0.0
0
LINE
5
678
100
AcDbEntity
8
0-2
6
CONTINUOUS
62
4
100
AcDbLine
10
1229.000000000000
20
358.250000000000
30
0.0
11
1231.960000000000
21
361.210000000000
31
0.0
0
LINE
5
679
100
AcDbEntity
8
0-2
6
CONTINUOUS
62
4
100
AcDbLine
10
1230.940000000000
20
354.540000000000
30
0.0
11
1233.900000000000
21
357.500000000000
31
0.0
0
LINE
5
67a
100
AcDbEntity
8
0-2
6
CONTINUOUS
62
4
100
AcDbLine
10
1209.120000000000
20
404.860000000000
30
0.0
11
1199.640000000000
21
414.340000000000
31
0.0
0
LINE
5
67b
100
AcDbEntity
8
0-2
6
CONTINUOUS
62
4
100
AcDbLine
10
1202.900000000000
20
416.730000000000
30
0.0
11
1193.430000000000
21
426.200000000000
31
0.0
0
LINE
5
67c
100
AcDbEntity
8
0-2
6
CONTINUOUS
62
4
100
AcDbLine
10
1196.690000000000
20
428.600000000000
30
0.0
11
1187.220000000000
21
438.070000000000
31
0.0
0
LINE
5
67d
100
AcDbEntity
8
0-2
6
CONTINUOUS
62
4
100
AcDbLine
10
1190.480000000000
20
440.470000000000
30
0.0
11
1181.010000000000
21
449.940000000000
31
0.0
0
LINE
5
67e
100
AcDbEntity
8
0-2
6
CONTINUOUS
62
4
100
AcDbLine
10
1184.270000000000
20
452.340000000000
30
0.0
11
1174.800000000000
21
461.810000000000
31
0.0
0
LINE
5
67f
100
AcDbEntity
8
0-2
6
CONTINUOUS
62
4
100
AcDbLine
10
1178.060000000000
20
464.200000000000
30
0.0
11
1168.590000000000
21
473.680000000000
31
0.0
0
LINE
5
680
100
AcDbEntity
8
0-2
6
CONTINUOUS
62
4
100
AcDbLine
10
1171.850000000000
20
476.070000000000
30
0.0
11
1162.380000000000
21
485.540000000000
31
0.0
0
LINE
5
681
100
AcDbEntity
8
0-2
6
CONTINUOUS
62
4
100
AcDbLine
10
1165.640000000000
20
487.940000000000
30
0.0
11
1151.900000000000
21
501.680000000000
31
0.0
0
LINE
5
682
100
AcDbEntity
8
0-2
6
CONTINUOUS
62
4
100
AcDbLine
10
1149.910000000000
20
498.020000000000
30
0.0
11
1144.710000000000
21
503.210000000000
31
0.0
0
LINE
5
683
100
AcDbEntity
8
0-2
6
CONTINUOUS
62
4
100
AcDbLine
10
1142.720000000000
20
499.540000000000
30
0.0
11
1137.520000000000
21
504.740000000000
31
0.0
0
LINE
5
684
100
AcDbEntity
8
0-2
6
CONTINUOUS
62
4
100
AcDbLine
10
1135.530000000000
20
501.070000000000
30
0.0
11
1130.340000000000
21
506.270000000000
31
0.0
0
LINE
5
685
100
AcDbEntity
8
0-2
6
CONTINUOUS
62
4
100
AcDbLine
10
1128.350000000000
20
502.600000000000
30
0.0
11
1123.150000000000
21
507.800000000000
31
0.0
0
LINE
5
686
100
AcDbEntity
8
0-2
6
CONTINUOUS
62
4
100
AcDbLine
10
1115.850000000000
20
503.790000000000
30
0.0
11
1115.000000000000
21
504.630000000000
31
0.0
0
LINE
5
687
100
AcDbEntity
8
0-2
6
CONTINUOUS
62
4
100
AcDbLine
10
1123.040000000000
20
502.250000000000
30
0.0
11
1119.670000000000
21
505.630000000000
31
0.0
0
LINE
5
688
100
AcDbEntity
8
0-2
6
CONTINUOUS
62
4
100
AcDbLine
10
991.600000000000
20
335.060000000000
30
0.0
11
996.600000000000
21
340.060000000000
31
0.0
0
LINE
5
689
100
AcDbEntity
8
0-2
6
CONTINUOUS
62
4
100
AcDbLine
10
997.250000000000
20
335.060000000000
30
0.0
11
1002.250000000000
21
340.060000000000
31
0.0
0
LINE
5
68a
100
AcDbEntity
8
0-2
6
CONTINUOUS
62
4
100
AcDbLine
10
991.830000000000
20
340.060000000000
30
0.0
11
996.830000000000
21
335.060000000000
31
0.0
0
LINE
5
68b
100
AcDbEntity
8
0-2
6
CONTINUOUS
62
4
100
AcDbLine
10
997.490000000000
20
340.060000000000
30
0.0
11
1002.490000000000
21
335.060000000000
31
0.0
0
LINE
5
68c
100
AcDbEntity
8
0-2
6
CONTINUOUS
62
3
100
AcDbLine
10
1007.260000000000
20
335.060000000000
30
0.0
11
956.190000000000
21
335.060000000000
31
0.0
0
LINE
5
68d
100
AcDbEntity
8
0-2
6
CONTINUOUS
62
4
100
AcDbLine
10
1002.910000000000
20
335.060000000000
30
0.0
11
1009.920000000000
21
342.070000000000
31
0.0
0
LINE
5
68e
100
AcDbEntity
8
0-2
6
CONTINUOUS
62
4
100
AcDbLine
10
1003.150000000000
20
340.060000000000
30
0.0
11
1006.800000000000
21
336.400000000000
31
0.0
0
LINE
5
68f
100
AcDbEntity
8
0-2
6
CONTINUOUS
62
4
100
AcDbLine
10
1005.880000000000
20
342.980000000000
30
0.0
11
1008.840000000000
21
340.020000000000
31
0.0
0
LINE
5
690
100
AcDbEntity
8
0-2
6
CONTINUOUS
62
4
100
AcDbLine
10
1007.830000000000
20
346.680000000000
30
0.0
11
1010.790000000000
21
343.720000000000
31
0.0
0
LINE
5
691
100
AcDbEntity
8
0-2
6
CONTINUOUS
62
4
100
AcDbLine
10
1025.600000000000
20
380.380000000000
30
0.0
11
1035.170000000000
21
389.940000000000
31
0.0
0
LINE
5
692
100
AcDbEntity
8
0-2
6
CONTINUOUS
62
4
100
AcDbLine
10
1019.290000000000
20
368.410000000000
30
0.0
11
1028.860000000000
21
377.970000000000
31
0.0
0
LINE
5
693
100
AcDbEntity
8
0-2
6
CONTINUOUS
62
4
100
AcDbLine
10
1012.980000000000
20
356.440000000000
30
0.0
11
1022.540000000000
21
366.010000000000
31
0.0
0
LINE
5
694
100
AcDbEntity
8
0-2
6
CONTINUOUS
62
4
100
AcDbLine
10
1006.660000000000
20
344.470000000000
30
0.0
11
1016.230000000000
21
354.040000000000
31
0.0
0
LINE
5
695
100
AcDbEntity
8
0-2
6
CONTINUOUS
62
4
100
AcDbLine
10
1009.790000000000
20
350.390000000000
30
0.0
11
1012.750000000000
21
347.430000000000
31
0.0
0
LINE
5
696
100
AcDbEntity
8
0-2
6
CONTINUOUS
62
4
100
AcDbLine
10
1011.740000000000
20
354.090000000000
30
0.0
11
1014.700000000000
21
351.130000000000
31
0.0
0
LINE
5
697
100
AcDbEntity
8
0-2
6
CONTINUOUS
62
4
100
AcDbLine
10
1013.690000000000
20
357.800000000000
30
0.0
11
1016.650000000000
21
354.830000000000
31
0.0
0
LINE
5
698
100
AcDbEntity
8
0-2
6
CONTINUOUS
62
4
100
AcDbLine
10
1015.650000000000
20
361.500000000000
30
0.0
11
1018.610000000000
21
358.540000000000
31
0.0
0
LINE
5
699
100
AcDbEntity
8
0-2
6
CONTINUOUS
62
4
100
AcDbLine
10
1017.600000000000
20
365.200000000000
30
0.0
11
1020.560000000000
21
362.240000000000
31
0.0
0
LINE
5
69a
100
AcDbEntity
8
0-2
6
CONTINUOUS
62
4
100
AcDbLine
10
1019.550000000000
20
368.910000000000
30
0.0
11
1022.510000000000
21
365.950000000000
31
0.0
0
LINE
5
69b
100
AcDbEntity
8
0-2
6
CONTINUOUS
62
4
100
AcDbLine
10
1021.510000000000
20
372.610000000000
30
0.0
11
1024.470000000000
21
369.650000000000
31
0.0
0
LINE
5
69c
100
AcDbEntity
8
0-2
6
CONTINUOUS
62
4
100
AcDbLine
10
1023.460000000000
20
376.310000000000
30
0.0
11
1026.420000000000
21
373.350000000000
31
0.0
0
LINE
5
69d
100
AcDbEntity
8
0-2
6
CONTINUOUS
62
4
100
AcDbLine
10
1025.410000000000
20
380.020000000000
30
0.0
11
1028.370000000000
21
377.060000000000
31
0.0
0
LINE
5
69e
100
AcDbEntity
8
0-2
6
CONTINUOUS
62
4
100
AcDbLine
10
1027.360000000000
20
383.720000000000
30
0.0
11
1030.330000000000
21
380.760000000000
31
0.0
0
LINE
5
69f
100
AcDbEntity
8
0-2
6
CONTINUOUS
62
4
100
AcDbLine
10
1029.320000000000
20
387.420000000000
30
0.0
11
1032.280000000000
21
384.460000000000
31
0.0
0
LINE
5
6a0
100
AcDbEntity
8
0-2
6
CONTINUOUS
62
4
100
AcDbLine
10
1031.270000000000
20
391.130000000000
30
0.0
11
1034.230000000000
21
388.170000000000
31
0.0
0
LINE
5
6a1
100
AcDbEntity
8
0-2
6
CONTINUOUS
62
4
100
AcDbLine
10
1033.220000000000
20
394.830000000000
30
0.0
11
1036.180000000000
21
391.870000000000
31
0.0
0
LINE
5
6a2
100
AcDbEntity
8
0-2
6
CONTINUOUS
62
4
100
AcDbLine
10
1035.180000000000
20
398.540000000000
30
0.0
11
1038.140000000000
21
395.570000000000
31
0.0
0
LINE
5
6a3
100
AcDbEntity
8
0-2
6
CONTINUOUS
62
4
100
AcDbLine
10
1037.130000000000
20
402.240000000000
30
0.0
11
1040.090000000000
21
399.280000000000
31
0.0
0
LINE
5
6a4
100
AcDbEntity
8
0-2
6
CONTINUOUS
62
4
100
AcDbLine
10
1039.080000000000
20
405.940000000000
30
0.0
11
1042.040000000000
21
402.980000000000
31
0.0
0
LINE
5
6a5
100
AcDbEntity
8
0-2
6
CONTINUOUS
62
4
100
AcDbLine
10
1092.300000000000
20
499.800000000000
30
0.0
11
1093.140000000000
21
498.960000000000
31
0.0
0
LINE
5
6a6
100
AcDbEntity
8
0-2
6
CONTINUOUS
62
4
100
AcDbLine
10
1096.960000000000
20
500.800000000000
30
0.0
11
1097.810000000000
21
499.950000000000
31
0.0
0
LINE
5
6a7
100
AcDbEntity
8
0-2
6
CONTINUOUS
62
4
100
AcDbLine
10
1101.630000000000
20
501.790000000000
30
0.0
11
1102.470000000000
21
500.950000000000
31
0.0
0
LINE
5
6a8
100
AcDbEntity
8
0-2
6
CONTINUOUS
62
4
100
AcDbLine
10
1106.290000000000
20
502.780000000000
30
0.0
11
1107.130000000000
21
501.940000000000
31
0.0
0
LINE
5
6a9
100
AcDbEntity
8
0-2
6
CONTINUOUS
62
4
100
AcDbLine
10
1110.960000000000
20
503.770000000000
30
0.0
11
1111.800000000000
21
502.930000000000
31
0.0
0
LINE
5
6aa
100
AcDbEntity
8
0-2
6
CONTINUOUS
62
4
100
AcDbLine
10
1109.860000000000
20
502.520000000000
30
0.0
11
1111.160000000000
21
503.820000000000
31
0.0
0
LINE
5
6ab
100
AcDbEntity
8
0-2
6
CONTINUOUS
62
4
100
AcDbLine
10
1105.200000000000
20
501.530000000000
30
0.0
11
1106.490000000000
21
502.830000000000
31
0.0
0
LINE
5
6ac
100
AcDbEntity
8
0-2
6
CONTINUOUS
62
4
100
AcDbLine
10
1100.530000000000
20
500.540000000000
30
0.0
11
1101.830000000000
21
501.840000000000
31
0.0
0
LINE
5
6ad
100
AcDbEntity
8
0-2
6
CONTINUOUS
62
4
100
AcDbLine
10
1095.870000000000
20
499.550000000000
30
0.0
11
1097.170000000000
21
500.850000000000
31
0.0
0
LINE
5
6ae
100
AcDbEntity
8
0-2
6
CONTINUOUS
62
4
100
AcDbLine
10
1091.200000000000
20
498.550000000000
30
0.0
11
1092.500000000000
21
499.850000000000
31
0.0
0
LINE
5
6af
100
AcDbEntity
8
0-2
6
CONTINUOUS
62
4
100
AcDbLine
10
1087.910000000000
20
498.530000000000
30
0.0
11
1088.940000000000
21
497.500000000000
31
0.0
0
LINE
5
6b0
100
AcDbEntity
8
0-2
6
CONTINUOUS
62
4
100
AcDbLine
10
1085.960000000000
20
494.830000000000
30
0.0
11
1086.790000000000
21
493.990000000000
31
0.0
0
LINE
5
6b1
100
AcDbEntity
8
0-2
6
CONTINUOUS
62
4
100
AcDbLine
10
1084.010000000000
20
491.130000000000
30
0.0
11
1084.930000000000
21
490.200000000000
31
0.0
0
LINE
5
6b2
100
AcDbEntity
8
0-2
6
CONTINUOUS
62
4
100
AcDbLine
10
1082.050000000000
20
487.420000000000
30
0.0
11
1083.070000000000
21
486.410000000000
31
0.0
0
LINE
5
6b3
100
AcDbEntity
8
0-2
6
CONTINUOUS
62
4
100
AcDbLine
10
1080.100000000000
20
483.720000000000
30
0.0
11
1081.200000000000
21
482.620000000000
31
0.0
0
LINE
5
6b4
100
AcDbEntity
8
0-2
6
CONTINUOUS
62
4
100
AcDbLine
10
1078.150000000000
20
480.010000000000
30
0.0
11
1079.340000000000
21
478.820000000000
31
0.0
0
LINE
5
6b5
100
AcDbEntity
8
0-2
6
CONTINUOUS
62
4
100
AcDbLine
10
1076.190000000000
20
476.310000000000
30
0.0
11
1077.480000000000
21
475.030000000000
31
0.0
0
LINE
5
6b6
100
AcDbEntity
8
0-2
6
CONTINUOUS
62
4
100
AcDbLine
10
1074.240000000000
20
472.610000000000
30
0.0
11
1075.610000000000
21
471.240000000000
31
0.0
0
LINE
5
6b7
100
AcDbEntity
8
0-2
6
CONTINUOUS
62
4
100
AcDbLine
10
1072.290000000000
20
468.900000000000
30
0.0
11
1073.750000000000
21
467.440000000000
31
0.0
0
LINE
5
6b8
100
AcDbEntity
8
0-2
6
CONTINUOUS
62
4
100
AcDbLine
10
1070.330000000000
20
465.200000000000
30
0.0
11
1071.880000000000
21
463.650000000000
31
0.0
0
LINE
5
6b9
100
AcDbEntity
8
0-2
6
CONTINUOUS
62
4
100
AcDbLine
10
1068.380000000000
20
461.500000000000
30
0.0
11
1070.020000000000
21
459.860000000000
31
0.0
0
LINE
5
6ba
100
AcDbEntity
8
0-2
6
CONTINUOUS
62
4
100
AcDbLine
10
1066.430000000000
20
457.790000000000
30
0.0
11
1068.160000000000
21
456.070000000000
31
0.0
0
LINE
5
6bb
100
AcDbEntity
8
0-2
6
CONTINUOUS
62
4
100
AcDbLine
10
1064.470000000000
20
454.090000000000
30
0.0
11
1066.290000000000
21
452.270000000000
31
0.0
0
LINE
5
6bc
100
AcDbEntity
8
0-2
6
CONTINUOUS
62
4
100
AcDbLine
10
1062.520000000000
20
450.390000000000
30
0.0
11
1064.430000000000
21
448.480000000000
31
0.0
0
LINE
5
6bd
100
AcDbEntity
8
0-2
6
CONTINUOUS
62
4
100
AcDbLine
10
1060.570000000000
20
446.680000000000
30
0.0
11
1062.560000000000
21
444.690000000000
31
0.0
0
LINE
5
6be
100
AcDbEntity
8
0-2
6
CONTINUOUS
62
4
100
AcDbLine
10
1058.620000000000
20
442.980000000000
30
0.0
11
1060.700000000000
21
440.890000000000
31
0.0
0
LINE
5
6bf
100
AcDbEntity
8
0-2
6
CONTINUOUS
62
4
100
AcDbLine
10
1056.660000000000
20
439.270000000000
30
0.0
11
1058.840000000000
21
437.100000000000
31
0.0
0
LINE
5
6c0
100
AcDbEntity
8
0-2
6
CONTINUOUS
62
4
100
AcDbLine
10
1054.710000000000
20
435.570000000000
30
0.0
11
1056.970000000000
21
433.310000000000
31
0.0
0
LINE
5
6c1
100
AcDbEntity
8
0-2
6
CONTINUOUS
62
4
100
AcDbLine
10
1052.760000000000
20
431.870000000000
30
0.0
11
1055.110000000000
21
429.520000000000
31
0.0
0
LINE
5
6c2
100
AcDbEntity
8
0-2
6
CONTINUOUS
62
4
100
AcDbLine
10
1050.800000000000
20
428.160000000000
30
0.0
11
1053.240000000000
21
425.720000000000
31
0.0
0
LINE
5
6c3
100
AcDbEntity
8
0-2
6
CONTINUOUS
62
4
100
AcDbLine
10
1048.850000000000
20
424.460000000000
30
0.0
11
1051.380000000000
21
421.930000000000
31
0.0
0
LINE
5
6c4
100
AcDbEntity
8
0-2
6
CONTINUOUS
62
4
100
AcDbLine
10
1046.900000000000
20
420.760000000000
30
0.0
11
1049.520000000000
21
418.140000000000
31
0.0
0
LINE
5
6c5
100
AcDbEntity
8
0-2
6
CONTINUOUS
62
4
100
AcDbLine
10
1044.940000000000
20
417.050000000000
30
0.0
11
1047.650000000000
21
414.340000000000
31
0.0
0
LINE
5
6c6
100
AcDbEntity
8
0-2
6
CONTINUOUS
62
4
100
AcDbLine
10
1042.990000000000
20
413.350000000000
30
0.0
11
1045.790000000000
21
410.550000000000
31
0.0
0
LINE
5
6c7
100
AcDbEntity
8
0-2
6
CONTINUOUS
62
4
100
AcDbLine
10
1041.040000000000
20
409.650000000000
30
0.0
11
1043.920000000000
21
406.760000000000
31
0.0
0
LINE
5
6c8
100
AcDbEntity
8
0-2
6
CONTINUOUS
62
7
100
AcDbLine
10
1007.350000000000
20
337.190000000000
30
0.0
11
1042.400000000000
21
403.660000000000
31
0.0
0
LINE
5
6c9
100
AcDbEntity
8
0-2
6
CONTINUOUS
62
4
100
AcDbLine
10
1082.410000000000
20
488.090000000000
30
0.0
11
1085.330000000000
21
491.020000000000
31
0.0
0
LINE
5
6ca
100
AcDbEntity
8
0-2
6
CONTINUOUS
62
4
100
AcDbLine
10
1076.100000000000
20
476.130000000000
30
0.0
11
1079.870000000000
21
479.900000000000
31
0.0
0
LINE
5
6cb
100
AcDbEntity
8
0-2
6
CONTINUOUS
62
4
100
AcDbLine
10
1069.780000000000
20
464.160000000000
30
0.0
11
1074.400000000000
21
468.770000000000
31
0.0
0
LINE
5
6cc
100
AcDbEntity
8
0-2
6
CONTINUOUS
62
4
100
AcDbLine
10
1063.470000000000
20
452.190000000000
30
0.0
11
1068.930000000000
21
457.650000000000
31
0.0
0
LINE
5
6cd
100
AcDbEntity
8
0-2
6
CONTINUOUS
62
4
100
AcDbLine
10
1057.160000000000
20
440.220000000000
30
0.0
11
1063.470000000000
21
446.530000000000
31
0.0
0
LINE
5
6ce
100
AcDbEntity
8
0-2
6
CONTINUOUS
62
4
100
AcDbLine
10
1050.850000000000
20
428.250000000000
30
0.0
11
1058.000000000000
21
435.400000000000
31
0.0
0
LINE
5
6cf
100
AcDbEntity
8
0-2
6
CONTINUOUS
62
4
100
AcDbLine
10
1044.540000000000
20
416.280000000000
30
0.0
11
1052.540000000000
21
424.280000000000
31
0.0
0
LINE
5
6d0
100
AcDbEntity
8
0-2
6
CONTINUOUS
62
4
100
AcDbLine
10
1038.220000000000
20
404.310000000000
30
0.0
11
1047.070000000000
21
413.160000000000
31
0.0
0
LINE
5
6d1
100
AcDbEntity
8
0-2
6
CONTINUOUS
62
4
100
AcDbLine
10
1031.910000000000
20
392.340000000000
30
0.0
11
1041.600000000000
21
402.040000000000
31
0.0
0
LINE
5
6d2
100
AcDbEntity
8
0-2
6
CONTINUOUS
62
4
100
AcDbLine
10
652.940000000000
20
335.060000000000
30
0.0
11
657.940000000000
21
340.060000000000
31
0.0
0
LINE
5
6d3
100
AcDbEntity
8
0-2
6
CONTINUOUS
62
4
100
AcDbLine
10
647.280000000000
20
335.060000000000
30
0.0
11
652.280000000000
21
340.060000000000
31
0.0
0
LINE
5
6d4
100
AcDbEntity
8
0-2
6
CONTINUOUS
62
4
100
AcDbLine
10
641.630000000000
20
335.060000000000
30
0.0
11
646.630000000000
21
340.060000000000
31
0.0
0
LINE
5
6d5
100
AcDbEntity
8
0-2
6
CONTINUOUS
62
4
100
AcDbLine
10
635.970000000000
20
335.060000000000
30
0.0
11
640.970000000000
21
340.060000000000
31
0.0
0
LINE
5
6d6
100
AcDbEntity
8
0-2
6
CONTINUOUS
62
4
100
AcDbLine
10
630.310000000000
20
335.060000000000
30
0.0
11
635.310000000000
21
340.060000000000
31
0.0
0
LINE
5
6d7
100
AcDbEntity
8
0-2
6
CONTINUOUS
62
4
100
AcDbLine
10
624.660000000000
20
335.060000000000
30
0.0
11
629.660000000000
21
340.060000000000
31
0.0
0
LINE
5
6d8
100
AcDbEntity
8
0-2
6
CONTINUOUS
62
4
100
AcDbLine
10
624.890000000000
20
340.060000000000
30
0.0
11
629.890000000000
21
335.060000000000
31
0.0
0
LINE
5
6d9
100
AcDbEntity
8
0-2
6
CONTINUOUS
62
4
100
AcDbLine
10
630.550000000000
20
340.060000000000
30
0.0
11
635.550000000000
21
335.060000000000
31
0.0
0
LINE
5
6da
100
AcDbEntity
8
0-2
6
CONTINUOUS
62
4
100
AcDbLine
10
636.210000000000
20
340.060000000000
30
0.0
11
641.210000000000
21
335.060000000000
31
0.0
0
LINE
5
6db
100
AcDbEntity
8
0-2
6
CONTINUOUS
62
4
100
AcDbLine
10
641.860000000000
20
340.060000000000
30
0.0
11
646.860000000000
21
335.060000000000
31
0.0
0
LINE
5
6dc
100
AcDbEntity
8
0-2
6
CONTINUOUS
62
4
100
AcDbLine
10
647.520000000000
20
340.060000000000
30
0.0
11
652.520000000000
21
335.060000000000
31
0.0
0
LINE
5
6dd
100
AcDbEntity
8
0-2
6
CONTINUOUS
62
4
100
AcDbLine
10
653.180000000000
20
340.060000000000
30
0.0
11
658.180000000000
21
335.060000000000
31
0.0
0
LINE
5
6de
100
AcDbEntity
8
0-2
6
CONTINUOUS
62
4
100
AcDbLine
10
780.910000000000
20
503.380000000000
30
0.0
11
782.210000000000
21
504.680000000000
31
0.0
0
LINE
5
6df
100
AcDbEntity
8
0-2
6
CONTINUOUS
62
4
100
AcDbLine
10
782.850000000000
20
503.790000000000
30
0.0
11
782.000000000000
21
504.630000000000
31
0.0
0
LINE
5
6e0
100
AcDbEntity
8
0-2
6
CONTINUOUS
62
4
100
AcDbLine
10
658.600000000000
20
335.060000000000
30
0.0
11
663.600000000000
21
340.060000000000
31
0.0
0
LINE
5
6e1
100
AcDbEntity
8
0-2
6
CONTINUOUS
62
4
100
AcDbLine
10
664.250000000000
20
335.060000000000
30
0.0
11
669.250000000000
21
340.060000000000
31
0.0
0
LINE
5
6e2
100
AcDbEntity
8
0-2
6
CONTINUOUS
62
4
100
AcDbLine
10
658.830000000000
20
340.060000000000
30
0.0
11
663.830000000000
21
335.060000000000
31
0.0
0
LINE
5
6e3
100
AcDbEntity
8
0-2
6
CONTINUOUS
62
4
100
AcDbLine
10
664.490000000000
20
340.060000000000
30
0.0
11
669.490000000000
21
335.060000000000
31
0.0
0
LINE
5
6e4
100
AcDbEntity
8
0-2
6
CONTINUOUS
62
4
100
AcDbLine
10
669.910000000000
20
335.060000000000
30
0.0
11
676.920000000000
21
342.070000000000
31
0.0
0
LINE
5
6e5
100
AcDbEntity
8
0-2
6
CONTINUOUS
62
4
100
AcDbLine
10
670.150000000000
20
340.060000000000
30
0.0
11
673.800000000000
21
336.400000000000
31
0.0
0
LINE
5
6e6
100
AcDbEntity
8
0-2
6
CONTINUOUS
62
4
100
AcDbLine
10
672.880000000000
20
342.980000000000
30
0.0
11
675.840000000000
21
340.020000000000
31
0.0
0
LINE
5
6e7
100
AcDbEntity
8
0-2
6
CONTINUOUS
62
4
100
AcDbLine
10
674.830000000000
20
346.680000000000
30
0.0
11
677.790000000000
21
343.720000000000
31
0.0
0
LINE
5
6e8
100
AcDbEntity
8
0-2
6
CONTINUOUS
62
4
100
AcDbLine
10
692.600000000000
20
380.380000000000
30
0.0
11
702.170000000000
21
389.940000000000
31
0.0
0
LINE
5
6e9
100
AcDbEntity
8
0-2
6
CONTINUOUS
62
4
100
AcDbLine
10
686.290000000000
20
368.410000000000
30
0.0
11
695.860000000000
21
377.970000000000
31
0.0
0
LINE
5
6ea
100
AcDbEntity
8
0-2
6
CONTINUOUS
62
4
100
AcDbLine
10
679.980000000000
20
356.440000000000
30
0.0
11
689.540000000000
21
366.010000000000
31
0.0
0
LINE
5
6eb
100
AcDbEntity
8
0-2
6
CONTINUOUS
62
4
100
AcDbLine
10
673.660000000000
20
344.470000000000
30
0.0
11
683.230000000000
21
354.040000000000
31
0.0
0
LINE
5
6ec
100
AcDbEntity
8
0-2
6
CONTINUOUS
62
4
100
AcDbLine
10
676.790000000000
20
350.390000000000
30
0.0
11
679.750000000000
21
347.430000000000
31
0.0
0
LINE
5
6ed
100
AcDbEntity
8
0-2
6
CONTINUOUS
62
4
100
AcDbLine
10
678.740000000000
20
354.090000000000
30
0.0
11
681.700000000000
21
351.130000000000
31
0.0
0
LINE
5
6ee
100
AcDbEntity
8
0-2
6
CONTINUOUS
62
4
100
AcDbLine
10
680.690000000000
20
357.800000000000
30
0.0
11
683.650000000000
21
354.830000000000
31
0.0
0
LINE
5
6ef
100
AcDbEntity
8
0-2
6
CONTINUOUS
62
4
100
AcDbLine
10
682.650000000000
20
361.500000000000
30
0.0
11
685.610000000000
21
358.540000000000
31
0.0
0
LINE
5
6f0
100
AcDbEntity
8
0-2
6
CONTINUOUS
62
4
100
AcDbLine
10
684.600000000000
20
365.200000000000
30
0.0
11
687.560000000000
21
362.240000000000
31
0.0
0
LINE
5
6f1
100
AcDbEntity
8
0-2
6
CONTINUOUS
62
4
100
AcDbLine
10
686.550000000000
20
368.910000000000
30
0.0
11
689.510000000000
21
365.950000000000
31
0.0
0
LINE
5
6f2
100
AcDbEntity
8
0-2
6
CONTINUOUS
62
4
100
AcDbLine
10
688.510000000000
20
372.610000000000
30
0.0
11
691.470000000000
21
369.650000000000
31
0.0
0
LINE
5
6f3
100
AcDbEntity
8
0-2
6
CONTINUOUS
62
4
100
AcDbLine
10
690.460000000000
20
376.310000000000
30
0.0
11
693.420000000000
21
373.350000000000
31
0.0
0
LINE
5
6f4
100
AcDbEntity
8
0-2
6
CONTINUOUS
62
4
100
AcDbLine
10
692.410000000000
20
380.020000000000
30
0.0
11
695.370000000000
21
377.060000000000
31
0.0
0
LINE
5
6f5
100
AcDbEntity
8
0-2
6
CONTINUOUS
62
4
100
AcDbLine
10
694.360000000000
20
383.720000000000
30
0.0
11
697.330000000000
21
380.760000000000
31
0.0
0
LINE
5
6f6
100
AcDbEntity
8
0-2
6
CONTINUOUS
62
4
100
AcDbLine
10
696.320000000000
20
387.420000000000
30
0.0
11
699.280000000000
21
384.460000000000
31
0.0
0
LINE
5
6f7
100
AcDbEntity
8
0-2
6
CONTINUOUS
62
4
100
AcDbLine
10
698.270000000000
20
391.130000000000
30
0.0
11
701.230000000000
21
388.170000000000
31
0.0
0
LINE
5
6f8
100
AcDbEntity
8
0-2
6
CONTINUOUS
62
4
100
AcDbLine
10
700.220000000000
20
394.830000000000
30
0.0
11
703.180000000000
21
391.870000000000
31
0.0
0
LINE
5
6f9
100
AcDbEntity
8
0-2
6
CONTINUOUS
62
4
100
AcDbLine
10
702.180000000000
20
398.540000000000
30
0.0
11
705.140000000000
21
395.570000000000
31
0.0
0
LINE
5
6fa
100
AcDbEntity
8
0-2
6
CONTINUOUS
62
4
100
AcDbLine
10
704.130000000000
20
402.240000000000
30
0.0
11
707.090000000000
21
399.280000000000
31
0.0
0
LINE
5
6fb
100
AcDbEntity
8
0-2
6
CONTINUOUS
62
4
100
AcDbLine
10
706.080000000000
20
405.940000000000
30
0.0
11
709.040000000000
21
402.980000000000
31
0.0
0
LINE
5
6fc
100
AcDbEntity
8
0-2
6
CONTINUOUS
62
4
100
AcDbLine
10
759.300000000000
20
499.800000000000
30
0.0
11
760.140000000000
21
498.960000000000
31
0.0
0
LINE
5
6fd
100
AcDbEntity
8
0-2
6
CONTINUOUS
62
4
100
AcDbLine
10
763.960000000000
20
500.800000000000
30
0.0
11
764.810000000000
21
499.950000000000
31
0.0
0
LINE
5
6fe
100
AcDbEntity
8
0-2
6
CONTINUOUS
62
4
100
AcDbLine
10
768.630000000000
20
501.790000000000
30
0.0
11
769.470000000000
21
500.950000000000
31
0.0
0
LINE
5
6ff
100
AcDbEntity
8
0-2
6
CONTINUOUS
62
4
100
AcDbLine
10
773.290000000000
20
502.780000000000
30
0.0
11
774.130000000000
21
501.940000000000
31
0.0
0
LINE
5
700
100
AcDbEntity
8
0-2
6
CONTINUOUS
62
4
100
AcDbLine
10
777.960000000000
20
503.770000000000
30
0.0
11
778.800000000000
21
502.930000000000
31
0.0
0
LINE
5
701
100
AcDbEntity
8
0-2
6
CONTINUOUS
62
4
100
AcDbLine
10
776.860000000000
20
502.520000000000
30
0.0
11
778.160000000000
21
503.820000000000
31
0.0
0
LINE
5
702
100
AcDbEntity
8
0-2
6
CONTINUOUS
62
4
100
AcDbLine
10
772.200000000000
20
501.530000000000
30
0.0
11
773.490000000000
21
502.830000000000
31
0.0
0
LINE
5
703
100
AcDbEntity
8
0-2
6
CONTINUOUS
62
4
100
AcDbLine
10
767.530000000000
20
500.540000000000
30
0.0
11
768.830000000000
21
501.840000000000
31
0.0
0
LINE
5
704
100
AcDbEntity
8
0-2
6
CONTINUOUS
62
4
100
AcDbLine
10
762.870000000000
20
499.550000000000
30
0.0
11
764.170000000000
21
500.850000000000
31
0.0
0
LINE
5
705
100
AcDbEntity
8
0-2
6
CONTINUOUS
62
4
100
AcDbLine
10
758.200000000000
20
498.550000000000
30
0.0
11
759.500000000000
21
499.850000000000
31
0.0
0
LINE
5
706
100
AcDbEntity
8
0-2
6
CONTINUOUS
62
4
100
AcDbLine
10
754.910000000000
20
498.530000000000
30
0.0
11
755.940000000000
21
497.500000000000
31
0.0
0
LINE
5
707
100
AcDbEntity
8
0-2
6
CONTINUOUS
62
4
100
AcDbLine
10
752.960000000000
20
494.830000000000
30
0.0
11
753.790000000000
21
493.990000000000
31
0.0
0
LINE
5
708
100
AcDbEntity
8
0-2
6
CONTINUOUS
62
4
100
AcDbLine
10
751.010000000000
20
491.130000000000
30
0.0
11
751.930000000000
21
490.200000000000
31
0.0
0
LINE
5
709
100
AcDbEntity
8
0-2
6
CONTINUOUS
62
4
100
AcDbLine
10
749.050000000000
20
487.420000000000
30
0.0
11
750.070000000000
21
486.410000000000
31
0.0
0
LINE
5
70a
100
AcDbEntity
8
0-2
6
CONTINUOUS
62
4
100
AcDbLine
10
747.100000000000
20
483.720000000000
30
0.0
11
748.200000000000
21
482.620000000000
31
0.0
0
LINE
5
70b
100
AcDbEntity
8
0-2
6
CONTINUOUS
62
4
100
AcDbLine
10
745.150000000000
20
480.010000000000
30
0.0
11
746.340000000000
21
478.820000000000
31
0.0
0
LINE
5
70c
100
AcDbEntity
8
0-2
6
CONTINUOUS
62
4
100
AcDbLine
10
743.190000000000
20
476.310000000000
30
0.0
11
744.480000000000
21
475.030000000000
31
0.0
0
LINE
5
70d
100
AcDbEntity
8
0-2
6
CONTINUOUS
62
4
100
AcDbLine
10
741.240000000000
20
472.610000000000
30
0.0
11
742.610000000000
21
471.240000000000
31
0.0
0
LINE
5
70e
100
AcDbEntity
8
0-2
6
CONTINUOUS
62
4
100
AcDbLine
10
739.290000000000
20
468.900000000000
30
0.0
11
740.750000000000
21
467.440000000000
31
0.0
0
LINE
5
70f
100
AcDbEntity
8
0-2
6
CONTINUOUS
62
4
100
AcDbLine
10
737.330000000000
20
465.200000000000
30
0.0
11
738.880000000000
21
463.650000000000
31
0.0
0
LINE
5
710
100
AcDbEntity
8
0-2
6
CONTINUOUS
62
4
100
AcDbLine
10
735.380000000000
20
461.500000000000
30
0.0
11
737.020000000000
21
459.860000000000
31
0.0
0
LINE
5
711
100
AcDbEntity
8
0-2
6
CONTINUOUS
62
4
100
AcDbLine
10
733.430000000000
20
457.790000000000
30
0.0
11
735.160000000000
21
456.070000000000
31
0.0
0
LINE
5
712
100
AcDbEntity
8
0-2
6
CONTINUOUS
62
4
100
AcDbLine
10
731.470000000000
20
454.090000000000
30
0.0
11
733.290000000000
21
452.270000000000
31
0.0
0
LINE
5
713
100
AcDbEntity
8
0-2
6
CONTINUOUS
62
4
100
AcDbLine
10
729.520000000000
20
450.390000000000
30
0.0
11
731.430000000000
21
448.480000000000
31
0.0
0
LINE
5
714
100
AcDbEntity
8
0-2
6
CONTINUOUS
62
4
100
AcDbLine
10
727.570000000000
20
446.680000000000
30
0.0
11
729.560000000000
21
444.690000000000
31
0.0
0
LINE
5
715
100
AcDbEntity
8
0-2
6
CONTINUOUS
62
4
100
AcDbLine
10
725.620000000000
20
442.980000000000
30
0.0
11
727.700000000000
21
440.890000000000
31
0.0
0
LINE
5
716
100
AcDbEntity
8
0-2
6
CONTINUOUS
62
4
100
AcDbLine
10
723.660000000000
20
439.270000000000
30
0.0
11
725.840000000000
21
437.100000000000
31
0.0
0
LINE
5
717
100
AcDbEntity
8
0-2
6
CONTINUOUS
62
4
100
AcDbLine
10
721.710000000000
20
435.570000000000
30
0.0
11
723.970000000000
21
433.310000000000
31
0.0
0
LINE
5
718
100
AcDbEntity
8
0-2
6
CONTINUOUS
62
4
100
AcDbLine
10
719.760000000000
20
431.870000000000
30
0.0
11
722.110000000000
21
429.520000000000
31
0.0
0
LINE
5
719
100
AcDbEntity
8
0-2
6
CONTINUOUS
62
4
100
AcDbLine
10
717.800000000000
20
428.160000000000
30
0.0
11
720.240000000000
21
425.720000000000
31
0.0
0
LINE
5
71a
100
AcDbEntity
8
0-2
6
CONTINUOUS
62
4
100
AcDbLine
10
715.850000000000
20
424.460000000000
30
0.0
11
718.380000000000
21
421.930000000000
31
0.0
0
LINE
5
71b
100
AcDbEntity
8
0-2
6
CONTINUOUS
62
4
100
AcDbLine
10
713.900000000000
20
420.760000000000
30
0.0
11
716.520000000000
21
418.140000000000
31
0.0
0
LINE
5
71c
100
AcDbEntity
8
0-2
6
CONTINUOUS
62
4
100
AcDbLine
10
711.940000000000
20
417.050000000000
30
0.0
11
714.650000000000
21
414.340000000000
31
0.0
0
LINE
5
71d
100
AcDbEntity
8
0-2
6
CONTINUOUS
62
4
100
AcDbLine
10
709.990000000000
20
413.350000000000
30
0.0
11
712.790000000000
21
410.550000000000
31
0.0
0
LINE
5
71e
100
AcDbEntity
8
0-2
6
CONTINUOUS
62
4
100
AcDbLine
10
708.040000000000
20
409.650000000000
30
0.0
11
710.920000000000
21
406.760000000000
31
0.0
0
LINE
5
71f
100
AcDbEntity
8
0-2
6
CONTINUOUS
62
7
100
AcDbLine
10
674.350000000000
20
337.190000000000
30
0.0
11
709.400000000000
21
403.660000000000
31
0.0
0
LINE
5
720
100
AcDbEntity
8
0-2
6
CONTINUOUS
62
4
100
AcDbLine
10
749.410000000000
20
488.090000000000
30
0.0
11
752.330000000000
21
491.020000000000
31
0.0
0
LINE
5
721
100
AcDbEntity
8
0-2
6
CONTINUOUS
62
4
100
AcDbLine
10
743.100000000000
20
476.130000000000
30
0.0
11
746.870000000000
21
479.900000000000
31
0.0
0
LINE
5
722
100
AcDbEntity
8
0-2
6
CONTINUOUS
62
4
100
AcDbLine
10
736.780000000000
20
464.160000000000
30
0.0
11
741.400000000000
21
468.770000000000
31
0.0
0
LINE
5
723
100
AcDbEntity
8
0-2
6
CONTINUOUS
62
4
100
AcDbLine
10
730.470000000000
20
452.190000000000
30
0.0
11
735.930000000000
21
457.650000000000
31
0.0
0
LINE
5
724
100
AcDbEntity
8
0-2
6
CONTINUOUS
62
4
100
AcDbLine
10
724.160000000000
20
440.220000000000
30
0.0
11
730.470000000000
21
446.530000000000
31
0.0
0
LINE
5
725
100
AcDbEntity
8
0-2
6
CONTINUOUS
62
4
100
AcDbLine
10
717.850000000000
20
428.250000000000
30
0.0
11
725.000000000000
21
435.400000000000
31
0.0
0
LINE
5
726
100
AcDbEntity
8
0-2
6
CONTINUOUS
62
4
100
AcDbLine
10
711.540000000000
20
416.280000000000
30
0.0
11
719.540000000000
21
424.280000000000
31
0.0
0
LINE
5
727
100
AcDbEntity
8
0-2
6
CONTINUOUS
62
4
100
AcDbLine
10
705.220000000000
20
404.310000000000
30
0.0
11
714.070000000000
21
413.160000000000
31
0.0
0
LINE
5
728
100
AcDbEntity
8
0-2
6
CONTINUOUS
62
4
100
AcDbLine
10
698.910000000000
20
392.340000000000
30
0.0
11
708.600000000000
21
402.040000000000
31
0.0
0
LINE
5
729
100
AcDbEntity
8
0-1
6
CONTINUOUS
62
7
100
AcDbLine
10
286.150000000000
20
507.060000000000
30
0.0
11
286.150000000000
21
331.860000000000
31
0.0
0
POLYLINE
5
72a
100
AcDbEntity
8
0-2
6
CONTINUOUS
62
  7
100
AcDb2dPolyline
66
1
10
0.0
20
0.0
30
0.0
70
0
0
VERTEX
5
72b
100
AcDbEntity
8
0-2
6
CONTINUOUS
62
  7
100
AcDbVertex
100
AcDb2dVertex
10
1131.390000000000
20
492.380000000000
30
0.0
0
VERTEX
5
72c
100
AcDbEntity
8
0-2
6
CONTINUOUS
62
  7
100
AcDbVertex
100
AcDb2dVertex
10
1131.390000000000
20
487.810000000000
30
0.0
0
VERTEX
5
72d
100
AcDbEntity
8
0-2
6
CONTINUOUS
62
  7
100
AcDbVertex
100
AcDb2dVertex
10
1131.390000000000
20
475.310000000000
30
0.0
0
VERTEX
5
72e
100
AcDbEntity
8
0-2
6
CONTINUOUS
62
  7
100
AcDbVertex
100
AcDb2dVertex
10
1131.390000000000
20
470.730000000000
30
0.0
0
VERTEX
5
72f
100
AcDbEntity
8
0-2
6
CONTINUOUS
62
  7
100
AcDbVertex
100
AcDb2dVertex
10
1124.190000000000
20
470.730000000000
30
0.0
0
VERTEX
5
730
100
AcDbEntity
8
0-2
6
CONTINUOUS
62
  7
100
AcDbVertex
100
AcDb2dVertex
10
1124.190000000000
20
481.560000000000
30
0.0
0
VERTEX
5
731
100
AcDbEntity
8
0-2
6
CONTINUOUS
62
  7
100
AcDbVertex
100
AcDb2dVertex
10
1124.190000000000
20
492.380000000000
30
0.0
0
VERTEX
5
732
100
AcDbEntity
8
0-2
6
CONTINUOUS
62
  7
100
AcDbVertex
100
AcDb2dVertex
10
1131.390000000000
20
492.380000000000
30
0.0
0
SEQEND
5
733
100
AcDbEntity
8
0-2
0
POLYLINE
5
734
100
AcDbEntity
8
0-2
6
CONTINUOUS
62
  7
100
AcDb2dPolyline
66
1
10
0.0
20
0.0
30
0.0
70
0
0
VERTEX
5
735
100
AcDbEntity
8
0-2
6
CONTINUOUS
62
  7
100
AcDbVertex
100
AcDb2dVertex
10
1132.000000000000
20
487.810000000000
30
0.0
0
VERTEX
5
736
100
AcDbEntity
8
0-2
6
CONTINUOUS
62
  7
100
AcDbVertex
100
AcDb2dVertex
10
1135.180000000000
20
487.810000000000
30
0.0
0
VERTEX
5
737
100
AcDbEntity
8
0-2
6
CONTINUOUS
62
  7
100
AcDbVertex
100
AcDb2dVertex
10
1137.000000000000
20
485.980000000000
30
0.0
0
VERTEX
5
738
100
AcDbEntity
8
0-2
6
CONTINUOUS
62
  7
100
AcDbVertex
100
AcDb2dVertex
10
1137.000000000000
20
477.130000000000
30
0.0
0
VERTEX
5
739
100
AcDbEntity
8
0-2
6
CONTINUOUS
62
  7
100
AcDbVertex
100
AcDb2dVertex
10
1135.180000000000
20
475.310000000000
30
0.0
0
VERTEX
5
73a
100
AcDbEntity
8
0-2
6
CONTINUOUS
62
  7
100
AcDbVertex
100
AcDb2dVertex
10
1132.000000000000
20
475.310000000000
30
0.0
0
SEQEND
5
73b
100
AcDbEntity
8
0-2
0
POLYLINE
5
73c
100
AcDbEntity
8
0-2
6
CONTINUOUS
62
  7
100
AcDb2dPolyline
66
1
10
0.0
20
0.0
30
0.0
70
0
0
VERTEX
5
73d
100
AcDbEntity
8
0-2
6
CONTINUOUS
62
  7
100
AcDbVertex
100
AcDb2dVertex
10
798.390000000000
20
492.380000000000
30
0.0
0
VERTEX
5
73e
100
AcDbEntity
8
0-2
6
CONTINUOUS
62
  7
100
AcDbVertex
100
AcDb2dVertex
10
798.390000000000
20
487.810000000000
30
0.0
0
VERTEX
5
73f
100
AcDbEntity
8
0-2
6
CONTINUOUS
62
  7
100
AcDbVertex
100
AcDb2dVertex
10
798.390000000000
20
475.310000000000
30
0.0
0
VERTEX
5
740
100
AcDbEntity
8
0-2
6
CONTINUOUS
62
  7
100
AcDbVertex
100
AcDb2dVertex
10
798.390000000000
20
470.730000000000
30
0.0
0
VERTEX
5
741
100
AcDbEntity
8
0-2
6
CONTINUOUS
62
  7
100
AcDbVertex
100
AcDb2dVertex
10
791.190000000000
20
470.730000000000
30
0.0
0
VERTEX
5
742
100
AcDbEntity
8
0-2
6
CONTINUOUS
62
  7
100
AcDbVertex
100
AcDb2dVertex
10
791.190000000000
20
481.560000000000
30
0.0
0
VERTEX
5
743
100
AcDbEntity
8
0-2
6
CONTINUOUS
62
  7
100
AcDbVertex
100
AcDb2dVertex
10
791.190000000000
20
492.380000000000
30
0.0
0
VERTEX
5
744
100
AcDbEntity
8
0-2
6
CONTINUOUS
62
  7
100
AcDbVertex
100
AcDb2dVertex
10
798.390000000000
20
492.380000000000
30
0.0
0
SEQEND
5
745
100
AcDbEntity
8
0-2
0
POLYLINE
5
746
100
AcDbEntity
8
0-2
6
CONTINUOUS
62
  7
100
AcDb2dPolyline
66
1
10
0.0
20
0.0
30
0.0
70
0
0
VERTEX
5
747
100
AcDbEntity
8
0-2
6
CONTINUOUS
62
  7
100
AcDbVertex
100
AcDb2dVertex
10
799.000000000000
20
487.810000000000
30
0.0
0
VERTEX
5
748
100
AcDbEntity
8
0-2
6
CONTINUOUS
62
  7
100
AcDbVertex
100
AcDb2dVertex
10
802.180000000000
20
487.810000000000
30
0.0
0
VERTEX
5
749
100
AcDbEntity
8
0-2
6
CONTINUOUS
62
  7
100
AcDbVertex
100
AcDb2dVertex
10
804.000000000000
20
485.980000000000
30
0.0
0
VERTEX
5
74a
100
AcDbEntity
8
0-2
6
CONTINUOUS
62
  7
100
AcDbVertex
100
AcDb2dVertex
10
804.000000000000
20
477.130000000000
30
0.0
0
VERTEX
5
74b
100
AcDbEntity
8
0-2
6
CONTINUOUS
62
  7
100
AcDbVertex
100
AcDb2dVertex
10
802.180000000000
20
475.310000000000
30
0.0
0
VERTEX
5
74c
100
AcDbEntity
8
0-2
6
CONTINUOUS
62
  7
100
AcDbVertex
100
AcDb2dVertex
10
799.000000000000
20
475.310000000000
30
0.0
0
SEQEND
5
74d
100
AcDbEntity
8
0-2
0
LINE
5
74e
100
AcDbEntity
8
0-1
6
CONTINUOUS
62
7
100
AcDbLine
10
301.150000000000
20
331.860000000000
30
0.0
11
286.150000000000
21
331.860000000000
31
0.0
0
LINE
5
74f
100
AcDbEntity
8
0-1
6
CONTINUOUS
62
3
100
AcDbLine
10
406.150000000000
20
339.670000000000
30
0.0
11
331.180000000000
21
339.670000000000
31
0.0
0
LINE
5
750
100
AcDbEntity
8
0-1
6
CONTINUOUS
62
3
100
AcDbLine
10
426.150000000000
20
506.700000000000
30
0.0
11
331.180000000000
21
506.700000000000
31
0.0
0
LINE
5
751
100
AcDbEntity
8
0-1
6
CONTINUOUS
62
3
100
AcDbLine
10
426.150000000000
20
510.560000000000
30
0.0
11
331.180000000000
21
510.560000000000
31
0.0
0
LINE
5
752
100
AcDbEntity
8
0-1
6
CONTINUOUS
62
3
100
AcDbLine
10
426.150000000000
20
514.020000000000
30
0.0
11
331.180000000000
21
514.020000000000
31
0.0
0
LINE
5
753
100
AcDbEntity
8
0-1
6
CONTINUOUS
62
3
100
AcDbLine
10
426.150000000000
20
531.260000000000
30
0.0
11
331.180000000000
21
531.260000000000
31
0.0
0
LINE
5
754
100
AcDbEntity
8
0-1
6
CONTINUOUS
62
3
100
AcDbLine
10
521.120000000000
20
339.670000000000
30
0.0
11
446.150000000000
21
339.670000000000
31
0.0
0
LINE
5
755
100
AcDbEntity
8
0-1
6
CONTINUOUS
62
3
100
AcDbLine
10
426.150000000000
20
506.700000000000
30
0.0
11
521.120000000000
21
506.700000000000
31
0.0
0
LINE
5
756
100
AcDbEntity
8
0-1
6
CONTINUOUS
62
3
100
AcDbLine
10
426.150000000000
20
510.560000000000
30
0.0
11
521.120000000000
21
510.560000000000
31
0.0
0
LINE
5
757
100
AcDbEntity
8
0-1
6
CONTINUOUS
62
3
100
AcDbLine
10
426.150000000000
20
514.020000000000
30
0.0
11
521.120000000000
21
514.020000000000
31
0.0
0
LINE
5
758
100
AcDbEntity
8
0-1
6
CONTINUOUS
62
3
100
AcDbLine
10
426.150000000000
20
531.260000000000
30
0.0
11
521.120000000000
21
531.260000000000
31
0.0
0
LINE
5
759
100
AcDbEntity
8
0-1
6
CENTER2
62
7
100
AcDbLine
10
426.150000000000
20
546.460000000000
30
0.0
11
426.150000000000
21
398.670000000000
31
0.0
0
LINE
5
75a
100
AcDbEntity
8
0-1
6
CENTER2
62
7
100
AcDbLine
10
426.150000000000
20
368.800000000000
30
0.0
11
426.150000000000
21
236.170000000000
31
0.0
0
LINE
5
75b
100
AcDbEntity
8
F-F
6
CONTINUOUS
62
7
100
AcDbLine
10
847.620000000000
20
565.710000000000
30
0.0
11
820.630000000000
21
565.710000000000
31
0.0
0
LINE
5
75c
100
AcDbEntity
8
F-F
6
CONTINUOUS
62
7
100
AcDbLine
10
789.690000000000
20
512.130000000000
30
0.0
11
820.630000000000
21
565.710000000000
31
0.0
0
LINE
5
75d
100
AcDbEntity
8
F-F
6
CONTINUOUS
62
7
100
AcDbLine
10
847.510000000000
20
461.670000000000
30
0.0
11
882.310000000000
21
521.950000000000
31
0.0
0
LINE
5
75e
100
AcDbEntity
8
F-F
6
CONTINUOUS
62
7
100
AcDbLine
10
852.310000000000
20
439.070000000000
30
0.0
11
834.940000000000
21
408.990000000000
31
0.0
0
CIRCLE
5
75f
100
AcDbEntity
8
F-F
6
CONTINUOUS
62
3
100
AcDbCircle
10
88.840000000000
20
66.090000000000
30
0.0
40
11.313711307550
0
CIRCLE
5
760
100
AcDbEntity
8
F-F
6
CONTINUOUS
62
3
100
AcDbCircle
10
88.840000000000
20
66.090000000000
30
0.0
40
12.913710044598
0
CIRCLE
5
761
100
AcDbEntity
8
F-F
6
CONTINUOUS
62
4
100
AcDbCircle
10
88.840000000000
20
66.090000000000
30
0.0
40
11.473709787749
0
CIRCLE
5
762
100
AcDbEntity
8
F-F
6
CONTINUOUS
62
4
100
AcDbCircle
10
88.840000000000
20
66.090000000000
30
0.0
40
11.793706748147
0
CIRCLE
5
763
100
AcDbEntity
8
F-F
6
CONTINUOUS
62
4
100
AcDbCircle
10
88.840000000000
20
66.090000000000
30
0.0
40
12.113708353564
0
CIRCLE
5
764
100
AcDbEntity
8
F-F
6
CONTINUOUS
62
4
100
AcDbCircle
10
88.840000000000
20
66.090000000000
30
0.0
40
12.433705313962
0
CIRCLE
5
765
100
AcDbEntity
8
F-F
6
CONTINUOUS
62
4
100
AcDbCircle
10
88.840000000000
20
66.090000000000
30
0.0
40
12.753704596870
0
ARC
5
766
100
AcDbEntity
8
0-0
6
CONTINUOUS
62
7
100
AcDbCircle
10
787.690000000000
20
937.540000000000
30
0.0
40
0.999999984825
100
AcDbArc
50
360.000000000000
51
450.000000000000
0
ARC
5
767
100
AcDbEntity
8
0-0
6
CONTINUOUS
62
7
100
AcDbCircle
10
787.690000000000
20
937.540000000000
30
0.0
40
1.999999969650
100
AcDbArc
50
360.000000000000
51
450.000000000000
0
ARC
5
768
100
AcDbEntity
8
0-0
6
CONTINUOUS
62
7
100
AcDbCircle
10
1119.690000000000
20
935.540000000000
30
0.0
40
0.999999984825
100
AcDbArc
50
360.000000000000
51
450.000000000000
0
ARC
5
769
100
AcDbEntity
8
0-0
6
CONTINUOUS
62
7
100
AcDbCircle
10
1119.690000000000
20
935.540000000000
30
0.0
40
1.999999969650
100
AcDbArc
50
360.000000000000
51
450.000000000000
0
ARC
5
76a
100
AcDbEntity
8
0-0
6
CONTINUOUS
62
7
100
AcDbCircle
10
823.600000000000
20
907.520000000000
30
0.0
40
0.999999984825
100
AcDbArc
50
27.803634643555
51
77.987823486328
0
ARC
5
76b
100
AcDbEntity
8
0-0
6
CONTINUOUS
62
7
100
AcDbCircle
10
823.600000000000
20
907.520000000000
30
0.0
40
1.999999969650
100
AcDbArc
50
27.803634643555
51
77.987823486328
0
ARC
5
76c
100
AcDbEntity
8
0-0
6
CONTINUOUS
62
7
100
AcDbCircle
10
790.690000000000
20
917.590000000000
30
0.0
40
0.999999984825
100
AcDbArc
50
180.000000000000
51
257.987823486328
0
ARC
5
76d
100
AcDbEntity
8
0-0
6
CONTINUOUS
62
7
100
AcDbCircle
10
790.690000000000
20
917.590000000000
30
0.0
40
1.999999969650
100
AcDbArc
50
180.000000000000
51
257.987823486328
0
ARC
5
76e
100
AcDbEntity
8
0-0
6
CONTINUOUS
62
7
100
AcDbCircle
10
909.240000000000
20
751.540000000000
30
0.0
40
0.999999984825
100
AcDbArc
50
207.804290771484
51
270.000000000000
0
ARC
5
76f
100
AcDbEntity
8
0-0
6
CONTINUOUS
62
7
100
AcDbCircle
10
909.240000000000
20
751.540000000000
30
0.0
40
1.999999969650
100
AcDbArc
50
207.804290771484
51
270.000000000000
0
ARC
5
770
100
AcDbEntity
8
0-0
6
CONTINUOUS
62
7
100
AcDbCircle
10
1088.780000000000
20
907.520000000000
30
0.0
40
0.999999984825
100
AcDbArc
50
102.012176513672
51
152.196365356445
0
ARC
5
771
100
AcDbEntity
8
0-0
6
CONTINUOUS
62
7
100
AcDbCircle
10
1088.780000000000
20
907.520000000000
30
0.0
40
1.999999969650
100
AcDbArc
50
102.012176513672
51
152.196365356445
0
ARC
5
772
100
AcDbEntity
8
0-0
6
CONTINUOUS
62
7
100
AcDbCircle
10
1003.140000000000
20
751.540000000000
30
0.0
40
0.999999984825
100
AcDbArc
50
270.000000000000
51
332.195709228516
0
ARC
5
773
100
AcDbEntity
8
0-0
6
CONTINUOUS
62
7
100
AcDbCircle
10
1003.140000000000
20
751.540000000000
30
0.0
40
1.999999969650
100
AcDbArc
50
270.000000000000
51
332.195709228516
0
ARC
5
774
100
AcDbEntity
8
0-0
6
CONTINUOUS
62
7
100
AcDbCircle
10
1119.690000000000
20
917.160000000000
30
0.0
40
0.999999984825
100
AcDbArc
50
282.011474609375
51
0.000000000000
0
ARC
5
775
100
AcDbEntity
8
0-0
6
CONTINUOUS
62
7
100
AcDbCircle
10
1119.690000000000
20
917.160000000000
30
0.0
40
1.999999969650
100
AcDbArc
50
282.011474609375
51
0.000000000000
0
ARC
5
776
100
AcDbEntity
8
0-2
6
CONTINUOUS
62
7
100
AcDbCircle
10
1119.690000000000
20
526.060000000000
30
0.0
40
0.999999984825
100
AcDbArc
50
360.000000000000
51
450.000000000000
0
ARC
5
777
100
AcDbEntity
8
0-2
6
CONTINUOUS
62
7
100
AcDbCircle
10
1119.690000000000
20
526.060000000000
30
0.0
40
1.999999969650
100
AcDbArc
50
360.000000000000
51
450.000000000000
0
ARC
5
778
100
AcDbEntity
8
0-2
6
CONTINUOUS
62
7
100
AcDbCircle
10
1088.780000000000
20
498.030000000000
30
0.0
40
0.999999984825
100
AcDbArc
50
102.012176513672
51
152.196365356445
0
ARC
5
779
100
AcDbEntity
8
0-2
6
CONTINUOUS
62
7
100
AcDbCircle
10
1088.780000000000
20
498.030000000000
30
0.0
40
1.999999969650
100
AcDbArc
50
102.012176513672
51
152.196365356445
0
ARC
5
77a
100
AcDbEntity
8
0-2
6
CONTINUOUS
62
7
100
AcDbCircle
10
1003.140000000000
20
342.060000000000
30
0.0
40
0.999999984825
100
AcDbArc
50
270.000000000000
51
332.195709228516
0
ARC
5
77b
100
AcDbEntity
8
0-2
6
CONTINUOUS
62
7
100
AcDbCircle
10
1003.140000000000
20
342.060000000000
30
0.0
40
1.999999969650
100
AcDbArc
50
270.000000000000
51
332.195709228516
0
ARC
5
77c
100
AcDbEntity
8
0-2
6
CONTINUOUS
62
7
100
AcDbCircle
10
1119.690000000000
20
507.680000000000
30
0.0
40
0.999999984825
100
AcDbArc
50
282.011474609375
51
0.000000000000
0
ARC
5
77d
100
AcDbEntity
8
0-2
6
CONTINUOUS
62
7
100
AcDbCircle
10
1119.690000000000
20
507.680000000000
30
0.0
40
1.999999969650
100
AcDbArc
50
282.011474609375
51
0.000000000000
0
ARC
5
77e
100
AcDbEntity
8
0-2
6
CONTINUOUS
62
7
100
AcDbCircle
10
1121.190000000000
20
527.560000000000
30
0.0
40
1.999999969650
100
AcDbArc
50
360.000000000000
51
450.000000000000
0
ARC
5
77f
100
AcDbEntity
8
0-2
6
CONTINUOUS
62
7
100
AcDbCircle
10
1116.190000000000
20
516.110000000000
30
0.0
40
2.999999760932
100
AcDbArc
50
332.592086791992
51
62.592239379883
0
ARC
5
780
100
AcDbEntity
8
0-2
6
CONTINUOUS
62
7
100
AcDbCircle
10
1116.190000000000
20
516.110000000000
30
0.0
40
3.999999939299
100
AcDbArc
50
332.592086791992
51
62.592239379883
0
ARC
5
781
100
AcDbEntity
8
0-2
6
CONTINUOUS
62
7
100
AcDbCircle
10
1108.100000000000
20
527.560000000000
30
0.0
40
2.699999997736
100
AcDbArc
50
90.000000000000
51
242.907012939453
0
ARC
5
782
100
AcDbEntity
8
0-2
6
CONTINUOUS
62
7
100
AcDbCircle
10
1108.100000000000
20
527.560000000000
30
0.0
40
3.699999789018
100
AcDbArc
50
90.000000000000
51
243.499023437500
0
ARC
5
783
100
AcDbEntity
8
0-2
6
CONTINUOUS
62
7
100
AcDbCircle
10
1121.190000000000
20
527.560000000000
30
0.0
40
0.999999984825
100
AcDbArc
50
27.657699584961
51
90.000000000000
0
ARC
5
784
100
AcDbEntity
8
0-2
6
CONTINUOUS
62
7
100
AcDbCircle
10
1121.190000000000
20
527.560000000000
30
0.0
40
0.999999984825
100
AcDbArc
50
360.000000000000
51
387.657699584961
0
ARC
5
785
100
AcDbEntity
8
0-2
6
CONTINUOUS
62
7
100
AcDbCircle
10
1119.690000000000
20
526.060000000000
30
0.0
40
0.999999984825
100
AcDbArc
50
360.000000000000
51
450.000000000000
0
ARC
5
786
100
AcDbEntity
8
0-2
6
CONTINUOUS
62
7
100
AcDbCircle
10
1119.690000000000
20
526.060000000000
30
0.0
40
1.999999969650
100
AcDbArc
50
48.300964355469
51
90.000000000000
0
ARC
5
787
100
AcDbEntity
8
0-2
6
CONTINUOUS
62
7
100
AcDbCircle
10
1119.690000000000
20
526.060000000000
30
0.0
40
1.999999969650
100
AcDbArc
50
360.000000000000
51
408.300964355469
0
ARC
5
788
100
AcDbEntity
8
0-2
6
CONTINUOUS
62
7
100
AcDbCircle
10
1107.650000000000
20
527.560000000000
30
0.0
40
0.999999984825
100
AcDbArc
50
90.000000000000
51
243.770095825195
0
ARC
5
789
100
AcDbEntity
8
0-2
6
CONTINUOUS
62
7
100
AcDbCircle
10
1107.650000000000
20
527.560000000000
30
0.0
40
1.999999969650
100
AcDbArc
50
90.000000000000
51
243.770095825195
0
ARC
5
78a
100
AcDbEntity
8
0-2
6
CONTINUOUS
62
7
100
AcDbCircle
10
1122.690000000000
20
529.260000000000
30
0.0
40
0.999999984825
100
AcDbArc
50
360.000000000000
51
450.000000000000
0
ARC
5
78b
100
AcDbEntity
8
0-2
6
CONTINUOUS
62
7
100
AcDbCircle
10
1122.690000000000
20
529.260000000000
30
0.0
40
1.999999969650
100
AcDbArc
50
360.000000000000
51
450.000000000000
0
ARC
5
78c
100
AcDbEntity
8
0-2
6
CONTINUOUS
62
7
100
AcDbCircle
10
1158.600000000000
20
499.230000000000
30
0.0
40
0.999999984825
100
AcDbArc
50
27.803634643555
51
77.987823486328
0
ARC
5
78d
100
AcDbEntity
8
0-2
6
CONTINUOUS
62
7
100
AcDbCircle
10
1158.600000000000
20
499.230000000000
30
0.0
40
1.999999969650
100
AcDbArc
50
27.803634643555
51
77.987823486328
0
ARC
5
78e
100
AcDbEntity
8
0-2
6
CONTINUOUS
62
7
100
AcDbCircle
10
1125.690000000000
20
509.300000000000
30
0.0
40
0.999999984825
100
AcDbArc
50
180.000000000000
51
257.987823486328
0
ARC
5
78f
100
AcDbEntity
8
0-2
6
CONTINUOUS
62
7
100
AcDbCircle
10
1125.690000000000
20
509.300000000000
30
0.0
40
1.999999969650
100
AcDbArc
50
180.000000000000
51
257.987823486328
0
ARC
5
790
100
AcDbEntity
8
0-2
6
CONTINUOUS
62
7
100
AcDbCircle
10
1158.600000000000
20
499.230000000000
30
0.0
40
0.999999984825
100
AcDbArc
50
27.803634643555
51
77.987823486328
0
ARC
5
791
100
AcDbEntity
8
0-2
6
CONTINUOUS
62
7
100
AcDbCircle
10
1158.600000000000
20
499.230000000000
30
0.0
40
1.999999969650
100
AcDbArc
50
27.803634643555
51
77.987823486328
0
ARC
5
792
100
AcDbEntity
8
0-2
6
CONTINUOUS
62
3
100
AcDbCircle
10
1007.260000000000
20
337.360000000000
30
0.0
40
2.299999732846
100
AcDbArc
50
270.000000000000
51
333.829071044922
0
ARC
5
793
100
AcDbEntity
8
0-2
6
CONTINUOUS
62
3
100
AcDbCircle
10
1007.260000000000
20
337.360000000000
30
0.0
40
4.599999465692
100
AcDbArc
50
270.000000000000
51
333.829071044922
0
ARC
5
794
100
AcDbEntity
8
0-2
6
CONTINUOUS
62
3
100
AcDbCircle
10
1176.710000000000
20
451.960000000000
30
0.0
40
2.299999732846
100
AcDbArc
50
26.171203613281
51
90.000000000000
0
ARC
5
795
100
AcDbEntity
8
0-2
6
CONTINUOUS
62
3
100
AcDbCircle
10
1176.710000000000
20
451.960000000000
30
0.0
40
4.599999465692
100
AcDbArc
50
26.171203613281
51
90.000000000000
0
ARC
5
796
100
AcDbEntity
8
0-2
6
CONTINUOUS
62
3
100
AcDbCircle
10
1123.490000000000
20
458.860000000000
30
0.0
40
2.299999732846
100
AcDbArc
50
180.000000000000
51
270.000000000000
0
ARC
5
797
100
AcDbEntity
8
0-2
6
CONTINUOUS
62
3
100
AcDbCircle
10
1123.490000000000
20
458.860000000000
30
0.0
40
4.599999465692
100
AcDbArc
50
180.000000000000
51
270.000000000000
0
ARC
5
798
100
AcDbEntity
8
0-2
6
CONTINUOUS
62
3
100
AcDbCircle
10
1116.590000000000
20
499.250000000000
30
0.0
40
2.299999732846
100
AcDbArc
50
360.000000000000
51
462.010971069336
0
ARC
5
799
100
AcDbEntity
8
0-2
6
CONTINUOUS
62
3
100
AcDbCircle
10
1116.590000000000
20
499.250000000000
30
0.0
40
4.599999465692
100
AcDbArc
50
360.000000000000
51
462.010971069336
0
ARC
5
79a
100
AcDbEntity
8
0-2
6
CONTINUOUS
62
3
100
AcDbCircle
10
1091.920000000000
20
494.000000000000
30
0.0
40
2.299999732846
100
AcDbArc
50
102.010971069336
51
153.828521728516
0
ARC
5
79b
100
AcDbEntity
8
0-2
6
CONTINUOUS
62
3
100
AcDbCircle
10
1091.920000000000
20
494.000000000000
30
0.0
40
4.599999465692
100
AcDbArc
50
102.010971069336
51
153.828521728516
0
ARC
5
79c
100
AcDbEntity
8
0-2
6
CONTINUOUS
62
3
100
AcDbCircle
10
1130.240000000000
20
481.560000000000
30
0.0
40
16.753864789351
100
AcDbArc
50
132.636291503906
51
227.363708496094
0
ARC
5
79d
100
AcDbEntity
8
0-2
6
CONTINUOUS
62
7
100
AcDbCircle
10
786.690000000000
20
526.060000000000
30
0.0
40
0.999999984825
100
AcDbArc
50
360.000000000000
51
450.000000000000
0
ARC
5
79e
100
AcDbEntity
8
0-2
6
CONTINUOUS
62
7
100
AcDbCircle
10
786.690000000000
20
526.060000000000
30
0.0
40
1.999999969650
100
AcDbArc
50
360.000000000000
51
450.000000000000
0
ARC
5
79f
100
AcDbEntity
8
0-2
6
CONTINUOUS
62
7
100
AcDbCircle
10
755.780000000000
20
498.030000000000
30
0.0
40
0.999999984825
100
AcDbArc
50
102.012176513672
51
152.196365356445
0
ARC
5
7a0
100
AcDbEntity
8
0-2
6
CONTINUOUS
62
7
100
AcDbCircle
10
755.780000000000
20
498.030000000000
30
0.0
40
1.999999969650
100
AcDbArc
50
102.012176513672
51
152.196365356445
0
ARC
5
7a1
100
AcDbEntity
8
0-2
6
CONTINUOUS
62
7
100
AcDbCircle
10
786.690000000000
20
507.680000000000
30
0.0
40
0.999999984825
100
AcDbArc
50
282.011474609375
51
0.000000000000
0
ARC
5
7a2
100
AcDbEntity
8
0-2
6
CONTINUOUS
62
7
100
AcDbCircle
10
786.690000000000
20
507.680000000000
30
0.0
40
1.999999969650
100
AcDbArc
50
282.011474609375
51
0.000000000000
0
ARC
5
7a3
100
AcDbEntity
8
0-2
6
CONTINUOUS
62
7
100
AcDbCircle
10
788.190000000000
20
527.560000000000
30
0.0
40
1.999999969650
100
AcDbArc
50
360.000000000000
51
450.000000000000
0
ARC
5
7a4
100
AcDbEntity
8
0-2
6
CONTINUOUS
62
7
100
AcDbCircle
10
783.190000000000
20
516.110000000000
30
0.0
40
2.999999760932
100
AcDbArc
50
332.592086791992
51
62.592239379883
0
ARC
5
7a5
100
AcDbEntity
8
0-2
6
CONTINUOUS
62
7
100
AcDbCircle
10
783.190000000000
20
516.110000000000
30
0.0
40
3.999999939299
100
AcDbArc
50
332.592086791992
51
62.592239379883
0
ARC
5
7a6
100
AcDbEntity
8
0-2
6
CONTINUOUS
62
7
100
AcDbCircle
10
775.100000000000
20
527.560000000000
30
0.0
40
2.699999997736
100
AcDbArc
50
90.000000000000
51
242.907012939453
0
ARC
5
7a7
100
AcDbEntity
8
0-2
6
CONTINUOUS
62
7
100
AcDbCircle
10
775.100000000000
20
527.560000000000
30
0.0
40
3.699999789018
100
AcDbArc
50
90.000000000000
51
243.499023437500
0
ARC
5
7a8
100
AcDbEntity
8
0-2
6
CONTINUOUS
62
7
100
AcDbCircle
10
788.190000000000
20
527.560000000000
30
0.0
40
0.999999984825
100
AcDbArc
50
27.657699584961
51
90.000000000000
0
ARC
5
7a9
100
AcDbEntity
8
0-2
6
CONTINUOUS
62
7
100
AcDbCircle
10
788.190000000000
20
527.560000000000
30
0.0
40
0.999999984825
100
AcDbArc
50
360.000000000000
51
387.657699584961
0
ARC
5
7aa
100
AcDbEntity
8
0-2
6
CONTINUOUS
62
7
100
AcDbCircle
10
786.690000000000
20
526.060000000000
30
0.0
40
0.999999984825
100
AcDbArc
50
360.000000000000
51
450.000000000000
0
ARC
5
7ab
100
AcDbEntity
8
0-2
6
CONTINUOUS
62
7
100
AcDbCircle
10
786.690000000000
20
526.060000000000
30
0.0
40
1.999999969650
100
AcDbArc
50
48.300964355469
51
90.000000000000
0
ARC
5
7ac
100
AcDbEntity
8
0-2
6
CONTINUOUS
62
7
100
AcDbCircle
10
786.690000000000
20
526.060000000000
30
0.0
40
1.999999969650
100
AcDbArc
50
360.000000000000
51
408.300964355469
0
ARC
5
7ad
100
AcDbEntity
8
0-2
6
CONTINUOUS
62
7
100
AcDbCircle
10
774.650000000000
20
527.560000000000
30
0.0
40
0.999999984825
100
AcDbArc
50
90.000000000000
51
243.770095825195
0
ARC
5
7ae
100
AcDbEntity
8
0-2
6
CONTINUOUS
62
7
100
AcDbCircle
10
774.650000000000
20
527.560000000000
30
0.0
40
1.999999969650
100
AcDbArc
50
90.000000000000
51
243.770095825195
0
ARC
5
7af
100
AcDbEntity
8
0-2
6
CONTINUOUS
62
7
100
AcDbCircle
10
789.690000000000
20
529.260000000000
30
0.0
40
0.999999984825
100
AcDbArc
50
360.000000000000
51
450.000000000000
0
ARC
5
7b0
100
AcDbEntity
8
0-2
6
CONTINUOUS
62
7
100
AcDbCircle
10
789.690000000000
20
529.260000000000
30
0.0
40
1.999999969650
100
AcDbArc
50
360.000000000000
51
450.000000000000
0
ARC
5
7b1
100
AcDbEntity
8
0-2
6
CONTINUOUS
62
7
100
AcDbCircle
10
825.600000000000
20
499.230000000000
30
0.0
40
0.999999984825
100
AcDbArc
50
27.803634643555
51
77.987823486328
0
ARC
5
7b2
100
AcDbEntity
8
0-2
6
CONTINUOUS
62
7
100
AcDbCircle
10
825.600000000000
20
499.230000000000
30
0.0
40
1.999999969650
100
AcDbArc
50
27.803634643555
51
77.987823486328
0
ARC
5
7b3
100
AcDbEntity
8
0-2
6
CONTINUOUS
62
7
100
AcDbCircle
10
792.690000000000
20
509.300000000000
30
0.0
40
0.999999984825
100
AcDbArc
50
180.000000000000
51
257.987823486328
0
ARC
5
7b4
100
AcDbEntity
8
0-2
6
CONTINUOUS
62
7
100
AcDbCircle
10
792.690000000000
20
509.300000000000
30
0.0
40
1.999999969650
100
AcDbArc
50
180.000000000000
51
257.987823486328
0
ARC
5
7b5
100
AcDbEntity
8
0-2
6
CONTINUOUS
62
7
100
AcDbCircle
10
825.600000000000
20
499.230000000000
30
0.0
40
0.999999984825
100
AcDbArc
50
27.803634643555
51
77.987823486328
0
ARC
5
7b6
100
AcDbEntity
8
0-2
6
CONTINUOUS
62
7
100
AcDbCircle
10
825.600000000000
20
499.230000000000
30
0.0
40
1.999999969650
100
AcDbArc
50
27.803634643555
51
77.987823486328
0
ARC
5
7b7
100
AcDbEntity
8
0-2
6
CONTINUOUS
62
7
100
AcDbCircle
10
911.240000000000
20
342.060000000000
30
0.0
40
0.999999984825
100
AcDbArc
50
207.804290771484
51
270.000000000000
0
ARC
5
7b8
100
AcDbEntity
8
0-2
6
CONTINUOUS
62
7
100
AcDbCircle
10
911.240000000000
20
342.060000000000
30
0.0
40
1.999999969650
100
AcDbArc
50
207.804290771484
51
270.000000000000
0
ARC
5
7b9
100
AcDbEntity
8
0-2
6
CONTINUOUS
62
3
100
AcDbCircle
10
907.120000000000
20
337.360000000000
30
0.0
40
2.299999732846
100
AcDbArc
50
206.170913696289
51
270.000000000000
0
ARC
5
7ba
100
AcDbEntity
8
0-2
6
CONTINUOUS
62
3
100
AcDbCircle
10
907.120000000000
20
337.360000000000
30
0.0
40
4.599999465692
100
AcDbArc
50
206.170913696289
51
270.000000000000
0
ARC
5
7bb
100
AcDbEntity
8
0-2
6
CONTINUOUS
62
3
100
AcDbCircle
10
843.710000000000
20
451.960000000000
30
0.0
40
2.299999732846
100
AcDbArc
50
26.171203613281
51
90.000000000000
0
ARC
5
7bc
100
AcDbEntity
8
0-2
6
CONTINUOUS
62
3
100
AcDbCircle
10
843.710000000000
20
451.960000000000
30
0.0
40
4.599999465692
100
AcDbArc
50
26.171203613281
51
90.000000000000
0
ARC
5
7bd
100
AcDbEntity
8
0-2
6
CONTINUOUS
62
3
100
AcDbCircle
10
790.490000000000
20
458.860000000000
30
0.0
40
2.299999732846
100
AcDbArc
50
180.000000000000
51
270.000000000000
0
ARC
5
7be
100
AcDbEntity
8
0-2
6
CONTINUOUS
62
3
100
AcDbCircle
10
790.490000000000
20
458.860000000000
30
0.0
40
4.599999465692
100
AcDbArc
50
180.000000000000
51
270.000000000000
0
ARC
5
7bf
100
AcDbEntity
8
0-2
6
CONTINUOUS
62
3
100
AcDbCircle
10
783.590000000000
20
499.250000000000
30
0.0
40
2.299999732846
100
AcDbArc
50
360.000000000000
51
462.010971069336
0
ARC
5
7c0
100
AcDbEntity
8
0-2
6
CONTINUOUS
62
3
100
AcDbCircle
10
783.590000000000
20
499.250000000000
30
0.0
40
4.599999465692
100
AcDbArc
50
360.000000000000
51
462.010971069336
0
ARC
5
7c1
100
AcDbEntity
8
0-2
6
CONTINUOUS
62
3
100
AcDbCircle
10
758.920000000000
20
494.000000000000
30
0.0
40
2.299999732846
100
AcDbArc
50
102.010971069336
51
153.828521728516
0
ARC
5
7c2
100
AcDbEntity
8
0-2
6
CONTINUOUS
62
3
100
AcDbCircle
10
758.920000000000
20
494.000000000000
30
0.0
40
4.599999465692
100
AcDbArc
50
102.010971069336
51
153.828521728516
0
ARC
5
7c3
100
AcDbEntity
8
0-2
6
CONTINUOUS
62
3
100
AcDbCircle
10
797.240000000000
20
481.560000000000
30
0.0
40
16.753864789351
100
AcDbArc
50
132.636291503906
51
227.363708496094
0
ARC
5
7c4
100
AcDbEntity
8
0-2
6
CONTINUOUS
62
7
100
AcDbCircle
10
1244.240000000000
20
342.060000000000
30
0.0
40
0.999999984825
100
AcDbArc
50
207.804290771484
51
270.000000000000
0
ARC
5
7c5
100
AcDbEntity
8
0-2
6
CONTINUOUS
62
7
100
AcDbCircle
10
1244.240000000000
20
342.060000000000
30
0.0
40
1.999999969650
100
AcDbArc
50
207.804290771484
51
270.000000000000
0
ARC
5
7c6
100
AcDbEntity
8
0-2
6
CONTINUOUS
62
3
100
AcDbCircle
10
1240.120000000000
20
337.360000000000
30
0.0
40
2.299999732846
100
AcDbArc
50
206.170913696289
51
270.000000000000
0
ARC
5
7c7
100
AcDbEntity
8
0-2
6
CONTINUOUS
62
3
100
AcDbCircle
10
1240.120000000000
20
337.360000000000
30
0.0
40
4.599999465692
100
AcDbArc
50
206.170913696289
51
270.000000000000
0
ARC
5
7c8
100
AcDbEntity
8
0-2
6
CONTINUOUS
62
7
100
AcDbCircle
10
670.140000000000
20
342.060000000000
30
0.0
40
0.999999984825
100
AcDbArc
50
270.000000000000
51
332.195709228516
0
ARC
5
7c9
100
AcDbEntity
8
0-2
6
CONTINUOUS
62
7
100
AcDbCircle
10
670.140000000000
20
342.060000000000
30
0.0
40
1.999999969650
100
AcDbArc
50
270.000000000000
51
332.195709228516
0
ARC
5
7ca
100
AcDbEntity
8
0-2
6
CONTINUOUS
62
3
100
AcDbCircle
10
674.260000000000
20
337.360000000000
30
0.0
40
2.299999732846
100
AcDbArc
50
270.000000000000
51
333.829071044922
0
ARC
5
7cb
100
AcDbEntity
8
0-2
6
CONTINUOUS
62
3
100
AcDbCircle
10
674.260000000000
20
337.360000000000
30
0.0
40
4.599999465692
100
AcDbArc
50
270.000000000000
51
333.829071044922
0
CIRCLE
5
7cc
100
AcDbEntity
8
0-1
6
CONTINUOUS
62
3
100
AcDbCircle
10
426.150000000000
20
481.560000000000
30
0.0
40
10.825299091128
0
ARC
5
7cd
100
AcDbEntity
8
0-1
6
CONTINUOUS
62
3
100
AcDbCircle
10
415.400000000000
20
315.860000000000
30
0.0
40
7.999947235041
100
AcDbArc
50
359.999740600586
51
89.999740600586
0
ARC
5
7ce
100
AcDbEntity
8
0-1
6
CONTINUOUS
62
3
100
AcDbCircle
10
436.900000000000
20
315.860000000000
30
0.0
40
7.999947235041
100
AcDbArc
50
89.999740600586
51
179.999740600586
0
CIRCLE
5
7cf
100
AcDbEntity
8
0-1
6
DOT
62
3
100
AcDbCircle
10
426.150000000000
20
481.560000000000
30
0.0
40
6.249991389286
0
ARC
5
7d0
100
AcDbEntity
8
0-0
6
CONTINUOUS
62
7
100
AcDbCircle
10
763.490000000000
20
928.350000000000
30
0.0
40
2.999999760932
100
AcDbArc
50
249.318054199219
51
-20.681793212891
0
ARC
5
7d1
100
AcDbEntity
8
0-0
6
CONTINUOUS
62
7
100
AcDbCircle
10
763.490000000000
20
928.350000000000
30
0.0
40
3.999999939299
100
AcDbArc
50
249.318054199219
51
-20.681793212891
0
ARC
5
7d2
100
AcDbEntity
8
0-0
6
CONTINUOUS
62
7
100
AcDbCircle
10
772.040000000000
20
937.540000000000
30
0.0
40
0.999999984825
100
AcDbArc
50
90.000000000000
51
160.496658325195
0
ARC
5
7d3
100
AcDbEntity
8
0-0
6
CONTINUOUS
62
7
100
AcDbCircle
10
772.040000000000
20
937.540000000000
30
0.0
40
1.999999969650
100
AcDbArc
50
90.000000000000
51
160.496658325195
0
ARC
5
7d4
100
AcDbEntity
8
0-2
6
CONTINUOUS
62
7
100
AcDbCircle
10
820.920000000000
20
493.070000000000
30
0.0
40
3.999999939299
100
AcDbArc
50
27.625823974609
51
77.988571166992
0
ARC
5
7d5
100
AcDbEntity
8
0-2
6
CONTINUOUS
62
7
100
AcDbCircle
10
910.560000000000
20
339.060000000000
30
0.0
40
3.999999939299
100
AcDbArc
50
207.625198364258
51
270.000000000000
0
ARC
5
7d6
100
AcDbEntity
8
0-2
6
CONTINUOUS
62
7
100
AcDbCircle
10
1153.920000000000
20
493.070000000000
30
0.0
40
3.999999939299
100
AcDbArc
50
27.625823974609
51
77.988571166992
0
ARC
5
7d7
100
AcDbEntity
8
0-2
6
CONTINUOUS
62
7
100
AcDbCircle
10
1243.560000000000
20
339.060000000000
30
0.0
40
3.999999939299
100
AcDbArc
50
207.625198364258
51
270.000000000000
0
ARC
5
7d8
100
AcDbEntity
8
0-2
6
CONTINUOUS
62
7
100
AcDbCircle
10
1003.810000000000
20
339.060000000000
30
0.0
40
3.999999939299
100
AcDbArc
50
270.000000000000
51
332.194168090820
0
ARC
5
7d9
100
AcDbEntity
8
0-2
6
CONTINUOUS
62
7
100
AcDbCircle
10
670.810000000000
20
339.060000000000
30
0.0
40
3.999999939299
100
AcDbArc
50
270.000000000000
51
332.194168090820
0
TEXT
5
7da
100
AcDbEntity
8
F-F
62
3
370
-3
100
AcDbText
10
166.664
20
43.600
30
0.0
40
6.564
1
静岡県静岡市流通センター１６番
41
0.921
50
0.000
100
AcDbText
0
TEXT
5
7db
100
AcDbEntity
8
F-F
62
3
370
-3
100
AcDbText
10
166.668
20
28.767
30
0.0
40
6.564
1
電話（０５４）２６３－２２８０（代表）
41
0.921
50
0.000
100
AcDbText
0
TEXT
5
7dc
100
AcDbEntity
8
F-F
62
3
370
-3
100
AcDbText
10
532.090
20
75.752
30
0.0
40
4.923
1
変　　　　　　更　　　　　　記　　　　　　事
41
0.914
50
0.000
100
AcDbText
0
TEXT
5
7dd
100
AcDbEntity
8
F-F
62
3
370
-3
100
AcDbText
10
815.825
20
74.952
30
0.0
40
4.923
1
受領　　日附
41
0.914
50
0.000
100
AcDbText
0
TEXT
5
7de
100
AcDbEntity
8
F-F
62
3
370
-3
100
AcDbText
10
1014.042
20
45.520
30
0.0
40
4.923
1
施工者
41
0.914
50
0.000
100
AcDbText
0
TEXT
5
7df
100
AcDbEntity
8
F-F
62
3
370
-3
100
AcDbText
10
1014.042
20
75.150
30
0.0
40
4.923
1
設計者
41
0.914
50
0.000
100
AcDbText
0
TEXT
5
7e0
100
AcDbEntity
8
F-F
62
3
370
-3
100
AcDbText
10
1219.525
20
44.977
30
0.0
40
4.923
1
作図
41
0.914
50
0.000
100
AcDbText
0
TEXT
5
7e1
100
AcDbEntity
8
F-F
62
3
370
-3
100
AcDbText
10
1291.352
20
45.508
30
0.0
40
4.923
1
図面名
41
0.914
50
0.000
100
AcDbText
0
TEXT
5
7e2
100
AcDbEntity
8
F-F
62
3
370
-3
100
AcDbText
10
1219.525
20
74.607
30
0.0
40
4.923
1
日附
41
0.914
50
0.000
100
AcDbText
0
TEXT
5
7e3
100
AcDbEntity
8
F-F
62
3
370
-3
100
AcDbText
10
1291.352
20
75.137
30
0.0
40
4.923
1
工事件名
41
0.914
50
0.000
100
AcDbText
0
TEXT
5
7e4
100
AcDbEntity
8
F-F
62
3
370
-3
100
AcDbText
10
1241.661
20
74.355
30
0.0
40
4.923
1
年　月　日
41
0.914
50
0.000
100
AcDbText
0
TEXT
5
7e5
100
AcDbEntity
8
F-F
62
3
370
-3
100
AcDbText
10
1241.661
20
44.726
30
0.0
40
4.923
1
年　月　日
41
0.914
50
0.000
100
AcDbText
0
TEXT
5
7e6
100
AcDbEntity
8
F-F
62
3
370
-3
100
AcDbText
10
1543.695
20
75.137
30
0.0
40
4.923
1
設計番号
41
0.914
50
0.000
100
AcDbText
0
MTEXT
5
7e7
100
AcDbEntity
8
F-F
62
3
370
-3
100
AcDbMText
10
387.012
20
67.821
30
0.0
40
4.649
41
0.000
71
7
72
1
1
\W1.037;{\W0.747;. }　{\W0.747;.}　{\W0.747; }
7
STANDARD
11
1.00000
21
0.00000
31
0.0
0
MTEXT
5
7e8
100
AcDbEntity
8
F-F
62
3
370
-3
100
AcDbMText
10
387.012
20
57.945
30
0.0
40
4.649
41
0.000
71
7
72
1
1
\W1.037;{\W0.747;. }　{\W0.747;.}　{\W0.747; }
7
STANDARD
11
1.00000
21
0.00000
31
0.0
0
MTEXT
5
7e9
100
AcDbEntity
8
F-F
62
3
370
-3
100
AcDbMText
10
387.012
20
48.068
30
0.0
40
4.649
41
0.000
71
7
72
1
1
\W1.037;{\W0.747;. }　{\W0.747;.}　{\W0.747; }
7
STANDARD
11
1.00000
21
0.00000
31
0.0
0
MTEXT
5
7ea
100
AcDbEntity
8
F-F
62
3
370
-3
100
AcDbMText
10
387.012
20
38.191
30
0.0
40
4.649
41
0.000
71
7
72
1
1
\W1.037;{\W0.747;. }　{\W0.747;.}　{\W0.747; }
7
STANDARD
11
1.00000
21
0.00000
31
0.0
0
MTEXT
5
7eb
100
AcDbEntity
8
F-F
62
3
370
-3
100
AcDbMText
10
387.012
20
28.314
30
0.0
40
4.649
41
0.000
71
7
72
1
1
\W1.037;{\W0.747;. }　{\W0.747;.}　{\W0.747; }
7
STANDARD
11
1.00000
21
0.00000
31
0.0
0
TEXT
5
7ec
100
AcDbEntity
8
F-F
62
3
370
-3
100
AcDbText
10
1034.383
20
62.373
30
0.0
40
6.564
1
　　　　　　　　　　
41
0.921
50
0.000
100
AcDbText
0
TEXT
5
7ed
100
AcDbEntity
8
F-F
62
3
370
-3
100
AcDbText
10
1034.383
20
32.743
30
0.0
40
6.564
1
　　　　　　　　　　
41
0.921
50
0.000
100
AcDbText
0
TEXT
5
7ee
100
AcDbEntity
8
F-F
62
3
370
-3
100
AcDbText
10
1317.846
20
63.920
30
0.0
40
6.564
1
　　　　　　　　　　　　　
41
0.921
50
0.000
100
AcDbText
0
TEXT
5
7ef
100
AcDbEntity
8
F-F
62
3
370
-3
100
AcDbText
10
378.040
20
75.687
30
0.0
40
4.923
1
年　月　日
41
0.914
50
0.000
100
AcDbText
0
TEXT
5
7f0
100
AcDbEntity
8
F-F
62
3
370
-3
100
AcDbText
10
872.996
20
74.368
30
0.0
40
4.923
1
年　　月　　日
41
0.914
50
0.000
100
AcDbText
0
MTEXT
5
7f1
100
AcDbEntity
8
F-F
62
3
370
-3
100
AcDbMText
10
885.548
20
63.398
30
0.0
40
4.649
41
0.000
71
7
72
1
1
\W1.037;{\W0.747;.}　{\W0.747; }　{\W0.747;.}
7
STANDARD
11
1.00000
21
0.00000
31
0.0
0
TEXT
5
7f2
100
AcDbEntity
8
F-F
62
3
370
-3
100
AcDbText
10
815.825
20
45.323
30
0.0
40
4.923
1
受領　　日附
41
0.914
50
0.000
100
AcDbText
0
TEXT
5
7f3
100
AcDbEntity
8
F-F
62
3
370
-3
100
AcDbText
10
872.996
20
44.738
30
0.0
40
4.923
1
年　　月　　日
41
0.914
50
0.000
100
AcDbText
0
MTEXT
5
7f4
100
AcDbEntity
8
F-F
62
3
370
-3
100
AcDbMText
10
885.548
20
33.769
30
0.0
40
4.649
41
0.000
71
7
72
1
1
\W1.037;{\W0.747;.}　{\W0.747; }　{\W0.747;.}
7
STANDARD
11
1.00000
21
0.00000
31
0.0
0
MTEXT
5
7f5
100
AcDbEntity
8
F-F
62
3
370
-3
100
AcDbMText
10
1248.433
20
61.685
30
0.0
40
4.649
41
0.000
71
7
72
1
1
\W1.037;{\W0.747;.}　　{\W0.747;.}　
7
STANDARD
11
1.00000
21
0.00000
31
0.0
0
TEXT
5
7f6
100
AcDbEntity
8
F-F
62
3
370
-3
100
AcDbText
10
114.770
20
61.158
30
0.0
40
13.127
1
小　池　弥　太　郎　商　店
41
0.963
50
0.000
100
AcDbText
0
TEXT
5
7f7
100
AcDbEntity
8
F-F
62
3
370
-3
100
AcDbText
10
1543.695
20
45.508
30
0.0
40
4.923
1
縮　尺
41
0.914
50
0.000
100
AcDbText
0
TEXT
5
7f8
100
AcDbEntity
8
F-F
62
3
370
-3
100
AcDbText
10
1567.012
20
41.647
30
0.0
40
6.564
1
Ａ１－１／２　
41
0.921
50
0.000
100
AcDbText
0
TEXT
5
7f9
100
AcDbEntity
8
F-F
62
3
370
-3
100
AcDbText
10
1567.012
20
26.832
30
0.0
40
6.564
1
Ａ３－１／４　
41
0.921
50
0.000
100
AcDbText
0
TEXT
5
7fa
100
AcDbEntity
8
0-0
62
3
370
-3
100
AcDbText
10
951.831
20
824.164
30
0.0
40
13.127
41
0.652
50
90.000
1
168
72
1
11
953.289
21
837.327
31
0.0
100
AcDbText
73
1
0
TEXT
5
7fb
100
AcDbEntity
8
0-0
62
3
370
-3
100
AcDbText
10
859.721
20
920.164
30
0.0
40
13.127
41
0.548
50
90.000
1
23
72
1
11
861.180
21
928.939
31
0.0
100
AcDbText
73
1
0
TEXT
5
7fc
100
AcDbEntity
8
0-0
62
3
370
-3
100
AcDbText
10
942.969
20
1013.954
30
0.0
40
16.409
41
0.568
50
0.000
1
333
72
1
11
959.056
21
1012.131
31
0.0
100
AcDbText
73
1
0
TEXT
5
7fd
100
AcDbEntity
8
0-0
62
3
370
-3
100
AcDbText
10
763.813
20
983.355
30
0.0
40
13.127
41
0.752
50
0.000
1
19
72
1
11
772.588
21
981.897
31
0.0
100
AcDbText
73
1
0
TEXT
5
7fe
100
AcDbEntity
8
0-0
62
3
370
-3
100
AcDbText
10
1102.313
20
983.355
30
0.0
40
13.127
41
0.712
50
0.000
1
15
72
1
11
1111.088
21
981.897
31
0.0
100
AcDbText
73
1
0
TEXT
5
7ff
100
AcDbEntity
8
0-0
62
3
370
-3
100
AcDbText
10
948.469
20
716.534
30
0.0
40
16.409
41
0.575
50
0.000
1
95
72
1
11
959.194
21
714.710
31
0.0
100
AcDbText
73
1
0
TEXT
5
800
100
AcDbEntity
8
0-2
62
3
370
-3
100
AcDbText
10
965.746
20
439.433
30
0.0
40
13.127
41
0.652
50
270.000
1
168
72
1
11
964.287
21
426.271
31
0.0
100
AcDbText
73
1
0
TEXT
5
801
100
AcDbEntity
8
0-2
62
3
370
-3
100
AcDbText
10
943.813
20
603.872
30
0.0
40
13.127
41
0.581
50
0.000
1
333
72
1
11
956.976
21
602.414
31
0.0
100
AcDbText
73
1
0
TEXT
5
802
100
AcDbEntity
8
0-2
62
3
370
-3
100
AcDbText
10
948.313
20
306.452
30
0.0
40
13.127
41
0.588
50
0.000
1
95
72
1
11
957.088
21
304.993
31
0.0
100
AcDbText
73
1
0
TEXT
5
803
100
AcDbEntity
8
0-2
62
3
370
-3
100
AcDbText
10
660.813
20
603.872
30
0.0
40
13.127
41
0.581
50
0.000
1
@333
72
1
11
678.363
21
602.413
31
0.0
100
AcDbText
73
1
0
TEXT
5
804
100
AcDbEntity
8
0-2
62
3
370
-3
100
AcDbText
10
1217.813
20
603.872
30
0.0
40
13.127
41
0.581
50
0.000
1
@333
72
1
11
1235.363
21
602.413
31
0.0
100
AcDbText
73
1
0
TEXT
5
805
100
AcDbEntity
8
0-1
62
3
370
-3
100
AcDbText
10
418.274
20
380.176
30
0.0
40
13.127
41
0.657
50
0.000
1
40
72
1
11
427.049
21
378.718
31
0.0
100
AcDbText
73
1
0
TEXT
5
806
100
AcDbEntity
8
0-1
62
3
370
-3
100
AcDbText
10
481.881
20
453.592
30
0.0
40
11.486
1
吊子
41
0.918
50
360.000
100
AcDbText
0
TEXT
5
807
100
AcDbEntity
8
0-1
62
3
370
-3
100
AcDbText
10
297.293
20
442.661
30
0.0
40
11.486
1
タイトフレーム
41
0.918
50
360.000
100
AcDbText
0
TEXT
5
808
100
AcDbEntity
8
0-1
62
3
370
-3
100
AcDbText
10
413.774
20
560.952
30
0.0
40
13.127
41
0.658
50
0.000
1
138
72
1
11
426.936
21
559.493
31
0.0
100
AcDbText
73
1
0
TEXT
5
809
100
AcDbEntity
8
0-0
62
3
370
-3
100
AcDbText
10
859.721
20
898.664
30
0.0
40
13.127
41
0.610
50
90.000
1
7
72
1
11
861.180
21
903.052
31
0.0
100
AcDbText
73
1
0
TEXT
5
80a
100
AcDbEntity
8
0-1
62
3
370
-3
100
AcDbText
10
280.755
20
511.281
30
0.0
40
13.127
41
0.563
50
90.000
1
24
72
1
11
282.214
21
520.056
31
0.0
100
AcDbText
73
1
0
TEXT
5
80b
100
AcDbEntity
8
0-1
62
3
370
-3
100
AcDbText
10
280.755
20
410.987
30
0.0
40
13.127
41
0.652
50
90.000
1
168
72
1
11
282.214
21
424.150
31
0.0
100
AcDbText
73
1
0
TEXT
5
80c
100
AcDbEntity
8
0-1
62
3
370
-3
100
AcDbText
10
280.755
20
332.387
30
0.0
40
13.127
41
0.610
50
90.000
1
7
72
1
11
282.214
21
336.775
31
0.0
100
AcDbText
73
1
0
TEXT
5
80d
100
AcDbEntity
8
0-0
62
3
370
-3
100
AcDbText
10
798.813
20
983.355
30
0.0
40
13.127
41
0.572
50
0.000
1
35
72
1
11
807.588
21
981.897
31
0.0
100
AcDbText
73
1
0
TEXT
5
80e
100
AcDbEntity
8
F-F
62
3
370
-3
100
AcDbText
10
1222.716
20
31.565
30
0.0
40
4.923
1
MA 2015-05-26
41
0.591
50
0.000
100
AcDbText
0
TEXT
5
80f
100
AcDbEntity
8
F-F
62
3
370
-3
100
AcDbText
10
1317.846
20
34.290
30
0.0
40
6.564
1
コイケルーフ角ハゼ折板　ＫＲ３３３ハゼ　断面図
41
0.921
50
0.000
100
AcDbText
0
TEXT
5
810
100
AcDbEntity
8
F-F
62
3
370
-3
100
AcDbText
10
1558.835
20
61.186
30
0.0
40
8.205
1
KR333 - 01
41
0.646
50
0.000
100
AcDbText
0
TEXT
5
811
100
AcDbEntity
8
F-F
62
3
370
-3
100
AcDbText
10
852.908
20
561.047
30
0.0
40
11.486
1
吊子
41
0.918
50
0.000
100
AcDbText
0
TEXT
5
812
100
AcDbEntity
8
F-F
62
3
370
-3
100
AcDbText
10
741.677
20
395.895
30
0.0
40
11.486
1
タイトフレーム
41
0.918
50
0.000
100
AcDbText
0
MTEXT
5
813
100
AcDbEntity
8
F-F
62
3
370
-3
100
AcDbMText
10
857.990
20
527.784
30
0.0
40
10.848
41
0.000
71
7
72
1
1
\W1.041;ＫＲ角ハゼ３３３（{\fMS Gothic;Ⅰ}型)
7
STANDARD
11
1.00000
21
0.00000
31
0.0
0
POLYLINE
5
814
100
AcDbEntity
  8
0-0
6
CONTINUOUS
62
3
100
AcDb2dPolyline
66
1
10
0
20
0
70
1
40
0.800
41
0.800
0
VERTEX
5
815
100
AcDbEntity
  8
0-0
6
CONTINUOUS
62
3
100
AcDbVertex
100
AcDb2dVertex
10
788.289
20
1007.960
30
0.0
42
1.000
0
VERTEX
5
816
100
AcDbEntity
  8
0-0
6
CONTINUOUS
62
3
100
AcDbVertex
100
AcDb2dVertex
10
789.089
20
1007.960
30
0.0
42
1.000
0
SEQEND
5
817
100
AcDbEntity
  8
0-0
0
POLYLINE
5
818
100
AcDbEntity
  8
0-0
6
CONTINUOUS
62
3
100
AcDb2dPolyline
66
1
10
0
20
0
70
1
40
0.800
41
0.800
0
VERTEX
5
819
100
AcDbEntity
  8
0-0
6
CONTINUOUS
62
3
100
AcDbVertex
100
AcDb2dVertex
10
788.289
20
977.961
30
0.0
42
1.000
0
VERTEX
5
81a
100
AcDbEntity
  8
0-0
6
CONTINUOUS
62
3
100
AcDbVertex
100
AcDb2dVertex
10
789.089
20
977.961
30
0.0
42
1.000
0
SEQEND
5
81b
100
AcDbEntity
  8
0-0
0
POLYLINE
5
81c
100
AcDbEntity
  8
0-0
6
CONTINUOUS
62
3
100
AcDb2dPolyline
66
1
10
0
20
0
70
1
40
0.800
41
0.800
0
VERTEX
5
81d
100
AcDbEntity
  8
0-0
6
CONTINUOUS
62
3
100
AcDbVertex
100
AcDb2dVertex
10
824.289
20
977.961
30
0.0
42
1.000
0
VERTEX
5
81e
100
AcDbEntity
  8
0-0
6
CONTINUOUS
62
3
100
AcDbVertex
100
AcDb2dVertex
10
825.089
20
977.961
30
0.0
42
1.000
0
SEQEND
5
81f
100
AcDbEntity
  8
0-0
0
POLYLINE
5
820
100
AcDbEntity
  8
0-0
6
CONTINUOUS
62
3
100
AcDb2dPolyline
66
1
10
0
20
0
70
1
40
0.800
41
0.800
0
VERTEX
5
821
100
AcDbEntity
  8
0-0
6
CONTINUOUS
62
3
100
AcDbVertex
100
AcDb2dVertex
10
1121.289
20
977.961
30
0.0
42
1.000
0
VERTEX
5
822
100
AcDbEntity
  8
0-0
6
CONTINUOUS
62
3
100
AcDbVertex
100
AcDb2dVertex
10
1122.089
20
977.961
30
0.0
42
1.000
0
SEQEND
5
823
100
AcDbEntity
  8
0-0
0
POLYLINE
5
824
100
AcDbEntity
  8
0-0
6
CONTINUOUS
62
3
100
AcDb2dPolyline
66
1
10
0
20
0
70
1
40
0.800
41
0.800
0
VERTEX
5
825
100
AcDbEntity
  8
0-0
6
CONTINUOUS
62
3
100
AcDbVertex
100
AcDb2dVertex
10
1121.289
20
1007.960
30
0.0
42
1.000
0
VERTEX
5
826
100
AcDbEntity
  8
0-0
6
CONTINUOUS
62
3
100
AcDbVertex
100
AcDb2dVertex
10
1122.089
20
1007.960
30
0.0
42
1.000
0
SEQEND
5
827
100
AcDbEntity
  8
0-0
0
POLYLINE
5
828
100
AcDbEntity
  8
0-0
6
CONTINUOUS
62
3
100
AcDb2dPolyline
66
1
10
0
20
0
70
1
40
0.800
41
0.800
0
VERTEX
5
829
100
AcDbEntity
  8
0-0
6
CONTINUOUS
62
3
100
AcDbVertex
100
AcDb2dVertex
10
958.388
20
916.540
30
0.0
42
1.000
0
VERTEX
5
82a
100
AcDbEntity
  8
0-0
6
CONTINUOUS
62
3
100
AcDbVertex
100
AcDb2dVertex
10
959.188
20
916.540
30
0.0
42
1.000
0
SEQEND
5
82b
100
AcDbEntity
  8
0-0
0
POLYLINE
5
82c
100
AcDbEntity
  8
0-0
6
CONTINUOUS
62
3
100
AcDb2dPolyline
66
1
10
0
20
0
70
1
40
0.800
41
0.800
0
VERTEX
5
82d
100
AcDbEntity
  8
0-0
6
CONTINUOUS
62
3
100
AcDbVertex
100
AcDb2dVertex
10
908.289
20
710.540
30
0.0
42
1.000
0
VERTEX
5
82e
100
AcDbEntity
  8
0-0
6
CONTINUOUS
62
3
100
AcDbVertex
100
AcDb2dVertex
10
909.089
20
710.540
30
0.0
42
1.000
0
SEQEND
5
82f
100
AcDbEntity
  8
0-0
0
POLYLINE
5
830
100
AcDbEntity
  8
0-0
6
CONTINUOUS
62
3
100
AcDb2dPolyline
66
1
10
0
20
0
70
1
40
0.800
41
0.800
0
VERTEX
5
831
100
AcDbEntity
  8
0-0
6
CONTINUOUS
62
3
100
AcDbVertex
100
AcDb2dVertex
10
1106.789
20
977.961
30
0.0
42
1.000
0
VERTEX
5
832
100
AcDbEntity
  8
0-0
6
CONTINUOUS
62
3
100
AcDbVertex
100
AcDb2dVertex
10
1107.589
20
977.961
30
0.0
42
1.000
0
SEQEND
5
833
100
AcDbEntity
  8
0-0
0
POLYLINE
5
834
100
AcDbEntity
  8
0-0
6
CONTINUOUS
62
3
100
AcDb2dPolyline
66
1
10
0
20
0
70
1
40
0.800
41
0.800
0
VERTEX
5
835
100
AcDbEntity
  8
0-0
6
CONTINUOUS
62
3
100
AcDbVertex
100
AcDb2dVertex
10
864.716
20
916.540
30
0.0
42
1.000
0
VERTEX
5
836
100
AcDbEntity
  8
0-0
6
CONTINUOUS
62
3
100
AcDbVertex
100
AcDb2dVertex
10
865.516
20
916.540
30
0.0
42
1.000
0
SEQEND
5
837
100
AcDbEntity
  8
0-0
0
POLYLINE
5
838
100
AcDbEntity
  8
0-0
6
CONTINUOUS
62
3
100
AcDb2dPolyline
66
1
10
0
20
0
70
1
40
0.800
41
0.800
0
VERTEX
5
839
100
AcDbEntity
  8
0-0
6
CONTINUOUS
62
3
100
AcDbVertex
100
AcDb2dVertex
10
864.716
20
939.540
30
0.0
42
1.000
0
VERTEX
5
83a
100
AcDbEntity
  8
0-0
6
CONTINUOUS
62
3
100
AcDbVertex
100
AcDb2dVertex
10
865.516
20
939.540
30
0.0
42
1.000
0
SEQEND
5
83b
100
AcDbEntity
  8
0-0
0
POLYLINE
5
83c
100
AcDbEntity
  8
0-0
6
CONTINUOUS
62
3
100
AcDb2dPolyline
66
1
10
0
20
0
70
1
40
0.800
41
0.800
0
VERTEX
5
83d
100
AcDbEntity
  8
0-0
6
CONTINUOUS
62
3
100
AcDbVertex
100
AcDb2dVertex
10
769.289
20
977.961
30
0.0
42
1.000
0
VERTEX
5
83e
100
AcDbEntity
  8
0-0
6
CONTINUOUS
62
3
100
AcDbVertex
100
AcDb2dVertex
10
770.089
20
977.961
30
0.0
42
1.000
0
SEQEND
5
83f
100
AcDbEntity
  8
0-0
0
POLYLINE
5
840
100
AcDbEntity
  8
0-0
6
CONTINUOUS
62
3
100
AcDb2dPolyline
66
1
10
0
20
0
70
1
40
0.800
41
0.800
0
VERTEX
5
841
100
AcDbEntity
  8
0-0
6
CONTINUOUS
62
3
100
AcDbVertex
100
AcDb2dVertex
10
864.716
20
909.540
30
0.0
42
1.000
0
VERTEX
5
842
100
AcDbEntity
  8
0-0
6
CONTINUOUS
62
3
100
AcDbVertex
100
AcDb2dVertex
10
865.516
20
909.540
30
0.0
42
1.000
0
SEQEND
5
843
100
AcDbEntity
  8
0-0
0
POLYLINE
5
844
100
AcDbEntity
  8
0-0
6
CONTINUOUS
62
3
100
AcDb2dPolyline
66
1
10
0
20
0
70
1
40
0.800
41
0.800
0
VERTEX
5
845
100
AcDbEntity
  8
0-0
6
CONTINUOUS
62
3
100
AcDbVertex
100
AcDb2dVertex
10
1003.289
20
710.540
30
0.0
42
1.000
0
VERTEX
5
846
100
AcDbEntity
  8
0-0
6
CONTINUOUS
62
3
100
AcDbVertex
100
AcDb2dVertex
10
1004.089
20
710.540
30
0.0
42
1.000
0
SEQEND
5
847
100
AcDbEntity
  8
0-0
0
POLYLINE
5
848
100
AcDbEntity
  8
0-0
6
CONTINUOUS
62
3
100
AcDb2dPolyline
66
1
10
0
20
0
70
1
40
0.800
41
0.800
0
VERTEX
5
849
100
AcDbEntity
  8
0-0
6
CONTINUOUS
62
3
100
AcDbVertex
100
AcDb2dVertex
10
958.388
20
750.540
30
0.0
42
1.000
0
VERTEX
5
84a
100
AcDbEntity
  8
0-0
6
CONTINUOUS
62
3
100
AcDbVertex
100
AcDb2dVertex
10
959.188
20
750.540
30
0.0
42
1.000
0
SEQEND
5
84b
100
AcDbEntity
  8
0-0
0
POLYLINE
5
84c
100
AcDbEntity
  8
0-2
6
CONTINUOUS
62
3
100
AcDb2dPolyline
66
1
10
0
20
0
70
1
40
0.800
41
0.800
0
VERTEX
5
84d
100
AcDbEntity
  8
0-2
6
CONTINUOUS
62
3
100
AcDbVertex
100
AcDb2dVertex
10
1122.289
20
598.477
30
0.0
42
1.000
0
VERTEX
5
84e
100
AcDbEntity
  8
0-2
6
CONTINUOUS
62
3
100
AcDbVertex
100
AcDb2dVertex
10
1123.089
20
598.477
30
0.0
42
1.000
0
SEQEND
5
84f
100
AcDbEntity
  8
0-2
0
POLYLINE
5
850
100
AcDbEntity
  8
0-2
6
CONTINUOUS
62
3
100
AcDb2dPolyline
66
1
10
0
20
0
70
1
40
0.800
41
0.800
0
VERTEX
5
851
100
AcDbEntity
  8
0-2
6
CONTINUOUS
62
3
100
AcDbVertex
100
AcDb2dVertex
10
958.388
20
507.057
30
0.0
42
1.000
0
VERTEX
5
852
100
AcDbEntity
  8
0-2
6
CONTINUOUS
62
3
100
AcDbVertex
100
AcDb2dVertex
10
959.188
20
507.057
30
0.0
42
1.000
0
SEQEND
5
853
100
AcDbEntity
  8
0-2
0
POLYLINE
5
854
100
AcDbEntity
  8
0-2
6
CONTINUOUS
62
3
100
AcDb2dPolyline
66
1
10
0
20
0
70
1
40
0.800
41
0.800
0
VERTEX
5
855
100
AcDbEntity
  8
0-2
6
CONTINUOUS
62
3
100
AcDbVertex
100
AcDb2dVertex
10
908.289
20
301.058
30
0.0
42
1.000
0
VERTEX
5
856
100
AcDbEntity
  8
0-2
6
CONTINUOUS
62
3
100
AcDbVertex
100
AcDb2dVertex
10
909.089
20
301.058
30
0.0
42
1.000
0
SEQEND
5
857
100
AcDbEntity
  8
0-2
0
POLYLINE
5
858
100
AcDbEntity
  8
0-2
6
CONTINUOUS
62
3
100
AcDb2dPolyline
66
1
10
0
20
0
70
1
40
0.800
41
0.800
0
VERTEX
5
859
100
AcDbEntity
  8
0-2
6
CONTINUOUS
62
3
100
AcDbVertex
100
AcDb2dVertex
10
1003.289
20
301.058
30
0.0
42
1.000
0
VERTEX
5
85a
100
AcDbEntity
  8
0-2
6
CONTINUOUS
62
3
100
AcDbVertex
100
AcDb2dVertex
10
1004.089
20
301.058
30
0.0
42
1.000
0
SEQEND
5
85b
100
AcDbEntity
  8
0-2
0
POLYLINE
5
85c
100
AcDbEntity
  8
0-2
6
CONTINUOUS
62
3
100
AcDb2dPolyline
66
1
10
0
20
0
70
1
40
0.800
41
0.800
0
VERTEX
5
85d
100
AcDbEntity
  8
0-2
6
CONTINUOUS
62
3
100
AcDbVertex
100
AcDb2dVertex
10
958.388
20
341.057
30
0.0
42
1.000
0
VERTEX
5
85e
100
AcDbEntity
  8
0-2
6
CONTINUOUS
62
3
100
AcDbVertex
100
AcDb2dVertex
10
959.188
20
341.057
30
0.0
42
1.000
0
SEQEND
5
85f
100
AcDbEntity
  8
0-2
0
POLYLINE
5
860
100
AcDbEntity
  8
0-2
6
CONTINUOUS
62
3
100
AcDb2dPolyline
66
1
10
0
20
0
70
1
40
0.800
41
0.800
0
VERTEX
5
861
100
AcDbEntity
  8
0-2
6
CONTINUOUS
62
3
100
AcDbVertex
100
AcDb2dVertex
10
789.289
20
598.477
30
0.0
42
1.000
0
VERTEX
5
862
100
AcDbEntity
  8
0-2
6
CONTINUOUS
62
3
100
AcDbVertex
100
AcDb2dVertex
10
790.089
20
598.477
30
0.0
42
1.000
0
SEQEND
5
863
100
AcDbEntity
  8
0-2
0
POLYLINE
5
864
100
AcDbEntity
  8
0-2
6
CONTINUOUS
62
3
100
AcDb2dPolyline
66
1
10
0
20
0
70
1
40
0.800
41
0.800
0
VERTEX
5
865
100
AcDbEntity
  8
0-2
6
CONTINUOUS
62
3
100
AcDbVertex
100
AcDb2dVertex
10
1122.289
20
598.477
30
0.0
42
1.000
0
VERTEX
5
866
100
AcDbEntity
  8
0-2
6
CONTINUOUS
62
3
100
AcDbVertex
100
AcDb2dVertex
10
1123.089
20
598.477
30
0.0
42
1.000
0
SEQEND
5
867
100
AcDbEntity
  8
0-2
0
POLYLINE
5
868
100
AcDbEntity
  8
0-1
6
CONTINUOUS
62
3
100
AcDb2dPolyline
66
1
10
0
20
0
70
1
40
0.800
41
0.800
0
VERTEX
5
869
100
AcDbEntity
  8
0-1
6
CONTINUOUS
62
3
100
AcDbVertex
100
AcDb2dVertex
10
285.750
20
531.257
30
0.0
42
1.000
0
VERTEX
5
86a
100
AcDbEntity
  8
0-1
6
CONTINUOUS
62
3
100
AcDbVertex
100
AcDb2dVertex
10
286.550
20
531.257
30
0.0
42
1.000
0
SEQEND
5
86b
100
AcDbEntity
  8
0-1
0
POLYLINE
5
86c
100
AcDbEntity
  8
0-1
6
CONTINUOUS
62
3
100
AcDb2dPolyline
66
1
10
0
20
0
70
1
40
0.800
41
0.800
0
VERTEX
5
86d
100
AcDbEntity
  8
0-1
6
CONTINUOUS
62
3
100
AcDbVertex
100
AcDb2dVertex
10
285.750
20
507.057
30
0.0
42
1.000
0
VERTEX
5
86e
100
AcDbEntity
  8
0-1
6
CONTINUOUS
62
3
100
AcDbVertex
100
AcDb2dVertex
10
286.550
20
507.057
30
0.0
42
1.000
0
SEQEND
5
86f
100
AcDbEntity
  8
0-1
0
POLYLINE
5
870
100
AcDbEntity
  8
0-1
6
CONTINUOUS
62
3
100
AcDb2dPolyline
66
1
10
0
20
0
70
1
40
0.800
41
0.800
0
VERTEX
5
871
100
AcDbEntity
  8
0-1
6
CONTINUOUS
62
3
100
AcDbVertex
100
AcDb2dVertex
10
405.750
20
374.782
30
0.0
42
1.000
0
VERTEX
5
872
100
AcDbEntity
  8
0-1
6
CONTINUOUS
62
3
100
AcDbVertex
100
AcDb2dVertex
10
406.550
20
374.782
30
0.0
42
1.000
0
SEQEND
5
873
100
AcDbEntity
  8
0-1
0
POLYLINE
5
874
100
AcDbEntity
  8
0-1
6
CONTINUOUS
62
3
100
AcDb2dPolyline
66
1
10
0
20
0
70
1
40
0.800
41
0.800
0
VERTEX
5
875
100
AcDbEntity
  8
0-1
6
CONTINUOUS
62
3
100
AcDbVertex
100
AcDb2dVertex
10
445.750
20
374.782
30
0.0
42
1.000
0
VERTEX
5
876
100
AcDbEntity
  8
0-1
6
CONTINUOUS
62
3
100
AcDbVertex
100
AcDb2dVertex
10
446.550
20
374.782
30
0.0
42
1.000
0
SEQEND
5
877
100
AcDbEntity
  8
0-1
0
POLYLINE
5
878
100
AcDbEntity
  8
0-1
6
CONTINUOUS
62
3
100
AcDb2dPolyline
66
1
10
0
20
0
70
1
40
0.800
41
0.800
0
VERTEX
5
879
100
AcDbEntity
  8
0-1
6
CONTINUOUS
62
3
100
AcDbVertex
100
AcDb2dVertex
10
494.750
20
555.557
30
0.0
42
1.000
0
VERTEX
5
87a
100
AcDbEntity
  8
0-1
6
CONTINUOUS
62
3
100
AcDbVertex
100
AcDb2dVertex
10
495.550
20
555.557
30
0.0
42
1.000
0
SEQEND
5
87b
100
AcDbEntity
  8
0-1
0
POLYLINE
5
87c
100
AcDbEntity
  8
0-1
6
CONTINUOUS
62
3
100
AcDb2dPolyline
66
1
10
0
20
0
70
1
40
0.800
41
0.800
0
VERTEX
5
87d
100
AcDbEntity
  8
0-1
6
CONTINUOUS
62
3
100
AcDbVertex
100
AcDb2dVertex
10
494.750
20
555.557
30
0.0
42
1.000
0
VERTEX
5
87e
100
AcDbEntity
  8
0-1
6
CONTINUOUS
62
3
100
AcDbVertex
100
AcDb2dVertex
10
495.550
20
555.557
30
0.0
42
1.000
0
SEQEND
5
87f
100
AcDbEntity
  8
0-1
0
POLYLINE
5
880
100
AcDbEntity
  8
0-1
6
CONTINUOUS
62
3
100
AcDb2dPolyline
66
1
10
0
20
0
70
1
40
0.800
41
0.800
0
VERTEX
5
881
100
AcDbEntity
  8
0-1
6
CONTINUOUS
62
3
100
AcDbVertex
100
AcDb2dVertex
10
285.750
20
339.669
30
0.0
42
1.000
0
VERTEX
5
882
100
AcDbEntity
  8
0-1
6
CONTINUOUS
62
3
100
AcDbVertex
100
AcDb2dVertex
10
286.550
20
339.669
30
0.0
42
1.000
0
SEQEND
5
883
100
AcDbEntity
  8
0-1
0
POLYLINE
5
884
100
AcDbEntity
  8
0-1
6
CONTINUOUS
62
3
100
AcDb2dPolyline
66
1
10
0
20
0
70
1
40
0.800
41
0.800
0
VERTEX
5
885
100
AcDbEntity
  8
0-1
6
CONTINUOUS
62
3
100
AcDbVertex
100
AcDb2dVertex
10
356.750
20
555.557
30
0.0
42
1.000
0
VERTEX
5
886
100
AcDbEntity
  8
0-1
6
CONTINUOUS
62
3
100
AcDbVertex
100
AcDb2dVertex
10
357.550
20
555.557
30
0.0
42
1.000
0
SEQEND
5
887
100
AcDbEntity
  8
0-1
0
POLYLINE
5
888
100
AcDbEntity
  8
0-1
6
CONTINUOUS
62
3
100
AcDb2dPolyline
66
1
10
0
20
0
70
1
40
0.800
41
0.800
0
VERTEX
5
889
100
AcDbEntity
  8
0-1
6
CONTINUOUS
62
3
100
AcDbVertex
100
AcDb2dVertex
10
356.750
20
555.557
30
0.0
42
1.000
0
VERTEX
5
88a
100
AcDbEntity
  8
0-1
6
CONTINUOUS
62
3
100
AcDbVertex
100
AcDb2dVertex
10
357.550
20
555.557
30
0.0
42
1.000
0
SEQEND
5
88b
100
AcDbEntity
  8
0-1
0
POLYLINE
5
88c
100
AcDbEntity
  8
F-F
6
CONTINUOUS
62
3
100
AcDb2dPolyline
66
1
10
0
20
0
70
1
40
0.800
41
0.800
0
VERTEX
5
88d
100
AcDbEntity
  8
F-F
6
CONTINUOUS
62
3
100
AcDbVertex
100
AcDb2dVertex
10
54.357
20
1143.641
30
0.0
42
1.000
0
VERTEX
5
88e
100
AcDbEntity
  8
F-F
6
CONTINUOUS
62
3
100
AcDbVertex
100
AcDb2dVertex
10
55.157
20
1143.641
30
0.0
42
1.000
0
SEQEND
5
88f
100
AcDbEntity
  8
F-F
0
POLYLINE
5
890
100
AcDbEntity
  8
0-1
6
CONTINUOUS
62
3
100
AcDb2dPolyline
66
1
10
0
20
0
70
1
40
0.800
41
0.800
0
VERTEX
5
891
100
AcDbEntity
  8
0-1
6
CONTINUOUS
62
3
100
AcDbVertex
100
AcDb2dVertex
10
285.750
20
331.857
30
0.0
42
1.000
0
VERTEX
5
892
100
AcDbEntity
  8
0-1
6
CONTINUOUS
62
3
100
AcDbVertex
100
AcDb2dVertex
10
286.550
20
331.857
30
0.0
42
1.000
0
SEQEND
5
893
100
AcDbEntity
  8
0-1
0
POLYLINE
5
894
100
AcDbEntity
  8
F-F
6
CONTINUOUS
62
3
100
AcDb2dPolyline
66
1
10
0
20
0
70
1
40
0.800
41
0.800
0
VERTEX
5
895
100
AcDbEntity
  8
F-F
6
CONTINUOUS
62
3
100
AcDbVertex
100
AcDb2dVertex
10
54.357
20
1143.641
30
0.0
42
1.000
0
VERTEX
5
896
100
AcDbEntity
  8
F-F
6
CONTINUOUS
62
3
100
AcDbVertex
100
AcDb2dVertex
10
55.157
20
1143.641
30
0.0
42
1.000
0
SEQEND
5
897
100
AcDbEntity
  8
F-F
0
POLYLINE
5
898
100
AcDbEntity
  8
F-F
6
CONTINUOUS
62
3
100
AcDb2dPolyline
66
1
10
0
20
0
70
1
40
0.800
41
0.800
0
VERTEX
5
899
100
AcDbEntity
  8
F-F
6
CONTINUOUS
62
3
100
AcDbVertex
100
AcDb2dVertex
10
789.289
20
512.128
30
0.0
42
1.000
0
VERTEX
5
89a
100
AcDbEntity
  8
F-F
6
CONTINUOUS
62
3
100
AcDbVertex
100
AcDb2dVertex
10
790.089
20
512.128
30
0.0
42
1.000
0
SEQEND
5
89b
100
AcDbEntity
  8
F-F
0
POLYLINE
5
89c
100
AcDbEntity
  8
F-F
6
CONTINUOUS
62
3
100
AcDb2dPolyline
66
1
10
0
20
0
70
1
40
0.800
41
0.800
0
VERTEX
5
89d
100
AcDbEntity
  8
F-F
6
CONTINUOUS
62
3
100
AcDbVertex
100
AcDb2dVertex
10
847.113
20
461.673
30
0.0
42
1.000
0
VERTEX
5
89e
100
AcDbEntity
  8
F-F
6
CONTINUOUS
62
3
100
AcDbVertex
100
AcDb2dVertex
10
847.913
20
461.673
30
0.0
42
1.000
0
SEQEND
5
89f
100
AcDbEntity
  8
F-F
0
POLYLINE
5
8a0
100
AcDbEntity
  8
F-F
6
CONTINUOUS
62
3
100
AcDb2dPolyline
66
1
10
0
20
0
70
1
40
0.800
41
0.800
0
VERTEX
5
8a1
100
AcDbEntity
  8
F-F
6
CONTINUOUS
62
3
100
AcDbVertex
100
AcDb2dVertex
10
851.911
20
439.067
30
0.0
42
1.000
0
VERTEX
5
8a2
100
AcDbEntity
  8
F-F
6
CONTINUOUS
62
3
100
AcDbVertex
100
AcDb2dVertex
10
852.711
20
439.067
30
0.0
42
1.000
0
SEQEND
5
8a3
100
AcDbEntity
  8
F-F
0
POLYLINE
5
8a4
100
AcDbEntity
  8
0-1
6
CONTINUOUS
62
3
100
AcDb2dPolyline
66
1
10
0
20
0
70
1
40
0.800
41
0.800
0
VERTEX
5
8a5
100
AcDbEntity
  8
0-1
6
CONTINUOUS
62
3
100
AcDbVertex
100
AcDb2dVertex
10
473.747
20
492.203
30
0.0
42
1.000
0
VERTEX
5
8a6
100
AcDbEntity
  8
0-1
6
CONTINUOUS
62
3
100
AcDbVertex
100
AcDb2dVertex
10
474.547
20
492.203
30
0.0
42
1.000
0
SEQEND
5
8a7
100
AcDbEntity
  8
0-1
0
POLYLINE
5
8a8
100
AcDbEntity
  8
0-1
6
CONTINUOUS
62
3
100
AcDb2dPolyline
66
1
10
0
20
0
70
1
40
0.800
41
0.800
0
VERTEX
5
8a9
100
AcDbEntity
  8
0-1
6
CONTINUOUS
62
3
100
AcDbVertex
100
AcDb2dVertex
10
405.750
20
413.608
30
0.0
42
1.000
0
VERTEX
5
8aa
100
AcDbEntity
  8
0-1
6
CONTINUOUS
62
3
100
AcDbVertex
100
AcDb2dVertex
10
406.550
20
413.608
30
0.0
42
1.000
0
SEQEND
5
8ab
100
AcDbEntity
  8
0-1
0
ENDSEC
 0
SECTION
  2
OBJECTS
 0
DICTIONARY
  5
C
100
AcDbDictionary
  3
ACAD_GROUP
350
D
  3
ACAD_MLINESTYLE
350
E
 0
DICTIONARY
  5
D
102
{ACAD_REACTORS
102
}
100
AcDbDictionary
 0
DICTIONARY
  5
E
102
{ACAD_REACTORS
102
}
100
AcDbDictionary
  3
STANDARD
350
13
0
MLINESTYLE
  5
13
102
{ACAD_REACTORS
102
}
100
AcDbMlineStyle
  2
STANDARD
 70
    0
3

62
256
51
90.0
52
90.0
71
0
0
ACDBPLACEHOLDER
  5
14
102
{ACAD_REACTORS
102
}
0
ENDSEC
0
EOF
