0
SECTION
2
HEADER
9
$ACADVER
1
AC1015
9
$ACADMAINTVER
 70
6
9
$DWGCODEPAGE
3
ANSI_932
9
$EXTMIN
10
0.000
20
0.000
30
0.0
9
$EXTMAX
10
841.000
20
594.000
30
0.0
9
$LIMMIN
10
0.000
20
0.000
9
$LIMMAX
10
841.000
20
594.000
9
$DIMSCALE
40
1.000000
9
$LTSCALE
40
2.000
9
$PDMODE
70
0
9
$PDSIZE
40
40.0
9
$HANDSEED
5
61fb6
9
$UNITMODE
70
0
9
$VISRETAIN
70
0
9
$PLINEGEN
70
0
9
$PSLTSCALE
70
1
9
$TREEDEPTH
70
3020
9
$CMLSTYLE
2
STANDARD
9
$CMLJUST
70
0
9
$CMLSCALE
40
1.0
9
$PROXYGRAPHICS
70
1
9
$MEASUREMENT
70
0
9
$CELWEIGHT
370
-1
9
$ENDCAPS
280
0
9
$JOINSTYLE
280
0
9
$LWDISPLAY
290
0
9
$INSUNITS
70
0
9
$HYPERLINKBASE
1

9
$STYLESHEET
1

9
$XEDIT
290
1
9
$CEPSNTYPE
380
0
9
$PSTYLEMODE
290
1
9
$FINGERPRINTGUID
2
{5F082321-0195-11D3-BDFB-0060B0CD5109}
9
$VERSIONGUID
2
{12943756-294D-11D3-98C2-0060B087942D}
9
$EXTNAMES
290
1
9
$PSVPSCALE
40
0.0
9
$OLESTARTUP
290
0
0
ENDSEC
0
SECTION
  2
CLASSES
0
ENDSEC
0
SECTION
2
TABLES
0
TABLE
2
VPORT
5
190
100
AcDbSymbolTable
70
2
0
VPORT
5
191
100
AcDbSymbolTableRecord
100
AcDbViewportTableRecord
2
*ACTIVE
70
0
10
0.0
20
0.0
11
1.0
21
1.0
12
420.500
22
297.000
13
0.0
23
0.0
14
1.0
24
1.0
15
0.0
25
0.0
16
0.0
26
0.0
36
1.0
17
0.0
27
0.0
37
0.0
40
609.420
41
2.0
42
50.0
43
0.0
44
0.0
50
0.0
51
0.0
71
0
72
1000
73
1
74
1
75
0
76
0
77
0
78
0
0
ENDTAB
0
TABLE
2
LTYPE
5
1f4
100
AcDbSymbolTable
70
9
0
LTYPE
5
1f5
100
AcDbSymbolTableRecord
100
AcDbLinetypeTableRecord
2
BYBLOCK
70
 64
3

72
 65
73
  0
40
0.0
0
LTYPE
5
1f6
100
AcDbSymbolTableRecord
100
AcDbLinetypeTableRecord
2
BYLAYER
70
 64
3

72
 65
73
  0
40
0.0
0
LTYPE
5
1f7
100
AcDbSymbolTableRecord
100
AcDbLinetypeTableRecord
2
CONTINUOUS
70
64
3
SolidLine
72
65
73
0
40
0.0
0
LTYPE
5
1f8
100
AcDbSymbolTableRecord
100
AcDbLinetypeTableRecord
2
DOT
70
64
3
--  --  --  --  --  --  --  --     
72
65
73
2
40
3.000
49
1.000
74
0
49
-2.000
74
0
0
LTYPE
5
1f9
100
AcDbSymbolTableRecord
100
AcDbLinetypeTableRecord
2
DASHED
70
64
3
----    ----    ----    ----    
72
65
73
2
40
5.000
49
2.000
74
0
49
-3.000
74
0
0
LTYPE
5
1fa
100
AcDbSymbolTableRecord
100
AcDbLinetypeTableRecord
2
DASHED2
70
64
3
------  ------  ------  ------ 
72
65
73
2
40
10.000
49
4.000
74
0
49
-6.000
74
0
0
LTYPE
5
1fb
100
AcDbSymbolTableRecord
100
AcDbLinetypeTableRecord
2
CENTER
70
64
3
----- - ----- - ----- - ----- - 
72
65
73
4
40
10.000
49
6.000
74
0
49
-3.000
74
0
49
1.000
74
0
49
-3.000
74
0
0
LTYPE
5
1fc
100
AcDbSymbolTableRecord
100
AcDbLinetypeTableRecord
2
CENTER2
70
64
3
----------  --  ----------  -- 
72
65
73
4
40
17.000
49
12.000
74
0
49
-5.000
74
0
49
2.000
74
0
49
-5.000
74
0
0
LTYPE
5
1fd
100
AcDbSymbolTableRecord
100
AcDbLinetypeTableRecord
2
PHANTOM
70
64
3
--- - - --- - - --- - - --- - -
72
65
73
6
40
13.000
49
5.000
74
0
49
-3.000
74
0
49
1.000
74
0
49
-3.000
74
0
49
1.000
74
0
49
-3.000
74
0
0
LTYPE
5
1fe
100
AcDbSymbolTableRecord
100
AcDbLinetypeTableRecord
2
PHANTOM2
70
64
3
--------  -  -  --------  -  -
72
65
73
6
40
20.000
49
6.000
74
0
49
-5.000
74
0
49
2.000
74
0
49
-5.000
74
0
49
2.000
74
0
49
-5.000
74
0
0
LTYPE
5
1ff
100
AcDbSymbolTableRecord
100
AcDbLinetypeTableRecord
2
HIDDEN
70
64
3
-   -   -   -   -   -   -   -   
72
65
73
2
40
3.000
49
0.500
74
0
49
-2.500
74
0
0
ENDTAB
0
TABLE
2
STYLE
5
200
100
AcDbSymbolTable
70
1
0
STYLE
5
201
100
AcDbSymbolTableRecord
100
AcDbTextStyleTableRecord
2
STANDARD
70
0
40
0.0
41
1.0
50
0.0
71
0
42
0.0
3
txt.shx
4
extfont.shx
0
STYLE
5
202
100
AcDbSymbolTableRecord
100
AcDbTextStyleTableRecord
2
TATEGAKI
70
4
40
0.0
41
1.0
50
0.0
71
0
42
0.0
3
txt.shx
4
extfont.shx
0
STYLE
5
203
100
AcDbSymbolTableRecord
100
AcDbTextStyleTableRecord
2
DIM
70
0
40
0.0
41
0.75
50
0.0
71
0
42
0.0
3
txt.shx
4
extfont.shx
0
STYLE
5
204
100
AcDbSymbolTableRecord
100
AcDbTextStyleTableRecord
2
_Gothic_
70
0
40
1.0
41
1.0
50
0.0
71
0
42
10.0
3

4

1001
ACAD
1000
MS Gothic
1071
32817
0
STYLE
5
205
100
AcDbSymbolTableRecord
100
AcDbTextStyleTableRecord
2
_TateGothic_
70
4
40
0.0
41
1.0
50
0.0
71
0
42
0.0
3
@MS Gothic
4

0
ENDTAB
0
TABLE
2
VIEW
5
206
100
AcDbSymbolTable
70
0
0
ENDTAB
0
TABLE
2
UCS
5
207
100
AcDbSymbolTable
70
0
0
ENDTAB
0
TABLE
2
APPID
5
208
100
AcDbSymbolTable
70
1
0
APPID
5
209
100
AcDbSymbolTableRecord
100
AcDbRegAppTableRecord
2
ACAD
70
0
0
ENDTAB
0
TABLE
2
DIMSTYLE
5
403
330
0
100
AcDbSymbolTable
70
1
100
AcDbDimStyleTable
71
0
0
DIMSTYLE
105
404
330
402
100
AcDbSymbolTableRecord
100
AcDbDimStyleTableRecord
2
JAC_DIM
70
0
41
2.000
42
0.000
44
0.0
73
0
74
0
77
1
78
8
79
2
140
0.000
170
0
171
2
172
0
173
0
174
0
175
0
176
0
177
0
178
0
270
2
271
0
272
0
273
2
274
2
340
201
275
0
280
0
281
0
282
0
283
0
284
0
285
0
286
0
287
3
288
0
0
ENDTAB
0
TABLE
2
BLOCK_RECORD
5
405
100
AcDbSymbolTable
70
0
0
BLOCK_RECORD
5
406
100
AcDbSymbolTableRecord
100
AcDbBlockTableRecord
2
*MODEL_SPACE
0
BLOCK_RECORD
5
407
100
AcDbSymbolTableRecord
100
AcDbBlockTableRecord
2
*PAPER_SPACE
0
BLOCK_RECORD
5
408
100
AcDbSymbolTableRecord
100
AcDbBlockTableRecord
2
_JACCONVERT_
0
ENDTAB
0
TABLE
2
LAYER
5
409
100
AcDbSymbolTable
70
10
0
LAYER
5
40a
100
AcDbSymbolTableRecord
100
AcDbLayerTableRecord
2
0
70
0
62
7
6
CONTINUOUS
370
-3
390
14
0
LAYER
5
40b
100
AcDbSymbolTableRecord
100
AcDbLayerTableRecord
2
0-0
70
0
62
7
6
CONTINUOUS
370
-3
390
14
0
LAYER
5
40c
100
AcDbSymbolTableRecord
100
AcDbLayerTableRecord
2
0-1
70
0
62
7
6
CONTINUOUS
370
-3
390
14
0
LAYER
5
40d
100
AcDbSymbolTableRecord
100
AcDbLayerTableRecord
2
0-2
70
0
62
7
6
CONTINUOUS
370
-3
390
14
0
LAYER
5
40e
100
AcDbSymbolTableRecord
100
AcDbLayerTableRecord
2
F-E_J_ADD
70
0
62
-7
6
CONTINUOUS
290
0
370
-3
390
14
0
LAYER
5
40f
100
AcDbSymbolTableRecord
100
AcDbLayerTableRecord
2
F-F
70
0
62
7
6
CONTINUOUS
370
-3
390
14
0
ENDTAB
0
ENDSEC
0
SECTION
2
BLOCKS
0
BLOCK
5
410
100
AcDbEntity
67
1
8
0
100
AcDbBlockBegin
2
*MODEL_SPACE
70
0
10
0.0
20
0.0
30
0.0
3
*MODEL_SPACE
1

0
ENDBLK
5
411
100
AcDbEntity
8
0
100
AcDbBlockEnd
0
BLOCK
5
412
100
AcDbEntity
67
1
8
0
100
AcDbBlockBegin
2
*PAPER_SPACE
70
0
10
0.0
20
0.0
30
0.0
3
*PAPER_SPACE
1

0
ENDBLK
5
413
100
AcDbEntity
67
1
8
0
100
AcDbBlockEnd
0
BLOCK
5
414
100
AcDbEntity
8
0
100
AcDbBlockBegin
2
_JACCONVERT_
70
2
10
0.0
20
0.0
30
0.0
3
_JACCONVERT_
1
_JACCONVERT_
0
ATTDEF
5
415
100
AcDbEntity
8
0
62
0
100
AcDbText
10
0.0
20
0.0
30
0.0
40
1.0
1
User:460950EB0890EC0964308A
100
AcDbAttributeDefinition
3

2
USER
70
8
0
ATTDEF
5
416
100
AcDbEntity
8
0
62
0
100
AcDbText
10
0.0
20
2.0
30
0.0
40
1.0
1
Date:15/06/06 14:06
100
AcDbAttributeDefinition
3

2
REVDATE
70
8
0
ATTDEF
5
417
100
AcDbEntity
8
0
62
0
100
AcDbText
10
0.0
20
4.0
30
0.0
40
1.0
1
File:嵌合瓦棒H40-Ⅰ型　断面図.dxf
100
AcDbAttributeDefinition
3

2
FNAME
70
8
0
ATTDEF
5
418
100
AcDbEntity
8
0
62
0
100
AcDbText
10
0.0
20
6.0
30
0.0
40
1.0
1
JacConvert Version3.09 copyright (c) 2001-2013 K.Nakahara
100
AcDbAttributeDefinition
3

2
VER
70
8
0
ENDBLK
5
419
100
AcDbEntity
67
1
8
0
100
AcDbBlockEnd
0
ENDSEC
0
SECTION
2
ENTITIES
0
LINE
5
41a
100
AcDbEntity
8
F-F
6
CONTINUOUS
62
2
100
AcDbLine
10
27.440000000000
20
18.390000000000
30
0.0
11
27.440000000000
21
578.390000000000
31
0.0
0
LINE
5
41b
100
AcDbEntity
8
F-F
6
CONTINUOUS
62
2
100
AcDbLine
10
642.440000000000
20
48.020000000000
30
0.0
11
642.440000000000
21
18.390000000000
31
0.0
0
LINE
5
41c
100
AcDbEntity
8
F-F
6
CONTINUOUS
62
2
100
AcDbLine
10
607.340000000000
20
48.020000000000
30
0.0
11
607.340000000000
21
18.390000000000
31
0.0
0
LINE
5
41d
100
AcDbEntity
8
F-F
6
CONTINUOUS
62
2
100
AcDbLine
10
768.620000000000
20
18.390000000000
30
0.0
11
768.620000000000
21
48.020000000000
31
0.0
0
LINE
5
41e
100
AcDbEntity
8
F-F
6
CONTINUOUS
62
2
100
AcDbLine
10
403.510000000000
20
48.020000000000
30
0.0
11
403.510000000000
21
18.390000000000
31
0.0
0
LINE
5
41f
100
AcDbEntity
8
F-F
6
CONTINUOUS
62
2
100
AcDbLine
10
504.940000000000
20
48.020000000000
30
0.0
11
504.940000000000
21
18.390000000000
31
0.0
0
LINE
5
420
100
AcDbEntity
8
F-F
6
CONTINUOUS
62
2
100
AcDbLine
10
403.510000000000
20
38.140000000000
30
0.0
11
184.940000000000
21
38.140000000000
31
0.0
0
LINE
5
421
100
AcDbEntity
8
F-F
6
CONTINUOUS
62
2
100
AcDbLine
10
403.510000000000
20
28.270000000000
30
0.0
11
184.940000000000
21
28.270000000000
31
0.0
0
LINE
5
422
100
AcDbEntity
8
F-F
6
CONTINUOUS
62
2
100
AcDbLine
10
403.510000000000
20
23.330000000000
30
0.0
11
184.940000000000
21
23.330000000000
31
0.0
0
LINE
5
423
100
AcDbEntity
8
F-F
6
CONTINUOUS
62
2
100
AcDbLine
10
403.510000000000
20
43.080000000000
30
0.0
11
184.940000000000
21
43.080000000000
31
0.0
0
LINE
5
424
100
AcDbEntity
8
F-F
6
CONTINUOUS
62
2
100
AcDbLine
10
211.270000000000
20
48.020000000000
30
0.0
11
211.270000000000
21
18.390000000000
31
0.0
0
LINE
5
425
100
AcDbEntity
8
F-F
6
CONTINUOUS
62
2
100
AcDbLine
10
184.940000000000
20
48.020000000000
30
0.0
11
184.940000000000
21
18.390000000000
31
0.0
0
LINE
5
426
100
AcDbEntity
8
F-F
6
CONTINUOUS
62
2
100
AcDbLine
10
815.890000000000
20
18.390000000000
30
0.0
11
815.890000000000
21
578.390000000000
31
0.0
0
LINE
5
427
100
AcDbEntity
8
F-F
6
CONTINUOUS
62
2
100
AcDbLine
10
27.440000000000
20
578.390000000000
30
0.0
11
815.890000000000
21
578.390000000000
31
0.0
0
LINE
5
428
100
AcDbEntity
8
F-F
6
CONTINUOUS
62
2
100
AcDbLine
10
27.440000000000
20
18.390000000000
30
0.0
11
815.890000000000
21
18.390000000000
31
0.0
0
LINE
5
429
100
AcDbEntity
8
F-F
6
CONTINUOUS
62
2
100
AcDbLine
10
815.890000000000
20
48.020000000000
30
0.0
11
27.440000000000
21
48.020000000000
31
0.0
0
LINE
5
42a
100
AcDbEntity
8
F-F
6
CONTINUOUS
62
2
100
AcDbLine
10
184.940000000000
20
33.210000000000
30
0.0
11
815.890000000000
21
33.210000000000
31
0.0
0
LINE
5
42b
100
AcDbEntity
8
0-0
6
CONTINUOUS
62
4
100
AcDbLine
10
57.440000000000
20
513.830000000000
30
0.0
11
57.440000000000
21
513.830000000000
31
0.0
0
LINE
5
42c
100
AcDbEntity
8
0-0
6
CONTINUOUS
62
4
100
AcDbLine
10
588.160000000000
20
513.830000000000
30
0.0
11
588.160000000000
21
513.830000000000
31
0.0
0
LINE
5
42d
100
AcDbEntity
8
0-0
6
CONTINUOUS
62
4
100
AcDbLine
10
785.890000000000
20
513.830000000000
30
0.0
11
785.890000000000
21
513.830000000000
31
0.0
0
LINE
5
42e
100
AcDbEntity
8
0-0
6
CONTINUOUS
62
4
100
AcDbLine
10
57.440000000000
20
513.830000000000
30
0.0
11
63.240000000000
21
515.380000000000
31
0.0
0
LINE
5
42f
100
AcDbEntity
8
0-0
6
CONTINUOUS
62
4
100
AcDbLine
10
57.440000000000
20
513.830000000000
30
0.0
11
63.240000000000
21
512.280000000000
31
0.0
0
LINE
5
430
100
AcDbEntity
8
0-0
6
CONTINUOUS
62
4
100
AcDbLine
10
785.890000000000
20
513.830000000000
30
0.0
11
780.090000000000
21
512.280000000000
31
0.0
0
LINE
5
431
100
AcDbEntity
8
0-0
6
CONTINUOUS
62
4
100
AcDbLine
10
785.890000000000
20
513.830000000000
30
0.0
11
780.090000000000
21
515.380000000000
31
0.0
0
LINE
5
432
100
AcDbEntity
8
0-0
6
DASHED
62
7
100
AcDbLine
10
421.660000000000
20
397.830000000000
30
0.0
11
785.890000000000
21
397.830000000000
31
0.0
0
LINE
5
433
100
AcDbEntity
8
0-0
6
CONTINUOUS
62
7
100
AcDbLine
10
421.660000000000
20
396.830000000000
30
0.0
11
57.440000000000
21
396.830000000000
31
0.0
0
LINE
5
434
100
AcDbEntity
8
0-0
6
CONTINUOUS
62
3
100
AcDbLine
10
421.660000000000
20
371.830000000000
30
0.0
11
57.440000000000
21
371.830000000000
31
0.0
0
LINE
5
435
100
AcDbEntity
8
0-0
6
CONTINUOUS
62
7
100
AcDbLine
10
421.660000000000
20
396.830000000000
30
0.0
11
785.890000000000
21
396.830000000000
31
0.0
0
LINE
5
436
100
AcDbEntity
8
0-0
6
CONTINUOUS
62
3
100
AcDbLine
10
421.660000000000
20
371.830000000000
30
0.0
11
785.890000000000
21
371.830000000000
31
0.0
0
LINE
5
437
100
AcDbEntity
8
0-0
6
CONTINUOUS
62
3
100
AcDbLine
10
421.660000000000
20
351.830000000000
30
0.0
11
57.440000000000
21
351.830000000000
31
0.0
0
LINE
5
438
100
AcDbEntity
8
0-0
6
CONTINUOUS
62
3
100
AcDbLine
10
421.660000000000
20
351.830000000000
30
0.0
11
785.890000000000
21
351.830000000000
31
0.0
0
LINE
5
439
100
AcDbEntity
8
0-0
6
CONTINUOUS
62
7
100
AcDbLine
10
503.350000000000
20
352.020000000000
30
0.0
11
504.420000000000
21
348.020000000000
31
0.0
0
LINE
5
43a
100
AcDbEntity
8
0-0
6
CONTINUOUS
62
7
100
AcDbLine
10
503.350000000000
20
352.020000000000
30
0.0
11
506.280000000000
21
349.090000000000
31
0.0
0
LINE
5
43b
100
AcDbEntity
8
0-0
6
CONTINUOUS
62
7
100
AcDbLine
10
503.350000000000
20
352.020000000000
30
0.0
11
519.390000000000
21
324.230000000000
31
0.0
0
LINE
5
43c
100
AcDbEntity
8
0-0
6
CONTINUOUS
62
7
100
AcDbLine
10
345.340000000000
20
382.790000000000
30
0.0
11
346.420000000000
21
378.790000000000
31
0.0
0
LINE
5
43d
100
AcDbEntity
8
0-0
6
CONTINUOUS
62
7
100
AcDbLine
10
345.340000000000
20
382.790000000000
30
0.0
11
348.270000000000
21
379.860000000000
31
0.0
0
LINE
5
43e
100
AcDbEntity
8
0-0
6
CONTINUOUS
62
7
100
AcDbLine
10
345.340000000000
20
382.790000000000
30
0.0
11
370.880000000000
21
338.560000000000
31
0.0
0
LINE
5
43f
100
AcDbEntity
8
F-F
6
CONTINUOUS
62
2
100
AcDbLine
10
27.440000000000
20
301.920000000000
30
0.0
11
815.890000000000
21
301.920000000000
31
0.0
0
LINE
5
440
100
AcDbEntity
8
0-0
6
CONTINUOUS
62
4
100
AcDbLine
10
773.670000000000
20
371.830000000000
30
0.0
11
785.890000000000
21
384.050000000000
31
0.0
0
LINE
5
441
100
AcDbEntity
8
0-0
6
CONTINUOUS
62
4
100
AcDbLine
10
759.530000000000
20
371.830000000000
30
0.0
11
784.530000000000
21
396.830000000000
31
0.0
0
LINE
5
442
100
AcDbEntity
8
0-0
6
CONTINUOUS
62
4
100
AcDbLine
10
745.380000000000
20
371.830000000000
30
0.0
11
770.380000000000
21
396.830000000000
31
0.0
0
LINE
5
443
100
AcDbEntity
8
0-0
6
CONTINUOUS
62
4
100
AcDbLine
10
731.240000000000
20
371.830000000000
30
0.0
11
756.240000000000
21
396.830000000000
31
0.0
0
LINE
5
444
100
AcDbEntity
8
0-0
6
CONTINUOUS
62
4
100
AcDbLine
10
717.100000000000
20
371.830000000000
30
0.0
11
742.100000000000
21
396.830000000000
31
0.0
0
LINE
5
445
100
AcDbEntity
8
0-0
6
CONTINUOUS
62
4
100
AcDbLine
10
702.960000000000
20
371.830000000000
30
0.0
11
727.960000000000
21
396.830000000000
31
0.0
0
LINE
5
446
100
AcDbEntity
8
0-0
6
CONTINUOUS
62
4
100
AcDbLine
10
688.810000000000
20
371.830000000000
30
0.0
11
713.810000000000
21
396.830000000000
31
0.0
0
LINE
5
447
100
AcDbEntity
8
0-0
6
CONTINUOUS
62
4
100
AcDbLine
10
674.670000000000
20
371.830000000000
30
0.0
11
699.670000000000
21
396.830000000000
31
0.0
0
LINE
5
448
100
AcDbEntity
8
0-0
6
CONTINUOUS
62
4
100
AcDbLine
10
660.530000000000
20
371.830000000000
30
0.0
11
685.530000000000
21
396.830000000000
31
0.0
0
LINE
5
449
100
AcDbEntity
8
0-0
6
CONTINUOUS
62
4
100
AcDbLine
10
646.390000000000
20
371.830000000000
30
0.0
11
671.390000000000
21
396.830000000000
31
0.0
0
LINE
5
44a
100
AcDbEntity
8
0-0
6
CONTINUOUS
62
4
100
AcDbLine
10
632.250000000000
20
371.830000000000
30
0.0
11
657.250000000000
21
396.830000000000
31
0.0
0
LINE
5
44b
100
AcDbEntity
8
0-0
6
CONTINUOUS
62
4
100
AcDbLine
10
618.100000000000
20
371.830000000000
30
0.0
11
643.100000000000
21
396.830000000000
31
0.0
0
LINE
5
44c
100
AcDbEntity
8
0-0
6
CONTINUOUS
62
4
100
AcDbLine
10
603.960000000000
20
371.830000000000
30
0.0
11
628.960000000000
21
396.830000000000
31
0.0
0
LINE
5
44d
100
AcDbEntity
8
0-0
6
CONTINUOUS
62
4
100
AcDbLine
10
589.820000000000
20
371.830000000000
30
0.0
11
614.820000000000
21
396.830000000000
31
0.0
0
LINE
5
44e
100
AcDbEntity
8
0-0
6
CONTINUOUS
62
4
100
AcDbLine
10
575.680000000000
20
371.830000000000
30
0.0
11
600.680000000000
21
396.830000000000
31
0.0
0
LINE
5
44f
100
AcDbEntity
8
0-0
6
CONTINUOUS
62
4
100
AcDbLine
10
561.540000000000
20
371.830000000000
30
0.0
11
586.540000000000
21
396.830000000000
31
0.0
0
LINE
5
450
100
AcDbEntity
8
0-0
6
CONTINUOUS
62
4
100
AcDbLine
10
547.390000000000
20
371.830000000000
30
0.0
11
572.390000000000
21
396.830000000000
31
0.0
0
LINE
5
451
100
AcDbEntity
8
0-0
6
CONTINUOUS
62
4
100
AcDbLine
10
533.250000000000
20
371.830000000000
30
0.0
11
558.250000000000
21
396.830000000000
31
0.0
0
LINE
5
452
100
AcDbEntity
8
0-0
6
CONTINUOUS
62
4
100
AcDbLine
10
519.110000000000
20
371.830000000000
30
0.0
11
544.110000000000
21
396.830000000000
31
0.0
0
LINE
5
453
100
AcDbEntity
8
0-0
6
CONTINUOUS
62
4
100
AcDbLine
10
504.970000000000
20
371.830000000000
30
0.0
11
529.970000000000
21
396.830000000000
31
0.0
0
LINE
5
454
100
AcDbEntity
8
0-0
6
CONTINUOUS
62
4
100
AcDbLine
10
490.820000000000
20
371.830000000000
30
0.0
11
515.820000000000
21
396.830000000000
31
0.0
0
LINE
5
455
100
AcDbEntity
8
0-0
6
CONTINUOUS
62
4
100
AcDbLine
10
476.680000000000
20
371.830000000000
30
0.0
11
501.680000000000
21
396.830000000000
31
0.0
0
LINE
5
456
100
AcDbEntity
8
0-0
6
CONTINUOUS
62
4
100
AcDbLine
10
462.540000000000
20
371.830000000000
30
0.0
11
487.540000000000
21
396.830000000000
31
0.0
0
LINE
5
457
100
AcDbEntity
8
0-0
6
CONTINUOUS
62
4
100
AcDbLine
10
448.400000000000
20
371.830000000000
30
0.0
11
473.400000000000
21
396.830000000000
31
0.0
0
LINE
5
458
100
AcDbEntity
8
0-0
6
CONTINUOUS
62
4
100
AcDbLine
10
434.260000000000
20
371.830000000000
30
0.0
11
459.260000000000
21
396.830000000000
31
0.0
0
LINE
5
459
100
AcDbEntity
8
0-0
6
CONTINUOUS
62
4
100
AcDbLine
10
420.110000000000
20
371.830000000000
30
0.0
11
445.110000000000
21
396.830000000000
31
0.0
0
LINE
5
45a
100
AcDbEntity
8
0-0
6
CONTINUOUS
62
4
100
AcDbLine
10
405.970000000000
20
371.830000000000
30
0.0
11
430.970000000000
21
396.830000000000
31
0.0
0
LINE
5
45b
100
AcDbEntity
8
0-0
6
CONTINUOUS
62
4
100
AcDbLine
10
391.830000000000
20
371.830000000000
30
0.0
11
416.830000000000
21
396.830000000000
31
0.0
0
LINE
5
45c
100
AcDbEntity
8
0-0
6
CONTINUOUS
62
4
100
AcDbLine
10
377.690000000000
20
371.830000000000
30
0.0
11
402.690000000000
21
396.830000000000
31
0.0
0
LINE
5
45d
100
AcDbEntity
8
0-0
6
CONTINUOUS
62
4
100
AcDbLine
10
363.550000000000
20
371.830000000000
30
0.0
11
388.550000000000
21
396.830000000000
31
0.0
0
LINE
5
45e
100
AcDbEntity
8
0-0
6
CONTINUOUS
62
4
100
AcDbLine
10
349.400000000000
20
371.830000000000
30
0.0
11
374.400000000000
21
396.830000000000
31
0.0
0
LINE
5
45f
100
AcDbEntity
8
0-0
6
CONTINUOUS
62
4
100
AcDbLine
10
335.260000000000
20
371.830000000000
30
0.0
11
360.260000000000
21
396.830000000000
31
0.0
0
LINE
5
460
100
AcDbEntity
8
0-0
6
CONTINUOUS
62
4
100
AcDbLine
10
321.120000000000
20
371.830000000000
30
0.0
11
346.120000000000
21
396.830000000000
31
0.0
0
LINE
5
461
100
AcDbEntity
8
0-0
6
CONTINUOUS
62
4
100
AcDbLine
10
306.980000000000
20
371.830000000000
30
0.0
11
331.980000000000
21
396.830000000000
31
0.0
0
LINE
5
462
100
AcDbEntity
8
0-0
6
CONTINUOUS
62
4
100
AcDbLine
10
292.830000000000
20
371.830000000000
30
0.0
11
317.830000000000
21
396.830000000000
31
0.0
0
LINE
5
463
100
AcDbEntity
8
0-0
6
CONTINUOUS
62
4
100
AcDbLine
10
278.690000000000
20
371.830000000000
30
0.0
11
303.690000000000
21
396.830000000000
31
0.0
0
LINE
5
464
100
AcDbEntity
8
0-0
6
CONTINUOUS
62
4
100
AcDbLine
10
264.550000000000
20
371.830000000000
30
0.0
11
289.550000000000
21
396.830000000000
31
0.0
0
LINE
5
465
100
AcDbEntity
8
0-0
6
CONTINUOUS
62
4
100
AcDbLine
10
250.410000000000
20
371.830000000000
30
0.0
11
275.410000000000
21
396.830000000000
31
0.0
0
LINE
5
466
100
AcDbEntity
8
0-0
6
CONTINUOUS
62
4
100
AcDbLine
10
236.270000000000
20
371.830000000000
30
0.0
11
261.270000000000
21
396.830000000000
31
0.0
0
LINE
5
467
100
AcDbEntity
8
0-0
6
CONTINUOUS
62
4
100
AcDbLine
10
222.120000000000
20
371.830000000000
30
0.0
11
247.120000000000
21
396.830000000000
31
0.0
0
LINE
5
468
100
AcDbEntity
8
0-0
6
CONTINUOUS
62
4
100
AcDbLine
10
207.980000000000
20
371.830000000000
30
0.0
11
232.980000000000
21
396.830000000000
31
0.0
0
LINE
5
469
100
AcDbEntity
8
0-0
6
CONTINUOUS
62
4
100
AcDbLine
10
193.840000000000
20
371.830000000000
30
0.0
11
218.840000000000
21
396.830000000000
31
0.0
0
LINE
5
46a
100
AcDbEntity
8
0-0
6
CONTINUOUS
62
4
100
AcDbLine
10
179.700000000000
20
371.830000000000
30
0.0
11
204.700000000000
21
396.830000000000
31
0.0
0
LINE
5
46b
100
AcDbEntity
8
0-0
6
CONTINUOUS
62
4
100
AcDbLine
10
165.560000000000
20
371.830000000000
30
0.0
11
190.560000000000
21
396.830000000000
31
0.0
0
LINE
5
46c
100
AcDbEntity
8
0-0
6
CONTINUOUS
62
4
100
AcDbLine
10
151.410000000000
20
371.830000000000
30
0.0
11
176.410000000000
21
396.830000000000
31
0.0
0
LINE
5
46d
100
AcDbEntity
8
0-0
6
CONTINUOUS
62
4
100
AcDbLine
10
137.270000000000
20
371.830000000000
30
0.0
11
162.270000000000
21
396.830000000000
31
0.0
0
LINE
5
46e
100
AcDbEntity
8
0-0
6
CONTINUOUS
62
4
100
AcDbLine
10
123.130000000000
20
371.830000000000
30
0.0
11
148.130000000000
21
396.830000000000
31
0.0
0
LINE
5
46f
100
AcDbEntity
8
0-0
6
CONTINUOUS
62
4
100
AcDbLine
10
108.990000000000
20
371.830000000000
30
0.0
11
133.990000000000
21
396.830000000000
31
0.0
0
LINE
5
470
100
AcDbEntity
8
0-0
6
CONTINUOUS
62
4
100
AcDbLine
10
94.850000000000
20
371.830000000000
30
0.0
11
119.850000000000
21
396.830000000000
31
0.0
0
LINE
5
471
100
AcDbEntity
8
0-0
6
CONTINUOUS
62
4
100
AcDbLine
10
80.700000000000
20
371.830000000000
30
0.0
11
105.700000000000
21
396.830000000000
31
0.0
0
LINE
5
472
100
AcDbEntity
8
0-0
6
CONTINUOUS
62
4
100
AcDbLine
10
66.560000000000
20
371.830000000000
30
0.0
11
91.560000000000
21
396.830000000000
31
0.0
0
LINE
5
473
100
AcDbEntity
8
0-0
6
CONTINUOUS
62
4
100
AcDbLine
10
57.440000000000
20
376.850000000000
30
0.0
11
77.420000000000
21
396.830000000000
31
0.0
0
LINE
5
474
100
AcDbEntity
8
0-0
6
CONTINUOUS
62
4
100
AcDbLine
10
57.440000000000
20
391.000000000000
30
0.0
11
63.280000000000
21
396.830000000000
31
0.0
0
LINE
5
475
100
AcDbEntity
8
0-0
6
CONTINUOUS
62
4
100
AcDbLine
10
218.240000000000
20
440.430000000000
30
0.0
11
218.240000000000
21
400.330000000000
31
0.0
0
LINE
5
476
100
AcDbEntity
8
0-0
6
CONTINUOUS
62
7
100
AcDbLine
10
309.520000000000
20
399.330000000000
30
0.0
11
310.590000000000
21
403.330000000000
31
0.0
0
LINE
5
477
100
AcDbEntity
8
0-0
6
CONTINUOUS
62
7
100
AcDbLine
10
309.520000000000
20
399.330000000000
30
0.0
11
312.450000000000
21
402.260000000000
31
0.0
0
LINE
5
478
100
AcDbEntity
8
0-0
6
CONTINUOUS
62
7
100
AcDbLine
10
397.800000000000
20
398.290000000000
30
0.0
11
398.870000000000
21
402.290000000000
31
0.0
0
LINE
5
479
100
AcDbEntity
8
0-0
6
CONTINUOUS
62
7
100
AcDbLine
10
397.800000000000
20
398.290000000000
30
0.0
11
400.730000000000
21
401.210000000000
31
0.0
0
LINE
5
47a
100
AcDbEntity
8
0-0
6
CONTINUOUS
62
7
100
AcDbLine
10
397.800000000000
20
398.290000000000
30
0.0
11
410.420000000000
21
420.140000000000
31
0.0
0
LINE
5
47b
100
AcDbEntity
8
0-1
6
CONTINUOUS
62
7
100
AcDbLine
10
110.470000000000
20
101.370000000000
30
0.0
11
100.470000000000
21
101.370000000000
31
0.0
0
LINE
5
47c
100
AcDbEntity
8
0-1
6
CONTINUOUS
62
7
100
AcDbLine
10
702.850000000000
20
132.230000000000
30
0.0
11
702.850000000000
21
131.630000000000
31
0.0
0
LINE
5
47d
100
AcDbEntity
8
0-1
6
CONTINUOUS
62
7
100
AcDbLine
10
733.850000000000
20
97.830000000000
30
0.0
11
733.850000000000
21
97.230000000000
31
0.0
0
POLYLINE
5
47e
100
AcDbEntity
8
0-1
6
CONTINUOUS
62
  7
100
AcDb2dPolyline
66
1
10
0.0
20
0.0
30
0.0
70
0
0
VERTEX
5
47f
100
AcDbEntity
8
0-1
6
CONTINUOUS
62
  7
100
AcDbVertex
100
AcDb2dVertex
10
702.850000000000
20
132.230000000000
30
0.0
0
VERTEX
5
480
100
AcDbEntity
8
0-1
6
CONTINUOUS
62
  7
100
AcDbVertex
100
AcDb2dVertex
10
767.850000000000
20
132.230000000000
30
0.0
0
VERTEX
5
481
100
AcDbEntity
8
0-1
6
CONTINUOUS
62
  7
100
AcDbVertex
100
AcDb2dVertex
10
767.850000000000
20
131.630000000000
30
0.0
0
SEQEND
5
482
100
AcDbEntity
8
0-1
0
LINE
5
483
100
AcDbEntity
8
0-1
6
CONTINUOUS
62
7
100
AcDbLine
10
722.250000000000
20
131.630000000000
30
0.0
11
702.850000000000
21
131.630000000000
31
0.0
0
LINE
5
484
100
AcDbEntity
8
0-1
6
CONTINUOUS
62
7
100
AcDbLine
10
722.250000000000
20
131.630000000000
30
0.0
11
767.850000000000
21
131.630000000000
31
0.0
0
LINE
5
485
100
AcDbEntity
8
0-1
6
CONTINUOUS
62
7
100
AcDbLine
10
723.450000000000
20
98.430000000000
30
0.0
11
723.450000000000
21
131.030000000000
31
0.0
0
LINE
5
486
100
AcDbEntity
8
0-1
6
CONTINUOUS
62
7
100
AcDbLine
10
724.050000000000
20
97.830000000000
30
0.0
11
733.850000000000
21
97.830000000000
31
0.0
0
LINE
5
487
100
AcDbEntity
8
0-1
6
CONTINUOUS
62
7
100
AcDbLine
10
724.050000000000
20
97.230000000000
30
0.0
11
733.850000000000
21
97.230000000000
31
0.0
0
LINE
5
488
100
AcDbEntity
8
0-1
6
CONTINUOUS
62
7
100
AcDbLine
10
722.850000000000
20
131.030000000000
30
0.0
11
722.850000000000
21
98.430000000000
31
0.0
0
LINE
5
489
100
AcDbEntity
8
0-1
6
CONTINUOUS
62
7
100
AcDbLine
10
462.850000000000
20
131.630000000000
30
0.0
11
462.850000000000
21
132.230000000000
31
0.0
0
LINE
5
48a
100
AcDbEntity
8
0-1
6
CONTINUOUS
62
7
100
AcDbLine
10
487.850000000000
20
131.630000000000
30
0.0
11
462.850000000000
21
131.630000000000
31
0.0
0
LINE
5
48b
100
AcDbEntity
8
0-1
6
DOT
62
7
100
AcDbLine
10
487.850000000000
20
131.630000000000
30
0.0
11
487.850000000000
21
132.230000000000
31
0.0
0
LINE
5
48c
100
AcDbEntity
8
0-1
6
CONTINUOUS
62
7
100
AcDbLine
10
487.850000000000
20
97.230000000000
30
0.0
11
487.850000000000
21
131.630000000000
31
0.0
0
LINE
5
48d
100
AcDbEntity
8
0-1
6
DOT
62
7
100
AcDbLine
10
477.850000000000
20
131.630000000000
30
0.0
11
477.850000000000
21
132.230000000000
31
0.0
0
LINE
5
48e
100
AcDbEntity
8
0-1
6
CONTINUOUS
62
7
100
AcDbLine
10
570.350000000000
20
132.230000000000
30
0.0
11
462.850000000000
21
132.230000000000
31
0.0
0
LINE
5
48f
100
AcDbEntity
8
0-1
6
CONTINUOUS
62
7
100
AcDbLine
10
570.350000000000
20
131.630000000000
30
0.0
11
487.850000000000
21
131.630000000000
31
0.0
0
LINE
5
490
100
AcDbEntity
8
0-1
6
CONTINUOUS
62
7
100
AcDbLine
10
677.850000000000
20
131.630000000000
30
0.0
11
677.850000000000
21
132.230000000000
31
0.0
0
LINE
5
491
100
AcDbEntity
8
0-1
6
CONTINUOUS
62
7
100
AcDbLine
10
652.850000000000
20
131.630000000000
30
0.0
11
677.850000000000
21
131.630000000000
31
0.0
0
LINE
5
492
100
AcDbEntity
8
0-1
6
DOT
62
7
100
AcDbLine
10
652.850000000000
20
131.630000000000
30
0.0
11
652.850000000000
21
132.230000000000
31
0.0
0
LINE
5
493
100
AcDbEntity
8
0-1
6
CONTINUOUS
62
7
100
AcDbLine
10
652.850000000000
20
97.230000000000
30
0.0
11
652.850000000000
21
131.630000000000
31
0.0
0
LINE
5
494
100
AcDbEntity
8
0-1
6
DOT
62
7
100
AcDbLine
10
662.850000000000
20
131.630000000000
30
0.0
11
662.850000000000
21
132.230000000000
31
0.0
0
LINE
5
495
100
AcDbEntity
8
0-1
6
CONTINUOUS
62
7
100
AcDbLine
10
570.350000000000
20
97.230000000000
30
0.0
11
652.850000000000
21
97.230000000000
31
0.0
0
LINE
5
496
100
AcDbEntity
8
0-1
6
CONTINUOUS
62
7
100
AcDbLine
10
592.850000000000
20
137.230000000000
30
0.0
11
547.850000000000
21
92.230000000000
31
0.0
0
LINE
5
497
100
AcDbEntity
8
0-1
6
CONTINUOUS
62
7
100
AcDbLine
10
599.920000000000
20
137.230000000000
30
0.0
11
554.920000000000
21
92.230000000000
31
0.0
0
LINE
5
498
100
AcDbEntity
8
0-1
6
CONTINUOUS
62
7
100
AcDbLine
10
570.350000000000
20
97.230000000000
30
0.0
11
559.920000000000
21
97.230000000000
31
0.0
0
LINE
5
499
100
AcDbEntity
8
0-1
6
CONTINUOUS
62
7
100
AcDbLine
10
552.850000000000
20
97.230000000000
30
0.0
11
487.850000000000
21
97.230000000000
31
0.0
0
LINE
5
49a
100
AcDbEntity
8
0-1
6
CONTINUOUS
62
7
100
AcDbLine
10
570.350000000000
20
131.630000000000
30
0.0
11
587.250000000000
21
131.630000000000
31
0.0
0
LINE
5
49b
100
AcDbEntity
8
0-1
6
CONTINUOUS
62
7
100
AcDbLine
10
594.320000000000
20
131.630000000000
30
0.0
11
652.850000000000
21
131.630000000000
31
0.0
0
LINE
5
49c
100
AcDbEntity
8
0-1
6
CONTINUOUS
62
7
100
AcDbLine
10
570.350000000000
20
132.230000000000
30
0.0
11
587.850000000000
21
132.230000000000
31
0.0
0
LINE
5
49d
100
AcDbEntity
8
0-1
6
CONTINUOUS
62
7
100
AcDbLine
10
594.920000000000
20
132.230000000000
30
0.0
11
677.850000000000
21
132.230000000000
31
0.0
0
LINE
5
49e
100
AcDbEntity
8
0-1
6
CONTINUOUS
62
7
100
AcDbLine
10
462.850000000000
20
147.330000000000
30
0.0
11
462.850000000000
21
157.330000000000
31
0.0
0
LINE
5
49f
100
AcDbEntity
8
0-1
6
DOT
62
7
100
AcDbLine
10
552.850000000000
20
97.830000000000
30
0.0
11
487.850000000000
21
97.830000000000
31
0.0
0
LINE
5
4a0
100
AcDbEntity
8
0-1
6
DOT
62
7
100
AcDbLine
10
570.350000000000
20
97.830000000000
30
0.0
11
652.850000000000
21
97.830000000000
31
0.0
0
LINE
5
4a1
100
AcDbEntity
8
0-1
6
DOT
62
7
100
AcDbLine
10
570.350000000000
20
97.830000000000
30
0.0
11
559.920000000000
21
97.830000000000
31
0.0
0
LINE
5
4a2
100
AcDbEntity
8
0-1
6
CONTINUOUS
62
7
100
AcDbLine
10
487.850000000000
20
85.700000000000
30
0.0
11
487.850000000000
21
75.700000000000
31
0.0
0
LINE
5
4a3
100
AcDbEntity
8
0-1
6
CONTINUOUS
62
7
100
AcDbLine
10
702.850000000000
20
204.230000000000
30
0.0
11
767.850000000000
21
204.230000000000
31
0.0
0
LINE
5
4a4
100
AcDbEntity
8
0-1
6
CONTINUOUS
62
7
100
AcDbLine
10
723.450000000000
20
239.630000000000
30
0.0
11
723.450000000000
21
230.830000000000
31
0.0
0
LINE
5
4a5
100
AcDbEntity
8
0-1
6
CONTINUOUS
62
7
100
AcDbLine
10
724.050000000000
20
240.230000000000
30
0.0
11
733.850000000000
21
240.230000000000
31
0.0
0
LINE
5
4a6
100
AcDbEntity
8
0-1
6
CONTINUOUS
62
7
100
AcDbLine
10
677.850000000000
20
147.330000000000
30
0.0
11
677.850000000000
21
157.330000000000
31
0.0
0
LINE
5
4a7
100
AcDbEntity
8
0-1
6
CONTINUOUS
62
7
100
AcDbLine
10
702.850000000000
20
147.330000000000
30
0.0
11
702.850000000000
21
157.330000000000
31
0.0
0
LINE
5
4a8
100
AcDbEntity
8
0-1
6
CONTINUOUS
62
7
100
AcDbLine
10
767.850000000000
20
147.330000000000
30
0.0
11
767.850000000000
21
157.330000000000
31
0.0
0
LINE
5
4a9
100
AcDbEntity
8
0-1
6
CONTINUOUS
62
7
100
AcDbLine
10
462.850000000000
20
85.700000000000
30
0.0
11
462.850000000000
21
75.700000000000
31
0.0
0
LINE
5
4aa
100
AcDbEntity
8
0-1
6
CONTINUOUS
62
7
100
AcDbLine
10
677.850000000000
20
85.700000000000
30
0.0
11
677.850000000000
21
75.700000000000
31
0.0
0
LINE
5
4ab
100
AcDbEntity
8
0-1
6
CONTINUOUS
62
7
100
AcDbLine
10
652.850000000000
20
85.700000000000
30
0.0
11
652.850000000000
21
75.700000000000
31
0.0
0
LINE
5
4ac
100
AcDbEntity
8
0-1
6
CONTINUOUS
62
7
100
AcDbLine
10
462.850000000000
20
75.700000000000
30
0.0
11
677.850000000000
21
75.700000000000
31
0.0
0
LINE
5
4ad
100
AcDbEntity
8
0-1
6
CONTINUOUS
62
7
100
AcDbLine
10
462.850000000000
20
157.330000000000
30
0.0
11
677.850000000000
21
157.330000000000
31
0.0
0
LINE
5
4ae
100
AcDbEntity
8
0-1
6
CONTINUOUS
62
7
100
AcDbLine
10
702.850000000000
20
85.700000000000
30
0.0
11
702.850000000000
21
75.700000000000
31
0.0
0
LINE
5
4af
100
AcDbEntity
8
0-1
6
CONTINUOUS
62
7
100
AcDbLine
10
722.850000000000
20
85.700000000000
30
0.0
11
722.850000000000
21
75.700000000000
31
0.0
0
LINE
5
4b0
100
AcDbEntity
8
0-1
6
CONTINUOUS
62
7
100
AcDbLine
10
702.850000000000
20
75.700000000000
30
0.0
11
733.850000000000
21
75.700000000000
31
0.0
0
LINE
5
4b1
100
AcDbEntity
8
0-1
6
CONTINUOUS
62
7
100
AcDbLine
10
733.850000000000
20
85.700000000000
30
0.0
11
733.850000000000
21
75.700000000000
31
0.0
0
LINE
5
4b2
100
AcDbEntity
8
0-1
6
CONTINUOUS
62
7
100
AcDbLine
10
702.850000000000
20
157.330000000000
30
0.0
11
767.850000000000
21
157.330000000000
31
0.0
0
LINE
5
4b3
100
AcDbEntity
8
0-1
6
CONTINUOUS
62
7
100
AcDbLine
10
702.850000000000
20
192.230000000000
30
0.0
11
702.850000000000
21
182.230000000000
31
0.0
0
LINE
5
4b4
100
AcDbEntity
8
0-1
6
CONTINUOUS
62
7
100
AcDbLine
10
767.850000000000
20
192.230000000000
30
0.0
11
767.850000000000
21
182.230000000000
31
0.0
0
LINE
5
4b5
100
AcDbEntity
8
0-1
6
CONTINUOUS
62
7
100
AcDbLine
10
779.850000000000
20
240.230000000000
30
0.0
11
789.850000000000
21
240.230000000000
31
0.0
0
LINE
5
4b6
100
AcDbEntity
8
0-1
6
CONTINUOUS
62
7
100
AcDbLine
10
779.850000000000
20
204.230000000000
30
0.0
11
789.850000000000
21
204.230000000000
31
0.0
0
LINE
5
4b7
100
AcDbEntity
8
0-1
6
CONTINUOUS
62
7
100
AcDbLine
10
779.850000000000
20
230.230000000000
30
0.0
11
789.850000000000
21
230.230000000000
31
0.0
0
LINE
5
4b8
100
AcDbEntity
8
0-1
6
CONTINUOUS
62
7
100
AcDbLine
10
447.850000000000
20
97.230000000000
30
0.0
11
447.850000000000
21
132.230000000000
31
0.0
0
LINE
5
4b9
100
AcDbEntity
8
0-1
6
CONTINUOUS
62
7
100
AcDbLine
10
457.850000000000
20
132.230000000000
30
0.0
11
447.850000000000
21
132.230000000000
31
0.0
0
LINE
5
4ba
100
AcDbEntity
8
0-1
6
CONTINUOUS
62
7
100
AcDbLine
10
457.850000000000
20
97.230000000000
30
0.0
11
447.850000000000
21
97.230000000000
31
0.0
0
POLYLINE
5
4bb
100
AcDbEntity
8
0-1
6
CONTINUOUS
62
  7
100
AcDb2dPolyline
66
1
10
0.0
20
0.0
30
0.0
70
0
0
VERTEX
5
4bc
100
AcDbEntity
8
0-1
6
CONTINUOUS
62
  7
100
AcDbVertex
100
AcDb2dVertex
10
317.390000000000
20
157.330000000000
30
0.0
0
VERTEX
5
4bd
100
AcDbEntity
8
0-1
6
CONTINUOUS
62
  7
100
AcDbVertex
100
AcDb2dVertex
10
337.390000000000
20
157.330000000000
30
0.0
0
VERTEX
5
4be
100
AcDbEntity
8
0-1
6
CONTINUOUS
62
  7
100
AcDbVertex
100
AcDb2dVertex
10
337.390000000000
20
147.330000000000
30
0.0
0
SEQEND
5
4bf
100
AcDbEntity
8
0-1
0
LINE
5
4c0
100
AcDbEntity
8
0-1
6
CONTINUOUS
62
7
100
AcDbLine
10
317.390000000000
20
157.330000000000
30
0.0
11
317.390000000000
21
147.330000000000
31
0.0
0
LINE
5
4c1
100
AcDbEntity
8
0-1
6
CONTINUOUS
62
7
100
AcDbLine
10
201.660000000000
20
86.500000000000
30
0.0
11
191.660000000000
21
86.500000000000
31
0.0
0
LINE
5
4c2
100
AcDbEntity
8
0-1
6
DOT
62
7
100
AcDbLine
10
723.450000000000
20
239.630000000000
30
0.0
11
722.850000000000
21
239.630000000000
31
0.0
0
LINE
5
4c3
100
AcDbEntity
8
0-1
6
CONTINUOUS
62
7
100
AcDbLine
10
702.850000000000
20
182.230000000000
30
0.0
11
767.850000000000
21
182.230000000000
31
0.0
0
LINE
5
4c4
100
AcDbEntity
8
0-1
6
CONTINUOUS
62
7
100
AcDbLine
10
733.850000000000
20
240.230000000000
30
0.0
11
733.850000000000
21
289.150000000000
31
0.0
0
LINE
5
4c5
100
AcDbEntity
8
0-1
6
CONTINUOUS
62
7
100
AcDbLine
10
723.450000000000
20
239.630000000000
30
0.0
11
723.450000000000
21
278.750000000000
31
0.0
0
LINE
5
4c6
100
AcDbEntity
8
0-1
6
DOT
62
7
100
AcDbLine
10
722.850000000000
20
239.630000000000
30
0.0
11
722.850000000000
21
278.150000000000
31
0.0
0
POLYLINE
5
4c7
100
AcDbEntity
8
F-F
6
CONTINUOUS
62
  3
100
AcDb2dPolyline
66
1
10
0.0
20
0.0
30
0.0
70
0
0
VERTEX
5
4c8
100
AcDbEntity
8
F-F
6
CONTINUOUS
62
  3
100
AcDbVertex
100
AcDb2dVertex
10
35.920000000000
20
36.120000000000
30
0.0
0
VERTEX
5
4c9
100
AcDbEntity
8
F-F
6
CONTINUOUS
62
  3
100
AcDbVertex
100
AcDb2dVertex
10
35.920000000000
20
44.120000000000
30
0.0
0
VERTEX
5
4ca
100
AcDbEntity
8
F-F
6
CONTINUOUS
62
  3
100
AcDbVertex
100
AcDb2dVertex
10
43.920000000000
20
44.120000000000
30
0.0
0
VERTEX
5
4cb
100
AcDbEntity
8
F-F
6
CONTINUOUS
62
  3
100
AcDbVertex
100
AcDb2dVertex
10
43.920000000000
20
36.120000000000
30
0.0
0
VERTEX
5
4cc
100
AcDbEntity
8
F-F
6
CONTINUOUS
62
  3
100
AcDbVertex
100
AcDb2dVertex
10
35.920000000000
20
36.120000000000
30
0.0
0
SEQEND
5
4cd
100
AcDbEntity
8
F-F
0
LINE
5
4ce
100
AcDbEntity
8
F-F
6
CONTINUOUS
62
3
100
AcDbLine
10
36.720000000000
20
37.200000000000
30
0.0
11
36.720000000000
21
43.320000000000
31
0.0
0
LINE
5
4cf
100
AcDbEntity
8
F-F
6
CONTINUOUS
62
3
100
AcDbLine
10
43.120000000000
20
36.920000000000
30
0.0
11
37.000000000000
21
36.920000000000
31
0.0
0
POLYLINE
5
4d0
100
AcDbEntity
8
F-F
6
CONTINUOUS
62
  3
100
AcDb2dPolyline
66
1
10
0.0
20
0.0
30
0.0
70
0
0
VERTEX
5
4d1
100
AcDbEntity
8
F-F
6
CONTINUOUS
62
  3
100
AcDbVertex
100
AcDb2dVertex
10
36.720000000000
20
43.320000000000
30
0.0
0
VERTEX
5
4d2
100
AcDbEntity
8
F-F
6
CONTINUOUS
62
  3
100
AcDbVertex
100
AcDb2dVertex
10
42.840000000000
20
43.320000000000
30
0.0
0
VERTEX
5
4d3
100
AcDbEntity
8
F-F
6
CONTINUOUS
62
  3
100
AcDbVertex
100
AcDb2dVertex
10
36.720000000000
20
37.200000000000
30
0.0
0
SEQEND
5
4d4
100
AcDbEntity
8
F-F
0
LINE
5
4d5
100
AcDbEntity
8
F-F
6
CONTINUOUS
62
3
100
AcDbLine
10
43.120000000000
20
43.040000000000
30
0.0
11
37.000000000000
21
36.920000000000
31
0.0
0
LINE
5
4d6
100
AcDbEntity
8
F-F
6
CONTINUOUS
62
3
100
AcDbLine
10
43.120000000000
20
43.040000000000
30
0.0
11
43.120000000000
21
36.920000000000
31
0.0
0
LINE
5
4d7
100
AcDbEntity
8
F-F
6
CONTINUOUS
62
4
100
AcDbLine
10
35.920000000000
20
44.040000000000
30
0.0
11
43.920000000000
21
44.040000000000
31
0.0
0
LINE
5
4d8
100
AcDbEntity
8
F-F
6
CONTINUOUS
62
4
100
AcDbLine
10
35.920000000000
20
43.880000000000
30
0.0
11
43.920000000000
21
43.880000000000
31
0.0
0
LINE
5
4d9
100
AcDbEntity
8
F-F
6
CONTINUOUS
62
4
100
AcDbLine
10
35.920000000000
20
43.720000000000
30
0.0
11
43.920000000000
21
43.720000000000
31
0.0
0
LINE
5
4da
100
AcDbEntity
8
F-F
6
CONTINUOUS
62
4
100
AcDbLine
10
35.920000000000
20
43.560000000000
30
0.0
11
43.920000000000
21
43.560000000000
31
0.0
0
LINE
5
4db
100
AcDbEntity
8
F-F
6
CONTINUOUS
62
4
100
AcDbLine
10
35.920000000000
20
43.400000000000
30
0.0
11
43.920000000000
21
43.400000000000
31
0.0
0
LINE
5
4dc
100
AcDbEntity
8
F-F
6
CONTINUOUS
62
4
100
AcDbLine
10
35.920000000000
20
36.840000000000
30
0.0
11
43.920000000000
21
36.840000000000
31
0.0
0
LINE
5
4dd
100
AcDbEntity
8
F-F
6
CONTINUOUS
62
4
100
AcDbLine
10
35.920000000000
20
36.680000000000
30
0.0
11
43.920000000000
21
36.680000000000
31
0.0
0
LINE
5
4de
100
AcDbEntity
8
F-F
6
CONTINUOUS
62
4
100
AcDbLine
10
35.920000000000
20
36.520000000000
30
0.0
11
43.920000000000
21
36.520000000000
31
0.0
0
LINE
5
4df
100
AcDbEntity
8
F-F
6
CONTINUOUS
62
4
100
AcDbLine
10
35.920000000000
20
36.360000000000
30
0.0
11
43.920000000000
21
36.360000000000
31
0.0
0
LINE
5
4e0
100
AcDbEntity
8
F-F
6
CONTINUOUS
62
4
100
AcDbLine
10
35.920000000000
20
36.200000000000
30
0.0
11
43.920000000000
21
36.200000000000
31
0.0
0
LINE
5
4e1
100
AcDbEntity
8
F-F
6
CONTINUOUS
62
4
100
AcDbLine
10
35.920000000000
20
37.320000000000
30
0.0
11
36.720000000000
21
37.320000000000
31
0.0
0
LINE
5
4e2
100
AcDbEntity
8
F-F
6
CONTINUOUS
62
4
100
AcDbLine
10
35.920000000000
20
37.480000000000
30
0.0
11
36.720000000000
21
37.480000000000
31
0.0
0
LINE
5
4e3
100
AcDbEntity
8
F-F
6
CONTINUOUS
62
4
100
AcDbLine
10
35.920000000000
20
37.640000000000
30
0.0
11
36.720000000000
21
37.640000000000
31
0.0
0
LINE
5
4e4
100
AcDbEntity
8
F-F
6
CONTINUOUS
62
4
100
AcDbLine
10
35.920000000000
20
37.800000000000
30
0.0
11
36.720000000000
21
37.800000000000
31
0.0
0
LINE
5
4e5
100
AcDbEntity
8
F-F
6
CONTINUOUS
62
4
100
AcDbLine
10
35.920000000000
20
37.960000000000
30
0.0
11
36.720000000000
21
37.960000000000
31
0.0
0
LINE
5
4e6
100
AcDbEntity
8
F-F
6
CONTINUOUS
62
4
100
AcDbLine
10
35.920000000000
20
38.120000000000
30
0.0
11
36.720000000000
21
38.120000000000
31
0.0
0
LINE
5
4e7
100
AcDbEntity
8
F-F
6
CONTINUOUS
62
4
100
AcDbLine
10
35.920000000000
20
38.280000000000
30
0.0
11
36.720000000000
21
38.280000000000
31
0.0
0
LINE
5
4e8
100
AcDbEntity
8
F-F
6
CONTINUOUS
62
4
100
AcDbLine
10
35.920000000000
20
38.440000000000
30
0.0
11
36.720000000000
21
38.440000000000
31
0.0
0
LINE
5
4e9
100
AcDbEntity
8
F-F
6
CONTINUOUS
62
4
100
AcDbLine
10
35.920000000000
20
38.600000000000
30
0.0
11
36.720000000000
21
38.600000000000
31
0.0
0
LINE
5
4ea
100
AcDbEntity
8
F-F
6
CONTINUOUS
62
4
100
AcDbLine
10
35.920000000000
20
38.760000000000
30
0.0
11
36.720000000000
21
38.760000000000
31
0.0
0
LINE
5
4eb
100
AcDbEntity
8
F-F
6
CONTINUOUS
62
4
100
AcDbLine
10
35.920000000000
20
38.920000000000
30
0.0
11
36.720000000000
21
38.920000000000
31
0.0
0
LINE
5
4ec
100
AcDbEntity
8
F-F
6
CONTINUOUS
62
4
100
AcDbLine
10
35.920000000000
20
39.080000000000
30
0.0
11
36.720000000000
21
39.080000000000
31
0.0
0
LINE
5
4ed
100
AcDbEntity
8
F-F
6
CONTINUOUS
62
4
100
AcDbLine
10
35.920000000000
20
39.240000000000
30
0.0
11
36.720000000000
21
39.240000000000
31
0.0
0
LINE
5
4ee
100
AcDbEntity
8
F-F
6
CONTINUOUS
62
4
100
AcDbLine
10
35.920000000000
20
39.400000000000
30
0.0
11
36.720000000000
21
39.400000000000
31
0.0
0
LINE
5
4ef
100
AcDbEntity
8
F-F
6
CONTINUOUS
62
4
100
AcDbLine
10
35.920000000000
20
39.560000000000
30
0.0
11
36.720000000000
21
39.560000000000
31
0.0
0
LINE
5
4f0
100
AcDbEntity
8
F-F
6
CONTINUOUS
62
4
100
AcDbLine
10
35.920000000000
20
39.720000000000
30
0.0
11
36.720000000000
21
39.720000000000
31
0.0
0
LINE
5
4f1
100
AcDbEntity
8
F-F
6
CONTINUOUS
62
4
100
AcDbLine
10
35.920000000000
20
39.880000000000
30
0.0
11
36.720000000000
21
39.880000000000
31
0.0
0
LINE
5
4f2
100
AcDbEntity
8
F-F
6
CONTINUOUS
62
4
100
AcDbLine
10
35.920000000000
20
40.040000000000
30
0.0
11
36.720000000000
21
40.040000000000
31
0.0
0
LINE
5
4f3
100
AcDbEntity
8
F-F
6
CONTINUOUS
62
4
100
AcDbLine
10
35.920000000000
20
40.200000000000
30
0.0
11
36.720000000000
21
40.200000000000
31
0.0
0
LINE
5
4f4
100
AcDbEntity
8
F-F
6
CONTINUOUS
62
4
100
AcDbLine
10
35.920000000000
20
40.360000000000
30
0.0
11
36.720000000000
21
40.360000000000
31
0.0
0
LINE
5
4f5
100
AcDbEntity
8
F-F
6
CONTINUOUS
62
4
100
AcDbLine
10
35.920000000000
20
40.520000000000
30
0.0
11
36.720000000000
21
40.520000000000
31
0.0
0
LINE
5
4f6
100
AcDbEntity
8
F-F
6
CONTINUOUS
62
4
100
AcDbLine
10
35.920000000000
20
40.680000000000
30
0.0
11
36.720000000000
21
40.680000000000
31
0.0
0
LINE
5
4f7
100
AcDbEntity
8
F-F
6
CONTINUOUS
62
4
100
AcDbLine
10
35.920000000000
20
40.840000000000
30
0.0
11
36.720000000000
21
40.840000000000
31
0.0
0
LINE
5
4f8
100
AcDbEntity
8
F-F
6
CONTINUOUS
62
4
100
AcDbLine
10
35.920000000000
20
41.000000000000
30
0.0
11
36.720000000000
21
41.000000000000
31
0.0
0
LINE
5
4f9
100
AcDbEntity
8
F-F
6
CONTINUOUS
62
4
100
AcDbLine
10
35.920000000000
20
41.480000000000
30
0.0
11
36.720000000000
21
41.480000000000
31
0.0
0
LINE
5
4fa
100
AcDbEntity
8
F-F
6
CONTINUOUS
62
4
100
AcDbLine
10
35.920000000000
20
41.960000000000
30
0.0
11
36.720000000000
21
41.960000000000
31
0.0
0
LINE
5
4fb
100
AcDbEntity
8
F-F
6
CONTINUOUS
62
4
100
AcDbLine
10
35.920000000000
20
42.120000000000
30
0.0
11
36.720000000000
21
42.120000000000
31
0.0
0
LINE
5
4fc
100
AcDbEntity
8
F-F
6
CONTINUOUS
62
4
100
AcDbLine
10
35.920000000000
20
42.280000000000
30
0.0
11
36.720000000000
21
42.280000000000
31
0.0
0
LINE
5
4fd
100
AcDbEntity
8
F-F
6
CONTINUOUS
62
4
100
AcDbLine
10
35.920000000000
20
42.440000000000
30
0.0
11
36.720000000000
21
42.440000000000
31
0.0
0
LINE
5
4fe
100
AcDbEntity
8
F-F
6
CONTINUOUS
62
4
100
AcDbLine
10
35.920000000000
20
43.240000000000
30
0.0
11
36.720000000000
21
43.240000000000
31
0.0
0
LINE
5
4ff
100
AcDbEntity
8
F-F
6
CONTINUOUS
62
4
100
AcDbLine
10
35.920000000000
20
43.080000000000
30
0.0
11
36.720000000000
21
43.080000000000
31
0.0
0
LINE
5
500
100
AcDbEntity
8
F-F
6
CONTINUOUS
62
4
100
AcDbLine
10
35.920000000000
20
42.920000000000
30
0.0
11
36.720000000000
21
42.920000000000
31
0.0
0
LINE
5
501
100
AcDbEntity
8
F-F
6
CONTINUOUS
62
4
100
AcDbLine
10
35.920000000000
20
42.760000000000
30
0.0
11
36.720000000000
21
42.760000000000
31
0.0
0
LINE
5
502
100
AcDbEntity
8
F-F
6
CONTINUOUS
62
4
100
AcDbLine
10
35.920000000000
20
42.600000000000
30
0.0
11
36.720000000000
21
42.600000000000
31
0.0
0
LINE
5
503
100
AcDbEntity
8
F-F
6
CONTINUOUS
62
4
100
AcDbLine
10
35.920000000000
20
41.640000000000
30
0.0
11
36.720000000000
21
41.640000000000
31
0.0
0
LINE
5
504
100
AcDbEntity
8
F-F
6
CONTINUOUS
62
4
100
AcDbLine
10
35.920000000000
20
41.800000000000
30
0.0
11
36.720000000000
21
41.800000000000
31
0.0
0
LINE
5
505
100
AcDbEntity
8
F-F
6
CONTINUOUS
62
4
100
AcDbLine
10
35.920000000000
20
41.320000000000
30
0.0
11
36.720000000000
21
41.320000000000
31
0.0
0
LINE
5
506
100
AcDbEntity
8
F-F
6
CONTINUOUS
62
4
100
AcDbLine
10
35.920000000000
20
41.160000000000
30
0.0
11
36.720000000000
21
41.160000000000
31
0.0
0
LINE
5
507
100
AcDbEntity
8
F-F
6
CONTINUOUS
62
4
100
AcDbLine
10
37.000000000000
20
37.480000000000
30
0.0
11
37.560000000000
21
37.480000000000
31
0.0
0
LINE
5
508
100
AcDbEntity
8
F-F
6
CONTINUOUS
62
4
100
AcDbLine
10
36.840000000000
20
37.320000000000
30
0.0
11
37.400000000000
21
37.320000000000
31
0.0
0
LINE
5
509
100
AcDbEntity
8
F-F
6
CONTINUOUS
62
4
100
AcDbLine
10
35.920000000000
20
37.160000000000
30
0.0
11
37.240000000000
21
37.160000000000
31
0.0
0
LINE
5
50a
100
AcDbEntity
8
F-F
6
CONTINUOUS
62
4
100
AcDbLine
10
35.920000000000
20
37.000000000000
30
0.0
11
37.080000000000
21
37.000000000000
31
0.0
0
LINE
5
50b
100
AcDbEntity
8
F-F
6
CONTINUOUS
62
4
100
AcDbLine
10
37.960000000000
20
38.440000000000
30
0.0
11
38.520000000000
21
38.440000000000
31
0.0
0
LINE
5
50c
100
AcDbEntity
8
F-F
6
CONTINUOUS
62
4
100
AcDbLine
10
37.800000000000
20
38.280000000000
30
0.0
11
38.360000000000
21
38.280000000000
31
0.0
0
LINE
5
50d
100
AcDbEntity
8
F-F
6
CONTINUOUS
62
4
100
AcDbLine
10
37.640000000000
20
38.120000000000
30
0.0
11
38.200000000000
21
38.120000000000
31
0.0
0
LINE
5
50e
100
AcDbEntity
8
F-F
6
CONTINUOUS
62
4
100
AcDbLine
10
37.480000000000
20
37.960000000000
30
0.0
11
38.040000000000
21
37.960000000000
31
0.0
0
LINE
5
50f
100
AcDbEntity
8
F-F
6
CONTINUOUS
62
4
100
AcDbLine
10
37.320000000000
20
37.800000000000
30
0.0
11
37.880000000000
21
37.800000000000
31
0.0
0
LINE
5
510
100
AcDbEntity
8
F-F
6
CONTINUOUS
62
4
100
AcDbLine
10
37.160000000000
20
37.640000000000
30
0.0
11
37.720000000000
21
37.640000000000
31
0.0
0
LINE
5
511
100
AcDbEntity
8
F-F
6
CONTINUOUS
62
4
100
AcDbLine
10
36.720000000000
20
43.320000000000
30
0.0
11
36.720000000000
21
43.480000000000
31
0.0
0
LINE
5
512
100
AcDbEntity
8
F-F
6
CONTINUOUS
62
4
100
AcDbLine
10
43.120000000000
20
37.320000000000
30
0.0
11
43.920000000000
21
37.320000000000
31
0.0
0
LINE
5
513
100
AcDbEntity
8
F-F
6
CONTINUOUS
62
4
100
AcDbLine
10
43.120000000000
20
37.480000000000
30
0.0
11
43.920000000000
21
37.480000000000
31
0.0
0
LINE
5
514
100
AcDbEntity
8
F-F
6
CONTINUOUS
62
4
100
AcDbLine
10
43.120000000000
20
37.640000000000
30
0.0
11
43.920000000000
21
37.640000000000
31
0.0
0
LINE
5
515
100
AcDbEntity
8
F-F
6
CONTINUOUS
62
4
100
AcDbLine
10
43.120000000000
20
37.800000000000
30
0.0
11
43.920000000000
21
37.800000000000
31
0.0
0
LINE
5
516
100
AcDbEntity
8
F-F
6
CONTINUOUS
62
4
100
AcDbLine
10
43.120000000000
20
37.960000000000
30
0.0
11
43.920000000000
21
37.960000000000
31
0.0
0
LINE
5
517
100
AcDbEntity
8
F-F
6
CONTINUOUS
62
4
100
AcDbLine
10
43.120000000000
20
38.120000000000
30
0.0
11
43.920000000000
21
38.120000000000
31
0.0
0
LINE
5
518
100
AcDbEntity
8
F-F
6
CONTINUOUS
62
4
100
AcDbLine
10
43.120000000000
20
38.280000000000
30
0.0
11
43.920000000000
21
38.280000000000
31
0.0
0
LINE
5
519
100
AcDbEntity
8
F-F
6
CONTINUOUS
62
4
100
AcDbLine
10
43.120000000000
20
38.440000000000
30
0.0
11
43.920000000000
21
38.440000000000
31
0.0
0
LINE
5
51a
100
AcDbEntity
8
F-F
6
CONTINUOUS
62
4
100
AcDbLine
10
43.120000000000
20
38.600000000000
30
0.0
11
43.920000000000
21
38.600000000000
31
0.0
0
LINE
5
51b
100
AcDbEntity
8
F-F
6
CONTINUOUS
62
4
100
AcDbLine
10
43.120000000000
20
38.760000000000
30
0.0
11
43.920000000000
21
38.760000000000
31
0.0
0
LINE
5
51c
100
AcDbEntity
8
F-F
6
CONTINUOUS
62
4
100
AcDbLine
10
43.120000000000
20
38.920000000000
30
0.0
11
43.920000000000
21
38.920000000000
31
0.0
0
LINE
5
51d
100
AcDbEntity
8
F-F
6
CONTINUOUS
62
4
100
AcDbLine
10
43.120000000000
20
39.080000000000
30
0.0
11
43.920000000000
21
39.080000000000
31
0.0
0
LINE
5
51e
100
AcDbEntity
8
F-F
6
CONTINUOUS
62
4
100
AcDbLine
10
43.120000000000
20
39.240000000000
30
0.0
11
43.920000000000
21
39.240000000000
31
0.0
0
LINE
5
51f
100
AcDbEntity
8
F-F
6
CONTINUOUS
62
4
100
AcDbLine
10
43.120000000000
20
39.560000000000
30
0.0
11
43.920000000000
21
39.560000000000
31
0.0
0
LINE
5
520
100
AcDbEntity
8
F-F
6
CONTINUOUS
62
4
100
AcDbLine
10
43.120000000000
20
39.720000000000
30
0.0
11
43.920000000000
21
39.720000000000
31
0.0
0
LINE
5
521
100
AcDbEntity
8
F-F
6
CONTINUOUS
62
4
100
AcDbLine
10
43.120000000000
20
39.880000000000
30
0.0
11
43.920000000000
21
39.880000000000
31
0.0
0
LINE
5
522
100
AcDbEntity
8
F-F
6
CONTINUOUS
62
4
100
AcDbLine
10
43.120000000000
20
40.040000000000
30
0.0
11
43.920000000000
21
40.040000000000
31
0.0
0
LINE
5
523
100
AcDbEntity
8
F-F
6
CONTINUOUS
62
4
100
AcDbLine
10
43.120000000000
20
40.200000000000
30
0.0
11
43.920000000000
21
40.200000000000
31
0.0
0
LINE
5
524
100
AcDbEntity
8
F-F
6
CONTINUOUS
62
4
100
AcDbLine
10
43.120000000000
20
40.360000000000
30
0.0
11
43.920000000000
21
40.360000000000
31
0.0
0
LINE
5
525
100
AcDbEntity
8
F-F
6
CONTINUOUS
62
4
100
AcDbLine
10
43.120000000000
20
40.520000000000
30
0.0
11
43.920000000000
21
40.520000000000
31
0.0
0
LINE
5
526
100
AcDbEntity
8
F-F
6
CONTINUOUS
62
4
100
AcDbLine
10
43.120000000000
20
40.680000000000
30
0.0
11
43.920000000000
21
40.680000000000
31
0.0
0
LINE
5
527
100
AcDbEntity
8
F-F
6
CONTINUOUS
62
4
100
AcDbLine
10
43.120000000000
20
40.840000000000
30
0.0
11
43.920000000000
21
40.840000000000
31
0.0
0
LINE
5
528
100
AcDbEntity
8
F-F
6
CONTINUOUS
62
4
100
AcDbLine
10
43.120000000000
20
41.000000000000
30
0.0
11
43.920000000000
21
41.000000000000
31
0.0
0
LINE
5
529
100
AcDbEntity
8
F-F
6
CONTINUOUS
62
4
100
AcDbLine
10
43.120000000000
20
41.480000000000
30
0.0
11
43.920000000000
21
41.480000000000
31
0.0
0
LINE
5
52a
100
AcDbEntity
8
F-F
6
CONTINUOUS
62
4
100
AcDbLine
10
43.120000000000
20
41.960000000000
30
0.0
11
43.920000000000
21
41.960000000000
31
0.0
0
LINE
5
52b
100
AcDbEntity
8
F-F
6
CONTINUOUS
62
4
100
AcDbLine
10
43.120000000000
20
42.120000000000
30
0.0
11
43.920000000000
21
42.120000000000
31
0.0
0
LINE
5
52c
100
AcDbEntity
8
F-F
6
CONTINUOUS
62
4
100
AcDbLine
10
43.120000000000
20
42.280000000000
30
0.0
11
43.920000000000
21
42.280000000000
31
0.0
0
LINE
5
52d
100
AcDbEntity
8
F-F
6
CONTINUOUS
62
4
100
AcDbLine
10
43.120000000000
20
42.440000000000
30
0.0
11
43.920000000000
21
42.440000000000
31
0.0
0
LINE
5
52e
100
AcDbEntity
8
F-F
6
CONTINUOUS
62
4
100
AcDbLine
10
43.120000000000
20
42.920000000000
30
0.0
11
43.920000000000
21
42.920000000000
31
0.0
0
LINE
5
52f
100
AcDbEntity
8
F-F
6
CONTINUOUS
62
4
100
AcDbLine
10
43.120000000000
20
42.760000000000
30
0.0
11
43.920000000000
21
42.760000000000
31
0.0
0
LINE
5
530
100
AcDbEntity
8
F-F
6
CONTINUOUS
62
4
100
AcDbLine
10
43.120000000000
20
42.600000000000
30
0.0
11
43.920000000000
21
42.600000000000
31
0.0
0
LINE
5
531
100
AcDbEntity
8
F-F
6
CONTINUOUS
62
4
100
AcDbLine
10
43.120000000000
20
41.640000000000
30
0.0
11
43.920000000000
21
41.640000000000
31
0.0
0
LINE
5
532
100
AcDbEntity
8
F-F
6
CONTINUOUS
62
4
100
AcDbLine
10
43.120000000000
20
41.800000000000
30
0.0
11
43.920000000000
21
41.800000000000
31
0.0
0
LINE
5
533
100
AcDbEntity
8
F-F
6
CONTINUOUS
62
4
100
AcDbLine
10
43.120000000000
20
41.320000000000
30
0.0
11
43.920000000000
21
41.320000000000
31
0.0
0
LINE
5
534
100
AcDbEntity
8
F-F
6
CONTINUOUS
62
4
100
AcDbLine
10
43.120000000000
20
41.160000000000
30
0.0
11
43.920000000000
21
41.160000000000
31
0.0
0
LINE
5
535
100
AcDbEntity
8
F-F
6
CONTINUOUS
62
4
100
AcDbLine
10
43.120000000000
20
37.000000000000
30
0.0
11
43.920000000000
21
37.000000000000
31
0.0
0
LINE
5
536
100
AcDbEntity
8
F-F
6
CONTINUOUS
62
4
100
AcDbLine
10
43.120000000000
20
37.160000000000
30
0.0
11
43.920000000000
21
37.160000000000
31
0.0
0
LINE
5
537
100
AcDbEntity
8
F-F
6
CONTINUOUS
62
4
100
AcDbLine
10
42.760000000000
20
43.240000000000
30
0.0
11
43.920000000000
21
43.240000000000
31
0.0
0
LINE
5
538
100
AcDbEntity
8
F-F
6
CONTINUOUS
62
4
100
AcDbLine
10
42.600000000000
20
43.080000000000
30
0.0
11
43.920000000000
21
43.080000000000
31
0.0
0
LINE
5
539
100
AcDbEntity
8
F-F
6
CONTINUOUS
62
4
100
AcDbLine
10
38.600000000000
20
39.080000000000
30
0.0
11
39.160000000000
21
39.080000000000
31
0.0
0
LINE
5
53a
100
AcDbEntity
8
F-F
6
CONTINUOUS
62
4
100
AcDbLine
10
38.440000000000
20
38.920000000000
30
0.0
11
39.000000000000
21
38.920000000000
31
0.0
0
LINE
5
53b
100
AcDbEntity
8
F-F
6
CONTINUOUS
62
4
100
AcDbLine
10
38.280000000000
20
38.760000000000
30
0.0
11
38.840000000000
21
38.760000000000
31
0.0
0
LINE
5
53c
100
AcDbEntity
8
F-F
6
CONTINUOUS
62
4
100
AcDbLine
10
38.120000000000
20
38.600000000000
30
0.0
11
38.680000000000
21
38.600000000000
31
0.0
0
LINE
5
53d
100
AcDbEntity
8
F-F
6
CONTINUOUS
62
4
100
AcDbLine
10
39.240000000000
20
39.720000000000
30
0.0
11
39.800000000000
21
39.720000000000
31
0.0
0
LINE
5
53e
100
AcDbEntity
8
F-F
6
CONTINUOUS
62
4
100
AcDbLine
10
39.080000000000
20
39.560000000000
30
0.0
11
39.640000000000
21
39.560000000000
31
0.0
0
LINE
5
53f
100
AcDbEntity
8
F-F
6
CONTINUOUS
62
4
100
AcDbLine
10
38.920000000000
20
39.400000000000
30
0.0
11
39.480000000000
21
39.400000000000
31
0.0
0
LINE
5
540
100
AcDbEntity
8
F-F
6
CONTINUOUS
62
4
100
AcDbLine
10
38.760000000000
20
39.240000000000
30
0.0
11
39.320000000000
21
39.240000000000
31
0.0
0
LINE
5
541
100
AcDbEntity
8
F-F
6
CONTINUOUS
62
4
100
AcDbLine
10
39.880000000000
20
40.360000000000
30
0.0
11
40.440000000000
21
40.360000000000
31
0.0
0
LINE
5
542
100
AcDbEntity
8
F-F
6
CONTINUOUS
62
4
100
AcDbLine
10
39.720000000000
20
40.200000000000
30
0.0
11
40.280000000000
21
40.200000000000
31
0.0
0
LINE
5
543
100
AcDbEntity
8
F-F
6
CONTINUOUS
62
4
100
AcDbLine
10
39.560000000000
20
40.040000000000
30
0.0
11
40.120000000000
21
40.040000000000
31
0.0
0
LINE
5
544
100
AcDbEntity
8
F-F
6
CONTINUOUS
62
4
100
AcDbLine
10
39.400000000000
20
39.880000000000
30
0.0
11
39.960000000000
21
39.880000000000
31
0.0
0
LINE
5
545
100
AcDbEntity
8
F-F
6
CONTINUOUS
62
4
100
AcDbLine
10
40.520000000000
20
41.000000000000
30
0.0
11
41.080000000000
21
41.000000000000
31
0.0
0
LINE
5
546
100
AcDbEntity
8
F-F
6
CONTINUOUS
62
4
100
AcDbLine
10
40.360000000000
20
40.840000000000
30
0.0
11
40.920000000000
21
40.840000000000
31
0.0
0
LINE
5
547
100
AcDbEntity
8
F-F
6
CONTINUOUS
62
4
100
AcDbLine
10
40.200000000000
20
40.680000000000
30
0.0
11
40.760000000000
21
40.680000000000
31
0.0
0
LINE
5
548
100
AcDbEntity
8
F-F
6
CONTINUOUS
62
4
100
AcDbLine
10
40.040000000000
20
40.520000000000
30
0.0
11
40.600000000000
21
40.520000000000
31
0.0
0
LINE
5
549
100
AcDbEntity
8
F-F
6
CONTINUOUS
62
4
100
AcDbLine
10
41.160000000000
20
41.640000000000
30
0.0
11
41.720000000000
21
41.640000000000
31
0.0
0
LINE
5
54a
100
AcDbEntity
8
F-F
6
CONTINUOUS
62
4
100
AcDbLine
10
41.000000000000
20
41.480000000000
30
0.0
11
41.560000000000
21
41.480000000000
31
0.0
0
LINE
5
54b
100
AcDbEntity
8
F-F
6
CONTINUOUS
62
4
100
AcDbLine
10
40.840000000000
20
41.320000000000
30
0.0
11
41.400000000000
21
41.320000000000
31
0.0
0
LINE
5
54c
100
AcDbEntity
8
F-F
6
CONTINUOUS
62
4
100
AcDbLine
10
40.680000000000
20
41.160000000000
30
0.0
11
41.240000000000
21
41.160000000000
31
0.0
0
LINE
5
54d
100
AcDbEntity
8
F-F
6
CONTINUOUS
62
4
100
AcDbLine
10
41.800000000000
20
42.280000000000
30
0.0
11
42.360000000000
21
42.280000000000
31
0.0
0
LINE
5
54e
100
AcDbEntity
8
F-F
6
CONTINUOUS
62
4
100
AcDbLine
10
41.640000000000
20
42.120000000000
30
0.0
11
42.200000000000
21
42.120000000000
31
0.0
0
LINE
5
54f
100
AcDbEntity
8
F-F
6
CONTINUOUS
62
4
100
AcDbLine
10
41.480000000000
20
41.960000000000
30
0.0
11
42.040000000000
21
41.960000000000
31
0.0
0
LINE
5
550
100
AcDbEntity
8
F-F
6
CONTINUOUS
62
4
100
AcDbLine
10
41.320000000000
20
41.800000000000
30
0.0
11
41.880000000000
21
41.800000000000
31
0.0
0
LINE
5
551
100
AcDbEntity
8
F-F
6
CONTINUOUS
62
4
100
AcDbLine
10
42.440000000000
20
42.920000000000
30
0.0
11
43.000000000000
21
42.920000000000
31
0.0
0
LINE
5
552
100
AcDbEntity
8
F-F
6
CONTINUOUS
62
4
100
AcDbLine
10
42.280000000000
20
42.760000000000
30
0.0
11
42.840000000000
21
42.760000000000
31
0.0
0
LINE
5
553
100
AcDbEntity
8
F-F
6
CONTINUOUS
62
4
100
AcDbLine
10
42.120000000000
20
42.600000000000
30
0.0
11
42.680000000000
21
42.600000000000
31
0.0
0
LINE
5
554
100
AcDbEntity
8
F-F
6
CONTINUOUS
62
4
100
AcDbLine
10
41.960000000000
20
42.440000000000
30
0.0
11
42.520000000000
21
42.440000000000
31
0.0
0
LINE
5
555
100
AcDbEntity
8
F-F
6
CONTINUOUS
62
4
100
AcDbLine
10
43.120000000000
20
39.400000000000
30
0.0
11
43.920000000000
21
39.400000000000
31
0.0
0
LINE
5
556
100
AcDbEntity
8
0-0
6
CONTINUOUS
62
7
100
AcDbLine
10
271.320000000000
20
423.080000000000
30
0.0
11
272.220000000000
21
423.520000000000
31
0.0
0
LINE
5
557
100
AcDbEntity
8
0-0
6
CONTINUOUS
62
7
100
AcDbLine
10
268.680000000000
20
428.470000000000
30
0.0
11
271.320000000000
21
423.080000000000
31
0.0
0
LINE
5
558
100
AcDbEntity
8
0-0
6
CONTINUOUS
62
7
100
AcDbLine
10
269.580000000000
20
428.910000000000
30
0.0
11
272.220000000000
21
423.520000000000
31
0.0
0
LINE
5
559
100
AcDbEntity
8
0-0
6
CONTINUOUS
62
7
100
AcDbLine
10
262.870000000000
20
398.830000000000
30
0.0
11
255.160000000000
21
398.830000000000
31
0.0
0
LINE
5
55a
100
AcDbEntity
8
0-0
6
CONTINUOUS
62
7
100
AcDbLine
10
255.160000000000
20
397.830000000000
30
0.0
11
262.870000000000
21
397.830000000000
31
0.0
0
LINE
5
55b
100
AcDbEntity
8
0-0
6
CONTINUOUS
62
7
100
AcDbLine
10
274.650000000000
20
421.310000000000
30
0.0
11
274.660000000000
21
421.180000000000
31
0.0
0
LINE
5
55c
100
AcDbEntity
8
0-0
6
CONTINUOUS
62
7
100
AcDbLine
10
275.140000000000
20
421.380000000000
30
0.0
11
275.160000000000
21
421.180000000000
31
0.0
0
LINE
5
55d
100
AcDbEntity
8
0-0
6
CONTINUOUS
62
7
100
AcDbLine
10
267.460000000000
20
419.760000000000
30
0.0
11
267.460000000000
21
421.910000000000
31
0.0
0
LINE
5
55e
100
AcDbEntity
8
0-0
6
CONTINUOUS
62
7
100
AcDbLine
10
268.730000000000
20
421.440000000000
30
0.0
11
268.660000000000
21
420.950000000000
31
0.0
0
LINE
5
55f
100
AcDbEntity
8
0-0
6
CONTINUOUS
62
7
100
AcDbLine
10
274.080000000000
20
420.690000000000
30
0.0
11
268.730000000000
21
421.440000000000
31
0.0
0
LINE
5
560
100
AcDbEntity
8
0-0
6
CONTINUOUS
62
7
100
AcDbLine
10
274.010000000000
20
420.190000000000
30
0.0
11
268.660000000000
21
420.950000000000
31
0.0
0
LINE
5
561
100
AcDbEntity
8
0-0
6
CONTINUOUS
62
7
100
AcDbLine
10
273.980000000000
20
423.030000000000
30
0.0
11
273.990000000000
21
422.830000000000
31
0.0
0
LINE
5
562
100
AcDbEntity
8
0-0
6
CONTINUOUS
62
7
100
AcDbLine
10
273.480000000000
20
422.960000000000
30
0.0
11
273.490000000000
21
422.830000000000
31
0.0
0
LINE
5
563
100
AcDbEntity
8
0-0
6
CONTINUOUS
62
7
100
AcDbLine
10
268.710000000000
20
422.880000000000
30
0.0
11
272.880000000000
21
421.840000000000
31
0.0
0
LINE
5
564
100
AcDbEntity
8
0-0
6
CONTINUOUS
62
7
100
AcDbLine
10
268.830000000000
20
423.360000000000
30
0.0
11
272.960000000000
21
422.330000000000
31
0.0
0
LINE
5
565
100
AcDbEntity
8
0-0
6
CONTINUOUS
62
7
100
AcDbLine
10
266.790000000000
20
428.130000000000
30
0.0
11
264.860000000000
21
399.610000000000
31
0.0
0
LINE
5
566
100
AcDbEntity
8
0-0
6
CONTINUOUS
62
7
100
AcDbLine
10
265.790000000000
20
428.200000000000
30
0.0
11
263.860000000000
21
399.680000000000
31
0.0
0
LINE
5
567
100
AcDbEntity
8
0-0
6
CONTINUOUS
62
7
100
AcDbLine
10
239.010000000000
20
423.080000000000
30
0.0
11
238.110000000000
21
423.520000000000
31
0.0
0
LINE
5
568
100
AcDbEntity
8
0-0
6
CONTINUOUS
62
7
100
AcDbLine
10
241.650000000000
20
428.470000000000
30
0.0
11
239.010000000000
21
423.080000000000
31
0.0
0
LINE
5
569
100
AcDbEntity
8
0-0
6
CONTINUOUS
62
7
100
AcDbLine
10
240.750000000000
20
428.910000000000
30
0.0
11
238.110000000000
21
423.520000000000
31
0.0
0
LINE
5
56a
100
AcDbEntity
8
0-0
6
CONTINUOUS
62
7
100
AcDbLine
10
247.460000000000
20
398.830000000000
30
0.0
11
255.160000000000
21
398.830000000000
31
0.0
0
LINE
5
56b
100
AcDbEntity
8
0-0
6
CONTINUOUS
62
7
100
AcDbLine
10
255.160000000000
20
397.830000000000
30
0.0
11
247.460000000000
21
397.830000000000
31
0.0
0
LINE
5
56c
100
AcDbEntity
8
0-0
6
CONTINUOUS
62
7
100
AcDbLine
10
242.860000000000
20
419.760000000000
30
0.0
11
242.860000000000
21
421.910000000000
31
0.0
0
LINE
5
56d
100
AcDbEntity
8
0-0
6
CONTINUOUS
62
7
100
AcDbLine
10
241.620000000000
20
422.880000000000
30
0.0
11
237.450000000000
21
421.840000000000
31
0.0
0
LINE
5
56e
100
AcDbEntity
8
0-0
6
CONTINUOUS
62
7
100
AcDbLine
10
241.500000000000
20
423.360000000000
30
0.0
11
237.370000000000
21
422.330000000000
31
0.0
0
LINE
5
56f
100
AcDbEntity
8
0-0
6
CONTINUOUS
62
7
100
AcDbLine
10
243.540000000000
20
428.130000000000
30
0.0
11
245.470000000000
21
399.610000000000
31
0.0
0
LINE
5
570
100
AcDbEntity
8
0-0
6
CONTINUOUS
62
7
100
AcDbLine
10
244.540000000000
20
428.200000000000
30
0.0
11
246.470000000000
21
399.680000000000
31
0.0
0
LINE
5
571
100
AcDbEntity
8
0-0
6
CONTINUOUS
62
7
100
AcDbLine
10
243.360000000000
20
421.910000000000
30
0.0
11
243.360000000000
21
419.760000000000
31
0.0
0
LINE
5
572
100
AcDbEntity
8
0-0
6
CONTINUOUS
62
7
100
AcDbLine
10
249.980000000000
20
437.790000000000
30
0.0
11
247.360000000000
21
429.440000000000
31
0.0
0
LINE
5
573
100
AcDbEntity
8
0-0
6
CONTINUOUS
62
7
100
AcDbLine
10
250.460000000000
20
437.640000000000
30
0.0
11
247.830000000000
21
429.290000000000
31
0.0
0
LINE
5
574
100
AcDbEntity
8
0-0
6
CONTINUOUS
62
7
100
AcDbLine
10
266.960000000000
20
421.910000000000
30
0.0
11
266.960000000000
21
419.760000000000
31
0.0
0
LINE
5
575
100
AcDbEntity
8
0-0
6
CONTINUOUS
62
7
100
AcDbLine
10
247.830000000000
20
429.290000000000
30
0.0
11
247.360000000000
21
429.440000000000
31
0.0
0
LINE
5
576
100
AcDbEntity
8
0-0
6
CONTINUOUS
62
7
100
AcDbLine
10
272.570000000000
20
416.020000000000
30
0.0
11
267.790000000000
21
418.420000000000
31
0.0
0
LINE
5
577
100
AcDbEntity
8
0-0
6
CONTINUOUS
62
7
100
AcDbLine
10
268.020000000000
20
418.860000000000
30
0.0
11
272.800000000000
21
416.470000000000
31
0.0
0
LINE
5
578
100
AcDbEntity
8
0-0
6
CONTINUOUS
62
7
100
AcDbLine
10
237.750000000000
20
416.020000000000
30
0.0
11
242.530000000000
21
418.420000000000
31
0.0
0
LINE
5
579
100
AcDbEntity
8
0-0
6
CONTINUOUS
62
7
100
AcDbLine
10
242.310000000000
20
418.860000000000
30
0.0
11
237.530000000000
21
416.470000000000
31
0.0
0
LINE
5
57a
100
AcDbEntity
8
0-0
6
CONTINUOUS
62
7
100
AcDbLine
10
232.400000000000
20
400.690000000000
30
0.0
11
236.760000000000
21
415.550000000000
31
0.0
0
LINE
5
57b
100
AcDbEntity
8
0-0
6
CONTINUOUS
62
7
100
AcDbLine
10
273.090000000000
20
415.410000000000
30
0.0
11
276.970000000000
21
400.550000000000
31
0.0
0
LINE
5
57c
100
AcDbEntity
8
0-0
6
CONTINUOUS
62
7
100
AcDbLine
10
277.450000000000
20
400.690000000000
30
0.0
11
273.570000000000
21
415.550000000000
31
0.0
0
LINE
5
57d
100
AcDbEntity
8
0-0
6
CONTINUOUS
62
7
100
AcDbLine
10
336.540000000000
20
399.830000000000
30
0.0
11
277.930000000000
21
399.830000000000
31
0.0
0
LINE
5
57e
100
AcDbEntity
8
0-0
6
CONTINUOUS
62
7
100
AcDbLine
10
337.660000000000
20
399.120000000000
30
0.0
11
337.250000000000
21
399.540000000000
31
0.0
0
LINE
5
57f
100
AcDbEntity
8
0-0
6
CONTINUOUS
62
7
100
AcDbLine
10
338.370000000000
20
399.330000000000
30
0.0
11
353.160000000000
21
399.330000000000
31
0.0
0
LINE
5
580
100
AcDbEntity
8
0-0
6
CONTINUOUS
62
7
100
AcDbLine
10
338.370000000000
20
398.830000000000
30
0.0
11
353.160000000000
21
398.830000000000
31
0.0
0
LINE
5
581
100
AcDbEntity
8
0-0
6
CONTINUOUS
62
7
100
AcDbLine
10
336.540000000000
20
400.330000000000
30
0.0
11
277.930000000000
21
400.330000000000
31
0.0
0
LINE
5
582
100
AcDbEntity
8
0-0
6
CONTINUOUS
62
7
100
AcDbLine
10
338.020000000000
20
399.480000000000
30
0.0
11
337.600000000000
21
399.890000000000
31
0.0
0
LINE
5
583
100
AcDbEntity
8
0-0
6
CONTINUOUS
62
7
100
AcDbLine
10
237.240000000000
20
415.410000000000
30
0.0
11
232.880000000000
21
400.550000000000
31
0.0
0
LINE
5
584
100
AcDbEntity
8
0-0
6
CONTINUOUS
62
7
100
AcDbLine
10
172.160000000000
20
399.120000000000
30
0.0
11
172.580000000000
21
399.540000000000
31
0.0
0
LINE
5
585
100
AcDbEntity
8
0-0
6
CONTINUOUS
62
7
100
AcDbLine
10
171.460000000000
20
399.330000000000
30
0.0
11
156.660000000000
21
399.330000000000
31
0.0
0
LINE
5
586
100
AcDbEntity
8
0-0
6
CONTINUOUS
62
7
100
AcDbLine
10
171.460000000000
20
398.830000000000
30
0.0
11
156.660000000000
21
398.830000000000
31
0.0
0
LINE
5
587
100
AcDbEntity
8
0-0
6
CONTINUOUS
62
7
100
AcDbLine
10
171.810000000000
20
399.480000000000
30
0.0
11
172.220000000000
21
399.890000000000
31
0.0
0
LINE
5
588
100
AcDbEntity
8
0-0
6
CONTINUOUS
62
7
100
AcDbLine
10
231.920000000000
20
400.330000000000
30
0.0
11
173.290000000000
21
400.330000000000
31
0.0
0
LINE
5
589
100
AcDbEntity
8
0-0
6
CONTINUOUS
62
7
100
AcDbLine
10
231.920000000000
20
399.830000000000
30
0.0
11
173.290000000000
21
399.830000000000
31
0.0
0
LINE
5
58a
100
AcDbEntity
8
0-0
6
CONTINUOUS
62
7
100
AcDbLine
10
368.660000000000
20
399.120000000000
30
0.0
11
369.080000000000
21
399.540000000000
31
0.0
0
LINE
5
58b
100
AcDbEntity
8
0-0
6
CONTINUOUS
62
7
100
AcDbLine
10
367.960000000000
20
399.330000000000
30
0.0
11
353.160000000000
21
399.330000000000
31
0.0
0
LINE
5
58c
100
AcDbEntity
8
0-0
6
CONTINUOUS
62
7
100
AcDbLine
10
367.960000000000
20
398.830000000000
30
0.0
11
353.160000000000
21
398.830000000000
31
0.0
0
LINE
5
58d
100
AcDbEntity
8
0-0
6
CONTINUOUS
62
7
100
AcDbLine
10
368.310000000000
20
399.480000000000
30
0.0
11
368.720000000000
21
399.890000000000
31
0.0
0
LINE
5
58e
100
AcDbEntity
8
0-0
6
CONTINUOUS
62
7
100
AcDbLine
10
369.790000000000
20
400.330000000000
30
0.0
11
421.660000000000
21
400.330000000000
31
0.0
0
LINE
5
58f
100
AcDbEntity
8
0-0
6
CONTINUOUS
62
7
100
AcDbLine
10
369.790000000000
20
399.830000000000
30
0.0
11
421.660000000000
21
399.830000000000
31
0.0
0
LINE
5
590
100
AcDbEntity
8
0-0
6
CONTINUOUS
62
7
100
AcDbLine
10
141.160000000000
20
399.120000000000
30
0.0
11
140.750000000000
21
399.540000000000
31
0.0
0
LINE
5
591
100
AcDbEntity
8
0-0
6
CONTINUOUS
62
7
100
AcDbLine
10
141.870000000000
20
399.330000000000
30
0.0
11
156.660000000000
21
399.330000000000
31
0.0
0
LINE
5
592
100
AcDbEntity
8
0-0
6
CONTINUOUS
62
7
100
AcDbLine
10
141.870000000000
20
398.830000000000
30
0.0
11
156.660000000000
21
398.830000000000
31
0.0
0
LINE
5
593
100
AcDbEntity
8
0-0
6
CONTINUOUS
62
7
100
AcDbLine
10
141.520000000000
20
399.480000000000
30
0.0
11
141.100000000000
21
399.890000000000
31
0.0
0
LINE
5
594
100
AcDbEntity
8
0-0
6
CONTINUOUS
62
4
100
AcDbLine
10
252.480000000000
20
439.460000000000
30
0.0
11
252.750000000000
21
439.190000000000
31
0.0
0
LINE
5
595
100
AcDbEntity
8
0-0
6
CONTINUOUS
62
4
100
AcDbLine
10
249.620000000000
20
438.780000000000
30
0.0
11
250.220000000000
21
438.180000000000
31
0.0
0
LINE
5
596
100
AcDbEntity
8
0-0
6
CONTINUOUS
62
4
100
AcDbLine
10
250.760000000000
20
438.460000000000
30
0.0
11
251.880000000000
21
439.580000000000
31
0.0
0
LINE
5
597
100
AcDbEntity
8
0-0
6
CONTINUOUS
62
4
100
AcDbLine
10
250.130000000000
20
438.980000000000
30
0.0
11
250.670000000000
21
438.440000000000
31
0.0
0
LINE
5
598
100
AcDbEntity
8
0-0
6
CONTINUOUS
62
4
100
AcDbLine
10
250.640000000000
20
439.180000000000
30
0.0
11
251.380000000000
21
438.440000000000
31
0.0
0
LINE
5
599
100
AcDbEntity
8
0-0
6
CONTINUOUS
62
4
100
AcDbLine
10
251.430000000000
20
438.420000000000
30
0.0
11
252.470000000000
21
439.470000000000
31
0.0
0
LINE
5
59a
100
AcDbEntity
8
0-0
6
CONTINUOUS
62
4
100
AcDbLine
10
251.850000000000
20
438.140000000000
30
0.0
11
252.800000000000
21
439.090000000000
31
0.0
0
LINE
5
59b
100
AcDbEntity
8
0-0
6
CONTINUOUS
62
4
100
AcDbLine
10
252.120000000000
20
437.710000000000
30
0.0
11
253.020000000000
21
438.600000000000
31
0.0
0
LINE
5
59c
100
AcDbEntity
8
0-0
6
CONTINUOUS
62
4
100
AcDbLine
10
252.450000000000
20
437.330000000000
30
0.0
11
253.310000000000
21
438.190000000000
31
0.0
0
LINE
5
59d
100
AcDbEntity
8
0-0
6
CONTINUOUS
62
4
100
AcDbLine
10
252.830000000000
20
437.000000000000
30
0.0
11
253.680000000000
21
437.850000000000
31
0.0
0
LINE
5
59e
100
AcDbEntity
8
0-0
6
CONTINUOUS
62
4
100
AcDbLine
10
253.270000000000
20
436.730000000000
30
0.0
11
254.130000000000
21
437.590000000000
31
0.0
0
LINE
5
59f
100
AcDbEntity
8
0-0
6
CONTINUOUS
62
4
100
AcDbLine
10
253.760000000000
20
436.520000000000
30
0.0
11
254.660000000000
21
437.410000000000
31
0.0
0
LINE
5
5a0
100
AcDbEntity
8
0-0
6
CONTINUOUS
62
4
100
AcDbLine
10
254.330000000000
20
436.370000000000
30
0.0
11
255.320000000000
21
437.360000000000
31
0.0
0
LINE
5
5a1
100
AcDbEntity
8
0-0
6
CONTINUOUS
62
4
100
AcDbLine
10
251.170000000000
20
439.360000000000
30
0.0
11
254.110000000000
21
436.420000000000
31
0.0
0
LINE
5
5a2
100
AcDbEntity
8
0-0
6
CONTINUOUS
62
4
100
AcDbLine
10
251.700000000000
20
439.530000000000
30
0.0
11
254.900000000000
21
436.330000000000
31
0.0
0
LINE
5
5a3
100
AcDbEntity
8
0-0
6
CONTINUOUS
62
4
100
AcDbLine
10
254.990000000000
20
436.330000000000
30
0.0
11
256.290000000000
21
437.630000000000
31
0.0
0
LINE
5
5a4
100
AcDbEntity
8
0-0
6
CONTINUOUS
62
4
100
AcDbLine
10
254.490000000000
20
437.450000000000
30
0.0
11
255.610000000000
21
436.330000000000
31
0.0
0
LINE
5
5a5
100
AcDbEntity
8
0-0
6
CONTINUOUS
62
4
100
AcDbLine
10
255.290000000000
20
437.360000000000
30
0.0
11
256.230000000000
21
436.420000000000
31
0.0
0
LINE
5
5a6
100
AcDbEntity
8
0-0
6
CONTINUOUS
62
4
100
AcDbLine
10
255.890000000000
20
437.470000000000
30
0.0
11
256.760000000000
21
436.590000000000
31
0.0
0
LINE
5
5a7
100
AcDbEntity
8
0-0
6
CONTINUOUS
62
4
100
AcDbLine
10
256.380000000000
20
437.680000000000
30
0.0
11
257.230000000000
21
436.830000000000
31
0.0
0
LINE
5
5a8
100
AcDbEntity
8
0-0
6
CONTINUOUS
62
4
100
AcDbLine
10
256.800000000000
20
437.970000000000
30
0.0
11
257.650000000000
21
437.120000000000
31
0.0
0
LINE
5
5a9
100
AcDbEntity
8
0-0
6
CONTINUOUS
62
4
100
AcDbLine
10
257.140000000000
20
438.340000000000
30
0.0
11
258.010000000000
21
437.470000000000
31
0.0
0
LINE
5
5aa
100
AcDbEntity
8
0-0
6
CONTINUOUS
62
4
100
AcDbLine
10
257.400000000000
20
438.780000000000
30
0.0
11
258.320000000000
21
437.860000000000
31
0.0
0
LINE
5
5ab
100
AcDbEntity
8
0-0
6
CONTINUOUS
62
4
100
AcDbLine
10
256.600000000000
20
436.530000000000
30
0.0
11
259.440000000000
21
439.360000000000
31
0.0
0
LINE
5
5ac
100
AcDbEntity
8
0-0
6
CONTINUOUS
62
4
100
AcDbLine
10
255.700000000000
20
436.340000000000
30
0.0
11
258.850000000000
21
439.480000000000
31
0.0
0
LINE
5
5ad
100
AcDbEntity
8
0-0
6
CONTINUOUS
62
4
100
AcDbLine
10
261.720000000000
20
438.700000000000
30
0.0
11
262.370000000000
21
438.050000000000
31
0.0
0
LINE
5
5ae
100
AcDbEntity
8
0-0
6
CONTINUOUS
62
4
100
AcDbLine
10
257.370000000000
20
438.710000000000
30
0.0
11
258.250000000000
21
439.590000000000
31
0.0
0
LINE
5
5af
100
AcDbEntity
8
0-0
6
CONTINUOUS
62
4
100
AcDbLine
10
257.630000000000
20
439.260000000000
30
0.0
11
258.570000000000
21
438.320000000000
31
0.0
0
LINE
5
5b0
100
AcDbEntity
8
0-0
6
CONTINUOUS
62
4
100
AcDbLine
10
262.130000000000
20
437.820000000000
30
0.0
11
262.660000000000
21
438.340000000000
31
0.0
0
LINE
5
5b1
100
AcDbEntity
8
0-0
6
CONTINUOUS
62
4
100
AcDbLine
10
261.620000000000
20
438.010000000000
30
0.0
11
262.150000000000
21
438.540000000000
31
0.0
0
LINE
5
5b2
100
AcDbEntity
8
0-0
6
CONTINUOUS
62
4
100
AcDbLine
10
261.100000000000
20
438.200000000000
30
0.0
11
261.630000000000
21
438.730000000000
31
0.0
0
LINE
5
5b3
100
AcDbEntity
8
0-0
6
CONTINUOUS
62
4
100
AcDbLine
10
260.560000000000
20
438.370000000000
30
0.0
11
261.110000000000
21
438.910000000000
31
0.0
0
LINE
5
5b4
100
AcDbEntity
8
0-0
6
CONTINUOUS
62
4
100
AcDbLine
10
260.010000000000
20
438.520000000000
30
0.0
11
260.560000000000
21
439.070000000000
31
0.0
0
LINE
5
5b5
100
AcDbEntity
8
0-0
6
CONTINUOUS
62
4
100
AcDbLine
10
259.450000000000
20
438.660000000000
30
0.0
11
260.010000000000
21
439.230000000000
31
0.0
0
LINE
5
5b6
100
AcDbEntity
8
0-0
6
CONTINUOUS
62
4
100
AcDbLine
10
258.810000000000
20
439.490000000000
30
0.0
11
259.700000000000
21
438.600000000000
31
0.0
0
LINE
5
5b7
100
AcDbEntity
8
0-0
6
CONTINUOUS
62
4
100
AcDbLine
10
258.040000000000
20
439.550000000000
30
0.0
11
259.020000000000
21
438.570000000000
31
0.0
0
LINE
5
5b8
100
AcDbEntity
8
0-0
6
CONTINUOUS
62
4
100
AcDbLine
10
259.710000000000
20
439.300000000000
30
0.0
11
260.680000000000
21
438.330000000000
31
0.0
0
LINE
5
5b9
100
AcDbEntity
8
0-0
6
CONTINUOUS
62
4
100
AcDbLine
10
260.680000000000
20
439.040000000000
30
0.0
11
261.750000000000
21
437.960000000000
31
0.0
0
LINE
5
5ba
100
AcDbEntity
8
0-0
6
CONTINUOUS
62
4
100
AcDbLine
10
249.220000000000
20
435.360000000000
30
0.0
11
248.260000000000
21
435.660000000000
31
0.0
0
LINE
5
5bb
100
AcDbEntity
8
0-0
6
CONTINUOUS
62
4
100
AcDbLine
10
248.730000000000
20
437.140000000000
30
0.0
11
250.830000000000
21
439.250000000000
31
0.0
0
LINE
5
5bc
100
AcDbEntity
8
0-0
6
CONTINUOUS
62
4
100
AcDbLine
10
249.280000000000
20
435.570000000000
30
0.0
11
249.100000000000
21
435.390000000000
31
0.0
0
LINE
5
5bd
100
AcDbEntity
8
0-0
6
CONTINUOUS
62
4
100
AcDbLine
10
249.610000000000
20
436.600000000000
30
0.0
11
248.570000000000
21
435.560000000000
31
0.0
0
LINE
5
5be
100
AcDbEntity
8
0-0
6
CONTINUOUS
62
4
100
AcDbLine
10
249.930000000000
20
437.630000000000
30
0.0
11
248.400000000000
21
436.110000000000
31
0.0
0
LINE
5
5bf
100
AcDbEntity
8
0-0
6
CONTINUOUS
62
4
100
AcDbLine
10
248.490000000000
20
436.380000000000
30
0.0
11
249.290000000000
21
435.580000000000
31
0.0
0
LINE
5
5c0
100
AcDbEntity
8
0-0
6
CONTINUOUS
62
4
100
AcDbLine
10
248.660000000000
20
436.920000000000
30
0.0
11
249.450000000000
21
436.120000000000
31
0.0
0
LINE
5
5c1
100
AcDbEntity
8
0-0
6
CONTINUOUS
62
4
100
AcDbLine
10
248.830000000000
20
437.460000000000
30
0.0
11
249.620000000000
21
436.660000000000
31
0.0
0
LINE
5
5c2
100
AcDbEntity
8
0-0
6
CONTINUOUS
62
4
100
AcDbLine
10
249.000000000000
20
437.990000000000
30
0.0
11
249.790000000000
21
437.200000000000
31
0.0
0
LINE
5
5c3
100
AcDbEntity
8
0-0
6
CONTINUOUS
62
4
100
AcDbLine
10
249.050000000000
20
438.170000000000
30
0.0
11
249.690000000000
21
438.810000000000
31
0.0
0
LINE
5
5c4
100
AcDbEntity
8
0-0
6
CONTINUOUS
62
4
100
AcDbLine
10
249.160000000000
20
438.530000000000
30
0.0
11
249.960000000000
21
437.730000000000
31
0.0
0
LINE
5
5c5
100
AcDbEntity
8
0-0
6
CONTINUOUS
62
4
100
AcDbLine
10
249.180000000000
20
438.590000000000
30
0.0
11
248.260000000000
21
435.660000000000
31
0.0
0
LINE
5
5c6
100
AcDbEntity
8
0-0
6
CONTINUOUS
62
7
100
AcDbLine
10
257.870000000000
20
360.990000000000
30
0.0
11
258.940000000000
21
356.990000000000
31
0.0
0
LINE
5
5c7
100
AcDbEntity
8
0-0
6
CONTINUOUS
62
7
100
AcDbLine
10
257.870000000000
20
360.990000000000
30
0.0
11
260.790000000000
21
358.060000000000
31
0.0
0
LINE
5
5c8
100
AcDbEntity
8
0-0
6
CONTINUOUS
62
7
100
AcDbLine
10
257.870000000000
20
360.990000000000
30
0.0
11
273.910000000000
21
333.200000000000
31
0.0
0
LINE
5
5c9
100
AcDbEntity
8
0-0
6
CONTINUOUS
62
7
100
AcDbLine
10
251.920000000000
20
382.420000000000
30
0.0
11
258.410000000000
21
383.500000000000
31
0.0
0
LINE
5
5ca
100
AcDbEntity
8
0-0
6
CONTINUOUS
62
7
100
AcDbLine
10
251.920000000000
20
384.590000000000
30
0.0
11
258.410000000000
21
385.670000000000
31
0.0
0
LINE
5
5cb
100
AcDbEntity
8
0-0
6
CONTINUOUS
62
7
100
AcDbLine
10
251.920000000000
20
388.910000000000
30
0.0
11
258.410000000000
21
389.990000000000
31
0.0
0
LINE
5
5cc
100
AcDbEntity
8
0-0
6
CONTINUOUS
62
7
100
AcDbLine
10
251.920000000000
20
386.750000000000
30
0.0
11
258.410000000000
21
387.830000000000
31
0.0
0
LINE
5
5cd
100
AcDbEntity
8
0-0
6
CONTINUOUS
62
7
100
AcDbLine
10
251.920000000000
20
391.070000000000
30
0.0
11
258.410000000000
21
392.150000000000
31
0.0
0
LINE
5
5ce
100
AcDbEntity
8
0-0
6
CONTINUOUS
62
7
100
AcDbLine
10
251.920000000000
20
393.230000000000
30
0.0
11
258.410000000000
21
394.310000000000
31
0.0
0
LINE
5
5cf
100
AcDbEntity
8
0-0
6
CONTINUOUS
62
7
100
AcDbLine
10
251.920000000000
20
395.400000000000
30
0.0
11
258.410000000000
21
396.480000000000
31
0.0
0
LINE
5
5d0
100
AcDbEntity
8
0-0
6
CONTINUOUS
62
7
100
AcDbLine
10
257.870000000000
20
356.490000000000
30
0.0
11
255.160000000000
21
354.330000000000
31
0.0
0
LINE
5
5d1
100
AcDbEntity
8
0-0
6
CONTINUOUS
62
7
100
AcDbLine
10
252.460000000000
20
356.490000000000
30
0.0
11
255.160000000000
21
354.330000000000
31
0.0
0
LINE
5
5d2
100
AcDbEntity
8
0-0
6
CONTINUOUS
62
7
100
AcDbLine
10
251.920000000000
20
378.100000000000
30
0.0
11
258.410000000000
21
379.180000000000
31
0.0
0
LINE
5
5d3
100
AcDbEntity
8
0-0
6
CONTINUOUS
62
7
100
AcDbLine
10
251.920000000000
20
380.260000000000
30
0.0
11
258.410000000000
21
381.340000000000
31
0.0
0
LINE
5
5d4
100
AcDbEntity
8
0-0
6
CONTINUOUS
62
7
100
AcDbLine
10
251.920000000000
20
373.780000000000
30
0.0
11
258.410000000000
21
374.860000000000
31
0.0
0
LINE
5
5d5
100
AcDbEntity
8
0-0
6
CONTINUOUS
62
7
100
AcDbLine
10
251.920000000000
20
375.940000000000
30
0.0
11
258.410000000000
21
377.020000000000
31
0.0
0
LINE
5
5d6
100
AcDbEntity
8
0-0
6
CONTINUOUS
62
7
100
AcDbLine
10
251.920000000000
20
369.450000000000
30
0.0
11
258.410000000000
21
370.530000000000
31
0.0
0
LINE
5
5d7
100
AcDbEntity
8
0-0
6
CONTINUOUS
62
7
100
AcDbLine
10
251.920000000000
20
371.610000000000
30
0.0
11
258.410000000000
21
372.700000000000
31
0.0
0
LINE
5
5d8
100
AcDbEntity
8
0-0
6
CONTINUOUS
62
7
100
AcDbLine
10
257.870000000000
20
403.310000000000
30
0.0
11
257.870000000000
21
400.410000000000
31
0.0
0
LINE
5
5d9
100
AcDbEntity
8
0-0
6
CONTINUOUS
62
7
100
AcDbLine
10
252.460000000000
20
400.410000000000
30
0.0
11
252.460000000000
21
403.310000000000
31
0.0
0
LINE
5
5da
100
AcDbEntity
8
0-0
6
CONTINUOUS
62
7
100
AcDbLine
10
251.920000000000
20
365.130000000000
30
0.0
11
258.410000000000
21
366.210000000000
31
0.0
0
LINE
5
5db
100
AcDbEntity
8
0-0
6
CONTINUOUS
62
7
100
AcDbLine
10
251.920000000000
20
367.290000000000
30
0.0
11
258.410000000000
21
368.370000000000
31
0.0
0
LINE
5
5dc
100
AcDbEntity
8
0-0
6
CONTINUOUS
62
7
100
AcDbLine
10
252.460000000000
20
356.490000000000
30
0.0
11
252.460000000000
21
398.730000000000
31
0.0
0
LINE
5
5dd
100
AcDbEntity
8
0-0
6
CONTINUOUS
62
7
100
AcDbLine
10
257.870000000000
20
356.490000000000
30
0.0
11
257.870000000000
21
398.730000000000
31
0.0
0
POLYLINE
5
5de
100
AcDbEntity
8
0-0
6
CONTINUOUS
62
  7
100
AcDb2dPolyline
66
1
10
0.0
20
0.0
30
0.0
70
0
0
VERTEX
5
5df
100
AcDbEntity
8
0-0
6
CONTINUOUS
62
  7
100
AcDbVertex
100
AcDb2dVertex
10
250.170000000000
20
400.410000000000
30
0.0
0
VERTEX
5
5e0
100
AcDbEntity
8
0-0
6
CONTINUOUS
62
  7
100
AcDbVertex
100
AcDb2dVertex
10
260.160000000000
20
400.410000000000
30
0.0
0
VERTEX
5
5e1
100
AcDbEntity
8
0-0
6
CONTINUOUS
62
  7
100
AcDbVertex
100
AcDb2dVertex
10
260.160000000000
20
403.310000000000
30
0.0
0
VERTEX
5
5e2
100
AcDbEntity
8
0-0
6
CONTINUOUS
62
  7
100
AcDbVertex
100
AcDb2dVertex
10
257.870000000000
20
403.310000000000
30
0.0
0
VERTEX
5
5e3
100
AcDbEntity
8
0-0
6
CONTINUOUS
62
  7
100
AcDbVertex
100
AcDb2dVertex
10
252.460000000000
20
403.310000000000
30
0.0
0
VERTEX
5
5e4
100
AcDbEntity
8
0-0
6
CONTINUOUS
62
  7
100
AcDbVertex
100
AcDb2dVertex
10
250.170000000000
20
403.310000000000
30
0.0
0
VERTEX
5
5e5
100
AcDbEntity
8
0-0
6
CONTINUOUS
62
  7
100
AcDbVertex
100
AcDb2dVertex
10
250.170000000000
20
400.410000000000
30
0.0
0
SEQEND
5
5e6
100
AcDbEntity
8
0-0
0
POLYLINE
5
5e7
100
AcDbEntity
8
0-0
6
CONTINUOUS
62
  7
100
AcDb2dPolyline
66
1
10
0.0
20
0.0
30
0.0
70
0
0
VERTEX
5
5e8
100
AcDbEntity
8
0-0
6
CONTINUOUS
62
  7
100
AcDbVertex
100
AcDb2dVertex
10
248.680000000000
20
399.330000000000
30
0.0
0
VERTEX
5
5e9
100
AcDbEntity
8
0-0
6
CONTINUOUS
62
  7
100
AcDbVertex
100
AcDb2dVertex
10
261.650000000000
20
399.330000000000
30
0.0
0
VERTEX
5
5ea
100
AcDbEntity
8
0-0
6
CONTINUOUS
62
  7
100
AcDbVertex
100
AcDb2dVertex
10
261.650000000000
20
400.410000000000
30
0.0
0
VERTEX
5
5eb
100
AcDbEntity
8
0-0
6
CONTINUOUS
62
  7
100
AcDbVertex
100
AcDb2dVertex
10
248.680000000000
20
400.410000000000
30
0.0
0
VERTEX
5
5ec
100
AcDbEntity
8
0-0
6
CONTINUOUS
62
  7
100
AcDbVertex
100
AcDb2dVertex
10
248.680000000000
20
399.330000000000
30
0.0
0
SEQEND
5
5ed
100
AcDbEntity
8
0-0
0
POLYLINE
5
5ee
100
AcDbEntity
8
0-0
6
CONTINUOUS
62
  7
100
AcDb2dPolyline
66
1
10
0.0
20
0.0
30
0.0
70
0
0
VERTEX
5
5ef
100
AcDbEntity
8
0-0
6
CONTINUOUS
62
  7
100
AcDbVertex
100
AcDb2dVertex
10
256.250000000000
20
355.410000000000
30
0.0
0
VERTEX
5
5f0
100
AcDbEntity
8
0-0
6
CONTINUOUS
62
  7
100
AcDbVertex
100
AcDb2dVertex
10
255.160000000000
20
356.490000000000
30
0.0
0
VERTEX
5
5f1
100
AcDbEntity
8
0-0
6
CONTINUOUS
62
  7
100
AcDbVertex
100
AcDb2dVertex
10
255.890000000000
20
357.970000000000
30
0.0
0
VERTEX
5
5f2
100
AcDbEntity
8
0-0
6
CONTINUOUS
62
  7
100
AcDbVertex
100
AcDb2dVertex
10
254.240000000000
20
358.910000000000
30
0.0
0
VERTEX
5
5f3
100
AcDbEntity
8
0-0
6
CONTINUOUS
62
  7
100
AcDbVertex
100
AcDb2dVertex
10
252.460000000000
20
356.490000000000
30
0.0
0
SEQEND
5
5f4
100
AcDbEntity
8
0-0
0
LINE
5
5f5
100
AcDbEntity
8
0-0
6
CONTINUOUS
62
7
100
AcDbLine
10
309.520000000000
20
399.330000000000
30
0.0
11
330.610000000000
21
435.860000000000
31
0.0
0
POLYLINE
5
5f6
100
AcDbEntity
8
0-0
6
CONTINUOUS
62
  4
100
AcDb2dPolyline
66
1
10
0.0
20
0.0
30
0.0
70
0
0
VERTEX
5
5f7
100
AcDbEntity
8
0-0
6
CONTINUOUS
62
  4
100
AcDbVertex
100
AcDb2dVertex
10
255.160000000000
20
513.830000000000
30
0.0
0
VERTEX
5
5f8
100
AcDbEntity
8
0-0
6
CONTINUOUS
62
  4
100
AcDbVertex
100
AcDb2dVertex
10
588.160000000000
20
513.830000000000
30
0.0
0
VERTEX
5
5f9
100
AcDbEntity
8
0-0
6
CONTINUOUS
62
  4
100
AcDbVertex
100
AcDb2dVertex
10
785.890000000000
20
513.830000000000
30
0.0
0
SEQEND
5
5fa
100
AcDbEntity
8
0-0
0
LINE
5
5fb
100
AcDbEntity
8
0-0
6
CONTINUOUS
62
4
100
AcDbLine
10
57.440000000000
20
513.830000000000
30
0.0
11
255.160000000000
21
513.830000000000
31
0.0
0
LINE
5
5fc
100
AcDbEntity
8
0-0
6
CONTINUOUS
62
4
100
AcDbLine
10
229.890000000000
20
440.430000000000
30
0.0
11
218.240000000000
21
440.430000000000
31
0.0
0
LINE
5
5fd
100
AcDbEntity
8
0-0
6
CONTINUOUS
62
4
100
AcDbLine
10
235.160000000000
20
454.780000000000
30
0.0
11
235.160000000000
21
445.400000000000
31
0.0
0
POLYLINE
5
5fe
100
AcDbEntity
8
0-0
6
CONTINUOUS
62
  4
100
AcDb2dPolyline
66
1
10
0.0
20
0.0
30
0.0
70
0
0
VERTEX
5
5ff
100
AcDbEntity
8
0-0
6
CONTINUOUS
62
  4
100
AcDbVertex
100
AcDb2dVertex
10
235.160000000000
20
454.780000000000
30
0.0
0
VERTEX
5
600
100
AcDbEntity
8
0-0
6
CONTINUOUS
62
  4
100
AcDbVertex
100
AcDb2dVertex
10
275.160000000000
20
454.780000000000
30
0.0
0
VERTEX
5
601
100
AcDbEntity
8
0-0
6
CONTINUOUS
62
  4
100
AcDbVertex
100
AcDb2dVertex
10
275.160000000000
20
445.400000000000
30
0.0
0
SEQEND
5
602
100
AcDbEntity
8
0-0
0
LINE
5
603
100
AcDbEntity
8
0-0
6
DASHED
62
7
100
AcDbLine
10
421.660000000000
20
397.830000000000
30
0.0
11
57.440000000000
21
397.830000000000
31
0.0
0
LINE
5
604
100
AcDbEntity
8
0-0
6
CONTINUOUS
62
7
100
AcDbLine
10
240.750000000000
20
428.910000000000
30
0.0
11
239.670000000000
21
432.910000000000
31
0.0
0
LINE
5
605
100
AcDbEntity
8
0-0
6
CONTINUOUS
62
7
100
AcDbLine
10
240.750000000000
20
428.910000000000
30
0.0
11
237.820000000000
21
431.840000000000
31
0.0
0
LINE
5
606
100
AcDbEntity
8
0-0
6
CONTINUOUS
62
7
100
AcDbLine
10
240.750000000000
20
428.910000000000
30
0.0
11
228.130000000000
21
450.760000000000
31
0.0
0
LINE
5
607
100
AcDbEntity
8
0-0
6
CONTINUOUS
62
7
100
AcDbLine
10
604.320000000000
20
423.080000000000
30
0.0
11
605.220000000000
21
423.520000000000
31
0.0
0
LINE
5
608
100
AcDbEntity
8
0-0
6
CONTINUOUS
62
7
100
AcDbLine
10
601.680000000000
20
428.470000000000
30
0.0
11
604.320000000000
21
423.080000000000
31
0.0
0
LINE
5
609
100
AcDbEntity
8
0-0
6
CONTINUOUS
62
7
100
AcDbLine
10
602.580000000000
20
428.910000000000
30
0.0
11
605.220000000000
21
423.520000000000
31
0.0
0
LINE
5
60a
100
AcDbEntity
8
0-0
6
CONTINUOUS
62
7
100
AcDbLine
10
595.870000000000
20
398.830000000000
30
0.0
11
588.160000000000
21
398.830000000000
31
0.0
0
LINE
5
60b
100
AcDbEntity
8
0-0
6
CONTINUOUS
62
7
100
AcDbLine
10
588.160000000000
20
397.830000000000
30
0.0
11
595.870000000000
21
397.830000000000
31
0.0
0
LINE
5
60c
100
AcDbEntity
8
0-0
6
CONTINUOUS
62
7
100
AcDbLine
10
607.650000000000
20
421.310000000000
30
0.0
11
607.660000000000
21
421.180000000000
31
0.0
0
LINE
5
60d
100
AcDbEntity
8
0-0
6
CONTINUOUS
62
7
100
AcDbLine
10
608.140000000000
20
421.380000000000
30
0.0
11
608.160000000000
21
421.180000000000
31
0.0
0
LINE
5
60e
100
AcDbEntity
8
0-0
6
CONTINUOUS
62
7
100
AcDbLine
10
600.460000000000
20
419.760000000000
30
0.0
11
600.460000000000
21
421.910000000000
31
0.0
0
LINE
5
60f
100
AcDbEntity
8
0-0
6
CONTINUOUS
62
7
100
AcDbLine
10
601.730000000000
20
421.440000000000
30
0.0
11
601.660000000000
21
420.950000000000
31
0.0
0
LINE
5
610
100
AcDbEntity
8
0-0
6
CONTINUOUS
62
7
100
AcDbLine
10
607.080000000000
20
420.690000000000
30
0.0
11
601.730000000000
21
421.440000000000
31
0.0
0
LINE
5
611
100
AcDbEntity
8
0-0
6
CONTINUOUS
62
7
100
AcDbLine
10
607.010000000000
20
420.190000000000
30
0.0
11
601.660000000000
21
420.950000000000
31
0.0
0
LINE
5
612
100
AcDbEntity
8
0-0
6
CONTINUOUS
62
7
100
AcDbLine
10
606.980000000000
20
423.030000000000
30
0.0
11
606.990000000000
21
422.830000000000
31
0.0
0
LINE
5
613
100
AcDbEntity
8
0-0
6
CONTINUOUS
62
7
100
AcDbLine
10
606.480000000000
20
422.960000000000
30
0.0
11
606.490000000000
21
422.830000000000
31
0.0
0
LINE
5
614
100
AcDbEntity
8
0-0
6
CONTINUOUS
62
7
100
AcDbLine
10
601.710000000000
20
422.880000000000
30
0.0
11
605.880000000000
21
421.840000000000
31
0.0
0
LINE
5
615
100
AcDbEntity
8
0-0
6
CONTINUOUS
62
7
100
AcDbLine
10
601.830000000000
20
423.360000000000
30
0.0
11
605.960000000000
21
422.330000000000
31
0.0
0
LINE
5
616
100
AcDbEntity
8
0-0
6
CONTINUOUS
62
7
100
AcDbLine
10
599.790000000000
20
428.130000000000
30
0.0
11
597.860000000000
21
399.610000000000
31
0.0
0
LINE
5
617
100
AcDbEntity
8
0-0
6
CONTINUOUS
62
7
100
AcDbLine
10
598.790000000000
20
428.200000000000
30
0.0
11
596.860000000000
21
399.680000000000
31
0.0
0
LINE
5
618
100
AcDbEntity
8
0-0
6
CONTINUOUS
62
7
100
AcDbLine
10
572.010000000000
20
423.080000000000
30
0.0
11
571.110000000000
21
423.520000000000
31
0.0
0
LINE
5
619
100
AcDbEntity
8
0-0
6
CONTINUOUS
62
7
100
AcDbLine
10
574.650000000000
20
428.470000000000
30
0.0
11
572.010000000000
21
423.080000000000
31
0.0
0
LINE
5
61a
100
AcDbEntity
8
0-0
6
CONTINUOUS
62
7
100
AcDbLine
10
573.750000000000
20
428.910000000000
30
0.0
11
571.110000000000
21
423.520000000000
31
0.0
0
LINE
5
61b
100
AcDbEntity
8
0-0
6
CONTINUOUS
62
7
100
AcDbLine
10
580.460000000000
20
398.830000000000
30
0.0
11
588.160000000000
21
398.830000000000
31
0.0
0
LINE
5
61c
100
AcDbEntity
8
0-0
6
CONTINUOUS
62
7
100
AcDbLine
10
588.160000000000
20
397.830000000000
30
0.0
11
580.460000000000
21
397.830000000000
31
0.0
0
LINE
5
61d
100
AcDbEntity
8
0-0
6
CONTINUOUS
62
7
100
AcDbLine
10
575.860000000000
20
419.760000000000
30
0.0
11
575.860000000000
21
421.910000000000
31
0.0
0
LINE
5
61e
100
AcDbEntity
8
0-0
6
CONTINUOUS
62
7
100
AcDbLine
10
574.620000000000
20
422.880000000000
30
0.0
11
570.450000000000
21
421.840000000000
31
0.0
0
LINE
5
61f
100
AcDbEntity
8
0-0
6
CONTINUOUS
62
7
100
AcDbLine
10
574.500000000000
20
423.360000000000
30
0.0
11
570.370000000000
21
422.330000000000
31
0.0
0
LINE
5
620
100
AcDbEntity
8
0-0
6
CONTINUOUS
62
7
100
AcDbLine
10
576.540000000000
20
428.130000000000
30
0.0
11
578.470000000000
21
399.610000000000
31
0.0
0
LINE
5
621
100
AcDbEntity
8
0-0
6
CONTINUOUS
62
7
100
AcDbLine
10
577.540000000000
20
428.200000000000
30
0.0
11
579.470000000000
21
399.680000000000
31
0.0
0
LINE
5
622
100
AcDbEntity
8
0-0
6
CONTINUOUS
62
7
100
AcDbLine
10
576.360000000000
20
421.910000000000
30
0.0
11
576.360000000000
21
419.760000000000
31
0.0
0
LINE
5
623
100
AcDbEntity
8
0-0
6
CONTINUOUS
62
7
100
AcDbLine
10
582.980000000000
20
437.790000000000
30
0.0
11
580.360000000000
21
429.440000000000
31
0.0
0
LINE
5
624
100
AcDbEntity
8
0-0
6
CONTINUOUS
62
7
100
AcDbLine
10
583.460000000000
20
437.640000000000
30
0.0
11
580.830000000000
21
429.290000000000
31
0.0
0
LINE
5
625
100
AcDbEntity
8
0-0
6
CONTINUOUS
62
7
100
AcDbLine
10
599.960000000000
20
421.910000000000
30
0.0
11
599.960000000000
21
419.760000000000
31
0.0
0
LINE
5
626
100
AcDbEntity
8
0-0
6
CONTINUOUS
62
7
100
AcDbLine
10
580.830000000000
20
429.290000000000
30
0.0
11
580.360000000000
21
429.440000000000
31
0.0
0
LINE
5
627
100
AcDbEntity
8
0-0
6
CONTINUOUS
62
7
100
AcDbLine
10
605.570000000000
20
416.020000000000
30
0.0
11
600.790000000000
21
418.420000000000
31
0.0
0
LINE
5
628
100
AcDbEntity
8
0-0
6
CONTINUOUS
62
7
100
AcDbLine
10
601.020000000000
20
418.860000000000
30
0.0
11
605.800000000000
21
416.470000000000
31
0.0
0
LINE
5
629
100
AcDbEntity
8
0-0
6
CONTINUOUS
62
7
100
AcDbLine
10
570.750000000000
20
416.020000000000
30
0.0
11
575.530000000000
21
418.420000000000
31
0.0
0
LINE
5
62a
100
AcDbEntity
8
0-0
6
CONTINUOUS
62
7
100
AcDbLine
10
575.310000000000
20
418.860000000000
30
0.0
11
570.530000000000
21
416.470000000000
31
0.0
0
LINE
5
62b
100
AcDbEntity
8
0-0
6
CONTINUOUS
62
7
100
AcDbLine
10
565.400000000000
20
400.690000000000
30
0.0
11
569.760000000000
21
415.550000000000
31
0.0
0
LINE
5
62c
100
AcDbEntity
8
0-0
6
CONTINUOUS
62
7
100
AcDbLine
10
606.090000000000
20
415.410000000000
30
0.0
11
609.970000000000
21
400.550000000000
31
0.0
0
LINE
5
62d
100
AcDbEntity
8
0-0
6
CONTINUOUS
62
7
100
AcDbLine
10
610.450000000000
20
400.690000000000
30
0.0
11
606.570000000000
21
415.550000000000
31
0.0
0
LINE
5
62e
100
AcDbEntity
8
0-0
6
CONTINUOUS
62
7
100
AcDbLine
10
669.540000000000
20
399.830000000000
30
0.0
11
610.930000000000
21
399.830000000000
31
0.0
0
LINE
5
62f
100
AcDbEntity
8
0-0
6
CONTINUOUS
62
7
100
AcDbLine
10
670.660000000000
20
399.120000000000
30
0.0
11
670.250000000000
21
399.540000000000
31
0.0
0
LINE
5
630
100
AcDbEntity
8
0-0
6
CONTINUOUS
62
7
100
AcDbLine
10
671.370000000000
20
399.330000000000
30
0.0
11
686.160000000000
21
399.330000000000
31
0.0
0
LINE
5
631
100
AcDbEntity
8
0-0
6
CONTINUOUS
62
7
100
AcDbLine
10
671.370000000000
20
398.830000000000
30
0.0
11
686.160000000000
21
398.830000000000
31
0.0
0
LINE
5
632
100
AcDbEntity
8
0-0
6
CONTINUOUS
62
7
100
AcDbLine
10
669.540000000000
20
400.330000000000
30
0.0
11
610.930000000000
21
400.330000000000
31
0.0
0
LINE
5
633
100
AcDbEntity
8
0-0
6
CONTINUOUS
62
7
100
AcDbLine
10
671.020000000000
20
399.480000000000
30
0.0
11
670.600000000000
21
399.890000000000
31
0.0
0
LINE
5
634
100
AcDbEntity
8
0-0
6
CONTINUOUS
62
7
100
AcDbLine
10
570.240000000000
20
415.410000000000
30
0.0
11
565.880000000000
21
400.550000000000
31
0.0
0
LINE
5
635
100
AcDbEntity
8
0-0
6
CONTINUOUS
62
7
100
AcDbLine
10
505.160000000000
20
399.120000000000
30
0.0
11
505.580000000000
21
399.540000000000
31
0.0
0
LINE
5
636
100
AcDbEntity
8
0-0
6
CONTINUOUS
62
7
100
AcDbLine
10
504.460000000000
20
399.330000000000
30
0.0
11
489.660000000000
21
399.330000000000
31
0.0
0
LINE
5
637
100
AcDbEntity
8
0-0
6
CONTINUOUS
62
7
100
AcDbLine
10
504.460000000000
20
398.830000000000
30
0.0
11
489.660000000000
21
398.830000000000
31
0.0
0
LINE
5
638
100
AcDbEntity
8
0-0
6
CONTINUOUS
62
7
100
AcDbLine
10
504.810000000000
20
399.480000000000
30
0.0
11
505.220000000000
21
399.890000000000
31
0.0
0
LINE
5
639
100
AcDbEntity
8
0-0
6
CONTINUOUS
62
7
100
AcDbLine
10
564.920000000000
20
400.330000000000
30
0.0
11
506.290000000000
21
400.330000000000
31
0.0
0
LINE
5
63a
100
AcDbEntity
8
0-0
6
CONTINUOUS
62
7
100
AcDbLine
10
564.920000000000
20
399.830000000000
30
0.0
11
506.290000000000
21
399.830000000000
31
0.0
0
LINE
5
63b
100
AcDbEntity
8
0-0
6
CONTINUOUS
62
7
100
AcDbLine
10
701.660000000000
20
399.120000000000
30
0.0
11
702.080000000000
21
399.540000000000
31
0.0
0
LINE
5
63c
100
AcDbEntity
8
0-0
6
CONTINUOUS
62
7
100
AcDbLine
10
700.960000000000
20
399.330000000000
30
0.0
11
686.160000000000
21
399.330000000000
31
0.0
0
LINE
5
63d
100
AcDbEntity
8
0-0
6
CONTINUOUS
62
7
100
AcDbLine
10
700.960000000000
20
398.830000000000
30
0.0
11
686.160000000000
21
398.830000000000
31
0.0
0
LINE
5
63e
100
AcDbEntity
8
0-0
6
CONTINUOUS
62
7
100
AcDbLine
10
701.310000000000
20
399.480000000000
30
0.0
11
701.720000000000
21
399.890000000000
31
0.0
0
LINE
5
63f
100
AcDbEntity
8
0-0
6
CONTINUOUS
62
7
100
AcDbLine
10
702.790000000000
20
400.330000000000
30
0.0
11
754.660000000000
21
400.330000000000
31
0.0
0
LINE
5
640
100
AcDbEntity
8
0-0
6
CONTINUOUS
62
7
100
AcDbLine
10
702.790000000000
20
399.830000000000
30
0.0
11
754.660000000000
21
399.830000000000
31
0.0
0
LINE
5
641
100
AcDbEntity
8
0-0
6
CONTINUOUS
62
7
100
AcDbLine
10
474.160000000000
20
399.120000000000
30
0.0
11
473.750000000000
21
399.540000000000
31
0.0
0
LINE
5
642
100
AcDbEntity
8
0-0
6
CONTINUOUS
62
7
100
AcDbLine
10
474.870000000000
20
399.330000000000
30
0.0
11
489.660000000000
21
399.330000000000
31
0.0
0
LINE
5
643
100
AcDbEntity
8
0-0
6
CONTINUOUS
62
7
100
AcDbLine
10
474.870000000000
20
398.830000000000
30
0.0
11
489.660000000000
21
398.830000000000
31
0.0
0
LINE
5
644
100
AcDbEntity
8
0-0
6
CONTINUOUS
62
7
100
AcDbLine
10
474.520000000000
20
399.480000000000
30
0.0
11
474.100000000000
21
399.890000000000
31
0.0
0
LINE
5
645
100
AcDbEntity
8
0-0
6
CONTINUOUS
62
4
100
AcDbLine
10
585.480000000000
20
439.460000000000
30
0.0
11
585.750000000000
21
439.190000000000
31
0.0
0
LINE
5
646
100
AcDbEntity
8
0-0
6
CONTINUOUS
62
4
100
AcDbLine
10
582.620000000000
20
438.780000000000
30
0.0
11
583.220000000000
21
438.180000000000
31
0.0
0
LINE
5
647
100
AcDbEntity
8
0-0
6
CONTINUOUS
62
4
100
AcDbLine
10
583.760000000000
20
438.460000000000
30
0.0
11
584.880000000000
21
439.580000000000
31
0.0
0
LINE
5
648
100
AcDbEntity
8
0-0
6
CONTINUOUS
62
4
100
AcDbLine
10
583.130000000000
20
438.980000000000
30
0.0
11
583.670000000000
21
438.440000000000
31
0.0
0
LINE
5
649
100
AcDbEntity
8
0-0
6
CONTINUOUS
62
4
100
AcDbLine
10
583.640000000000
20
439.180000000000
30
0.0
11
584.380000000000
21
438.440000000000
31
0.0
0
LINE
5
64a
100
AcDbEntity
8
0-0
6
CONTINUOUS
62
4
100
AcDbLine
10
584.430000000000
20
438.420000000000
30
0.0
11
585.470000000000
21
439.470000000000
31
0.0
0
LINE
5
64b
100
AcDbEntity
8
0-0
6
CONTINUOUS
62
4
100
AcDbLine
10
584.850000000000
20
438.140000000000
30
0.0
11
585.800000000000
21
439.090000000000
31
0.0
0
LINE
5
64c
100
AcDbEntity
8
0-0
6
CONTINUOUS
62
4
100
AcDbLine
10
585.120000000000
20
437.710000000000
30
0.0
11
586.020000000000
21
438.600000000000
31
0.0
0
LINE
5
64d
100
AcDbEntity
8
0-0
6
CONTINUOUS
62
4
100
AcDbLine
10
585.450000000000
20
437.330000000000
30
0.0
11
586.310000000000
21
438.190000000000
31
0.0
0
LINE
5
64e
100
AcDbEntity
8
0-0
6
CONTINUOUS
62
4
100
AcDbLine
10
585.830000000000
20
437.000000000000
30
0.0
11
586.680000000000
21
437.850000000000
31
0.0
0
LINE
5
64f
100
AcDbEntity
8
0-0
6
CONTINUOUS
62
4
100
AcDbLine
10
586.270000000000
20
436.730000000000
30
0.0
11
587.130000000000
21
437.590000000000
31
0.0
0
LINE
5
650
100
AcDbEntity
8
0-0
6
CONTINUOUS
62
4
100
AcDbLine
10
586.760000000000
20
436.520000000000
30
0.0
11
587.660000000000
21
437.410000000000
31
0.0
0
LINE
5
651
100
AcDbEntity
8
0-0
6
CONTINUOUS
62
4
100
AcDbLine
10
587.330000000000
20
436.370000000000
30
0.0
11
588.320000000000
21
437.360000000000
31
0.0
0
LINE
5
652
100
AcDbEntity
8
0-0
6
CONTINUOUS
62
4
100
AcDbLine
10
584.170000000000
20
439.360000000000
30
0.0
11
587.110000000000
21
436.420000000000
31
0.0
0
LINE
5
653
100
AcDbEntity
8
0-0
6
CONTINUOUS
62
4
100
AcDbLine
10
584.700000000000
20
439.530000000000
30
0.0
11
587.900000000000
21
436.330000000000
31
0.0
0
LINE
5
654
100
AcDbEntity
8
0-0
6
CONTINUOUS
62
4
100
AcDbLine
10
587.990000000000
20
436.330000000000
30
0.0
11
589.290000000000
21
437.630000000000
31
0.0
0
LINE
5
655
100
AcDbEntity
8
0-0
6
CONTINUOUS
62
4
100
AcDbLine
10
587.490000000000
20
437.450000000000
30
0.0
11
588.610000000000
21
436.330000000000
31
0.0
0
LINE
5
656
100
AcDbEntity
8
0-0
6
CONTINUOUS
62
4
100
AcDbLine
10
588.290000000000
20
437.360000000000
30
0.0
11
589.230000000000
21
436.420000000000
31
0.0
0
LINE
5
657
100
AcDbEntity
8
0-0
6
CONTINUOUS
62
4
100
AcDbLine
10
588.890000000000
20
437.470000000000
30
0.0
11
589.760000000000
21
436.590000000000
31
0.0
0
LINE
5
658
100
AcDbEntity
8
0-0
6
CONTINUOUS
62
4
100
AcDbLine
10
589.380000000000
20
437.680000000000
30
0.0
11
590.230000000000
21
436.830000000000
31
0.0
0
LINE
5
659
100
AcDbEntity
8
0-0
6
CONTINUOUS
62
4
100
AcDbLine
10
589.800000000000
20
437.970000000000
30
0.0
11
590.650000000000
21
437.120000000000
31
0.0
0
LINE
5
65a
100
AcDbEntity
8
0-0
6
CONTINUOUS
62
4
100
AcDbLine
10
590.140000000000
20
438.340000000000
30
0.0
11
591.010000000000
21
437.470000000000
31
0.0
0
LINE
5
65b
100
AcDbEntity
8
0-0
6
CONTINUOUS
62
4
100
AcDbLine
10
590.400000000000
20
438.780000000000
30
0.0
11
591.320000000000
21
437.860000000000
31
0.0
0
LINE
5
65c
100
AcDbEntity
8
0-0
6
CONTINUOUS
62
4
100
AcDbLine
10
589.600000000000
20
436.530000000000
30
0.0
11
592.440000000000
21
439.360000000000
31
0.0
0
LINE
5
65d
100
AcDbEntity
8
0-0
6
CONTINUOUS
62
4
100
AcDbLine
10
588.700000000000
20
436.340000000000
30
0.0
11
591.850000000000
21
439.480000000000
31
0.0
0
LINE
5
65e
100
AcDbEntity
8
0-0
6
CONTINUOUS
62
4
100
AcDbLine
10
594.720000000000
20
438.700000000000
30
0.0
11
595.370000000000
21
438.050000000000
31
0.0
0
LINE
5
65f
100
AcDbEntity
8
0-0
6
CONTINUOUS
62
4
100
AcDbLine
10
590.370000000000
20
438.710000000000
30
0.0
11
591.250000000000
21
439.590000000000
31
0.0
0
LINE
5
660
100
AcDbEntity
8
0-0
6
CONTINUOUS
62
4
100
AcDbLine
10
590.630000000000
20
439.260000000000
30
0.0
11
591.570000000000
21
438.320000000000
31
0.0
0
LINE
5
661
100
AcDbEntity
8
0-0
6
CONTINUOUS
62
4
100
AcDbLine
10
595.130000000000
20
437.820000000000
30
0.0
11
595.660000000000
21
438.340000000000
31
0.0
0
LINE
5
662
100
AcDbEntity
8
0-0
6
CONTINUOUS
62
4
100
AcDbLine
10
594.620000000000
20
438.010000000000
30
0.0
11
595.150000000000
21
438.540000000000
31
0.0
0
LINE
5
663
100
AcDbEntity
8
0-0
6
CONTINUOUS
62
4
100
AcDbLine
10
594.100000000000
20
438.200000000000
30
0.0
11
594.630000000000
21
438.730000000000
31
0.0
0
LINE
5
664
100
AcDbEntity
8
0-0
6
CONTINUOUS
62
4
100
AcDbLine
10
593.560000000000
20
438.370000000000
30
0.0
11
594.110000000000
21
438.910000000000
31
0.0
0
LINE
5
665
100
AcDbEntity
8
0-0
6
CONTINUOUS
62
4
100
AcDbLine
10
593.010000000000
20
438.520000000000
30
0.0
11
593.560000000000
21
439.070000000000
31
0.0
0
LINE
5
666
100
AcDbEntity
8
0-0
6
CONTINUOUS
62
4
100
AcDbLine
10
592.450000000000
20
438.660000000000
30
0.0
11
593.010000000000
21
439.230000000000
31
0.0
0
LINE
5
667
100
AcDbEntity
8
0-0
6
CONTINUOUS
62
4
100
AcDbLine
10
591.810000000000
20
439.490000000000
30
0.0
11
592.700000000000
21
438.600000000000
31
0.0
0
LINE
5
668
100
AcDbEntity
8
0-0
6
CONTINUOUS
62
4
100
AcDbLine
10
591.040000000000
20
439.550000000000
30
0.0
11
592.020000000000
21
438.570000000000
31
0.0
0
LINE
5
669
100
AcDbEntity
8
0-0
6
CONTINUOUS
62
4
100
AcDbLine
10
592.710000000000
20
439.300000000000
30
0.0
11
593.680000000000
21
438.330000000000
31
0.0
0
LINE
5
66a
100
AcDbEntity
8
0-0
6
CONTINUOUS
62
4
100
AcDbLine
10
593.680000000000
20
439.040000000000
30
0.0
11
594.750000000000
21
437.960000000000
31
0.0
0
LINE
5
66b
100
AcDbEntity
8
0-0
6
CONTINUOUS
62
4
100
AcDbLine
10
582.220000000000
20
435.360000000000
30
0.0
11
581.260000000000
21
435.660000000000
31
0.0
0
LINE
5
66c
100
AcDbEntity
8
0-0
6
CONTINUOUS
62
4
100
AcDbLine
10
581.730000000000
20
437.140000000000
30
0.0
11
583.830000000000
21
439.250000000000
31
0.0
0
LINE
5
66d
100
AcDbEntity
8
0-0
6
CONTINUOUS
62
4
100
AcDbLine
10
582.280000000000
20
435.570000000000
30
0.0
11
582.100000000000
21
435.390000000000
31
0.0
0
LINE
5
66e
100
AcDbEntity
8
0-0
6
CONTINUOUS
62
4
100
AcDbLine
10
582.610000000000
20
436.600000000000
30
0.0
11
581.570000000000
21
435.560000000000
31
0.0
0
LINE
5
66f
100
AcDbEntity
8
0-0
6
CONTINUOUS
62
4
100
AcDbLine
10
582.930000000000
20
437.630000000000
30
0.0
11
581.400000000000
21
436.110000000000
31
0.0
0
LINE
5
670
100
AcDbEntity
8
0-0
6
CONTINUOUS
62
4
100
AcDbLine
10
581.490000000000
20
436.380000000000
30
0.0
11
582.290000000000
21
435.580000000000
31
0.0
0
LINE
5
671
100
AcDbEntity
8
0-0
6
CONTINUOUS
62
4
100
AcDbLine
10
581.660000000000
20
436.920000000000
30
0.0
11
582.450000000000
21
436.120000000000
31
0.0
0
LINE
5
672
100
AcDbEntity
8
0-0
6
CONTINUOUS
62
4
100
AcDbLine
10
581.830000000000
20
437.460000000000
30
0.0
11
582.620000000000
21
436.660000000000
31
0.0
0
LINE
5
673
100
AcDbEntity
8
0-0
6
CONTINUOUS
62
4
100
AcDbLine
10
582.000000000000
20
437.990000000000
30
0.0
11
582.790000000000
21
437.200000000000
31
0.0
0
LINE
5
674
100
AcDbEntity
8
0-0
6
CONTINUOUS
62
4
100
AcDbLine
10
582.050000000000
20
438.170000000000
30
0.0
11
582.690000000000
21
438.810000000000
31
0.0
0
LINE
5
675
100
AcDbEntity
8
0-0
6
CONTINUOUS
62
4
100
AcDbLine
10
582.160000000000
20
438.530000000000
30
0.0
11
582.960000000000
21
437.730000000000
31
0.0
0
LINE
5
676
100
AcDbEntity
8
0-0
6
CONTINUOUS
62
4
100
AcDbLine
10
582.180000000000
20
438.590000000000
30
0.0
11
581.260000000000
21
435.660000000000
31
0.0
0
LINE
5
677
100
AcDbEntity
8
0-0
6
CONTINUOUS
62
4
100
AcDbLine
10
551.240000000000
20
440.430000000000
30
0.0
11
551.240000000000
21
400.330000000000
31
0.0
0
LINE
5
678
100
AcDbEntity
8
0-0
6
CONTINUOUS
62
7
100
AcDbLine
10
584.920000000000
20
382.420000000000
30
0.0
11
591.410000000000
21
383.500000000000
31
0.0
0
LINE
5
679
100
AcDbEntity
8
0-0
6
CONTINUOUS
62
7
100
AcDbLine
10
584.920000000000
20
384.590000000000
30
0.0
11
591.410000000000
21
385.670000000000
31
0.0
0
LINE
5
67a
100
AcDbEntity
8
0-0
6
CONTINUOUS
62
7
100
AcDbLine
10
584.920000000000
20
388.910000000000
30
0.0
11
591.410000000000
21
389.990000000000
31
0.0
0
LINE
5
67b
100
AcDbEntity
8
0-0
6
CONTINUOUS
62
7
100
AcDbLine
10
584.920000000000
20
386.750000000000
30
0.0
11
591.410000000000
21
387.830000000000
31
0.0
0
LINE
5
67c
100
AcDbEntity
8
0-0
6
CONTINUOUS
62
7
100
AcDbLine
10
584.920000000000
20
391.070000000000
30
0.0
11
591.410000000000
21
392.150000000000
31
0.0
0
LINE
5
67d
100
AcDbEntity
8
0-0
6
CONTINUOUS
62
7
100
AcDbLine
10
584.920000000000
20
393.230000000000
30
0.0
11
591.410000000000
21
394.310000000000
31
0.0
0
LINE
5
67e
100
AcDbEntity
8
0-0
6
CONTINUOUS
62
7
100
AcDbLine
10
584.920000000000
20
395.400000000000
30
0.0
11
591.410000000000
21
396.480000000000
31
0.0
0
LINE
5
67f
100
AcDbEntity
8
0-0
6
CONTINUOUS
62
7
100
AcDbLine
10
590.870000000000
20
356.490000000000
30
0.0
11
588.160000000000
21
354.330000000000
31
0.0
0
LINE
5
680
100
AcDbEntity
8
0-0
6
CONTINUOUS
62
7
100
AcDbLine
10
585.460000000000
20
356.490000000000
30
0.0
11
588.160000000000
21
354.330000000000
31
0.0
0
LINE
5
681
100
AcDbEntity
8
0-0
6
CONTINUOUS
62
7
100
AcDbLine
10
584.920000000000
20
378.100000000000
30
0.0
11
591.410000000000
21
379.180000000000
31
0.0
0
LINE
5
682
100
AcDbEntity
8
0-0
6
CONTINUOUS
62
7
100
AcDbLine
10
584.920000000000
20
380.260000000000
30
0.0
11
591.410000000000
21
381.340000000000
31
0.0
0
LINE
5
683
100
AcDbEntity
8
0-0
6
CONTINUOUS
62
7
100
AcDbLine
10
584.920000000000
20
373.780000000000
30
0.0
11
591.410000000000
21
374.860000000000
31
0.0
0
LINE
5
684
100
AcDbEntity
8
0-0
6
CONTINUOUS
62
7
100
AcDbLine
10
584.920000000000
20
375.940000000000
30
0.0
11
591.410000000000
21
377.020000000000
31
0.0
0
LINE
5
685
100
AcDbEntity
8
0-0
6
CONTINUOUS
62
7
100
AcDbLine
10
584.920000000000
20
369.450000000000
30
0.0
11
591.410000000000
21
370.530000000000
31
0.0
0
LINE
5
686
100
AcDbEntity
8
0-0
6
CONTINUOUS
62
7
100
AcDbLine
10
584.920000000000
20
371.610000000000
30
0.0
11
591.410000000000
21
372.700000000000
31
0.0
0
LINE
5
687
100
AcDbEntity
8
0-0
6
CONTINUOUS
62
7
100
AcDbLine
10
590.870000000000
20
403.310000000000
30
0.0
11
590.870000000000
21
400.410000000000
31
0.0
0
LINE
5
688
100
AcDbEntity
8
0-0
6
CONTINUOUS
62
7
100
AcDbLine
10
585.460000000000
20
400.410000000000
30
0.0
11
585.460000000000
21
403.310000000000
31
0.0
0
LINE
5
689
100
AcDbEntity
8
0-0
6
CONTINUOUS
62
7
100
AcDbLine
10
584.920000000000
20
365.130000000000
30
0.0
11
591.410000000000
21
366.210000000000
31
0.0
0
LINE
5
68a
100
AcDbEntity
8
0-0
6
CONTINUOUS
62
7
100
AcDbLine
10
584.920000000000
20
367.290000000000
30
0.0
11
591.410000000000
21
368.370000000000
31
0.0
0
LINE
5
68b
100
AcDbEntity
8
0-0
6
CONTINUOUS
62
7
100
AcDbLine
10
585.460000000000
20
356.490000000000
30
0.0
11
585.460000000000
21
398.730000000000
31
0.0
0
LINE
5
68c
100
AcDbEntity
8
0-0
6
CONTINUOUS
62
7
100
AcDbLine
10
590.870000000000
20
356.490000000000
30
0.0
11
590.870000000000
21
398.730000000000
31
0.0
0
POLYLINE
5
68d
100
AcDbEntity
8
0-0
6
CONTINUOUS
62
  7
100
AcDb2dPolyline
66
1
10
0.0
20
0.0
30
0.0
70
0
0
VERTEX
5
68e
100
AcDbEntity
8
0-0
6
CONTINUOUS
62
  7
100
AcDbVertex
100
AcDb2dVertex
10
583.170000000000
20
400.410000000000
30
0.0
0
VERTEX
5
68f
100
AcDbEntity
8
0-0
6
CONTINUOUS
62
  7
100
AcDbVertex
100
AcDb2dVertex
10
593.160000000000
20
400.410000000000
30
0.0
0
VERTEX
5
690
100
AcDbEntity
8
0-0
6
CONTINUOUS
62
  7
100
AcDbVertex
100
AcDb2dVertex
10
593.160000000000
20
403.310000000000
30
0.0
0
VERTEX
5
691
100
AcDbEntity
8
0-0
6
CONTINUOUS
62
  7
100
AcDbVertex
100
AcDb2dVertex
10
590.870000000000
20
403.310000000000
30
0.0
0
VERTEX
5
692
100
AcDbEntity
8
0-0
6
CONTINUOUS
62
  7
100
AcDbVertex
100
AcDb2dVertex
10
585.460000000000
20
403.310000000000
30
0.0
0
VERTEX
5
693
100
AcDbEntity
8
0-0
6
CONTINUOUS
62
  7
100
AcDbVertex
100
AcDb2dVertex
10
583.170000000000
20
403.310000000000
30
0.0
0
VERTEX
5
694
100
AcDbEntity
8
0-0
6
CONTINUOUS
62
  7
100
AcDbVertex
100
AcDb2dVertex
10
583.170000000000
20
400.410000000000
30
0.0
0
SEQEND
5
695
100
AcDbEntity
8
0-0
0
POLYLINE
5
696
100
AcDbEntity
8
0-0
6
CONTINUOUS
62
  7
100
AcDb2dPolyline
66
1
10
0.0
20
0.0
30
0.0
70
0
0
VERTEX
5
697
100
AcDbEntity
8
0-0
6
CONTINUOUS
62
  7
100
AcDbVertex
100
AcDb2dVertex
10
581.680000000000
20
399.330000000000
30
0.0
0
VERTEX
5
698
100
AcDbEntity
8
0-0
6
CONTINUOUS
62
  7
100
AcDbVertex
100
AcDb2dVertex
10
594.650000000000
20
399.330000000000
30
0.0
0
VERTEX
5
699
100
AcDbEntity
8
0-0
6
CONTINUOUS
62
  7
100
AcDbVertex
100
AcDb2dVertex
10
594.650000000000
20
400.410000000000
30
0.0
0
VERTEX
5
69a
100
AcDbEntity
8
0-0
6
CONTINUOUS
62
  7
100
AcDbVertex
100
AcDb2dVertex
10
581.680000000000
20
400.410000000000
30
0.0
0
VERTEX
5
69b
100
AcDbEntity
8
0-0
6
CONTINUOUS
62
  7
100
AcDbVertex
100
AcDb2dVertex
10
581.680000000000
20
399.330000000000
30
0.0
0
SEQEND
5
69c
100
AcDbEntity
8
0-0
0
POLYLINE
5
69d
100
AcDbEntity
8
0-0
6
CONTINUOUS
62
  7
100
AcDb2dPolyline
66
1
10
0.0
20
0.0
30
0.0
70
0
0
VERTEX
5
69e
100
AcDbEntity
8
0-0
6
CONTINUOUS
62
  7
100
AcDbVertex
100
AcDb2dVertex
10
589.250000000000
20
355.410000000000
30
0.0
0
VERTEX
5
69f
100
AcDbEntity
8
0-0
6
CONTINUOUS
62
  7
100
AcDbVertex
100
AcDb2dVertex
10
588.160000000000
20
356.490000000000
30
0.0
0
VERTEX
5
6a0
100
AcDbEntity
8
0-0
6
CONTINUOUS
62
  7
100
AcDbVertex
100
AcDb2dVertex
10
588.890000000000
20
357.970000000000
30
0.0
0
VERTEX
5
6a1
100
AcDbEntity
8
0-0
6
CONTINUOUS
62
  7
100
AcDbVertex
100
AcDb2dVertex
10
587.240000000000
20
358.910000000000
30
0.0
0
VERTEX
5
6a2
100
AcDbEntity
8
0-0
6
CONTINUOUS
62
  7
100
AcDbVertex
100
AcDb2dVertex
10
585.460000000000
20
356.490000000000
30
0.0
0
SEQEND
5
6a3
100
AcDbEntity
8
0-0
0
LINE
5
6a4
100
AcDbEntity
8
0-0
6
CONTINUOUS
62
4
100
AcDbLine
10
562.890000000000
20
440.430000000000
30
0.0
11
551.240000000000
21
440.430000000000
31
0.0
0
LINE
5
6a5
100
AcDbEntity
8
0-0
6
CONTINUOUS
62
4
100
AcDbLine
10
568.160000000000
20
454.780000000000
30
0.0
11
568.160000000000
21
445.400000000000
31
0.0
0
POLYLINE
5
6a6
100
AcDbEntity
8
0-0
6
CONTINUOUS
62
  4
100
AcDb2dPolyline
66
1
10
0.0
20
0.0
30
0.0
70
0
0
VERTEX
5
6a7
100
AcDbEntity
8
0-0
6
CONTINUOUS
62
  4
100
AcDbVertex
100
AcDb2dVertex
10
568.160000000000
20
454.780000000000
30
0.0
0
VERTEX
5
6a8
100
AcDbEntity
8
0-0
6
CONTINUOUS
62
  4
100
AcDbVertex
100
AcDb2dVertex
10
608.160000000000
20
454.780000000000
30
0.0
0
VERTEX
5
6a9
100
AcDbEntity
8
0-0
6
CONTINUOUS
62
  4
100
AcDbVertex
100
AcDb2dVertex
10
608.160000000000
20
445.400000000000
30
0.0
0
SEQEND
5
6aa
100
AcDbEntity
8
0-0
0
LINE
5
6ab
100
AcDbEntity
8
0-0
6
CONTINUOUS
62
7
100
AcDbLine
10
421.660000000000
20
400.330000000000
30
0.0
11
473.040000000000
21
400.330000000000
31
0.0
0
LINE
5
6ac
100
AcDbEntity
8
0-0
6
CONTINUOUS
62
7
100
AcDbLine
10
421.660000000000
20
399.830000000000
30
0.0
11
473.040000000000
21
399.830000000000
31
0.0
0
LINE
5
6ad
100
AcDbEntity
8
0-0
6
CONTINUOUS
62
7
100
AcDbLine
10
88.660000000000
20
400.330000000000
30
0.0
11
140.040000000000
21
400.330000000000
31
0.0
0
LINE
5
6ae
100
AcDbEntity
8
0-0
6
CONTINUOUS
62
7
100
AcDbLine
10
88.660000000000
20
399.830000000000
30
0.0
11
140.040000000000
21
399.830000000000
31
0.0
0
LINE
5
6af
100
AcDbEntity
8
0-0
6
CONTINUOUS
62
7
100
AcDbLine
10
88.660000000000
20
400.330000000000
30
0.0
11
57.440000000000
21
400.330000000000
31
0.0
0
LINE
5
6b0
100
AcDbEntity
8
0-0
6
CONTINUOUS
62
7
100
AcDbLine
10
88.660000000000
20
399.830000000000
30
0.0
11
57.440000000000
21
399.830000000000
31
0.0
0
LINE
5
6b1
100
AcDbEntity
8
0-0
6
CONTINUOUS
62
7
100
AcDbLine
10
754.660000000000
20
400.330000000000
30
0.0
11
785.890000000000
21
400.330000000000
31
0.0
0
LINE
5
6b2
100
AcDbEntity
8
0-0
6
CONTINUOUS
62
7
100
AcDbLine
10
754.660000000000
20
399.830000000000
30
0.0
11
785.890000000000
21
399.830000000000
31
0.0
0
LINE
5
6b3
100
AcDbEntity
8
0-1
6
CONTINUOUS
62
7
100
AcDbLine
10
152.640000000000
20
126.620000000000
30
0.0
11
153.540000000000
21
127.060000000000
31
0.0
0
LINE
5
6b4
100
AcDbEntity
8
0-1
6
CONTINUOUS
62
7
100
AcDbLine
10
150.000000000000
20
132.010000000000
30
0.0
11
152.640000000000
21
126.620000000000
31
0.0
0
LINE
5
6b5
100
AcDbEntity
8
0-1
6
CONTINUOUS
62
7
100
AcDbLine
10
150.900000000000
20
132.450000000000
30
0.0
11
153.540000000000
21
127.060000000000
31
0.0
0
LINE
5
6b6
100
AcDbEntity
8
0-1
6
CONTINUOUS
62
7
100
AcDbLine
10
144.190000000000
20
102.370000000000
30
0.0
11
136.480000000000
21
102.370000000000
31
0.0
0
LINE
5
6b7
100
AcDbEntity
8
0-1
6
CONTINUOUS
62
7
100
AcDbLine
10
136.480000000000
20
101.370000000000
30
0.0
11
144.190000000000
21
101.370000000000
31
0.0
0
LINE
5
6b8
100
AcDbEntity
8
0-1
6
CONTINUOUS
62
7
100
AcDbLine
10
148.110000000000
20
131.670000000000
30
0.0
11
146.170000000000
21
103.150000000000
31
0.0
0
LINE
5
6b9
100
AcDbEntity
8
0-1
6
CONTINUOUS
62
7
100
AcDbLine
10
147.110000000000
20
131.740000000000
30
0.0
11
145.180000000000
21
103.220000000000
31
0.0
0
LINE
5
6ba
100
AcDbEntity
8
0-1
6
CONTINUOUS
62
7
100
AcDbLine
10
120.320000000000
20
126.620000000000
30
0.0
11
119.430000000000
21
127.060000000000
31
0.0
0
LINE
5
6bb
100
AcDbEntity
8
0-1
6
CONTINUOUS
62
7
100
AcDbLine
10
122.960000000000
20
132.010000000000
30
0.0
11
120.320000000000
21
126.620000000000
31
0.0
0
LINE
5
6bc
100
AcDbEntity
8
0-1
6
CONTINUOUS
62
7
100
AcDbLine
10
122.060000000000
20
132.450000000000
30
0.0
11
119.430000000000
21
127.060000000000
31
0.0
0
LINE
5
6bd
100
AcDbEntity
8
0-1
6
CONTINUOUS
62
7
100
AcDbLine
10
128.770000000000
20
102.370000000000
30
0.0
11
136.480000000000
21
102.370000000000
31
0.0
0
LINE
5
6be
100
AcDbEntity
8
0-1
6
CONTINUOUS
62
7
100
AcDbLine
10
136.480000000000
20
101.370000000000
30
0.0
11
128.770000000000
21
101.370000000000
31
0.0
0
LINE
5
6bf
100
AcDbEntity
8
0-1
6
CONTINUOUS
62
7
100
AcDbLine
10
124.850000000000
20
131.670000000000
30
0.0
11
126.790000000000
21
103.150000000000
31
0.0
0
LINE
5
6c0
100
AcDbEntity
8
0-1
6
CONTINUOUS
62
7
100
AcDbLine
10
125.850000000000
20
131.740000000000
30
0.0
11
127.780000000000
21
103.220000000000
31
0.0
0
LINE
5
6c1
100
AcDbEntity
8
0-1
6
CONTINUOUS
62
7
100
AcDbLine
10
126.980000000000
20
96.370000000000
30
0.0
11
126.980000000000
21
86.370000000000
31
0.0
0
LINE
5
6c2
100
AcDbEntity
8
0-1
6
CONTINUOUS
62
7
100
AcDbLine
10
136.480000000000
20
86.370000000000
30
0.0
11
126.980000000000
21
86.370000000000
31
0.0
0
LINE
5
6c3
100
AcDbEntity
8
0-1
6
CONTINUOUS
62
7
100
AcDbLine
10
136.480000000000
20
86.370000000000
30
0.0
11
145.980000000000
21
86.370000000000
31
0.0
0
LINE
5
6c4
100
AcDbEntity
8
0-1
6
CONTINUOUS
62
7
100
AcDbLine
10
145.980000000000
20
96.370000000000
30
0.0
11
145.980000000000
21
86.370000000000
31
0.0
0
LINE
5
6c5
100
AcDbEntity
8
0-1
6
CONTINUOUS
62
7
100
AcDbLine
10
110.470000000000
20
133.370000000000
30
0.0
11
100.470000000000
21
133.370000000000
31
0.0
0
LINE
5
6c6
100
AcDbEntity
8
0-1
6
CONTINUOUS
62
7
100
AcDbLine
10
100.470000000000
20
101.370000000000
30
0.0
11
100.470000000000
21
133.370000000000
31
0.0
0
LINE
5
6c7
100
AcDbEntity
8
0-1
6
CONTINUOUS
62
7
100
AcDbLine
10
136.480000000000
20
157.330000000000
30
0.0
11
119.480000000000
21
157.330000000000
31
0.0
0
LINE
5
6c8
100
AcDbEntity
8
0-1
6
CONTINUOUS
62
7
100
AcDbLine
10
119.480000000000
20
147.330000000000
30
0.0
11
119.480000000000
21
157.330000000000
31
0.0
0
LINE
5
6c9
100
AcDbEntity
8
0-1
6
CONTINUOUS
62
7
100
AcDbLine
10
136.480000000000
20
157.330000000000
30
0.0
11
153.480000000000
21
157.330000000000
31
0.0
0
LINE
5
6ca
100
AcDbEntity
8
0-1
6
CONTINUOUS
62
7
100
AcDbLine
10
153.480000000000
20
147.330000000000
30
0.0
11
153.480000000000
21
157.330000000000
31
0.0
0
LINE
5
6cb
100
AcDbEntity
8
0-1
6
CONTINUOUS
62
7
100
AcDbLine
10
607.650000000000
20
232.660000000000
30
0.0
11
607.660000000000
21
232.520000000000
31
0.0
0
LINE
5
6cc
100
AcDbEntity
8
0-1
6
CONTINUOUS
62
7
100
AcDbLine
10
608.140000000000
20
232.730000000000
30
0.0
11
608.160000000000
21
232.520000000000
31
0.0
0
LINE
5
6cd
100
AcDbEntity
8
0-1
6
CONTINUOUS
62
7
100
AcDbLine
10
601.730000000000
20
232.780000000000
30
0.0
11
601.660000000000
21
232.290000000000
31
0.0
0
LINE
5
6ce
100
AcDbEntity
8
0-1
6
CONTINUOUS
62
7
100
AcDbLine
10
607.080000000000
20
232.030000000000
30
0.0
11
601.730000000000
21
232.780000000000
31
0.0
0
LINE
5
6cf
100
AcDbEntity
8
0-1
6
CONTINUOUS
62
7
100
AcDbLine
10
607.010000000000
20
231.540000000000
30
0.0
11
601.660000000000
21
232.290000000000
31
0.0
0
LINE
5
6d0
100
AcDbEntity
8
0-1
6
CONTINUOUS
62
7
100
AcDbLine
10
575.860000000000
20
231.100000000000
30
0.0
11
575.860000000000
21
233.250000000000
31
0.0
0
LINE
5
6d1
100
AcDbEntity
8
0-1
6
CONTINUOUS
62
7
100
AcDbLine
10
574.620000000000
20
234.220000000000
30
0.0
11
570.450000000000
21
233.180000000000
31
0.0
0
LINE
5
6d2
100
AcDbEntity
8
0-1
6
CONTINUOUS
62
7
100
AcDbLine
10
574.500000000000
20
234.710000000000
30
0.0
11
570.370000000000
21
233.670000000000
31
0.0
0
LINE
5
6d3
100
AcDbEntity
8
0-1
6
CONTINUOUS
62
7
100
AcDbLine
10
576.360000000000
20
233.250000000000
30
0.0
11
576.360000000000
21
231.100000000000
31
0.0
0
LINE
5
6d4
100
AcDbEntity
8
0-1
6
CONTINUOUS
62
7
100
AcDbLine
10
570.750000000000
20
227.370000000000
30
0.0
11
575.530000000000
21
229.760000000000
31
0.0
0
LINE
5
6d5
100
AcDbEntity
8
0-1
6
CONTINUOUS
62
7
100
AcDbLine
10
575.310000000000
20
230.210000000000
30
0.0
11
570.530000000000
21
227.820000000000
31
0.0
0
LINE
5
6d6
100
AcDbEntity
8
0-1
6
CONTINUOUS
62
7
100
AcDbLine
10
565.400000000000
20
212.030000000000
30
0.0
11
569.760000000000
21
226.900000000000
31
0.0
0
LINE
5
6d7
100
AcDbEntity
8
0-1
6
CONTINUOUS
62
7
100
AcDbLine
10
570.240000000000
20
226.760000000000
30
0.0
11
565.880000000000
21
211.890000000000
31
0.0
0
LINE
5
6d8
100
AcDbEntity
8
0-1
6
CONTINUOUS
62
7
100
AcDbLine
10
505.160000000000
20
210.470000000000
30
0.0
11
505.580000000000
21
210.880000000000
31
0.0
0
LINE
5
6d9
100
AcDbEntity
8
0-1
6
CONTINUOUS
62
7
100
AcDbLine
10
504.460000000000
20
210.670000000000
30
0.0
11
489.660000000000
21
210.670000000000
31
0.0
0
LINE
5
6da
100
AcDbEntity
8
0-1
6
CONTINUOUS
62
7
100
AcDbLine
10
504.460000000000
20
210.170000000000
30
0.0
11
489.660000000000
21
210.170000000000
31
0.0
0
LINE
5
6db
100
AcDbEntity
8
0-1
6
CONTINUOUS
62
7
100
AcDbLine
10
504.810000000000
20
210.820000000000
30
0.0
11
505.220000000000
21
211.230000000000
31
0.0
0
LINE
5
6dc
100
AcDbEntity
8
0-1
6
CONTINUOUS
62
7
100
AcDbLine
10
564.920000000000
20
211.670000000000
30
0.0
11
506.290000000000
21
211.670000000000
31
0.0
0
LINE
5
6dd
100
AcDbEntity
8
0-1
6
CONTINUOUS
62
7
100
AcDbLine
10
564.920000000000
20
211.170000000000
30
0.0
11
506.290000000000
21
211.170000000000
31
0.0
0
LINE
5
6de
100
AcDbEntity
8
0-1
6
CONTINUOUS
62
7
100
AcDbLine
10
474.160000000000
20
210.470000000000
30
0.0
11
473.750000000000
21
210.880000000000
31
0.0
0
LINE
5
6df
100
AcDbEntity
8
0-1
6
CONTINUOUS
62
7
100
AcDbLine
10
474.870000000000
20
210.670000000000
30
0.0
11
489.660000000000
21
210.670000000000
31
0.0
0
LINE
5
6e0
100
AcDbEntity
8
0-1
6
CONTINUOUS
62
7
100
AcDbLine
10
474.870000000000
20
210.170000000000
30
0.0
11
489.660000000000
21
210.170000000000
31
0.0
0
LINE
5
6e1
100
AcDbEntity
8
0-1
6
CONTINUOUS
62
7
100
AcDbLine
10
474.520000000000
20
210.820000000000
30
0.0
11
474.100000000000
21
211.230000000000
31
0.0
0
LINE
5
6e2
100
AcDbEntity
8
0-1
6
CONTINUOUS
62
7
100
AcDbLine
10
421.660000000000
20
211.670000000000
30
0.0
11
473.040000000000
21
211.670000000000
31
0.0
0
LINE
5
6e3
100
AcDbEntity
8
0-1
6
CONTINUOUS
62
7
100
AcDbLine
10
267.460000000000
20
231.100000000000
30
0.0
11
267.460000000000
21
233.250000000000
31
0.0
0
LINE
5
6e4
100
AcDbEntity
8
0-1
6
CONTINUOUS
62
7
100
AcDbLine
10
273.980000000000
20
234.380000000000
30
0.0
11
273.990000000000
21
234.170000000000
31
0.0
0
LINE
5
6e5
100
AcDbEntity
8
0-1
6
CONTINUOUS
62
7
100
AcDbLine
10
273.480000000000
20
234.310000000000
30
0.0
11
273.490000000000
21
234.170000000000
31
0.0
0
LINE
5
6e6
100
AcDbEntity
8
0-1
6
CONTINUOUS
62
7
100
AcDbLine
10
268.710000000000
20
234.220000000000
30
0.0
11
272.880000000000
21
233.180000000000
31
0.0
0
LINE
5
6e7
100
AcDbEntity
8
0-1
6
CONTINUOUS
62
7
100
AcDbLine
10
268.830000000000
20
234.710000000000
30
0.0
11
272.960000000000
21
233.670000000000
31
0.0
0
LINE
5
6e8
100
AcDbEntity
8
0-1
6
CONTINUOUS
62
7
100
AcDbLine
10
249.980000000000
20
249.130000000000
30
0.0
11
247.360000000000
21
240.780000000000
31
0.0
0
LINE
5
6e9
100
AcDbEntity
8
0-1
6
CONTINUOUS
62
7
100
AcDbLine
10
250.460000000000
20
248.980000000000
30
0.0
11
247.830000000000
21
240.630000000000
31
0.0
0
LINE
5
6ea
100
AcDbEntity
8
0-1
6
CONTINUOUS
62
7
100
AcDbLine
10
266.960000000000
20
233.250000000000
30
0.0
11
266.960000000000
21
231.100000000000
31
0.0
0
LINE
5
6eb
100
AcDbEntity
8
0-1
6
CONTINUOUS
62
7
100
AcDbLine
10
247.830000000000
20
240.630000000000
30
0.0
11
247.360000000000
21
240.780000000000
31
0.0
0
LINE
5
6ec
100
AcDbEntity
8
0-1
6
CONTINUOUS
62
7
100
AcDbLine
10
272.570000000000
20
227.370000000000
30
0.0
11
267.790000000000
21
229.760000000000
31
0.0
0
LINE
5
6ed
100
AcDbEntity
8
0-1
6
CONTINUOUS
62
7
100
AcDbLine
10
268.020000000000
20
230.210000000000
30
0.0
11
272.800000000000
21
227.820000000000
31
0.0
0
LINE
5
6ee
100
AcDbEntity
8
0-1
6
CONTINUOUS
62
7
100
AcDbLine
10
273.090000000000
20
226.760000000000
30
0.0
11
276.970000000000
21
211.890000000000
31
0.0
0
LINE
5
6ef
100
AcDbEntity
8
0-1
6
CONTINUOUS
62
7
100
AcDbLine
10
277.450000000000
20
212.030000000000
30
0.0
11
273.570000000000
21
226.900000000000
31
0.0
0
LINE
5
6f0
100
AcDbEntity
8
0-1
6
CONTINUOUS
62
7
100
AcDbLine
10
336.540000000000
20
211.170000000000
30
0.0
11
277.930000000000
21
211.170000000000
31
0.0
0
LINE
5
6f1
100
AcDbEntity
8
0-1
6
CONTINUOUS
62
7
100
AcDbLine
10
337.660000000000
20
210.470000000000
30
0.0
11
337.250000000000
21
210.880000000000
31
0.0
0
LINE
5
6f2
100
AcDbEntity
8
0-1
6
CONTINUOUS
62
7
100
AcDbLine
10
338.370000000000
20
210.670000000000
30
0.0
11
353.160000000000
21
210.670000000000
31
0.0
0
LINE
5
6f3
100
AcDbEntity
8
0-1
6
CONTINUOUS
62
7
100
AcDbLine
10
338.370000000000
20
210.170000000000
30
0.0
11
353.160000000000
21
210.170000000000
31
0.0
0
LINE
5
6f4
100
AcDbEntity
8
0-1
6
CONTINUOUS
62
7
100
AcDbLine
10
336.540000000000
20
211.670000000000
30
0.0
11
277.930000000000
21
211.670000000000
31
0.0
0
LINE
5
6f5
100
AcDbEntity
8
0-1
6
CONTINUOUS
62
7
100
AcDbLine
10
338.020000000000
20
210.820000000000
30
0.0
11
337.600000000000
21
211.230000000000
31
0.0
0
LINE
5
6f6
100
AcDbEntity
8
0-1
6
CONTINUOUS
62
7
100
AcDbLine
10
368.660000000000
20
210.470000000000
30
0.0
11
369.080000000000
21
210.880000000000
31
0.0
0
LINE
5
6f7
100
AcDbEntity
8
0-1
6
CONTINUOUS
62
7
100
AcDbLine
10
367.960000000000
20
210.670000000000
30
0.0
11
353.160000000000
21
210.670000000000
31
0.0
0
LINE
5
6f8
100
AcDbEntity
8
0-1
6
CONTINUOUS
62
7
100
AcDbLine
10
367.960000000000
20
210.170000000000
30
0.0
11
353.160000000000
21
210.170000000000
31
0.0
0
LINE
5
6f9
100
AcDbEntity
8
0-1
6
CONTINUOUS
62
7
100
AcDbLine
10
368.310000000000
20
210.820000000000
30
0.0
11
368.720000000000
21
211.230000000000
31
0.0
0
LINE
5
6fa
100
AcDbEntity
8
0-1
6
CONTINUOUS
62
7
100
AcDbLine
10
369.790000000000
20
211.670000000000
30
0.0
11
421.660000000000
21
211.670000000000
31
0.0
0
LINE
5
6fb
100
AcDbEntity
8
0-1
6
CONTINUOUS
62
7
100
AcDbLine
10
369.790000000000
20
211.170000000000
30
0.0
11
421.660000000000
21
211.170000000000
31
0.0
0
LINE
5
6fc
100
AcDbEntity
8
0-1
6
CONTINUOUS
62
4
100
AcDbLine
10
262.130000000000
20
249.160000000000
30
0.0
11
262.890000000000
21
249.920000000000
31
0.0
0
LINE
5
6fd
100
AcDbEntity
8
0-1
6
CONTINUOUS
62
4
100
AcDbLine
10
261.620000000000
20
249.360000000000
30
0.0
11
262.380000000000
21
250.110000000000
31
0.0
0
LINE
5
6fe
100
AcDbEntity
8
0-1
6
CONTINUOUS
62
4
100
AcDbLine
10
261.100000000000
20
249.540000000000
30
0.0
11
261.880000000000
21
250.320000000000
31
0.0
0
LINE
5
6ff
100
AcDbEntity
8
0-1
6
CONTINUOUS
62
4
100
AcDbLine
10
260.560000000000
20
249.710000000000
30
0.0
11
261.360000000000
21
250.510000000000
31
0.0
0
LINE
5
700
100
AcDbEntity
8
0-1
6
CONTINUOUS
62
4
100
AcDbLine
10
260.010000000000
20
249.870000000000
30
0.0
11
260.820000000000
21
250.680000000000
31
0.0
0
LINE
5
701
100
AcDbEntity
8
0-1
6
CONTINUOUS
62
4
100
AcDbLine
10
261.210000000000
20
250.550000000000
30
0.0
11
262.370000000000
21
249.400000000000
31
0.0
0
LINE
5
702
100
AcDbEntity
8
0-1
6
CONTINUOUS
62
4
100
AcDbLine
10
260.210000000000
20
250.850000000000
30
0.0
11
261.750000000000
21
249.310000000000
31
0.0
0
LINE
5
703
100
AcDbEntity
8
0-1
6
CONTINUOUS
62
4
100
AcDbLine
10
259.450000000000
20
250.010000000000
30
0.0
11
260.270000000000
21
250.830000000000
31
0.0
0
LINE
5
704
100
AcDbEntity
8
0-1
6
CONTINUOUS
62
4
100
AcDbLine
10
259.370000000000
20
250.990000000000
30
0.0
11
260.680000000000
21
249.670000000000
31
0.0
0
LINE
5
705
100
AcDbEntity
8
0-1
6
CONTINUOUS
62
4
100
AcDbLine
10
256.600000000000
20
247.870000000000
30
0.0
11
259.700000000000
21
250.970000000000
31
0.0
0
LINE
5
706
100
AcDbEntity
8
0-1
6
CONTINUOUS
62
4
100
AcDbLine
10
258.760000000000
20
250.890000000000
30
0.0
11
259.700000000000
21
249.950000000000
31
0.0
0
LINE
5
707
100
AcDbEntity
8
0-1
6
CONTINUOUS
62
4
100
AcDbLine
10
255.700000000000
20
247.680000000000
30
0.0
11
258.960000000000
21
250.940000000000
31
0.0
0
LINE
5
708
100
AcDbEntity
8
0-1
6
CONTINUOUS
62
4
100
AcDbLine
10
258.280000000000
20
250.660000000000
30
0.0
11
259.020000000000
21
249.920000000000
31
0.0
0
LINE
5
709
100
AcDbEntity
8
0-1
6
CONTINUOUS
62
4
100
AcDbLine
10
257.890000000000
20
250.340000000000
30
0.0
11
258.570000000000
21
249.660000000000
31
0.0
0
LINE
5
70a
100
AcDbEntity
8
0-1
6
CONTINUOUS
62
4
100
AcDbLine
10
257.590000000000
20
249.940000000000
30
0.0
11
258.320000000000
21
249.210000000000
31
0.0
0
LINE
5
70b
100
AcDbEntity
8
0-1
6
CONTINUOUS
62
4
100
AcDbLine
10
257.300000000000
20
249.520000000000
30
0.0
11
258.010000000000
21
248.810000000000
31
0.0
0
LINE
5
70c
100
AcDbEntity
8
0-1
6
CONTINUOUS
62
4
100
AcDbLine
10
256.930000000000
20
249.180000000000
30
0.0
11
257.650000000000
21
248.460000000000
31
0.0
0
LINE
5
70d
100
AcDbEntity
8
0-1
6
CONTINUOUS
62
4
100
AcDbLine
10
256.500000000000
20
248.910000000000
30
0.0
11
257.230000000000
21
248.170000000000
31
0.0
0
LINE
5
70e
100
AcDbEntity
8
0-1
6
CONTINUOUS
62
4
100
AcDbLine
10
255.970000000000
20
248.730000000000
30
0.0
11
256.760000000000
21
247.930000000000
31
0.0
0
LINE
5
70f
100
AcDbEntity
8
0-1
6
CONTINUOUS
62
4
100
AcDbLine
10
254.990000000000
20
247.670000000000
30
0.0
11
256.070000000000
21
248.750000000000
31
0.0
0
LINE
5
710
100
AcDbEntity
8
0-1
6
CONTINUOUS
62
4
100
AcDbLine
10
255.320000000000
20
248.670000000000
30
0.0
11
256.230000000000
21
247.760000000000
31
0.0
0
LINE
5
711
100
AcDbEntity
8
0-1
6
CONTINUOUS
62
4
100
AcDbLine
10
254.330000000000
20
247.720000000000
30
0.0
11
255.290000000000
21
248.680000000000
31
0.0
0
LINE
5
712
100
AcDbEntity
8
0-1
6
CONTINUOUS
62
4
100
AcDbLine
10
255.080000000000
20
248.680000000000
30
0.0
11
255.250000000000
21
248.680000000000
31
0.0
0
LINE
5
713
100
AcDbEntity
8
0-1
6
CONTINUOUS
62
4
100
AcDbLine
10
254.590000000000
20
248.690000000000
30
0.0
11
255.610000000000
21
247.670000000000
31
0.0
0
LINE
5
714
100
AcDbEntity
8
0-1
6
CONTINUOUS
62
4
100
AcDbLine
10
253.760000000000
20
247.860000000000
30
0.0
11
254.590000000000
21
248.690000000000
31
0.0
0
LINE
5
715
100
AcDbEntity
8
0-1
6
CONTINUOUS
62
4
100
AcDbLine
10
253.270000000000
20
248.070000000000
30
0.0
11
254.020000000000
21
248.830000000000
31
0.0
0
LINE
5
716
100
AcDbEntity
8
0-1
6
CONTINUOUS
62
4
100
AcDbLine
10
252.830000000000
20
248.350000000000
30
0.0
11
253.550000000000
21
249.060000000000
31
0.0
0
LINE
5
717
100
AcDbEntity
8
0-1
6
CONTINUOUS
62
4
100
AcDbLine
10
253.390000000000
20
249.180000000000
30
0.0
11
254.900000000000
21
247.670000000000
31
0.0
0
LINE
5
718
100
AcDbEntity
8
0-1
6
CONTINUOUS
62
4
100
AcDbLine
10
252.120000000000
20
249.050000000000
30
0.0
11
252.850000000000
21
249.780000000000
31
0.0
0
LINE
5
719
100
AcDbEntity
8
0-1
6
CONTINUOUS
62
4
100
AcDbLine
10
252.450000000000
20
248.670000000000
30
0.0
11
253.160000000000
21
249.380000000000
31
0.0
0
LINE
5
71a
100
AcDbEntity
8
0-1
6
CONTINUOUS
62
4
100
AcDbLine
10
251.950000000000
20
250.630000000000
30
0.0
11
252.920000000000
21
249.650000000000
31
0.0
0
LINE
5
71b
100
AcDbEntity
8
0-1
6
CONTINUOUS
62
4
100
AcDbLine
10
251.430000000000
20
249.770000000000
30
0.0
11
252.170000000000
21
250.510000000000
31
0.0
0
LINE
5
71c
100
AcDbEntity
8
0-1
6
CONTINUOUS
62
4
100
AcDbLine
10
251.850000000000
20
249.480000000000
30
0.0
11
252.550000000000
21
250.190000000000
31
0.0
0
LINE
5
71d
100
AcDbEntity
8
0-1
6
CONTINUOUS
62
4
100
AcDbLine
10
250.760000000000
20
249.800000000000
30
0.0
11
251.690000000000
21
250.730000000000
31
0.0
0
LINE
5
71e
100
AcDbEntity
8
0-1
6
CONTINUOUS
62
4
100
AcDbLine
10
251.030000000000
20
250.840000000000
30
0.0
11
254.110000000000
21
247.760000000000
31
0.0
0
LINE
5
71f
100
AcDbEntity
8
0-1
6
CONTINUOUS
62
4
100
AcDbLine
10
250.410000000000
20
250.750000000000
30
0.0
11
251.380000000000
21
249.780000000000
31
0.0
0
LINE
5
720
100
AcDbEntity
8
0-1
6
CONTINUOUS
62
4
100
AcDbLine
10
249.920000000000
20
250.540000000000
30
0.0
11
250.670000000000
21
249.780000000000
31
0.0
0
LINE
5
721
100
AcDbEntity
8
0-1
6
CONTINUOUS
62
4
100
AcDbLine
10
249.520000000000
20
250.230000000000
30
0.0
11
250.220000000000
21
249.520000000000
31
0.0
0
LINE
5
722
100
AcDbEntity
8
0-1
6
CONTINUOUS
62
4
100
AcDbLine
10
249.100000000000
20
249.560000000000
30
0.0
11
250.220000000000
21
250.680000000000
31
0.0
0
LINE
5
723
100
AcDbEntity
8
0-1
6
CONTINUOUS
62
4
100
AcDbLine
10
249.020000000000
20
249.430000000000
30
0.0
11
248.260000000000
21
247.000000000000
31
0.0
0
LINE
5
724
100
AcDbEntity
8
0-1
6
CONTINUOUS
62
4
100
AcDbLine
10
249.220000000000
20
246.700000000000
30
0.0
11
248.260000000000
21
247.000000000000
31
0.0
0
LINE
5
725
100
AcDbEntity
8
0-1
6
CONTINUOUS
62
4
100
AcDbLine
10
262.900000000000
20
249.930000000000
30
0.0
11
262.600000000000
21
248.960000000000
31
0.0
0
LINE
5
726
100
AcDbEntity
8
0-1
6
CONTINUOUS
62
4
100
AcDbLine
10
249.210000000000
20
249.830000000000
30
0.0
11
249.960000000000
21
249.080000000000
31
0.0
0
LINE
5
727
100
AcDbEntity
8
0-1
6
CONTINUOUS
62
4
100
AcDbLine
10
249.000000000000
20
249.340000000000
30
0.0
11
249.790000000000
21
248.540000000000
31
0.0
0
LINE
5
728
100
AcDbEntity
8
0-1
6
CONTINUOUS
62
4
100
AcDbLine
10
248.320000000000
20
247.190000000000
30
0.0
11
248.610000000000
21
246.890000000000
31
0.0
0
LINE
5
729
100
AcDbEntity
8
0-1
6
CONTINUOUS
62
4
100
AcDbLine
10
248.730000000000
20
248.480000000000
30
0.0
11
251.080000000000
21
250.840000000000
31
0.0
0
LINE
5
72a
100
AcDbEntity
8
0-1
6
CONTINUOUS
62
4
100
AcDbLine
10
248.830000000000
20
248.800000000000
30
0.0
11
249.620000000000
21
248.000000000000
31
0.0
0
LINE
5
72b
100
AcDbEntity
8
0-1
6
CONTINUOUS
62
4
100
AcDbLine
10
248.660000000000
20
248.260000000000
30
0.0
11
249.450000000000
21
247.460000000000
31
0.0
0
LINE
5
72c
100
AcDbEntity
8
0-1
6
CONTINUOUS
62
4
100
AcDbLine
10
248.490000000000
20
247.720000000000
30
0.0
11
249.290000000000
21
246.930000000000
31
0.0
0
LINE
5
72d
100
AcDbEntity
8
0-1
6
CONTINUOUS
62
4
100
AcDbLine
10
249.280000000000
20
246.920000000000
30
0.0
11
249.100000000000
21
246.740000000000
31
0.0
0
LINE
5
72e
100
AcDbEntity
8
0-1
6
CONTINUOUS
62
4
100
AcDbLine
10
249.610000000000
20
247.950000000000
30
0.0
11
248.570000000000
21
246.910000000000
31
0.0
0
LINE
5
72f
100
AcDbEntity
8
0-1
6
CONTINUOUS
62
4
100
AcDbLine
10
249.930000000000
20
248.980000000000
30
0.0
11
248.400000000000
21
247.450000000000
31
0.0
0
LINE
5
730
100
AcDbEntity
8
0-1
6
CONTINUOUS
62
7
100
AcDbLine
10
421.660000000000
20
211.170000000000
30
0.0
11
473.040000000000
21
211.170000000000
31
0.0
0
LINE
5
731
100
AcDbEntity
8
0-1
6
CONTINUOUS
62
4
100
AcDbLine
10
551.240000000000
20
251.770000000000
30
0.0
11
551.240000000000
21
211.670000000000
31
0.0
0
LINE
5
732
100
AcDbEntity
8
0-1
6
CONTINUOUS
62
4
100
AcDbLine
10
562.890000000000
20
251.770000000000
30
0.0
11
551.240000000000
21
251.770000000000
31
0.0
0
LINE
5
733
100
AcDbEntity
8
0-1
6
CONTINUOUS
62
4
100
AcDbLine
10
568.160000000000
20
266.120000000000
30
0.0
11
568.160000000000
21
256.740000000000
31
0.0
0
POLYLINE
5
734
100
AcDbEntity
8
0-1
6
CONTINUOUS
62
  4
100
AcDb2dPolyline
66
1
10
0.0
20
0.0
30
0.0
70
0
0
VERTEX
5
735
100
AcDbEntity
8
0-1
6
CONTINUOUS
62
  4
100
AcDbVertex
100
AcDb2dVertex
10
568.160000000000
20
266.120000000000
30
0.0
0
VERTEX
5
736
100
AcDbEntity
8
0-1
6
CONTINUOUS
62
  4
100
AcDbVertex
100
AcDb2dVertex
10
608.160000000000
20
266.120000000000
30
0.0
0
VERTEX
5
737
100
AcDbEntity
8
0-1
6
CONTINUOUS
62
  4
100
AcDbVertex
100
AcDb2dVertex
10
608.160000000000
20
256.740000000000
30
0.0
0
SEQEND
5
738
100
AcDbEntity
8
0-1
0
LINE
5
739
100
AcDbEntity
8
0-1
6
CONTINUOUS
62
4
100
AcDbLine
10
338.160000000000
20
231.720000000000
30
0.0
11
368.160000000000
21
231.720000000000
31
0.0
0
LINE
5
73a
100
AcDbEntity
8
0-1
6
CONTINUOUS
62
4
100
AcDbLine
10
338.160000000000
20
221.720000000000
30
0.0
11
338.160000000000
21
231.720000000000
31
0.0
0
POLYLINE
5
73b
100
AcDbEntity
8
0-1
6
CONTINUOUS
62
  4
100
AcDb2dPolyline
66
1
10
0.0
20
0.0
30
0.0
70
0
0
VERTEX
5
73c
100
AcDbEntity
8
0-1
6
CONTINUOUS
62
  4
100
AcDbVertex
100
AcDb2dVertex
10
368.160000000000
20
221.720000000000
30
0.0
0
VERTEX
5
73d
100
AcDbEntity
8
0-1
6
CONTINUOUS
62
  4
100
AcDbVertex
100
AcDb2dVertex
10
368.160000000000
20
231.720000000000
30
0.0
0
VERTEX
5
73e
100
AcDbEntity
8
0-1
6
CONTINUOUS
62
  4
100
AcDbVertex
100
AcDb2dVertex
10
421.660000000000
20
231.720000000000
30
0.0
0
SEQEND
5
73f
100
AcDbEntity
8
0-1
0
LINE
5
740
100
AcDbEntity
8
0-1
6
CONTINUOUS
62
4
100
AcDbLine
10
505.160000000000
20
231.720000000000
30
0.0
11
475.160000000000
21
231.720000000000
31
0.0
0
LINE
5
741
100
AcDbEntity
8
0-1
6
CONTINUOUS
62
4
100
AcDbLine
10
505.160000000000
20
221.720000000000
30
0.0
11
505.160000000000
21
231.720000000000
31
0.0
0
POLYLINE
5
742
100
AcDbEntity
8
0-1
6
CONTINUOUS
62
  4
100
AcDb2dPolyline
66
1
10
0.0
20
0.0
30
0.0
70
0
0
VERTEX
5
743
100
AcDbEntity
8
0-1
6
CONTINUOUS
62
  4
100
AcDbVertex
100
AcDb2dVertex
10
475.160000000000
20
221.720000000000
30
0.0
0
VERTEX
5
744
100
AcDbEntity
8
0-1
6
CONTINUOUS
62
  4
100
AcDbVertex
100
AcDb2dVertex
10
475.160000000000
20
231.720000000000
30
0.0
0
VERTEX
5
745
100
AcDbEntity
8
0-1
6
CONTINUOUS
62
  4
100
AcDbVertex
100
AcDb2dVertex
10
421.660000000000
20
231.720000000000
30
0.0
0
SEQEND
5
746
100
AcDbEntity
8
0-1
0
LINE
5
747
100
AcDbEntity
8
0-1
6
CONTINUOUS
62
7
100
AcDbLine
10
259.910000000000
20
250.750000000000
30
0.0
11
260.990000000000
21
254.750000000000
31
0.0
0
LINE
5
748
100
AcDbEntity
8
0-1
6
CONTINUOUS
62
7
100
AcDbLine
10
259.910000000000
20
250.750000000000
30
0.0
11
262.840000000000
21
253.670000000000
31
0.0
0
LINE
5
749
100
AcDbEntity
8
0-1
6
CONTINUOUS
62
7
100
AcDbLine
10
259.910000000000
20
250.750000000000
30
0.0
11
264.910000000000
21
259.400000000000
31
0.0
0
LINE
5
74a
100
AcDbEntity
8
0-1
6
CONTINUOUS
62
4
100
AcDbLine
10
255.160000000000
20
199.520000000000
30
0.0
11
588.160000000000
21
199.520000000000
31
0.0
0
LINE
5
74b
100
AcDbEntity
8
0-1
6
CENTER2
62
7
100
AcDbLine
10
255.160000000000
20
241.400000000000
30
0.0
11
255.160000000000
21
199.520000000000
31
0.0
0
LINE
5
74c
100
AcDbEntity
8
0-1
6
CENTER2
62
7
100
AcDbLine
10
588.160000000000
20
241.400000000000
30
0.0
11
588.160000000000
21
199.520000000000
31
0.0
0
POLYLINE
5
74d
100
AcDbEntity
8
0-1
6
CONTINUOUS
62
  4
100
AcDb2dPolyline
66
1
10
0.0
20
0.0
30
0.0
70
0
0
VERTEX
5
74e
100
AcDbEntity
8
0-1
6
CONTINUOUS
62
  4
100
AcDbVertex
100
AcDb2dVertex
10
277.660000000000
20
221.720000000000
30
0.0
0
VERTEX
5
74f
100
AcDbEntity
8
0-1
6
CONTINUOUS
62
  4
100
AcDbVertex
100
AcDb2dVertex
10
277.660000000000
20
231.720000000000
30
0.0
0
VERTEX
5
750
100
AcDbEntity
8
0-1
6
CONTINUOUS
62
  4
100
AcDbVertex
100
AcDb2dVertex
10
338.160000000000
20
231.720000000000
30
0.0
0
SEQEND
5
751
100
AcDbEntity
8
0-1
0
LINE
5
752
100
AcDbEntity
8
0-1
6
DOT
62
4
100
AcDbLine
10
231.920000000000
20
91.500000000000
30
0.0
11
231.440000000000
21
91.650000000000
31
0.0
0
LINE
5
753
100
AcDbEntity
8
0-1
6
CONTINUOUS
62
7
100
AcDbLine
10
236.240000000000
20
106.740000000000
30
0.0
11
231.440000000000
21
91.650000000000
31
0.0
0
LINE
5
754
100
AcDbEntity
8
0-1
6
CONTINUOUS
62
7
100
AcDbLine
10
298.410000000000
20
87.000000000000
30
0.0
11
298.410000000000
21
86.500000000000
31
0.0
0
LINE
5
755
100
AcDbEntity
8
0-1
6
CONTINUOUS
62
7
100
AcDbLine
10
278.410000000000
20
86.500000000000
30
0.0
11
298.410000000000
21
86.500000000000
31
0.0
0
LINE
5
756
100
AcDbEntity
8
0-1
6
CONTINUOUS
62
7
100
AcDbLine
10
231.920000000000
20
86.500000000000
30
0.0
11
211.920000000000
21
86.500000000000
31
0.0
0
LINE
5
757
100
AcDbEntity
8
0-1
6
CONTINUOUS
62
7
100
AcDbLine
10
211.920000000000
20
87.000000000000
30
0.0
11
211.920000000000
21
86.500000000000
31
0.0
0
LINE
5
758
100
AcDbEntity
8
0-1
6
CONTINUOUS
62
7
100
AcDbLine
10
231.920000000000
20
86.500000000000
30
0.0
11
278.410000000000
21
86.500000000000
31
0.0
0
LINE
5
759
100
AcDbEntity
8
0-1
6
CONTINUOUS
62
7
100
AcDbLine
10
278.890000000000
20
91.650000000000
30
0.0
11
278.890000000000
21
86.500000000000
31
0.0
0
LINE
5
75a
100
AcDbEntity
8
0-1
6
CONTINUOUS
62
7
100
AcDbLine
10
278.890000000000
20
87.000000000000
30
0.0
11
298.410000000000
21
87.000000000000
31
0.0
0
LINE
5
75b
100
AcDbEntity
8
0-1
6
CONTINUOUS
62
7
100
AcDbLine
10
231.440000000000
20
91.650000000000
30
0.0
11
231.440000000000
21
86.500000000000
31
0.0
0
LINE
5
75c
100
AcDbEntity
8
0-1
6
CONTINUOUS
62
7
100
AcDbLine
10
231.440000000000
20
87.000000000000
30
0.0
11
211.920000000000
21
87.000000000000
31
0.0
0
LINE
5
75d
100
AcDbEntity
8
0-1
6
DOT
62
4
100
AcDbLine
10
231.440000000000
20
87.000000000000
30
0.0
11
278.890000000000
21
87.000000000000
31
0.0
0
LINE
5
75e
100
AcDbEntity
8
0-1
6
CONTINUOUS
62
7
100
AcDbLine
10
274.090000000000
20
106.720000000000
30
0.0
11
278.890000000000
21
91.650000000000
31
0.0
0
LINE
5
75f
100
AcDbEntity
8
0-1
6
CONTINUOUS
62
7
100
AcDbLine
10
275.660000000000
20
111.410000000000
30
0.0
11
274.090000000000
21
106.720000000000
31
0.0
0
LINE
5
760
100
AcDbEntity
8
0-1
6
DOT
62
4
100
AcDbLine
10
273.570000000000
20
106.720000000000
30
0.0
11
278.410000000000
21
91.500000000000
31
0.0
0
LINE
5
761
100
AcDbEntity
8
0-1
6
DOT
62
4
100
AcDbLine
10
275.160000000000
20
111.500000000000
30
0.0
11
273.570000000000
21
106.720000000000
31
0.0
0
LINE
5
762
100
AcDbEntity
8
0-1
6
CONTINUOUS
62
7
100
AcDbLine
10
235.170000000000
20
111.430000000000
30
0.0
11
236.240000000000
21
106.740000000000
31
0.0
0
POLYLINE
5
763
100
AcDbEntity
8
0-1
6
DOT
62
  4
100
AcDb2dPolyline
66
1
10
0.0
20
0.0
30
0.0
70
0
0
VERTEX
5
764
100
AcDbEntity
8
0-1
6
DOT
62
  4
100
AcDbVertex
100
AcDb2dVertex
10
235.660000000000
20
111.500000000000
30
0.0
0
VERTEX
5
765
100
AcDbEntity
8
0-1
6
DOT
62
  4
100
AcDbVertex
100
AcDb2dVertex
10
236.760000000000
20
106.720000000000
30
0.0
0
VERTEX
5
766
100
AcDbEntity
8
0-1
6
DOT
62
  4
100
AcDbVertex
100
AcDb2dVertex
10
231.920000000000
20
91.500000000000
30
0.0
0
SEQEND
5
767
100
AcDbEntity
8
0-1
0
LINE
5
768
100
AcDbEntity
8
0-1
6
CONTINUOUS
62
7
100
AcDbLine
10
265.660000000000
20
99.500000000000
30
0.0
11
265.660000000000
21
111.730000000000
31
0.0
0
LINE
5
769
100
AcDbEntity
8
0-1
6
CONTINUOUS
62
7
100
AcDbLine
10
244.660000000000
20
99.500000000000
30
0.0
11
244.660000000000
21
111.730000000000
31
0.0
0
LINE
5
76a
100
AcDbEntity
8
0-1
6
CONTINUOUS
62
7
100
AcDbLine
10
246.660000000000
20
97.500000000000
30
0.0
11
263.660000000000
21
97.500000000000
31
0.0
0
LINE
5
76b
100
AcDbEntity
8
0-1
6
CONTINUOUS
62
7
100
AcDbLine
10
242.660000000000
20
111.730000000000
30
0.0
11
242.660000000000
21
99.500000000000
31
0.0
0
LINE
5
76c
100
AcDbEntity
8
0-1
6
CONTINUOUS
62
7
100
AcDbLine
10
246.660000000000
20
95.500000000000
30
0.0
11
263.660000000000
21
95.500000000000
31
0.0
0
LINE
5
76d
100
AcDbEntity
8
0-1
6
CONTINUOUS
62
7
100
AcDbLine
10
267.660000000000
20
111.730000000000
30
0.0
11
267.660000000000
21
99.500000000000
31
0.0
0
LINE
5
76e
100
AcDbEntity
8
0-1
6
DOT
62
4
100
AcDbLine
10
278.410000000000
20
91.500000000000
30
0.0
11
278.890000000000
21
91.650000000000
31
0.0
0
LINE
5
76f
100
AcDbEntity
8
0-1
6
CONTINUOUS
62
7
100
AcDbLine
10
317.390000000000
20
132.230000000000
30
0.0
11
337.390000000000
21
132.230000000000
31
0.0
0
LINE
5
770
100
AcDbEntity
8
0-1
6
CONTINUOUS
62
7
100
AcDbLine
10
333.890000000000
20
87.000000000000
30
0.0
11
333.890000000000
21
86.500000000000
31
0.0
0
LINE
5
771
100
AcDbEntity
8
0-1
6
CONTINUOUS
62
7
100
AcDbLine
10
317.390000000000
20
91.650000000000
30
0.0
11
337.390000000000
21
91.650000000000
31
0.0
0
LINE
5
772
100
AcDbEntity
8
0-1
6
CONTINUOUS
62
7
100
AcDbLine
10
337.390000000000
20
132.230000000000
30
0.0
11
337.390000000000
21
91.650000000000
31
0.0
0
LINE
5
773
100
AcDbEntity
8
0-1
6
CONTINUOUS
62
7
100
AcDbLine
10
345.890000000000
20
87.000000000000
30
0.0
11
345.890000000000
21
86.500000000000
31
0.0
0
LINE
5
774
100
AcDbEntity
8
0-1
6
CONTINUOUS
62
7
100
AcDbLine
10
317.390000000000
20
111.410000000000
30
0.0
11
337.390000000000
21
111.410000000000
31
0.0
0
LINE
5
775
100
AcDbEntity
8
0-1
6
CONTINUOUS
62
7
100
AcDbLine
10
317.390000000000
20
106.720000000000
30
0.0
11
337.390000000000
21
106.720000000000
31
0.0
0
LINE
5
776
100
AcDbEntity
8
0-1
6
DOT
62
4
100
AcDbLine
10
317.890000000000
20
132.230000000000
30
0.0
11
317.890000000000
21
91.650000000000
31
0.0
0
LINE
5
777
100
AcDbEntity
8
0-1
6
CONTINUOUS
62
7
100
AcDbLine
10
317.890000000000
20
87.500000000000
30
0.0
11
317.890000000000
21
91.650000000000
31
0.0
0
LINE
5
778
100
AcDbEntity
8
0-1
6
CONTINUOUS
62
7
100
AcDbLine
10
318.390000000000
20
87.000000000000
30
0.0
11
345.890000000000
21
87.000000000000
31
0.0
0
LINE
5
779
100
AcDbEntity
8
0-1
6
CONTINUOUS
62
7
100
AcDbLine
10
317.390000000000
20
132.230000000000
30
0.0
11
317.390000000000
21
87.500000000000
31
0.0
0
LINE
5
77a
100
AcDbEntity
8
0-1
6
CONTINUOUS
62
7
100
AcDbLine
10
318.390000000000
20
86.500000000000
30
0.0
11
345.890000000000
21
86.500000000000
31
0.0
0
LINE
5
77b
100
AcDbEntity
8
0-1
6
CONTINUOUS
62
4
100
AcDbLine
10
201.660000000000
20
91.500000000000
30
0.0
11
191.660000000000
21
91.500000000000
31
0.0
0
LINE
5
77c
100
AcDbEntity
8
0-1
6
CONTINUOUS
62
7
100
AcDbLine
10
201.660000000000
20
91.500000000000
30
0.0
11
191.660000000000
21
91.500000000000
31
0.0
0
LINE
5
77d
100
AcDbEntity
8
0-1
6
CONTINUOUS
62
7
100
AcDbLine
10
201.660000000000
20
131.530000000000
30
0.0
11
191.660000000000
21
131.530000000000
31
0.0
0
LINE
5
77e
100
AcDbEntity
8
0-1
6
CONTINUOUS
62
7
100
AcDbLine
10
191.660000000000
20
86.500000000000
30
0.0
11
191.660000000000
21
131.530000000000
31
0.0
0
LINE
5
77f
100
AcDbEntity
8
0-1
6
CONTINUOUS
62
7
100
AcDbLine
10
232.160000000000
20
157.330000000000
30
0.0
11
232.160000000000
21
147.330000000000
31
0.0
0
LINE
5
780
100
AcDbEntity
8
0-1
6
CONTINUOUS
62
7
100
AcDbLine
10
278.160000000000
20
157.330000000000
30
0.0
11
232.160000000000
21
157.330000000000
31
0.0
0
LINE
5
781
100
AcDbEntity
8
0-1
6
CONTINUOUS
62
7
100
AcDbLine
10
278.160000000000
20
157.330000000000
30
0.0
11
278.160000000000
21
147.330000000000
31
0.0
0
LINE
5
782
100
AcDbEntity
8
0-1
6
CONTINUOUS
62
7
100
AcDbLine
10
211.920000000000
20
65.700000000000
30
0.0
11
211.920000000000
21
75.700000000000
31
0.0
0
LINE
5
783
100
AcDbEntity
8
0-1
6
CONTINUOUS
62
7
100
AcDbLine
10
298.410000000000
20
65.700000000000
30
0.0
11
211.920000000000
21
65.700000000000
31
0.0
0
LINE
5
784
100
AcDbEntity
8
0-1
6
CONTINUOUS
62
7
100
AcDbLine
10
298.410000000000
20
65.700000000000
30
0.0
11
298.410000000000
21
75.700000000000
31
0.0
0
LINE
5
785
100
AcDbEntity
8
0-1
6
CONTINUOUS
62
7
100
AcDbLine
10
333.890000000000
20
65.700000000000
30
0.0
11
333.890000000000
21
75.700000000000
31
0.0
0
LINE
5
786
100
AcDbEntity
8
0-1
6
CONTINUOUS
62
7
100
AcDbLine
10
345.890000000000
20
65.700000000000
30
0.0
11
345.890000000000
21
75.700000000000
31
0.0
0
LINE
5
787
100
AcDbEntity
8
0-1
6
CONTINUOUS
62
7
100
AcDbLine
10
317.390000000000
20
65.700000000000
30
0.0
11
317.390000000000
21
75.700000000000
31
0.0
0
LINE
5
788
100
AcDbEntity
8
0-1
6
CONTINUOUS
62
7
100
AcDbLine
10
345.890000000000
20
65.700000000000
30
0.0
11
317.390000000000
21
65.700000000000
31
0.0
0
LINE
5
789
100
AcDbEntity
8
0-0
6
CONTINUOUS
62
4
100
AcDbLine
10
232.660000000000
20
473.330000000000
30
0.0
11
232.660000000000
21
463.950000000000
31
0.0
0
POLYLINE
5
78a
100
AcDbEntity
8
0-0
6
CONTINUOUS
62
  4
100
AcDb2dPolyline
66
1
10
0.0
20
0.0
30
0.0
70
0
0
VERTEX
5
78b
100
AcDbEntity
8
0-0
6
CONTINUOUS
62
  4
100
AcDbVertex
100
AcDb2dVertex
10
232.660000000000
20
473.330000000000
30
0.0
0
VERTEX
5
78c
100
AcDbEntity
8
0-0
6
CONTINUOUS
62
  4
100
AcDbVertex
100
AcDb2dVertex
10
277.660000000000
20
473.330000000000
30
0.0
0
VERTEX
5
78d
100
AcDbEntity
8
0-0
6
CONTINUOUS
62
  4
100
AcDbVertex
100
AcDb2dVertex
10
277.660000000000
20
463.950000000000
30
0.0
0
SEQEND
5
78e
100
AcDbEntity
8
0-0
0
LINE
5
78f
100
AcDbEntity
8
0-0
6
CONTINUOUS
62
4
100
AcDbLine
10
565.660000000000
20
473.330000000000
30
0.0
11
565.660000000000
21
463.950000000000
31
0.0
0
POLYLINE
5
790
100
AcDbEntity
8
0-0
6
CONTINUOUS
62
  4
100
AcDb2dPolyline
66
1
10
0.0
20
0.0
30
0.0
70
0
0
VERTEX
5
791
100
AcDbEntity
8
0-0
6
CONTINUOUS
62
  4
100
AcDbVertex
100
AcDb2dVertex
10
565.660000000000
20
473.330000000000
30
0.0
0
VERTEX
5
792
100
AcDbEntity
8
0-0
6
CONTINUOUS
62
  4
100
AcDbVertex
100
AcDb2dVertex
10
610.660000000000
20
473.330000000000
30
0.0
0
VERTEX
5
793
100
AcDbEntity
8
0-0
6
CONTINUOUS
62
  4
100
AcDbVertex
100
AcDb2dVertex
10
610.660000000000
20
463.950000000000
30
0.0
0
SEQEND
5
794
100
AcDbEntity
8
0-0
0
LINE
5
795
100
AcDbEntity
8
0-0
6
CONTINUOUS
62
4
100
AcDbLine
10
277.660000000000
20
473.330000000000
30
0.0
11
565.660000000000
21
473.330000000000
31
0.0
0
LINE
5
796
100
AcDbEntity
8
0-0
6
CENTER2
62
7
100
AcDbLine
10
255.160000000000
20
513.830000000000
30
0.0
11
255.160000000000
21
486.190000000000
31
0.0
0
LINE
5
797
100
AcDbEntity
8
0-0
6
CENTER2
62
7
100
AcDbLine
10
588.160000000000
20
513.830000000000
30
0.0
11
588.160000000000
21
486.190000000000
31
0.0
0
LINE
5
798
100
AcDbEntity
8
0-0
6
CONTINUOUS
62
7
100
AcDbLine
10
581.490000000000
20
436.380000000000
30
0.0
11
580.570000000000
21
438.240000000000
31
0.0
0
LINE
5
799
100
AcDbEntity
8
0-0
6
CONTINUOUS
62
7
100
AcDbLine
10
581.490000000000
20
436.380000000000
30
0.0
11
579.770000000000
21
437.530000000000
31
0.0
0
LINE
5
79a
100
AcDbEntity
8
0-0
6
CONTINUOUS
62
7
100
AcDbLine
10
581.490000000000
20
436.380000000000
30
0.0
11
576.800000000000
21
441.710000000000
31
0.0
0
LINE
5
79b
100
AcDbEntity
8
0-0
6
CONTINUOUS
62
7
100
AcDbLine
10
566.840000000000
20
441.710000000000
30
0.0
11
576.800000000000
21
441.710000000000
31
0.0
0
LINE
5
79c
100
AcDbEntity
8
0-0
6
CONTINUOUS
62
7
100
AcDbLine
10
566.840000000000
20
441.710000000000
30
0.0
11
561.570000000000
21
450.830000000000
31
0.0
0
LINE
5
79d
100
AcDbEntity
8
0-2
6
CONTINUOUS
62
7
100
AcDbLine
10
241.660000000000
20
710.860000000000
30
0.0
11
241.660000000000
21
645.860000000000
31
0.0
0
LINE
5
79e
100
AcDbEntity
8
0-2
6
CONTINUOUS
62
7
100
AcDbLine
10
277.060000000000
20
690.260000000000
30
0.0
11
268.260000000000
21
690.260000000000
31
0.0
0
LINE
5
79f
100
AcDbEntity
8
0-2
6
CONTINUOUS
62
7
100
AcDbLine
10
277.660000000000
20
689.660000000000
30
0.0
11
277.660000000000
21
679.860000000000
31
0.0
0
LINE
5
7a0
100
AcDbEntity
8
0-2
6
CONTINUOUS
62
7
100
AcDbLine
10
267.660000000000
20
689.660000000000
30
0.0
11
267.660000000000
21
645.860000000000
31
0.0
0
LINE
5
7a1
100
AcDbEntity
8
0-2
6
CONTINUOUS
62
7
100
AcDbLine
10
229.660000000000
20
710.860000000000
30
0.0
11
219.660000000000
21
710.860000000000
31
0.0
0
LINE
5
7a2
100
AcDbEntity
8
0-2
6
CONTINUOUS
62
7
100
AcDbLine
10
229.660000000000
20
645.860000000000
30
0.0
11
219.660000000000
21
645.860000000000
31
0.0
0
LINE
5
7a3
100
AcDbEntity
8
0-2
6
CONTINUOUS
62
7
100
AcDbLine
10
277.660000000000
20
633.860000000000
30
0.0
11
277.660000000000
21
623.860000000000
31
0.0
0
LINE
5
7a4
100
AcDbEntity
8
0-2
6
CONTINUOUS
62
7
100
AcDbLine
10
263.860000000000
20
623.860000000000
30
0.0
11
277.660000000000
21
623.860000000000
31
0.0
0
LINE
5
7a5
100
AcDbEntity
8
0-2
6
CONTINUOUS
62
7
100
AcDbLine
10
267.660000000000
20
633.860000000000
30
0.0
11
267.660000000000
21
623.860000000000
31
0.0
0
LINE
5
7a6
100
AcDbEntity
8
0-2
6
DOT
62
7
100
AcDbLine
10
277.060000000000
20
690.260000000000
30
0.0
11
277.060000000000
21
690.860000000000
31
0.0
0
LINE
5
7a7
100
AcDbEntity
8
0-2
6
CONTINUOUS
62
7
100
AcDbLine
10
219.660000000000
20
710.860000000000
30
0.0
11
219.660000000000
21
645.860000000000
31
0.0
0
LINE
5
7a8
100
AcDbEntity
8
0-2
6
CONTINUOUS
62
7
100
AcDbLine
10
277.060000000000
20
690.260000000000
30
0.0
11
421.660000000000
21
690.260000000000
31
0.0
0
LINE
5
7a9
100
AcDbEntity
8
0-2
6
DOT
62
7
100
AcDbLine
10
277.060000000000
20
690.860000000000
30
0.0
11
421.660000000000
21
690.860000000000
31
0.0
0
LINE
5
7aa
100
AcDbEntity
8
0-2
6
CONTINUOUS
62
7
100
AcDbLine
10
277.660000000000
20
679.860000000000
30
0.0
11
421.660000000000
21
679.860000000000
31
0.0
0
LINE
5
7ab
100
AcDbEntity
8
0-2
6
CONTINUOUS
62
7
100
AcDbLine
10
241.660000000000
20
710.860000000000
30
0.0
11
421.660000000000
21
710.860000000000
31
0.0
0
LINE
5
7ac
100
AcDbEntity
8
0-2
6
CONTINUOUS
62
7
100
AcDbLine
10
241.660000000000
20
645.860000000000
30
0.0
11
267.660000000000
21
645.860000000000
31
0.0
0
POLYLINE
5
7ad
100
AcDbEntity
8
0-2
6
CONTINUOUS
62
  7
100
AcDb2dPolyline
66
1
10
0.0
20
0.0
30
0.0
70
0
0
VERTEX
5
7ae
100
AcDbEntity
8
0-2
6
CONTINUOUS
62
  7
100
AcDbVertex
100
AcDb2dVertex
10
241.660000000000
20
633.860000000000
30
0.0
0
VERTEX
5
7af
100
AcDbEntity
8
0-2
6
CONTINUOUS
62
  7
100
AcDbVertex
100
AcDb2dVertex
10
241.660000000000
20
623.860000000000
30
0.0
0
VERTEX
5
7b0
100
AcDbEntity
8
0-2
6
CONTINUOUS
62
  7
100
AcDbVertex
100
AcDb2dVertex
10
263.860000000000
20
623.860000000000
30
0.0
0
SEQEND
5
7b1
100
AcDbEntity
8
0-2
0
LINE
5
7b2
100
AcDbEntity
8
0-2
6
CONTINUOUS
62
7
100
AcDbLine
10
601.660000000000
20
710.860000000000
30
0.0
11
601.660000000000
21
645.860000000000
31
0.0
0
LINE
5
7b3
100
AcDbEntity
8
0-2
6
CONTINUOUS
62
7
100
AcDbLine
10
566.260000000000
20
690.260000000000
30
0.0
11
575.060000000000
21
690.260000000000
31
0.0
0
LINE
5
7b4
100
AcDbEntity
8
0-2
6
CONTINUOUS
62
7
100
AcDbLine
10
565.660000000000
20
689.660000000000
30
0.0
11
565.660000000000
21
679.860000000000
31
0.0
0
LINE
5
7b5
100
AcDbEntity
8
0-2
6
CONTINUOUS
62
7
100
AcDbLine
10
575.660000000000
20
689.660000000000
30
0.0
11
575.660000000000
21
645.860000000000
31
0.0
0
LINE
5
7b6
100
AcDbEntity
8
0-2
6
CONTINUOUS
62
7
100
AcDbLine
10
613.660000000000
20
710.860000000000
30
0.0
11
623.660000000000
21
710.860000000000
31
0.0
0
LINE
5
7b7
100
AcDbEntity
8
0-2
6
CONTINUOUS
62
7
100
AcDbLine
10
613.660000000000
20
645.860000000000
30
0.0
11
623.660000000000
21
645.860000000000
31
0.0
0
LINE
5
7b8
100
AcDbEntity
8
0-2
6
CONTINUOUS
62
7
100
AcDbLine
10
565.660000000000
20
633.860000000000
30
0.0
11
565.660000000000
21
623.860000000000
31
0.0
0
LINE
5
7b9
100
AcDbEntity
8
0-2
6
CONTINUOUS
62
7
100
AcDbLine
10
579.470000000000
20
623.860000000000
30
0.0
11
565.660000000000
21
623.860000000000
31
0.0
0
LINE
5
7ba
100
AcDbEntity
8
0-2
6
CONTINUOUS
62
7
100
AcDbLine
10
575.660000000000
20
633.860000000000
30
0.0
11
575.660000000000
21
623.860000000000
31
0.0
0
LINE
5
7bb
100
AcDbEntity
8
0-2
6
DOT
62
7
100
AcDbLine
10
566.260000000000
20
690.260000000000
30
0.0
11
566.260000000000
21
690.860000000000
31
0.0
0
LINE
5
7bc
100
AcDbEntity
8
0-2
6
CONTINUOUS
62
7
100
AcDbLine
10
623.660000000000
20
710.860000000000
30
0.0
11
623.660000000000
21
645.860000000000
31
0.0
0
LINE
5
7bd
100
AcDbEntity
8
0-2
6
CONTINUOUS
62
7
100
AcDbLine
10
566.260000000000
20
690.260000000000
30
0.0
11
421.660000000000
21
690.260000000000
31
0.0
0
LINE
5
7be
100
AcDbEntity
8
0-2
6
DOT
62
7
100
AcDbLine
10
566.260000000000
20
690.860000000000
30
0.0
11
421.660000000000
21
690.860000000000
31
0.0
0
LINE
5
7bf
100
AcDbEntity
8
0-2
6
CONTINUOUS
62
7
100
AcDbLine
10
565.660000000000
20
679.860000000000
30
0.0
11
421.660000000000
21
679.860000000000
31
0.0
0
LINE
5
7c0
100
AcDbEntity
8
0-2
6
CONTINUOUS
62
7
100
AcDbLine
10
601.660000000000
20
710.860000000000
30
0.0
11
421.660000000000
21
710.860000000000
31
0.0
0
LINE
5
7c1
100
AcDbEntity
8
0-2
6
CONTINUOUS
62
7
100
AcDbLine
10
601.660000000000
20
645.860000000000
30
0.0
11
575.660000000000
21
645.860000000000
31
0.0
0
POLYLINE
5
7c2
100
AcDbEntity
8
0-2
6
CONTINUOUS
62
  7
100
AcDb2dPolyline
66
1
10
0.0
20
0.0
30
0.0
70
0
0
VERTEX
5
7c3
100
AcDbEntity
8
0-2
6
CONTINUOUS
62
  7
100
AcDbVertex
100
AcDb2dVertex
10
601.660000000000
20
633.860000000000
30
0.0
0
VERTEX
5
7c4
100
AcDbEntity
8
0-2
6
CONTINUOUS
62
  7
100
AcDbVertex
100
AcDb2dVertex
10
601.660000000000
20
623.860000000000
30
0.0
0
VERTEX
5
7c5
100
AcDbEntity
8
0-2
6
CONTINUOUS
62
  7
100
AcDbVertex
100
AcDb2dVertex
10
579.470000000000
20
623.860000000000
30
0.0
0
SEQEND
5
7c6
100
AcDbEntity
8
0-2
0
LINE
5
7c7
100
AcDbEntity
8
0-2
6
CONTINUOUS
62
7
100
AcDbLine
10
277.660000000000
20
623.860000000000
30
0.0
11
565.660000000000
21
623.860000000000
31
0.0
0
LINE
5
7c8
100
AcDbEntity
8
0-1
6
DOT
62
7
100
AcDbLine
10
692.850000000000
20
248.150000000000
30
0.0
11
743.850000000000
21
299.150000000000
31
0.0
0
LINE
5
7c9
100
AcDbEntity
8
0-1
6
CONTINUOUS
62
7
100
AcDbLine
10
789.850000000000
20
230.230000000000
30
0.0
11
789.850000000000
21
240.230000000000
31
0.0
0
LINE
5
7ca
100
AcDbEntity
8
0-1
6
CONTINUOUS
62
7
100
AcDbLine
10
789.850000000000
20
204.230000000000
30
0.0
11
789.850000000000
21
233.230000000000
31
0.0
0
LINE
5
7cb
100
AcDbEntity
8
0-1
6
CONTINUOUS
62
7
100
AcDbLine
10
724.050000000000
20
230.230000000000
30
0.0
11
767.850000000000
21
230.230000000000
31
0.0
0
LINE
5
7cc
100
AcDbEntity
8
0-1
6
CONTINUOUS
62
7
100
AcDbLine
10
767.850000000000
20
204.230000000000
30
0.0
11
767.850000000000
21
230.230000000000
31
0.0
0
LINE
5
7cd
100
AcDbEntity
8
0-1
6
CONTINUOUS
62
7
100
AcDbLine
10
702.850000000000
20
204.230000000000
30
0.0
11
702.850000000000
21
258.150000000000
31
0.0
0
LINE
5
7ce
100
AcDbEntity
8
0-2
6
CONTINUOUS
62
4
100
AcDbLine
10
255.160000000000
20
732.440000000000
30
0.0
11
588.160000000000
21
732.440000000000
31
0.0
0
LINE
5
7cf
100
AcDbEntity
8
0-2
6
CENTER2
62
4
100
AcDbLine
10
255.160000000000
20
637.980000000000
30
0.0
11
255.160000000000
21
732.440000000000
31
0.0
0
LINE
5
7d0
100
AcDbEntity
8
0-2
6
CENTER2
62
4
100
AcDbLine
10
588.160000000000
20
637.980000000000
30
0.0
11
588.160000000000
21
732.440000000000
31
0.0
0
LINE
5
7d1
100
AcDbEntity
8
0-2
6
CONTINUOUS
62
4
100
AcDbLine
10
241.660000000000
20
748.340000000000
30
0.0
11
601.660000000000
21
748.340000000000
31
0.0
0
LINE
5
7d2
100
AcDbEntity
8
0-2
6
CONTINUOUS
62
4
100
AcDbLine
10
241.660000000000
20
732.440000000000
30
0.0
11
241.660000000000
21
748.340000000000
31
0.0
0
LINE
5
7d3
100
AcDbEntity
8
0-2
6
CONTINUOUS
62
4
100
AcDbLine
10
601.660000000000
20
732.440000000000
30
0.0
11
601.660000000000
21
748.340000000000
31
0.0
0
LINE
5
7d4
100
AcDbEntity
8
0-0
6
CENTER2
62
7
100
AcDbLine
10
255.160000000000
20
450.100000000000
30
0.0
11
255.160000000000
21
323.860000000000
31
0.0
0
LINE
5
7d5
100
AcDbEntity
8
0-0
6
CENTER2
62
7
100
AcDbLine
10
588.160000000000
20
450.100000000000
30
0.0
11
588.160000000000
21
323.860000000000
31
0.0
0
ARC
5
7d6
100
AcDbEntity
8
0-1
6
CONTINUOUS
62
7
100
AcDbCircle
10
722.250000000000
20
131.030000000000
30
0.0
40
0.600000010249
100
AcDbArc
50
360.000000000000
51
450.000000000000
0
ARC
5
7d7
100
AcDbEntity
8
0-1
6
CONTINUOUS
62
7
100
AcDbCircle
10
722.250000000000
20
131.030000000000
30
0.0
40
1.200000020498
100
AcDbArc
50
360.000000000000
51
390.000244140625
0
ARC
5
7d8
100
AcDbEntity
8
0-1
6
DOT
62
7
100
AcDbCircle
10
722.250000000000
20
131.030000000000
30
0.0
40
1.200000020498
100
AcDbArc
50
30.000244140625
51
90.000000000000
0
ARC
5
7d9
100
AcDbEntity
8
0-1
6
CONTINUOUS
62
7
100
AcDbCircle
10
724.050000000000
20
98.430000000000
30
0.0
40
0.600000010249
100
AcDbArc
50
180.000000000000
51
270.000000000000
0
ARC
5
7da
100
AcDbEntity
8
0-1
6
CONTINUOUS
62
7
100
AcDbCircle
10
724.050000000000
20
98.430000000000
30
0.0
40
1.200000020498
100
AcDbArc
50
180.000000000000
51
270.000000000000
0
ARC
5
7db
100
AcDbEntity
8
0-1
6
CONTINUOUS
62
7
100
AcDbCircle
10
724.050000000000
20
230.830000000000
30
0.0
40
0.600000010249
100
AcDbArc
50
180.000000000000
51
270.000000000000
0
ARC
5
7dc
100
AcDbEntity
8
0-1
6
CONTINUOUS
62
7
100
AcDbCircle
10
724.050000000000
20
239.630000000000
30
0.0
40
0.600000010249
100
AcDbArc
50
90.000000000000
51
180.000000000000
0
CIRCLE
5
7dd
100
AcDbEntity
8
F-F
6
CONTINUOUS
62
3
100
AcDbCircle
10
39.920000000000
20
40.120000000000
30
0.0
40
5.656854879605
0
CIRCLE
5
7de
100
AcDbEntity
8
F-F
6
CONTINUOUS
62
3
100
AcDbCircle
10
39.920000000000
20
40.120000000000
30
0.0
40
6.456854635214
0
CIRCLE
5
7df
100
AcDbEntity
8
F-F
6
CONTINUOUS
62
4
100
AcDbCircle
10
39.920000000000
20
40.120000000000
30
0.0
40
5.736855280960
0
CIRCLE
5
7e0
100
AcDbEntity
8
F-F
6
CONTINUOUS
62
4
100
AcDbCircle
10
39.920000000000
20
40.120000000000
30
0.0
40
5.896853761158
0
CIRCLE
5
7e1
100
AcDbEntity
8
F-F
6
CONTINUOUS
62
4
100
AcDbCircle
10
39.920000000000
20
40.120000000000
30
0.0
40
6.056854563867
0
CIRCLE
5
7e2
100
AcDbEntity
8
F-F
6
CONTINUOUS
62
4
100
AcDbCircle
10
39.920000000000
20
40.120000000000
30
0.0
40
6.216853431151
0
CIRCLE
5
7e3
100
AcDbEntity
8
F-F
6
CONTINUOUS
62
4
100
AcDbCircle
10
39.920000000000
20
40.120000000000
30
0.0
40
6.376853072605
0
ARC
5
7e4
100
AcDbEntity
8
0-0
6
CONTINUOUS
62
7
100
AcDbCircle
10
262.870000000000
20
399.830000000000
30
0.0
40
0.999999984825
100
AcDbArc
50
270.000000000000
51
353.796203613281
0
ARC
5
7e5
100
AcDbEntity
8
0-0
6
CONTINUOUS
62
7
100
AcDbCircle
10
262.870000000000
20
399.830000000000
30
0.0
40
1.999999969650
100
AcDbArc
50
270.000000000000
51
353.796203613281
0
ARC
5
7e6
100
AcDbEntity
8
0-0
6
CONTINUOUS
62
7
100
AcDbCircle
10
267.780000000000
20
428.030000000000
30
0.0
40
0.999999984825
100
AcDbArc
50
26.079040527344
51
174.129791259766
0
ARC
5
7e7
100
AcDbEntity
8
0-0
6
CONTINUOUS
62
7
100
AcDbCircle
10
267.780000000000
20
428.030000000000
30
0.0
40
1.999999969650
100
AcDbArc
50
26.079483032227
51
174.129791259766
0
ARC
5
7e8
100
AcDbEntity
8
0-0
6
CONTINUOUS
62
7
100
AcDbCircle
10
274.160000000000
20
421.180000000000
30
0.0
40
0.499999992412
100
AcDbArc
50
263.267562866211
51
0.000000000000
0
ARC
5
7e9
100
AcDbEntity
8
0-0
6
CONTINUOUS
62
7
100
AcDbCircle
10
274.160000000000
20
421.180000000000
30
0.0
40
0.999999984825
100
AcDbArc
50
263.266494750977
51
0.000000000000
0
ARC
5
7ea
100
AcDbEntity
8
0-0
6
CONTINUOUS
62
7
100
AcDbCircle
10
268.460000000000
20
421.910000000000
30
0.0
40
0.999999984825
100
AcDbArc
50
75.963882446289
51
180.000000000000
0
ARC
5
7eb
100
AcDbEntity
8
0-0
6
CONTINUOUS
62
7
100
AcDbCircle
10
268.460000000000
20
419.760000000000
30
0.0
40
0.999999984825
100
AcDbArc
50
180.000000000000
51
243.434494018555
0
ARC
5
7ec
100
AcDbEntity
8
0-0
6
CONTINUOUS
62
7
100
AcDbCircle
10
268.460000000000
20
421.910000000000
30
0.0
40
1.499999977237
100
AcDbArc
50
75.963882446289
51
180.000000000000
0
ARC
5
7ed
100
AcDbEntity
8
0-0
6
CONTINUOUS
62
7
100
AcDbCircle
10
268.460000000000
20
419.760000000000
30
0.0
40
1.499999977237
100
AcDbArc
50
180.000000000000
51
243.434494018555
0
ARC
5
7ee
100
AcDbEntity
8
0-0
6
CONTINUOUS
62
7
100
AcDbCircle
10
272.990000000000
20
422.830000000000
30
0.0
40
0.499999992412
100
AcDbArc
50
266.414596557617
51
0.000000000000
0
ARC
5
7ef
100
AcDbEntity
8
0-0
6
CONTINUOUS
62
7
100
AcDbCircle
10
272.990000000000
20
422.830000000000
30
0.0
40
0.999999984825
100
AcDbArc
50
263.347274780273
51
0.000000000000
0
ARC
5
7f0
100
AcDbEntity
8
0-0
6
CONTINUOUS
62
7
100
AcDbCircle
10
255.160000000000
20
439.830000000000
30
0.0
40
1.971747217517
100
AcDbArc
50
270.000000000000
51
340.816726684570
0
ARC
5
7f1
100
AcDbEntity
8
0-0
6
CONTINUOUS
62
7
100
AcDbCircle
10
255.160000000000
20
420.330000000000
30
0.0
40
19.506881300876
100
AcDbArc
50
2.886962890625
51
79.725326538086
0
ARC
5
7f2
100
AcDbEntity
8
0-0
6
CONTINUOUS
62
7
100
AcDbCircle
10
255.160000000000
20
420.330000000000
30
0.0
40
20.006882067458
100
AcDbArc
50
3.017333984375
51
79.844848632813
0
ARC
5
7f3
100
AcDbEntity
8
0-0
6
CONTINUOUS
62
7
100
AcDbCircle
10
255.160000000000
20
439.830000000000
30
0.0
40
2.471746822845
100
AcDbArc
50
270.000000000000
51
339.003463745117
0
ARC
5
7f4
100
AcDbEntity
8
0-0
6
CONTINUOUS
62
7
100
AcDbCircle
10
258.310000000000
20
438.730000000000
30
0.0
40
0.861941771660
100
AcDbArc
50
67.003463745117
51
165.643997192383
0
ARC
5
7f5
100
AcDbEntity
8
0-0
6
CONTINUOUS
62
7
100
AcDbCircle
10
258.310000000000
20
438.730000000000
30
0.0
40
1.361941764073
100
AcDbArc
50
67.003463745117
51
165.643997192383
0
ARC
5
7f6
100
AcDbEntity
8
0-0
6
CONTINUOUS
62
7
100
AcDbCircle
10
259.410000000000
20
437.550000000000
30
0.0
40
1.099454309610
100
AcDbArc
50
70.872222900391
51
159.736984252930
0
ARC
5
7f7
100
AcDbEntity
8
0-0
6
CONTINUOUS
62
7
100
AcDbCircle
10
255.440000000000
20
439.780000000000
30
0.0
40
3.454218244934
100
AcDbArc
50
265.358566284180
51
330.720916748047
0
ARC
5
7f8
100
AcDbEntity
8
0-0
6
CONTINUOUS
62
7
100
AcDbCircle
10
255.440000000000
20
439.780000000000
30
0.0
40
3.954218237347
100
AcDbArc
50
265.358566284180
51
331.397445678711
0
ARC
5
7f9
100
AcDbEntity
8
0-0
6
CONTINUOUS
62
7
100
AcDbCircle
10
259.410000000000
20
437.550000000000
30
0.0
40
0.599454317197
100
AcDbArc
50
69.145065307617
51
162.815383911133
0
ARC
5
7fa
100
AcDbEntity
8
0-0
6
CONTINUOUS
62
7
100
AcDbCircle
10
247.460000000000
20
399.830000000000
30
0.0
40
0.999999984825
100
AcDbArc
50
186.203796386719
51
270.000000000000
0
ARC
5
7fb
100
AcDbEntity
8
0-0
6
CONTINUOUS
62
7
100
AcDbCircle
10
247.460000000000
20
399.830000000000
30
0.0
40
1.999999969650
100
AcDbArc
50
186.203796386719
51
270.000000000000
0
ARC
5
7fc
100
AcDbEntity
8
0-0
6
CONTINUOUS
62
7
100
AcDbCircle
10
242.540000000000
20
428.030000000000
30
0.0
40
0.999999984825
100
AcDbArc
50
5.870208740234
51
153.920959472656
0
ARC
5
7fd
100
AcDbEntity
8
0-0
6
CONTINUOUS
62
7
100
AcDbCircle
10
242.540000000000
20
428.030000000000
30
0.0
40
1.999999969650
100
AcDbArc
50
5.870208740234
51
153.920516967773
0
ARC
5
7fe
100
AcDbEntity
8
0-0
6
CONTINUOUS
62
7
100
AcDbCircle
10
277.930000000000
20
400.830000000000
30
0.0
40
0.499999992412
100
AcDbArc
50
196.370071411133
51
270.000000000000
0
ARC
5
7ff
100
AcDbEntity
8
0-0
6
CONTINUOUS
62
7
100
AcDbCircle
10
241.860000000000
20
421.910000000000
30
0.0
40
0.999999984825
100
AcDbArc
50
360.000000000000
51
464.036117553711
0
ARC
5
800
100
AcDbEntity
8
0-0
6
CONTINUOUS
62
7
100
AcDbCircle
10
241.860000000000
20
419.760000000000
30
0.0
40
0.999999984825
100
AcDbArc
50
296.565505981445
51
360.000000000000
0
ARC
5
801
100
AcDbEntity
8
0-0
6
CONTINUOUS
62
7
100
AcDbCircle
10
241.860000000000
20
421.910000000000
30
0.0
40
1.499999977237
100
AcDbArc
50
360.000000000000
51
464.036117553711
0
ARC
5
802
100
AcDbEntity
8
0-0
6
CONTINUOUS
62
7
100
AcDbCircle
10
241.860000000000
20
419.760000000000
30
0.0
40
1.499999977237
100
AcDbArc
50
296.565505981445
51
360.000000000000
0
ARC
5
803
100
AcDbEntity
8
0-0
6
CONTINUOUS
62
7
100
AcDbCircle
10
237.340000000000
20
422.830000000000
30
0.0
40
0.499999992412
100
AcDbArc
50
180.000000000000
51
-86.414596557617
0
ARC
5
804
100
AcDbEntity
8
0-0
6
CONTINUOUS
62
7
100
AcDbCircle
10
255.160000000000
20
439.830000000000
30
0.0
40
1.971747217517
100
AcDbArc
50
199.183273315430
51
270.000000000000
0
ARC
5
805
100
AcDbEntity
8
0-0
6
CONTINUOUS
62
7
100
AcDbCircle
10
255.160000000000
20
439.830000000000
30
0.0
40
2.471746822845
100
AcDbArc
50
200.996536254883
51
270.000000000000
0
ARC
5
806
100
AcDbEntity
8
0-0
6
CONTINUOUS
62
7
100
AcDbCircle
10
252.020000000000
20
438.730000000000
30
0.0
40
0.861941771660
100
AcDbArc
50
14.356002807617
51
112.996536254883
0
ARC
5
807
100
AcDbEntity
8
0-0
6
CONTINUOUS
62
7
100
AcDbCircle
10
252.020000000000
20
438.730000000000
30
0.0
40
1.361941764073
100
AcDbArc
50
14.356002807617
51
112.996536254883
0
ARC
5
808
100
AcDbEntity
8
0-0
6
CONTINUOUS
62
7
100
AcDbCircle
10
250.930000000000
20
437.470000000000
30
0.0
40
0.999999984825
100
AcDbArc
50
104.760116577148
51
161.404159545898
0
ARC
5
809
100
AcDbEntity
8
0-0
6
CONTINUOUS
62
7
100
AcDbCircle
10
250.930000000000
20
437.470000000000
30
0.0
40
0.499999992412
100
AcDbArc
50
104.760116577148
51
161.404159545898
0
ARC
5
80a
100
AcDbEntity
8
0-0
6
CONTINUOUS
62
7
100
AcDbCircle
10
272.130000000000
20
415.130000000000
30
0.0
40
0.999999984825
100
AcDbArc
50
16.370162963867
51
63.435623168945
0
ARC
5
80b
100
AcDbEntity
8
0-0
6
CONTINUOUS
62
7
100
AcDbCircle
10
272.130000000000
20
415.130000000000
30
0.0
40
1.499999977237
100
AcDbArc
50
16.370162963867
51
63.435623168945
0
ARC
5
80c
100
AcDbEntity
8
0-0
6
CONTINUOUS
62
7
100
AcDbCircle
10
238.200000000000
20
415.130000000000
30
0.0
40
0.999999984825
100
AcDbArc
50
116.564834594727
51
163.629837036133
0
ARC
5
80d
100
AcDbEntity
8
0-0
6
CONTINUOUS
62
7
100
AcDbCircle
10
238.200000000000
20
415.130000000000
30
0.0
40
1.499999977237
100
AcDbArc
50
116.564834594727
51
163.629837036133
0
ARC
5
80e
100
AcDbEntity
8
0-0
6
CONTINUOUS
62
7
100
AcDbCircle
10
257.930000000000
20
419.020000000000
30
0.0
40
21.430205929158
100
AcDbArc
50
106.929763793945
51
169.766738891602
0
ARC
5
80f
100
AcDbEntity
8
0-0
6
CONTINUOUS
62
7
100
AcDbCircle
10
237.340000000000
20
422.830000000000
30
0.0
40
0.999999984825
100
AcDbArc
50
177.011077880859
51
-83.347274780273
0
ARC
5
810
100
AcDbEntity
8
0-0
6
CONTINUOUS
62
7
100
AcDbCircle
10
257.930000000000
20
419.020000000000
30
0.0
40
21.930206695740
100
AcDbArc
50
107.067840576172
51
169.864349365234
0
ARC
5
811
100
AcDbEntity
8
0-0
6
CONTINUOUS
62
7
100
AcDbCircle
10
277.930000000000
20
400.830000000000
30
0.0
40
0.999999984825
100
AcDbArc
50
196.371124267578
51
270.000000000000
0
ARC
5
812
100
AcDbEntity
8
0-0
6
CONTINUOUS
62
7
100
AcDbCircle
10
231.920000000000
20
400.830000000000
30
0.0
40
0.499999992412
100
AcDbArc
50
270.000000000000
51
343.629928588867
0
ARC
5
813
100
AcDbEntity
8
0-0
6
CONTINUOUS
62
7
100
AcDbCircle
10
231.920000000000
20
400.830000000000
30
0.0
40
0.999999984825
100
AcDbArc
50
270.000000000000
51
343.629928588867
0
ARC
5
814
100
AcDbEntity
8
0-0
6
CONTINUOUS
62
7
100
AcDbCircle
10
238.200000000000
20
415.130000000000
30
0.0
40
0.999999984825
100
AcDbArc
50
116.564376831055
51
163.629837036133
0
ARC
5
815
100
AcDbEntity
8
0-0
6
CONTINUOUS
62
7
100
AcDbCircle
10
238.200000000000
20
415.130000000000
30
0.0
40
1.499999977237
100
AcDbArc
50
116.564376831055
51
163.629837036133
0
ARC
5
816
100
AcDbEntity
8
0-0
6
CONTINUOUS
62
7
100
AcDbCircle
10
336.540000000000
20
398.830000000000
30
0.0
40
0.999999984825
100
AcDbArc
50
45.000000000000
51
90.000000000000
0
ARC
5
817
100
AcDbEntity
8
0-0
6
CONTINUOUS
62
7
100
AcDbCircle
10
338.370000000000
20
399.830000000000
30
0.0
40
0.999999984825
100
AcDbArc
50
225.001068115234
51
270.000000000000
0
ARC
5
818
100
AcDbEntity
8
0-0
6
CONTINUOUS
62
7
100
AcDbCircle
10
336.540000000000
20
398.830000000000
30
0.0
40
1.499999977237
100
AcDbArc
50
45.000000000000
51
90.000000000000
0
ARC
5
819
100
AcDbEntity
8
0-0
6
CONTINUOUS
62
7
100
AcDbCircle
10
338.370000000000
20
399.830000000000
30
0.0
40
0.499999992412
100
AcDbArc
50
225.001068115234
51
270.000000000000
0
ARC
5
81a
100
AcDbEntity
8
0-0
6
CONTINUOUS
62
7
100
AcDbCircle
10
173.290000000000
20
398.830000000000
30
0.0
40
0.999999984825
100
AcDbArc
50
90.000000000000
51
135.000000000000
0
ARC
5
81b
100
AcDbEntity
8
0-0
6
CONTINUOUS
62
7
100
AcDbCircle
10
171.460000000000
20
399.830000000000
30
0.0
40
0.999999984825
100
AcDbArc
50
270.000000000000
51
314.998931884766
0
ARC
5
81c
100
AcDbEntity
8
0-0
6
CONTINUOUS
62
7
100
AcDbCircle
10
173.290000000000
20
398.830000000000
30
0.0
40
1.499999977237
100
AcDbArc
50
90.000000000000
51
135.000000000000
0
ARC
5
81d
100
AcDbEntity
8
0-0
6
CONTINUOUS
62
7
100
AcDbCircle
10
171.460000000000
20
399.830000000000
30
0.0
40
0.499999992412
100
AcDbArc
50
270.000000000000
51
314.998931884766
0
ARC
5
81e
100
AcDbEntity
8
0-0
6
CONTINUOUS
62
7
100
AcDbCircle
10
369.790000000000
20
398.830000000000
30
0.0
40
0.999999984825
100
AcDbArc
50
90.000000000000
51
135.000000000000
0
ARC
5
81f
100
AcDbEntity
8
0-0
6
CONTINUOUS
62
7
100
AcDbCircle
10
367.960000000000
20
399.830000000000
30
0.0
40
0.999999984825
100
AcDbArc
50
270.000000000000
51
314.998931884766
0
ARC
5
820
100
AcDbEntity
8
0-0
6
CONTINUOUS
62
7
100
AcDbCircle
10
369.790000000000
20
398.830000000000
30
0.0
40
1.499999977237
100
AcDbArc
50
90.000000000000
51
135.000000000000
0
ARC
5
821
100
AcDbEntity
8
0-0
6
CONTINUOUS
62
7
100
AcDbCircle
10
367.960000000000
20
399.830000000000
30
0.0
40
0.499999992412
100
AcDbArc
50
270.000000000000
51
314.998931884766
0
ARC
5
822
100
AcDbEntity
8
0-0
6
CONTINUOUS
62
7
100
AcDbCircle
10
140.040000000000
20
398.830000000000
30
0.0
40
0.999999984825
100
AcDbArc
50
45.000000000000
51
90.000000000000
0
ARC
5
823
100
AcDbEntity
8
0-0
6
CONTINUOUS
62
7
100
AcDbCircle
10
141.870000000000
20
399.830000000000
30
0.0
40
0.999999984825
100
AcDbArc
50
225.001068115234
51
270.000000000000
0
ARC
5
824
100
AcDbEntity
8
0-0
6
CONTINUOUS
62
7
100
AcDbCircle
10
140.040000000000
20
398.830000000000
30
0.0
40
1.499999977237
100
AcDbArc
50
45.000000000000
51
90.000000000000
0
ARC
5
825
100
AcDbEntity
8
0-0
6
CONTINUOUS
62
7
100
AcDbCircle
10
141.870000000000
20
399.830000000000
30
0.0
40
0.499999992412
100
AcDbArc
50
225.001068115234
51
270.000000000000
0
ARC
5
826
100
AcDbEntity
8
0-0
6
CONTINUOUS
62
7
100
AcDbCircle
10
254.880000000000
20
439.780000000000
30
0.0
40
3.954218237347
100
AcDbArc
50
213.945114135742
51
274.641433715820
0
ARC
5
827
100
AcDbEntity
8
0-0
6
CONTINUOUS
62
7
100
AcDbCircle
10
254.880000000000
20
439.780000000000
30
0.0
40
3.454218244934
100
AcDbArc
50
214.940277099609
51
274.641433715820
0
ARC
5
828
100
AcDbEntity
8
0-0
6
CONTINUOUS
62
7
100
AcDbCircle
10
251.030000000000
20
437.400000000000
30
0.0
40
1.099454309610
100
AcDbArc
50
21.718612670898
51
109.127777099609
0
ARC
5
829
100
AcDbEntity
8
0-0
6
CONTINUOUS
62
7
100
AcDbCircle
10
251.030000000000
20
437.400000000000
30
0.0
40
0.599454317197
100
AcDbArc
50
17.186462402344
51
110.854934692383
0
ARC
5
82a
100
AcDbEntity
8
0-0
6
CONTINUOUS
62
7
100
AcDbCircle
10
255.090000000000
20
420.160000000000
30
0.0
40
18.506879767711
100
AcDbArc
50
67.039611816406
51
75.808273315430
0
ARC
5
82b
100
AcDbEntity
8
0-0
6
CONTINUOUS
62
7
100
AcDbCircle
10
255.090000000000
20
420.160000000000
30
0.0
40
19.006878985954
100
AcDbArc
50
66.167251586914
51
75.733215332031
0
ARC
5
82c
100
AcDbEntity
8
0-0
6
CONTINUOUS
62
7
100
AcDbCircle
10
255.890000000000
20
420.650000000000
30
0.0
40
17.745003624792
100
AcDbArc
50
7.502426147461
51
68.827896118164
0
ARC
5
82d
100
AcDbEntity
8
0-0
6
CONTINUOUS
62
7
100
AcDbCircle
10
255.890000000000
20
420.650000000000
30
0.0
40
18.245005939714
100
AcDbArc
50
7.502426147461
51
67.853469848633
0
ARC
5
82e
100
AcDbEntity
8
0-0
6
CONTINUOUS
62
7
100
AcDbCircle
10
595.870000000000
20
399.830000000000
30
0.0
40
0.999999984825
100
AcDbArc
50
270.000000000000
51
353.796203613281
0
ARC
5
82f
100
AcDbEntity
8
0-0
6
CONTINUOUS
62
7
100
AcDbCircle
10
595.870000000000
20
399.830000000000
30
0.0
40
1.999999969650
100
AcDbArc
50
270.000000000000
51
353.796203613281
0
ARC
5
830
100
AcDbEntity
8
0-0
6
CONTINUOUS
62
7
100
AcDbCircle
10
600.780000000000
20
428.030000000000
30
0.0
40
0.999999984825
100
AcDbArc
50
26.079040527344
51
174.129791259766
0
ARC
5
831
100
AcDbEntity
8
0-0
6
CONTINUOUS
62
7
100
AcDbCircle
10
600.780000000000
20
428.030000000000
30
0.0
40
1.999999969650
100
AcDbArc
50
26.079483032227
51
174.129791259766
0
ARC
5
832
100
AcDbEntity
8
0-0
6
CONTINUOUS
62
7
100
AcDbCircle
10
607.160000000000
20
421.180000000000
30
0.0
40
0.499999992412
100
AcDbArc
50
263.267562866211
51
0.000000000000
0
ARC
5
833
100
AcDbEntity
8
0-0
6
CONTINUOUS
62
7
100
AcDbCircle
10
607.160000000000
20
421.180000000000
30
0.0
40
0.999999984825
100
AcDbArc
50
263.266494750977
51
0.000000000000
0
ARC
5
834
100
AcDbEntity
8
0-0
6
CONTINUOUS
62
7
100
AcDbCircle
10
601.460000000000
20
421.910000000000
30
0.0
40
0.999999984825
100
AcDbArc
50
75.963882446289
51
180.000000000000
0
ARC
5
835
100
AcDbEntity
8
0-0
6
CONTINUOUS
62
7
100
AcDbCircle
10
601.460000000000
20
419.760000000000
30
0.0
40
0.999999984825
100
AcDbArc
50
180.000000000000
51
243.434494018555
0
ARC
5
836
100
AcDbEntity
8
0-0
6
CONTINUOUS
62
7
100
AcDbCircle
10
601.460000000000
20
421.910000000000
30
0.0
40
1.499999977237
100
AcDbArc
50
75.963882446289
51
180.000000000000
0
ARC
5
837
100
AcDbEntity
8
0-0
6
CONTINUOUS
62
7
100
AcDbCircle
10
601.460000000000
20
419.760000000000
30
0.0
40
1.499999977237
100
AcDbArc
50
180.000000000000
51
243.434494018555
0
ARC
5
838
100
AcDbEntity
8
0-0
6
CONTINUOUS
62
7
100
AcDbCircle
10
605.990000000000
20
422.830000000000
30
0.0
40
0.499999992412
100
AcDbArc
50
266.414596557617
51
0.000000000000
0
ARC
5
839
100
AcDbEntity
8
0-0
6
CONTINUOUS
62
7
100
AcDbCircle
10
605.990000000000
20
422.830000000000
30
0.0
40
0.999999984825
100
AcDbArc
50
263.347274780273
51
0.000000000000
0
ARC
5
83a
100
AcDbEntity
8
0-0
6
CONTINUOUS
62
7
100
AcDbCircle
10
588.160000000000
20
439.830000000000
30
0.0
40
1.971747217517
100
AcDbArc
50
270.000000000000
51
340.816726684570
0
ARC
5
83b
100
AcDbEntity
8
0-0
6
CONTINUOUS
62
7
100
AcDbCircle
10
588.160000000000
20
420.330000000000
30
0.0
40
19.506881300876
100
AcDbArc
50
2.886962890625
51
79.725326538086
0
ARC
5
83c
100
AcDbEntity
8
0-0
6
CONTINUOUS
62
7
100
AcDbCircle
10
588.160000000000
20
420.330000000000
30
0.0
40
20.006882067458
100
AcDbArc
50
3.017333984375
51
79.844848632813
0
ARC
5
83d
100
AcDbEntity
8
0-0
6
CONTINUOUS
62
7
100
AcDbCircle
10
588.160000000000
20
439.830000000000
30
0.0
40
2.471746822845
100
AcDbArc
50
270.000000000000
51
339.003463745117
0
ARC
5
83e
100
AcDbEntity
8
0-0
6
CONTINUOUS
62
7
100
AcDbCircle
10
591.310000000000
20
438.730000000000
30
0.0
40
0.861941771660
100
AcDbArc
50
67.003463745117
51
165.643997192383
0
ARC
5
83f
100
AcDbEntity
8
0-0
6
CONTINUOUS
62
7
100
AcDbCircle
10
591.310000000000
20
438.730000000000
30
0.0
40
1.361941764073
100
AcDbArc
50
67.003463745117
51
165.643997192383
0
ARC
5
840
100
AcDbEntity
8
0-0
6
CONTINUOUS
62
7
100
AcDbCircle
10
592.410000000000
20
437.550000000000
30
0.0
40
1.099454309610
100
AcDbArc
50
70.872222900391
51
159.736984252930
0
ARC
5
841
100
AcDbEntity
8
0-0
6
CONTINUOUS
62
7
100
AcDbCircle
10
588.440000000000
20
439.780000000000
30
0.0
40
3.454218244934
100
AcDbArc
50
265.358566284180
51
330.720916748047
0
ARC
5
842
100
AcDbEntity
8
0-0
6
CONTINUOUS
62
7
100
AcDbCircle
10
588.440000000000
20
439.780000000000
30
0.0
40
3.954218237347
100
AcDbArc
50
265.358566284180
51
331.397445678711
0
ARC
5
843
100
AcDbEntity
8
0-0
6
CONTINUOUS
62
7
100
AcDbCircle
10
592.410000000000
20
437.550000000000
30
0.0
40
0.599454317197
100
AcDbArc
50
69.145065307617
51
162.815383911133
0
ARC
5
844
100
AcDbEntity
8
0-0
6
CONTINUOUS
62
7
100
AcDbCircle
10
580.460000000000
20
399.830000000000
30
0.0
40
0.999999984825
100
AcDbArc
50
186.203796386719
51
270.000000000000
0
ARC
5
845
100
AcDbEntity
8
0-0
6
CONTINUOUS
62
7
100
AcDbCircle
10
580.460000000000
20
399.830000000000
30
0.0
40
1.999999969650
100
AcDbArc
50
186.203796386719
51
270.000000000000
0
ARC
5
846
100
AcDbEntity
8
0-0
6
CONTINUOUS
62
7
100
AcDbCircle
10
575.540000000000
20
428.030000000000
30
0.0
40
0.999999984825
100
AcDbArc
50
5.870208740234
51
153.920959472656
0
ARC
5
847
100
AcDbEntity
8
0-0
6
CONTINUOUS
62
7
100
AcDbCircle
10
575.540000000000
20
428.030000000000
30
0.0
40
1.999999969650
100
AcDbArc
50
5.870208740234
51
153.920516967773
0
ARC
5
848
100
AcDbEntity
8
0-0
6
CONTINUOUS
62
7
100
AcDbCircle
10
610.930000000000
20
400.830000000000
30
0.0
40
0.499999992412
100
AcDbArc
50
196.370071411133
51
270.000000000000
0
ARC
5
849
100
AcDbEntity
8
0-0
6
CONTINUOUS
62
7
100
AcDbCircle
10
574.860000000000
20
421.910000000000
30
0.0
40
0.999999984825
100
AcDbArc
50
360.000000000000
51
464.036117553711
0
ARC
5
84a
100
AcDbEntity
8
0-0
6
CONTINUOUS
62
7
100
AcDbCircle
10
574.860000000000
20
419.760000000000
30
0.0
40
0.999999984825
100
AcDbArc
50
296.565505981445
51
360.000000000000
0
ARC
5
84b
100
AcDbEntity
8
0-0
6
CONTINUOUS
62
7
100
AcDbCircle
10
574.860000000000
20
421.910000000000
30
0.0
40
1.499999977237
100
AcDbArc
50
360.000000000000
51
464.036117553711
0
ARC
5
84c
100
AcDbEntity
8
0-0
6
CONTINUOUS
62
7
100
AcDbCircle
10
574.860000000000
20
419.760000000000
30
0.0
40
1.499999977237
100
AcDbArc
50
296.565505981445
51
360.000000000000
0
ARC
5
84d
100
AcDbEntity
8
0-0
6
CONTINUOUS
62
7
100
AcDbCircle
10
570.340000000000
20
422.830000000000
30
0.0
40
0.499999992412
100
AcDbArc
50
180.000000000000
51
-86.414596557617
0
ARC
5
84e
100
AcDbEntity
8
0-0
6
CONTINUOUS
62
7
100
AcDbCircle
10
588.160000000000
20
439.830000000000
30
0.0
40
1.971747217517
100
AcDbArc
50
199.183273315430
51
270.000000000000
0
ARC
5
84f
100
AcDbEntity
8
0-0
6
CONTINUOUS
62
7
100
AcDbCircle
10
588.160000000000
20
439.830000000000
30
0.0
40
2.471746822845
100
AcDbArc
50
200.996536254883
51
270.000000000000
0
ARC
5
850
100
AcDbEntity
8
0-0
6
CONTINUOUS
62
7
100
AcDbCircle
10
585.020000000000
20
438.730000000000
30
0.0
40
0.861941771660
100
AcDbArc
50
14.356002807617
51
112.996536254883
0
ARC
5
851
100
AcDbEntity
8
0-0
6
CONTINUOUS
62
7
100
AcDbCircle
10
585.020000000000
20
438.730000000000
30
0.0
40
1.361941764073
100
AcDbArc
50
14.356002807617
51
112.996536254883
0
ARC
5
852
100
AcDbEntity
8
0-0
6
CONTINUOUS
62
7
100
AcDbCircle
10
583.930000000000
20
437.470000000000
30
0.0
40
0.999999984825
100
AcDbArc
50
104.760116577148
51
161.404159545898
0
ARC
5
853
100
AcDbEntity
8
0-0
6
CONTINUOUS
62
7
100
AcDbCircle
10
583.930000000000
20
437.470000000000
30
0.0
40
0.499999992412
100
AcDbArc
50
104.760116577148
51
161.404159545898
0
ARC
5
854
100
AcDbEntity
8
0-0
6
CONTINUOUS
62
7
100
AcDbCircle
10
605.130000000000
20
415.130000000000
30
0.0
40
0.999999984825
100
AcDbArc
50
16.370162963867
51
63.435623168945
0
ARC
5
855
100
AcDbEntity
8
0-0
6
CONTINUOUS
62
7
100
AcDbCircle
10
605.130000000000
20
415.130000000000
30
0.0
40
1.499999977237
100
AcDbArc
50
16.370162963867
51
63.435623168945
0
ARC
5
856
100
AcDbEntity
8
0-0
6
CONTINUOUS
62
7
100
AcDbCircle
10
571.200000000000
20
415.130000000000
30
0.0
40
0.999999984825
100
AcDbArc
50
116.564834594727
51
163.629837036133
0
ARC
5
857
100
AcDbEntity
8
0-0
6
CONTINUOUS
62
7
100
AcDbCircle
10
571.200000000000
20
415.130000000000
30
0.0
40
1.499999977237
100
AcDbArc
50
116.564834594727
51
163.629837036133
0
ARC
5
858
100
AcDbEntity
8
0-0
6
CONTINUOUS
62
7
100
AcDbCircle
10
590.930000000000
20
419.020000000000
30
0.0
40
21.430205929158
100
AcDbArc
50
106.929763793945
51
169.766738891602
0
ARC
5
859
100
AcDbEntity
8
0-0
6
CONTINUOUS
62
7
100
AcDbCircle
10
570.340000000000
20
422.830000000000
30
0.0
40
0.999999984825
100
AcDbArc
50
177.011077880859
51
-83.347274780273
0
ARC
5
85a
100
AcDbEntity
8
0-0
6
CONTINUOUS
62
7
100
AcDbCircle
10
590.930000000000
20
419.020000000000
30
0.0
40
21.930206695740
100
AcDbArc
50
107.067840576172
51
169.864349365234
0
ARC
5
85b
100
AcDbEntity
8
0-0
6
CONTINUOUS
62
7
100
AcDbCircle
10
610.930000000000
20
400.830000000000
30
0.0
40
0.999999984825
100
AcDbArc
50
196.371124267578
51
270.000000000000
0
ARC
5
85c
100
AcDbEntity
8
0-0
6
CONTINUOUS
62
7
100
AcDbCircle
10
564.920000000000
20
400.830000000000
30
0.0
40
0.499999992412
100
AcDbArc
50
270.000000000000
51
343.629928588867
0
ARC
5
85d
100
AcDbEntity
8
0-0
6
CONTINUOUS
62
7
100
AcDbCircle
10
564.920000000000
20
400.830000000000
30
0.0
40
0.999999984825
100
AcDbArc
50
270.000000000000
51
343.629928588867
0
ARC
5
85e
100
AcDbEntity
8
0-0
6
CONTINUOUS
62
7
100
AcDbCircle
10
571.200000000000
20
415.130000000000
30
0.0
40
0.999999984825
100
AcDbArc
50
116.564376831055
51
163.629837036133
0
ARC
5
85f
100
AcDbEntity
8
0-0
6
CONTINUOUS
62
7
100
AcDbCircle
10
571.200000000000
20
415.130000000000
30
0.0
40
1.499999977237
100
AcDbArc
50
116.564376831055
51
163.629837036133
0
ARC
5
860
100
AcDbEntity
8
0-0
6
CONTINUOUS
62
7
100
AcDbCircle
10
669.540000000000
20
398.830000000000
30
0.0
40
0.999999984825
100
AcDbArc
50
45.000000000000
51
90.000000000000
0
ARC
5
861
100
AcDbEntity
8
0-0
6
CONTINUOUS
62
7
100
AcDbCircle
10
671.370000000000
20
399.830000000000
30
0.0
40
0.999999984825
100
AcDbArc
50
225.001068115234
51
270.000000000000
0
ARC
5
862
100
AcDbEntity
8
0-0
6
CONTINUOUS
62
7
100
AcDbCircle
10
669.540000000000
20
398.830000000000
30
0.0
40
1.499999977237
100
AcDbArc
50
45.000000000000
51
90.000000000000
0
ARC
5
863
100
AcDbEntity
8
0-0
6
CONTINUOUS
62
7
100
AcDbCircle
10
671.370000000000
20
399.830000000000
30
0.0
40
0.499999992412
100
AcDbArc
50
225.001068115234
51
270.000000000000
0
ARC
5
864
100
AcDbEntity
8
0-0
6
CONTINUOUS
62
7
100
AcDbCircle
10
506.290000000000
20
398.830000000000
30
0.0
40
0.999999984825
100
AcDbArc
50
90.000000000000
51
135.000000000000
0
ARC
5
865
100
AcDbEntity
8
0-0
6
CONTINUOUS
62
7
100
AcDbCircle
10
504.460000000000
20
399.830000000000
30
0.0
40
0.999999984825
100
AcDbArc
50
270.000000000000
51
314.998931884766
0
ARC
5
866
100
AcDbEntity
8
0-0
6
CONTINUOUS
62
7
100
AcDbCircle
10
506.290000000000
20
398.830000000000
30
0.0
40
1.499999977237
100
AcDbArc
50
90.000000000000
51
135.000000000000
0
ARC
5
867
100
AcDbEntity
8
0-0
6
CONTINUOUS
62
7
100
AcDbCircle
10
504.460000000000
20
399.830000000000
30
0.0
40
0.499999992412
100
AcDbArc
50
270.000000000000
51
314.998931884766
0
ARC
5
868
100
AcDbEntity
8
0-0
6
CONTINUOUS
62
7
100
AcDbCircle
10
702.790000000000
20
398.830000000000
30
0.0
40
0.999999984825
100
AcDbArc
50
90.000000000000
51
135.000000000000
0
ARC
5
869
100
AcDbEntity
8
0-0
6
CONTINUOUS
62
7
100
AcDbCircle
10
700.960000000000
20
399.830000000000
30
0.0
40
0.999999984825
100
AcDbArc
50
270.000000000000
51
314.998931884766
0
ARC
5
86a
100
AcDbEntity
8
0-0
6
CONTINUOUS
62
7
100
AcDbCircle
10
702.790000000000
20
398.830000000000
30
0.0
40
1.499999977237
100
AcDbArc
50
90.000000000000
51
135.000000000000
0
ARC
5
86b
100
AcDbEntity
8
0-0
6
CONTINUOUS
62
7
100
AcDbCircle
10
700.960000000000
20
399.830000000000
30
0.0
40
0.499999992412
100
AcDbArc
50
270.000000000000
51
314.998931884766
0
ARC
5
86c
100
AcDbEntity
8
0-0
6
CONTINUOUS
62
7
100
AcDbCircle
10
473.040000000000
20
398.830000000000
30
0.0
40
0.999999984825
100
AcDbArc
50
45.000000000000
51
90.000000000000
0
ARC
5
86d
100
AcDbEntity
8
0-0
6
CONTINUOUS
62
7
100
AcDbCircle
10
474.870000000000
20
399.830000000000
30
0.0
40
0.999999984825
100
AcDbArc
50
225.001068115234
51
270.000000000000
0
ARC
5
86e
100
AcDbEntity
8
0-0
6
CONTINUOUS
62
7
100
AcDbCircle
10
473.040000000000
20
398.830000000000
30
0.0
40
1.499999977237
100
AcDbArc
50
45.000000000000
51
90.000000000000
0
ARC
5
86f
100
AcDbEntity
8
0-0
6
CONTINUOUS
62
7
100
AcDbCircle
10
474.870000000000
20
399.830000000000
30
0.0
40
0.499999992412
100
AcDbArc
50
225.001068115234
51
270.000000000000
0
ARC
5
870
100
AcDbEntity
8
0-0
6
CONTINUOUS
62
7
100
AcDbCircle
10
587.880000000000
20
439.780000000000
30
0.0
40
3.954218237347
100
AcDbArc
50
213.945114135742
51
274.641433715820
0
ARC
5
871
100
AcDbEntity
8
0-0
6
CONTINUOUS
62
7
100
AcDbCircle
10
587.880000000000
20
439.780000000000
30
0.0
40
3.454218244934
100
AcDbArc
50
214.940277099609
51
274.641433715820
0
ARC
5
872
100
AcDbEntity
8
0-0
6
CONTINUOUS
62
7
100
AcDbCircle
10
584.030000000000
20
437.400000000000
30
0.0
40
1.099454309610
100
AcDbArc
50
21.718612670898
51
109.127777099609
0
ARC
5
873
100
AcDbEntity
8
0-0
6
CONTINUOUS
62
7
100
AcDbCircle
10
584.030000000000
20
437.400000000000
30
0.0
40
0.599454317197
100
AcDbArc
50
17.186462402344
51
110.854934692383
0
ARC
5
874
100
AcDbEntity
8
0-0
6
CONTINUOUS
62
7
100
AcDbCircle
10
588.090000000000
20
420.160000000000
30
0.0
40
18.506879767711
100
AcDbArc
50
67.039611816406
51
75.808273315430
0
ARC
5
875
100
AcDbEntity
8
0-0
6
CONTINUOUS
62
7
100
AcDbCircle
10
588.090000000000
20
420.160000000000
30
0.0
40
19.006878985954
100
AcDbArc
50
66.167251586914
51
75.733215332031
0
ARC
5
876
100
AcDbEntity
8
0-0
6
CONTINUOUS
62
7
100
AcDbCircle
10
588.890000000000
20
420.650000000000
30
0.0
40
17.745003624792
100
AcDbArc
50
7.502426147461
51
68.827896118164
0
ARC
5
877
100
AcDbEntity
8
0-0
6
CONTINUOUS
62
7
100
AcDbCircle
10
588.890000000000
20
420.650000000000
30
0.0
40
18.245005939714
100
AcDbArc
50
7.502426147461
51
67.853469848633
0
ARC
5
878
100
AcDbEntity
8
0-1
6
CONTINUOUS
62
7
100
AcDbCircle
10
144.190000000000
20
103.370000000000
30
0.0
40
0.999999984825
100
AcDbArc
50
270.000000000000
51
353.796203613281
0
ARC
5
879
100
AcDbEntity
8
0-1
6
CONTINUOUS
62
7
100
AcDbCircle
10
144.190000000000
20
103.370000000000
30
0.0
40
1.999999969650
100
AcDbArc
50
270.000000000000
51
353.796203613281
0
ARC
5
87a
100
AcDbEntity
8
0-1
6
CONTINUOUS
62
7
100
AcDbCircle
10
149.100000000000
20
131.570000000000
30
0.0
40
0.999999984825
100
AcDbArc
50
26.079040527344
51
174.129791259766
0
ARC
5
87b
100
AcDbEntity
8
0-1
6
CONTINUOUS
62
7
100
AcDbCircle
10
149.100000000000
20
131.570000000000
30
0.0
40
1.999999969650
100
AcDbArc
50
26.079483032227
51
174.129791259766
0
ARC
5
87c
100
AcDbEntity
8
0-1
6
CONTINUOUS
62
7
100
AcDbCircle
10
128.770000000000
20
103.370000000000
30
0.0
40
0.999999984825
100
AcDbArc
50
186.203796386719
51
270.000000000000
0
ARC
5
87d
100
AcDbEntity
8
0-1
6
CONTINUOUS
62
7
100
AcDbCircle
10
128.770000000000
20
103.370000000000
30
0.0
40
1.999999969650
100
AcDbArc
50
186.203796386719
51
270.000000000000
0
ARC
5
87e
100
AcDbEntity
8
0-1
6
CONTINUOUS
62
7
100
AcDbCircle
10
123.860000000000
20
131.570000000000
30
0.0
40
0.999999984825
100
AcDbArc
50
5.870208740234
51
153.920959472656
0
ARC
5
87f
100
AcDbEntity
8
0-1
6
CONTINUOUS
62
7
100
AcDbCircle
10
123.860000000000
20
131.570000000000
30
0.0
40
1.999999969650
100
AcDbArc
50
5.870208740234
51
153.920516967773
0
ARC
5
880
100
AcDbEntity
8
0-1
6
CONTINUOUS
62
7
100
AcDbCircle
10
607.160000000000
20
232.520000000000
30
0.0
40
0.499999992412
100
AcDbArc
50
263.267562866211
51
0.000000000000
0
ARC
5
881
100
AcDbEntity
8
0-1
6
CONTINUOUS
62
7
100
AcDbCircle
10
607.160000000000
20
232.520000000000
30
0.0
40
0.999999984825
100
AcDbArc
50
263.266494750977
51
0.000000000000
0
ARC
5
882
100
AcDbEntity
8
0-1
6
CONTINUOUS
62
7
100
AcDbCircle
10
588.160000000000
20
251.170000000000
30
0.0
40
1.971747217517
100
AcDbArc
50
270.000000000000
51
340.816726684570
0
ARC
5
883
100
AcDbEntity
8
0-1
6
CONTINUOUS
62
7
100
AcDbCircle
10
588.160000000000
20
231.670000000000
30
0.0
40
19.506881300876
100
AcDbArc
50
2.886962890625
51
79.725326538086
0
ARC
5
884
100
AcDbEntity
8
0-1
6
CONTINUOUS
62
7
100
AcDbCircle
10
588.160000000000
20
231.670000000000
30
0.0
40
20.006882067458
100
AcDbArc
50
3.017333984375
51
79.844848632813
0
ARC
5
885
100
AcDbEntity
8
0-1
6
CONTINUOUS
62
7
100
AcDbCircle
10
588.160000000000
20
251.170000000000
30
0.0
40
2.471746822845
100
AcDbArc
50
270.000000000000
51
339.003463745117
0
ARC
5
886
100
AcDbEntity
8
0-1
6
CONTINUOUS
62
7
100
AcDbCircle
10
591.310000000000
20
250.070000000000
30
0.0
40
0.861941771660
100
AcDbArc
50
67.003463745117
51
165.643997192383
0
ARC
5
887
100
AcDbEntity
8
0-1
6
CONTINUOUS
62
7
100
AcDbCircle
10
591.310000000000
20
250.070000000000
30
0.0
40
1.361941764073
100
AcDbArc
50
67.003463745117
51
165.643997192383
0
ARC
5
888
100
AcDbEntity
8
0-1
6
CONTINUOUS
62
7
100
AcDbCircle
10
574.860000000000
20
233.250000000000
30
0.0
40
0.999999984825
100
AcDbArc
50
360.000000000000
51
464.036117553711
0
ARC
5
889
100
AcDbEntity
8
0-1
6
CONTINUOUS
62
7
100
AcDbCircle
10
574.860000000000
20
231.100000000000
30
0.0
40
0.999999984825
100
AcDbArc
50
296.565505981445
51
360.000000000000
0
ARC
5
88a
100
AcDbEntity
8
0-1
6
CONTINUOUS
62
7
100
AcDbCircle
10
574.860000000000
20
233.250000000000
30
0.0
40
1.499999977237
100
AcDbArc
50
360.000000000000
51
464.036117553711
0
ARC
5
88b
100
AcDbEntity
8
0-1
6
CONTINUOUS
62
7
100
AcDbCircle
10
574.860000000000
20
231.100000000000
30
0.0
40
1.499999977237
100
AcDbArc
50
296.565505981445
51
360.000000000000
0
ARC
5
88c
100
AcDbEntity
8
0-1
6
CONTINUOUS
62
7
100
AcDbCircle
10
570.340000000000
20
234.170000000000
30
0.0
40
0.499999992412
100
AcDbArc
50
180.000000000000
51
-86.414596557617
0
ARC
5
88d
100
AcDbEntity
8
0-1
6
CONTINUOUS
62
7
100
AcDbCircle
10
588.160000000000
20
251.170000000000
30
0.0
40
1.971747217517
100
AcDbArc
50
199.183273315430
51
270.000000000000
0
ARC
5
88e
100
AcDbEntity
8
0-1
6
CONTINUOUS
62
7
100
AcDbCircle
10
588.160000000000
20
251.170000000000
30
0.0
40
2.471746822845
100
AcDbArc
50
200.996536254883
51
270.000000000000
0
ARC
5
88f
100
AcDbEntity
8
0-1
6
CONTINUOUS
62
7
100
AcDbCircle
10
585.020000000000
20
250.070000000000
30
0.0
40
0.861941771660
100
AcDbArc
50
14.356002807617
51
112.996536254883
0
ARC
5
890
100
AcDbEntity
8
0-1
6
CONTINUOUS
62
7
100
AcDbCircle
10
585.020000000000
20
250.070000000000
30
0.0
40
1.361941764073
100
AcDbArc
50
14.356002807617
51
112.996536254883
0
ARC
5
891
100
AcDbEntity
8
0-1
6
CONTINUOUS
62
7
100
AcDbCircle
10
571.200000000000
20
226.470000000000
30
0.0
40
0.999999984825
100
AcDbArc
50
116.564834594727
51
163.629837036133
0
ARC
5
892
100
AcDbEntity
8
0-1
6
CONTINUOUS
62
7
100
AcDbCircle
10
571.200000000000
20
226.470000000000
30
0.0
40
1.499999977237
100
AcDbArc
50
116.564834594727
51
163.629837036133
0
ARC
5
893
100
AcDbEntity
8
0-1
6
CONTINUOUS
62
7
100
AcDbCircle
10
590.930000000000
20
230.370000000000
30
0.0
40
21.430205929158
100
AcDbArc
50
106.929763793945
51
169.766738891602
0
ARC
5
894
100
AcDbEntity
8
0-1
6
CONTINUOUS
62
7
100
AcDbCircle
10
570.340000000000
20
234.170000000000
30
0.0
40
0.999999984825
100
AcDbArc
50
177.011077880859
51
-83.347274780273
0
ARC
5
895
100
AcDbEntity
8
0-1
6
CONTINUOUS
62
7
100
AcDbCircle
10
590.930000000000
20
230.370000000000
30
0.0
40
21.930206695740
100
AcDbArc
50
107.067840576172
51
169.864349365234
0
ARC
5
896
100
AcDbEntity
8
0-1
6
CONTINUOUS
62
7
100
AcDbCircle
10
564.920000000000
20
212.170000000000
30
0.0
40
0.499999992412
100
AcDbArc
50
270.000000000000
51
343.629928588867
0
ARC
5
897
100
AcDbEntity
8
0-1
6
CONTINUOUS
62
7
100
AcDbCircle
10
564.920000000000
20
212.170000000000
30
0.0
40
0.999999984825
100
AcDbArc
50
270.000000000000
51
343.629928588867
0
ARC
5
898
100
AcDbEntity
8
0-1
6
CONTINUOUS
62
7
100
AcDbCircle
10
571.200000000000
20
226.470000000000
30
0.0
40
0.999999984825
100
AcDbArc
50
116.564376831055
51
163.629837036133
0
ARC
5
899
100
AcDbEntity
8
0-1
6
CONTINUOUS
62
7
100
AcDbCircle
10
571.200000000000
20
226.470000000000
30
0.0
40
1.499999977237
100
AcDbArc
50
116.564376831055
51
163.629837036133
0
ARC
5
89a
100
AcDbEntity
8
0-1
6
CONTINUOUS
62
7
100
AcDbCircle
10
506.290000000000
20
210.170000000000
30
0.0
40
0.999999984825
100
AcDbArc
50
90.000000000000
51
135.000000000000
0
ARC
5
89b
100
AcDbEntity
8
0-1
6
CONTINUOUS
62
7
100
AcDbCircle
10
504.460000000000
20
211.170000000000
30
0.0
40
0.999999984825
100
AcDbArc
50
270.000000000000
51
314.998931884766
0
ARC
5
89c
100
AcDbEntity
8
0-1
6
CONTINUOUS
62
7
100
AcDbCircle
10
506.290000000000
20
210.170000000000
30
0.0
40
1.499999977237
100
AcDbArc
50
90.000000000000
51
135.000000000000
0
ARC
5
89d
100
AcDbEntity
8
0-1
6
CONTINUOUS
62
7
100
AcDbCircle
10
504.460000000000
20
211.170000000000
30
0.0
40
0.499999992412
100
AcDbArc
50
270.000000000000
51
314.998931884766
0
ARC
5
89e
100
AcDbEntity
8
0-1
6
CONTINUOUS
62
7
100
AcDbCircle
10
473.040000000000
20
210.170000000000
30
0.0
40
0.999999984825
100
AcDbArc
50
45.000000000000
51
90.000000000000
0
ARC
5
89f
100
AcDbEntity
8
0-1
6
CONTINUOUS
62
7
100
AcDbCircle
10
474.870000000000
20
211.170000000000
30
0.0
40
0.999999984825
100
AcDbArc
50
225.001068115234
51
270.000000000000
0
ARC
5
8a0
100
AcDbEntity
8
0-1
6
CONTINUOUS
62
7
100
AcDbCircle
10
473.040000000000
20
210.170000000000
30
0.0
40
1.499999977237
100
AcDbArc
50
45.000000000000
51
90.000000000000
0
ARC
5
8a1
100
AcDbEntity
8
0-1
6
CONTINUOUS
62
7
100
AcDbCircle
10
474.870000000000
20
211.170000000000
30
0.0
40
0.499999992412
100
AcDbArc
50
225.001068115234
51
270.000000000000
0
ARC
5
8a2
100
AcDbEntity
8
0-1
6
CONTINUOUS
62
7
100
AcDbCircle
10
268.460000000000
20
233.250000000000
30
0.0
40
0.999999984825
100
AcDbArc
50
75.963882446289
51
180.000000000000
0
ARC
5
8a3
100
AcDbEntity
8
0-1
6
CONTINUOUS
62
7
100
AcDbCircle
10
268.460000000000
20
231.100000000000
30
0.0
40
0.999999984825
100
AcDbArc
50
180.000000000000
51
243.434494018555
0
ARC
5
8a4
100
AcDbEntity
8
0-1
6
CONTINUOUS
62
7
100
AcDbCircle
10
268.460000000000
20
233.250000000000
30
0.0
40
1.499999977237
100
AcDbArc
50
75.963882446289
51
180.000000000000
0
ARC
5
8a5
100
AcDbEntity
8
0-1
6
CONTINUOUS
62
7
100
AcDbCircle
10
268.460000000000
20
231.100000000000
30
0.0
40
1.499999977237
100
AcDbArc
50
180.000000000000
51
243.434494018555
0
ARC
5
8a6
100
AcDbEntity
8
0-1
6
CONTINUOUS
62
7
100
AcDbCircle
10
272.990000000000
20
234.170000000000
30
0.0
40
0.499999992412
100
AcDbArc
50
266.414596557617
51
0.000000000000
0
ARC
5
8a7
100
AcDbEntity
8
0-1
6
CONTINUOUS
62
7
100
AcDbCircle
10
272.990000000000
20
234.170000000000
30
0.0
40
0.999999984825
100
AcDbArc
50
263.347274780273
51
0.000000000000
0
ARC
5
8a8
100
AcDbEntity
8
0-1
6
CONTINUOUS
62
7
100
AcDbCircle
10
259.410000000000
20
248.890000000000
30
0.0
40
1.099454309610
100
AcDbArc
50
70.872222900391
51
159.736984252930
0
ARC
5
8a9
100
AcDbEntity
8
0-1
6
CONTINUOUS
62
7
100
AcDbCircle
10
255.440000000000
20
251.130000000000
30
0.0
40
3.454218244934
100
AcDbArc
50
265.358566284180
51
330.720916748047
0
ARC
5
8aa
100
AcDbEntity
8
0-1
6
CONTINUOUS
62
7
100
AcDbCircle
10
255.440000000000
20
251.130000000000
30
0.0
40
3.954218237347
100
AcDbArc
50
265.358566284180
51
331.397445678711
0
ARC
5
8ab
100
AcDbEntity
8
0-1
6
CONTINUOUS
62
7
100
AcDbCircle
10
259.410000000000
20
248.890000000000
30
0.0
40
0.599454317197
100
AcDbArc
50
69.145065307617
51
162.815383911133
0
ARC
5
8ac
100
AcDbEntity
8
0-1
6
CONTINUOUS
62
7
100
AcDbCircle
10
277.930000000000
20
212.170000000000
30
0.0
40
0.499999992412
100
AcDbArc
50
196.370071411133
51
270.000000000000
0
ARC
5
8ad
100
AcDbEntity
8
0-1
6
CONTINUOUS
62
7
100
AcDbCircle
10
250.930000000000
20
248.810000000000
30
0.0
40
0.999999984825
100
AcDbArc
50
104.760116577148
51
161.404159545898
0
ARC
5
8ae
100
AcDbEntity
8
0-1
6
CONTINUOUS
62
7
100
AcDbCircle
10
250.930000000000
20
248.810000000000
30
0.0
40
0.499999992412
100
AcDbArc
50
104.760116577148
51
161.404159545898
0
ARC
5
8af
100
AcDbEntity
8
0-1
6
CONTINUOUS
62
7
100
AcDbCircle
10
272.130000000000
20
226.470000000000
30
0.0
40
0.999999984825
100
AcDbArc
50
16.370162963867
51
63.435623168945
0
ARC
5
8b0
100
AcDbEntity
8
0-1
6
CONTINUOUS
62
7
100
AcDbCircle
10
272.130000000000
20
226.470000000000
30
0.0
40
1.499999977237
100
AcDbArc
50
16.370162963867
51
63.435623168945
0
ARC
5
8b1
100
AcDbEntity
8
0-1
6
CONTINUOUS
62
7
100
AcDbCircle
10
277.930000000000
20
212.170000000000
30
0.0
40
0.999999984825
100
AcDbArc
50
196.371124267578
51
270.000000000000
0
ARC
5
8b2
100
AcDbEntity
8
0-1
6
CONTINUOUS
62
7
100
AcDbCircle
10
336.540000000000
20
210.170000000000
30
0.0
40
0.999999984825
100
AcDbArc
50
45.000000000000
51
90.000000000000
0
ARC
5
8b3
100
AcDbEntity
8
0-1
6
CONTINUOUS
62
7
100
AcDbCircle
10
338.370000000000
20
211.170000000000
30
0.0
40
0.999999984825
100
AcDbArc
50
225.001068115234
51
270.000000000000
0
ARC
5
8b4
100
AcDbEntity
8
0-1
6
CONTINUOUS
62
7
100
AcDbCircle
10
336.540000000000
20
210.170000000000
30
0.0
40
1.499999977237
100
AcDbArc
50
45.000000000000
51
90.000000000000
0
ARC
5
8b5
100
AcDbEntity
8
0-1
6
CONTINUOUS
62
7
100
AcDbCircle
10
338.370000000000
20
211.170000000000
30
0.0
40
0.499999992412
100
AcDbArc
50
225.001068115234
51
270.000000000000
0
ARC
5
8b6
100
AcDbEntity
8
0-1
6
CONTINUOUS
62
7
100
AcDbCircle
10
369.790000000000
20
210.170000000000
30
0.0
40
0.999999984825
100
AcDbArc
50
90.000000000000
51
135.000000000000
0
ARC
5
8b7
100
AcDbEntity
8
0-1
6
CONTINUOUS
62
7
100
AcDbCircle
10
367.960000000000
20
211.170000000000
30
0.0
40
0.999999984825
100
AcDbArc
50
270.000000000000
51
314.998931884766
0
ARC
5
8b8
100
AcDbEntity
8
0-1
6
CONTINUOUS
62
7
100
AcDbCircle
10
369.790000000000
20
210.170000000000
30
0.0
40
1.499999977237
100
AcDbArc
50
90.000000000000
51
135.000000000000
0
ARC
5
8b9
100
AcDbEntity
8
0-1
6
CONTINUOUS
62
7
100
AcDbCircle
10
367.960000000000
20
211.170000000000
30
0.0
40
0.499999992412
100
AcDbArc
50
270.000000000000
51
314.998931884766
0
ARC
5
8ba
100
AcDbEntity
8
0-1
6
CONTINUOUS
62
7
100
AcDbCircle
10
254.880000000000
20
251.130000000000
30
0.0
40
3.954218237347
100
AcDbArc
50
213.945114135742
51
274.641433715820
0
ARC
5
8bb
100
AcDbEntity
8
0-1
6
CONTINUOUS
62
7
100
AcDbCircle
10
254.880000000000
20
251.130000000000
30
0.0
40
3.454218244934
100
AcDbArc
50
214.940277099609
51
274.641433715820
0
ARC
5
8bc
100
AcDbEntity
8
0-1
6
CONTINUOUS
62
7
100
AcDbCircle
10
251.030000000000
20
248.740000000000
30
0.0
40
1.099454309610
100
AcDbArc
50
21.718612670898
51
109.127777099609
0
ARC
5
8bd
100
AcDbEntity
8
0-1
6
CONTINUOUS
62
7
100
AcDbCircle
10
251.030000000000
20
248.740000000000
30
0.0
40
0.599454317197
100
AcDbArc
50
17.186462402344
51
110.854934692383
0
ARC
5
8be
100
AcDbEntity
8
0-1
6
CONTINUOUS
62
7
100
AcDbCircle
10
255.090000000000
20
231.510000000000
30
0.0
40
18.506879767711
100
AcDbArc
50
67.039611816406
51
75.808273315430
0
ARC
5
8bf
100
AcDbEntity
8
0-1
6
CONTINUOUS
62
7
100
AcDbCircle
10
255.890000000000
20
231.990000000000
30
0.0
40
17.745003624792
100
AcDbArc
50
7.502426147461
51
68.827896118164
0
ARC
5
8c0
100
AcDbEntity
8
0-1
6
CONTINUOUS
62
7
100
AcDbCircle
10
255.890000000000
20
231.990000000000
30
0.0
40
18.245005939714
100
AcDbArc
50
7.502426147461
51
67.853469848633
0
ARC
5
8c1
100
AcDbEntity
8
0-1
6
CONTINUOUS
62
4
100
AcDbCircle
10
255.440000000000
20
251.130000000000
30
0.0
40
2.454218066567
100
AcDbArc
50
265.358566284180
51
330.594726562500
0
ARC
5
8c2
100
AcDbEntity
8
0-1
6
CONTINUOUS
62
4
100
AcDbCircle
10
259.410000000000
20
248.890000000000
30
0.0
40
2.099454294435
100
AcDbArc
50
70.872222900391
51
150.595092773438
0
ARC
5
8c3
100
AcDbEntity
8
0-1
6
CONTINUOUS
62
4
100
AcDbCircle
10
254.880000000000
20
251.130000000000
30
0.0
40
2.454218066567
100
AcDbArc
50
216.990203857422
51
274.641433715820
0
ARC
5
8c4
100
AcDbEntity
8
0-1
6
CONTINUOUS
62
4
100
AcDbCircle
10
250.930000000000
20
248.810000000000
30
0.0
40
1.999999969650
100
AcDbArc
50
105.866790771484
51
161.404159545898
0
ARC
5
8c5
100
AcDbEntity
8
0-1
6
CONTINUOUS
62
4
100
AcDbCircle
10
251.030000000000
20
248.740000000000
30
0.0
40
2.099454294435
100
AcDbArc
50
25.640716552734
51
108.101791381836
0
ARC
5
8c6
100
AcDbEntity
8
0-1
6
CONTINUOUS
62
7
100
AcDbCircle
10
255.090000000000
20
231.510000000000
30
0.0
40
19.006878985954
100
AcDbArc
50
66.167251586914
51
75.733215332031
0
ARC
5
8c7
100
AcDbEntity
8
0-1
6
CONTINUOUS
62
4
100
AcDbCircle
10
255.090000000000
20
231.510000000000
30
0.0
40
20.006878970779
100
AcDbArc
50
67.026062011719
51
75.733215332031
0
ARC
5
8c8
100
AcDbEntity
8
0-1
6
DOT
62
4
100
AcDbCircle
10
255.410000000000
20
111.970000000000
30
0.0
40
19.755619012959
100
AcDbArc
50
358.626556396484
51
181.373657226563
0
ARC
5
8c9
100
AcDbEntity
8
0-1
6
CONTINUOUS
62
7
100
AcDbCircle
10
255.410000000000
20
111.970000000000
30
0.0
40
20.255618231202
100
AcDbArc
50
358.412597656250
51
181.517868041992
0
ARC
5
8ca
100
AcDbEntity
8
0-1
6
CONTINUOUS
62
7
100
AcDbCircle
10
255.160000000000
20
111.730000000000
30
0.0
40
10.500008356531
100
AcDbArc
50
360.000000000000
51
540.000000000000
0
ARC
5
8cb
100
AcDbEntity
8
0-1
6
CONTINUOUS
62
7
100
AcDbCircle
10
263.660000000000
20
99.500000000000
30
0.0
40
1.999999969650
100
AcDbArc
50
270.000000000000
51
0.000000000000
0
ARC
5
8cc
100
AcDbEntity
8
0-1
6
CONTINUOUS
62
7
100
AcDbCircle
10
246.660000000000
20
99.500000000000
30
0.0
40
1.999999969650
100
AcDbArc
50
180.000000000000
51
270.000000000000
0
ARC
5
8cd
100
AcDbEntity
8
0-1
6
CONTINUOUS
62
7
100
AcDbCircle
10
263.660000000000
20
99.500000000000
30
0.0
40
3.999999939299
100
AcDbArc
50
270.000000000000
51
0.000000000000
0
ARC
5
8ce
100
AcDbEntity
8
0-1
6
CONTINUOUS
62
7
100
AcDbCircle
10
255.160000000000
20
111.730000000000
30
0.0
40
12.500008326180
100
AcDbArc
50
360.000000000000
51
540.000000000000
0
ARC
5
8cf
100
AcDbEntity
8
0-1
6
CONTINUOUS
62
7
100
AcDbCircle
10
246.660000000000
20
99.500000000000
30
0.0
40
3.999999939299
100
AcDbArc
50
180.000000000000
51
270.000000000000
0
ARC
5
8d0
100
AcDbEntity
8
0-1
6
CONTINUOUS
62
7
100
AcDbCircle
10
318.390000000000
20
87.500000000000
30
0.0
40
0.499999992412
100
AcDbArc
50
180.000000000000
51
270.000000000000
0
ARC
5
8d1
100
AcDbEntity
8
0-1
6
CONTINUOUS
62
7
100
AcDbCircle
10
318.390000000000
20
87.500000000000
30
0.0
40
0.999999984825
100
AcDbArc
50
180.000000000000
51
270.000000000000
0
ARC
5
8d2
100
AcDbEntity
8
0-2
6
CONTINUOUS
62
7
100
AcDbCircle
10
268.260000000000
20
689.660000000000
30
0.0
40
0.600000010249
100
AcDbArc
50
90.000000000000
51
180.000000000000
0
ARC
5
8d3
100
AcDbEntity
8
0-2
6
CONTINUOUS
62
7
100
AcDbCircle
10
277.060000000000
20
689.660000000000
30
0.0
40
0.600000010249
100
AcDbArc
50
360.000000000000
51
450.000000000000
0
ARC
5
8d4
100
AcDbEntity
8
0-2
6
CONTINUOUS
62
7
100
AcDbCircle
10
575.060000000000
20
689.660000000000
30
0.0
40
0.600000010249
100
AcDbArc
50
360.000000000000
51
450.000000000000
0
ARC
5
8d5
100
AcDbEntity
8
0-2
6
CONTINUOUS
62
7
100
AcDbCircle
10
566.260000000000
20
689.660000000000
30
0.0
40
0.600000010249
100
AcDbArc
50
90.000000000000
51
180.000000000000
0
TEXT
5
8d6
100
AcDbEntity
8
F-F
62
3
370
-3
100
AcDbText
10
266.109
20
44.449
30
0.0
40
2.461
1
変　　　　　　更　　　　　　記　　　　　　事
41
0.999
50
0.000
100
AcDbText
0
TEXT
5
8d7
100
AcDbEntity
8
F-F
62
3
370
-3
100
AcDbText
10
407.976
20
44.049
30
0.0
40
2.461
1
受領　　日附
41
0.999
50
0.000
100
AcDbText
0
TEXT
5
8d8
100
AcDbEntity
8
F-F
62
3
370
-3
100
AcDbText
10
507.085
20
29.333
30
0.0
40
2.461
1
施工者
41
0.999
50
0.000
100
AcDbText
0
TEXT
5
8d9
100
AcDbEntity
8
F-F
62
3
370
-3
100
AcDbText
10
507.085
20
44.148
30
0.0
40
2.461
1
設計者
41
0.999
50
0.000
100
AcDbText
0
TEXT
5
8da
100
AcDbEntity
8
F-F
62
3
370
-3
100
AcDbText
10
609.826
20
29.062
30
0.0
40
2.461
1
作図
41
0.999
50
0.000
100
AcDbText
0
TEXT
5
8db
100
AcDbEntity
8
F-F
62
3
370
-3
100
AcDbText
10
645.739
20
29.327
30
0.0
40
2.461
1
図面名
41
0.999
50
0.000
100
AcDbText
0
TEXT
5
8dc
100
AcDbEntity
8
F-F
62
3
370
-3
100
AcDbText
10
609.826
20
43.876
30
0.0
40
2.461
1
日附
41
0.999
50
0.000
100
AcDbText
0
TEXT
5
8dd
100
AcDbEntity
8
F-F
62
3
370
-3
100
AcDbText
10
645.739
20
44.142
30
0.0
40
2.461
1
工事件名
41
0.999
50
0.000
100
AcDbText
0
TEXT
5
8de
100
AcDbEntity
8
F-F
62
3
370
-3
100
AcDbText
10
620.894
20
43.751
30
0.0
40
2.461
1
年　月　日
41
0.999
50
0.000
100
AcDbText
0
TEXT
5
8df
100
AcDbEntity
8
F-F
62
3
370
-3
100
AcDbText
10
620.894
20
28.936
30
0.0
40
2.461
1
年　月　日
41
0.999
50
0.000
100
AcDbText
0
TEXT
5
8e0
100
AcDbEntity
8
F-F
62
3
370
-3
100
AcDbText
10
771.911
20
44.142
30
0.0
40
2.461
1
設計番号
41
0.999
50
0.000
100
AcDbText
0
TEXT
5
8e1
100
AcDbEntity
8
F-F
62
3
370
-3
100
AcDbText
10
771.911
20
29.327
30
0.0
40
2.461
1
縮　尺
41
0.999
50
0.000
100
AcDbText
0
MTEXT
5
8e2
100
AcDbEntity
8
F-F
62
3
370
-3
100
AcDbMText
10
193.570
20
40.484
30
0.0
40
2.325
41
0.000
71
7
72
1
1
\W1.134;{\W0.817;. }　{\W0.817;.}　{\W0.817; }
7
STANDARD
11
1.00000
21
0.00000
31
0.0
0
MTEXT
5
8e3
100
AcDbEntity
8
F-F
62
3
370
-3
100
AcDbMText
10
193.570
20
35.545
30
0.0
40
2.325
41
0.000
71
7
72
1
1
\W1.134;{\W0.817;. }　{\W0.817;.}　{\W0.817; }
7
STANDARD
11
1.00000
21
0.00000
31
0.0
0
MTEXT
5
8e4
100
AcDbEntity
8
F-F
62
3
370
-3
100
AcDbMText
10
193.570
20
30.607
30
0.0
40
2.325
41
0.000
71
7
72
1
1
\W1.134;{\W0.817;. }　{\W0.817;.}　{\W0.817; }
7
STANDARD
11
1.00000
21
0.00000
31
0.0
0
MTEXT
5
8e5
100
AcDbEntity
8
F-F
62
3
370
-3
100
AcDbMText
10
193.570
20
25.669
30
0.0
40
2.325
41
0.000
71
7
72
1
1
\W1.134;{\W0.817;. }　{\W0.817;.}　{\W0.817; }
7
STANDARD
11
1.00000
21
0.00000
31
0.0
0
MTEXT
5
8e6
100
AcDbEntity
8
F-F
62
3
370
-3
100
AcDbMText
10
193.570
20
20.730
30
0.0
40
2.325
41
0.000
71
7
72
1
1
\W1.134;{\W0.817;. }　{\W0.817;.}　{\W0.817; }
7
STANDARD
11
1.00000
21
0.00000
31
0.0
0
TEXT
5
8e7
100
AcDbEntity
8
F-F
62
3
370
-3
100
AcDbText
10
517.255
20
37.760
30
0.0
40
3.282
1
　　　　　　　　　　
41
0.963
50
0.000
100
AcDbText
0
TEXT
5
8e8
100
AcDbEntity
8
F-F
62
3
370
-3
100
AcDbText
10
517.255
20
22.945
30
0.0
40
3.282
1
　　　　　　　　　　
41
0.963
50
0.000
100
AcDbText
0
TEXT
5
8e9
100
AcDbEntity
8
F-F
62
3
370
-3
100
AcDbText
10
658.986
20
38.533
30
0.0
40
3.282
1
　　　　　　　　　　　　　
41
0.963
50
0.000
100
AcDbText
0
TEXT
5
8ea
100
AcDbEntity
8
F-F
62
3
370
-3
100
AcDbText
10
189.083
20
44.417
30
0.0
40
2.461
1
年　月　日
41
0.999
50
0.000
100
AcDbText
0
TEXT
5
8eb
100
AcDbEntity
8
F-F
62
3
370
-3
100
AcDbText
10
436.561
20
43.757
30
0.0
40
2.461
1
年　　月　　日
41
0.999
50
0.000
100
AcDbText
0
MTEXT
5
8ec
100
AcDbEntity
8
F-F
62
3
370
-3
100
AcDbMText
10
442.837
20
38.272
30
0.0
40
2.325
41
0.000
71
7
72
1
1
\W1.134;{\W0.817;.}　{\W0.817; }　{\W0.817;.}
7
STANDARD
11
1.00000
21
0.00000
31
0.0
0
TEXT
5
8ed
100
AcDbEntity
8
F-F
62
3
370
-3
100
AcDbText
10
407.976
20
29.234
30
0.0
40
2.461
1
受領　　日附
41
0.999
50
0.000
100
AcDbText
0
TEXT
5
8ee
100
AcDbEntity
8
F-F
62
3
370
-3
100
AcDbText
10
436.561
20
28.942
30
0.0
40
2.461
1
年　　月　　日
41
0.999
50
0.000
100
AcDbText
0
MTEXT
5
8ef
100
AcDbEntity
8
F-F
62
3
370
-3
100
AcDbMText
10
442.837
20
23.457
30
0.0
40
2.325
41
0.000
71
7
72
1
1
\W1.134;{\W0.817;.}　{\W0.817; }　{\W0.817;.}
7
STANDARD
11
1.00000
21
0.00000
31
0.0
0
MTEXT
5
8f0
100
AcDbEntity
8
F-F
62
3
370
-3
100
AcDbMText
10
624.280
20
37.415
30
0.0
40
2.325
41
0.000
71
7
72
1
1
\W1.134;{\W0.817;.}　　{\W0.817;.}　
7
STANDARD
11
1.00000
21
0.00000
31
0.0
0
TEXT
5
8f1
100
AcDbEntity
8
0-0
62
3
370
-3
100
AcDbText
10
374.084
20
333.161
30
0.0
40
5.743
1
野地板材
41
0.979
50
0.000
100
AcDbText
0
TEXT
5
8f2
100
AcDbEntity
8
0-0
62
3
370
-3
100
AcDbText
10
522.596
20
320.001
30
0.0
40
5.743
1
母屋材
41
0.979
50
0.000
100
AcDbText
0
TEXT
5
8f3
100
AcDbEntity
8
0-0
62
3
370
-3
100
AcDbText
10
200.181
20
453.931
30
0.0
40
5.743
1
通し吊子
41
0.979
50
0.000
100
AcDbText
0
TEXT
5
8f4
100
AcDbEntity
8
0-0
62
3
370
-3
100
AcDbText
10
409.051
20
423.707
30
0.0
40
5.743
1
アスファルトルーフィング９４０
41
0.979
50
0.000
100
AcDbText
0
TEXT
5
8f5
100
AcDbEntity
8
0-0
62
3
370
-3
100
AcDbText
10
216.546
20
416.442
30
0.0
40
6.564
41
0.657
50
90.000
1
40
72
1
11
217.275
21
420.829
31
0.0
100
AcDbText
73
1
0
TEXT
5
8f6
100
AcDbEntity
8
0-1
62
3
370
-3
100
AcDbText
10
121.574
20
172.382
30
0.0
40
5.743
1
通し吊子
41
0.979
50
0.000
100
AcDbText
0
TEXT
5
8f7
100
AcDbEntity
8
0-1
62
3
370
-3
100
AcDbText
10
708.911
20
68.395
30
0.0
40
6.564
41
0.597
50
0.000
1
20
72
1
11
713.299
21
67.666
31
0.0
100
AcDbText
73
1
0
TEXT
5
8f8
100
AcDbEntity
8
0-1
62
3
370
-3
100
AcDbText
10
724.411
20
68.395
30
0.0
40
6.564
41
0.968
50
0.000
1
11
72
1
11
728.799
21
67.666
31
0.0
100
AcDbText
73
1
0
TEXT
5
8f9
100
AcDbEntity
8
0-1
62
3
370
-3
100
AcDbText
10
731.411
20
159.023
30
0.0
40
6.564
41
0.566
50
0.000
1
65
72
1
11
735.799
21
158.293
31
0.0
100
AcDbText
73
1
0
TEXT
5
8fa
100
AcDbEntity
8
0-1
62
3
370
-3
100
AcDbText
10
797.152
20
231.287
30
0.0
40
6.564
41
0.816
50
90.000
1
10
72
1
11
797.881
21
235.675
31
0.0
100
AcDbText
73
1
0
TEXT
5
8fb
100
AcDbEntity
8
0-1
62
3
370
-3
100
AcDbText
10
446.152
20
110.787
30
0.0
40
6.564
41
0.572
50
90.000
1
35
72
1
11
446.881
21
115.175
31
0.0
100
AcDbText
73
1
0
TEXT
5
8fc
100
AcDbEntity
8
0-1
62
3
370
-3
100
AcDbText
10
323.447
20
159.023
30
0.0
40
6.564
41
0.597
50
0.000
1
20
72
1
11
327.835
21
158.293
31
0.0
100
AcDbText
73
1
0
TEXT
5
8fd
100
AcDbEntity
8
0-1
62
3
370
-3
100
AcDbText
10
462.937
20
172.382
30
0.0
40
5.743
1
棟面戸板
41
0.979
50
0.000
100
AcDbText
0
TEXT
5
8fe
100
AcDbEntity
8
F-F
62
3
370
-3
100
AcDbText
10
786.051
20
27.710
30
0.0
40
3.282
1
Ａ１－１／１　
41
0.963
50
0.000
100
AcDbText
0
TEXT
5
8ff
100
AcDbEntity
8
F-F
62
3
370
-3
100
AcDbText
10
786.051
20
20.302
30
0.0
40
3.282
1
Ａ３－１／２　
41
0.963
50
0.000
100
AcDbText
0
TEXT
5
900
100
AcDbEntity
8
0-1
62
3
370
-3
100
AcDbText
10
731.411
20
174.923
30
0.0
40
6.564
41
0.566
50
0.000
1
65
72
1
11
735.799
21
174.193
31
0.0
100
AcDbText
73
1
0
TEXT
5
901
100
AcDbEntity
8
F-F
62
3
370
-3
100
AcDbText
10
83.397
20
20.957
30
0.0
40
3.282
1
電話（０５４）２６３－２２８０（代表）
41
0.963
50
0.000
100
AcDbText
0
TEXT
5
902
100
AcDbEntity
8
F-F
62
3
370
-3
100
AcDbText
10
61.448
20
37.152
30
0.0
40
6.564
1
小　池　弥　太　郎　商　店
41
0.963
50
0.000
100
AcDbText
0
TEXT
5
903
100
AcDbEntity
8
F-F
62
3
370
-3
100
AcDbText
10
83.395
20
28.373
30
0.0
40
3.282
1
静岡県静岡市葵区流通センター１６番
41
0.963
50
360.000
100
AcDbText
0
TEXT
5
904
100
AcDbEntity
8
F-F
62
3
370
-3
100
AcDbText
10
50.131
20
40.698
30
0.0
40
2.461
1
株
41
0.999
50
0.000
100
AcDbText
0
TEXT
5
905
100
AcDbEntity
8
F-F
62
3
370
-3
100
AcDbText
10
53.706
20
37.073
30
0.0
40
2.461
1
社
41
0.999
50
0.000
100
AcDbText
0
TEXT
5
906
100
AcDbEntity
8
F-F
62
3
370
-3
100
AcDbText
10
50.106
20
37.073
30
0.0
40
2.461
1
会
41
0.999
50
0.000
100
AcDbText
0
TEXT
5
907
100
AcDbEntity
8
F-F
62
3
370
-3
100
AcDbText
10
53.506
20
40.598
30
0.0
40
2.461
1
式
41
0.999
50
0.000
100
AcDbText
0
MTEXT
5
908
100
AcDbEntity
8
0-0
62
3
370
-3
100
AcDbMText
10
268.094
20
322.634
30
0.0
40
5.424
41
0.000
71
7
72
1
1
\W1.111;セルフドリルビス{\W0.800; }５×４５
7
STANDARD
11
1.00000
21
0.00000
31
0.0
0
TEXT
5
909
100
AcDbEntity
8
0-0
62
3
370
-3
100
AcDbText
10
251.226
20
456.477
30
0.0
40
6.564
41
0.657
50
0.000
1
40
72
1
11
255.614
21
455.747
31
0.0
100
AcDbText
73
1
0
TEXT
5
90a
100
AcDbEntity
8
0-0
62
3
370
-3
100
AcDbText
10
549.546
20
416.442
30
0.0
40
6.564
41
0.657
50
90.000
1
40
72
1
11
550.275
21
420.829
31
0.0
100
AcDbText
73
1
0
TEXT
5
90b
100
AcDbEntity
8
0-0
62
3
370
-3
100
AcDbText
10
584.226
20
456.477
30
0.0
40
6.564
41
0.657
50
0.000
1
40
72
1
11
588.614
21
455.747
31
0.0
100
AcDbText
73
1
0
TEXT
5
90c
100
AcDbEntity
8
0-1
62
3
370
-3
100
AcDbText
10
564.161
20
159.023
30
0.0
40
6.564
41
0.612
50
0.000
1
360
72
1
11
570.743
21
158.293
31
0.0
100
AcDbText
73
1
0
TEXT
5
90d
100
AcDbEntity
8
0-1
62
3
370
-3
100
AcDbText
10
564.161
20
68.395
30
0.0
40
6.564
41
0.542
50
0.000
1
288
72
1
11
570.743
21
67.666
31
0.0
100
AcDbText
73
1
0
TEXT
5
90e
100
AcDbEntity
8
0-1
62
3
370
-3
100
AcDbText
10
661.411
20
68.395
30
0.0
40
6.564
41
0.574
50
0.000
1
36
72
1
11
665.799
21
67.666
31
0.0
100
AcDbText
73
1
0
TEXT
5
90f
100
AcDbEntity
8
0-1
62
3
370
-3
100
AcDbText
10
471.411
20
68.395
30
0.0
40
6.564
41
0.574
50
0.000
1
36
72
1
11
475.799
21
67.666
31
0.0
100
AcDbText
73
1
0
TEXT
5
910
100
AcDbEntity
8
0-1
62
3
370
-3
100
AcDbText
10
132.542
20
79.068
30
0.0
40
6.564
41
0.752
50
0.000
1
19
72
1
11
136.930
21
78.339
31
0.0
100
AcDbText
73
1
0
TEXT
5
911
100
AcDbEntity
8
0-1
62
3
370
-3
100
AcDbText
10
98.777
20
113.433
30
0.0
40
6.564
41
0.548
50
90.000
1
32
72
1
11
99.506
21
117.820
31
0.0
100
AcDbText
73
1
0
MTEXT
5
912
100
AcDbEntity
8
0-1
62
3
370
-3
100
AcDbMText
10
123.542
20
158.293
30
0.0
40
6.199
41
0.000
71
7
72
1
1
\W1.093;{\W0.787;34}～{\W0.787;40}
7
STANDARD
11
1.00000
21
0.00000
31
0.0
0
TEXT
5
913
100
AcDbEntity
8
0-1
62
3
370
-3
100
AcDbText
10
549.546
20
227.785
30
0.0
40
6.564
41
0.657
50
90.000
1
40
72
1
11
550.275
21
232.173
31
0.0
100
AcDbText
73
1
0
TEXT
5
914
100
AcDbEntity
8
0-1
62
3
370
-3
100
AcDbText
10
584.226
20
267.820
30
0.0
40
6.564
41
0.657
50
0.000
1
40
72
1
11
588.614
21
267.091
31
0.0
100
AcDbText
73
1
0
TEXT
5
915
100
AcDbEntity
8
0-1
62
3
370
-3
100
AcDbText
10
349.226
20
233.421
30
0.0
40
6.564
41
0.637
50
0.000
1
30
72
1
11
353.614
21
232.691
31
0.0
100
AcDbText
73
1
0
TEXT
5
916
100
AcDbEntity
8
0-1
62
3
370
-3
100
AcDbText
10
486.226
20
233.421
30
0.0
40
6.564
41
0.637
50
0.000
1
30
72
1
11
490.614
21
232.691
31
0.0
100
AcDbText
73
1
0
TEXT
5
917
100
AcDbEntity
8
0-1
62
3
370
-3
100
AcDbText
10
223.695
20
172.382
30
0.0
40
5.743
1
軒先化粧キャップ
41
0.979
50
0.000
100
AcDbText
0
TEXT
5
918
100
AcDbEntity
8
0-1
62
3
370
-3
100
AcDbText
10
189.967
20
87.310
30
0.0
40
6.564
41
0.564
50
90.000
1
5
72
1
11
190.696
21
89.503
31
0.0
100
AcDbText
73
1
0
TEXT
5
919
100
AcDbEntity
8
0-1
62
3
370
-3
100
AcDbText
10
189.967
20
107.573
30
0.0
40
6.564
41
0.657
50
90.000
1
40
72
1
11
190.696
21
111.961
31
0.0
100
AcDbText
73
1
0
TEXT
5
91a
100
AcDbEntity
8
0-1
62
3
370
-3
100
AcDbText
10
251.226
20
159.023
30
0.0
40
6.564
41
0.591
50
0.000
1
46
72
1
11
255.614
21
158.293
31
0.0
100
AcDbText
73
1
0
TEXT
5
91b
100
AcDbEntity
8
0-1
62
3
370
-3
100
AcDbText
10
251.226
20
67.395
30
0.0
40
6.564
41
0.561
50
0.000
1
86
72
1
11
255.614
21
66.666
31
0.0
100
AcDbText
73
1
0
TEXT
5
91c
100
AcDbEntity
8
0-1
62
3
370
-3
100
AcDbText
10
321.697
20
67.395
30
0.0
40
6.564
41
0.716
50
0.000
1
16
72
1
11
326.085
21
66.666
31
0.0
100
AcDbText
73
1
0
TEXT
5
91d
100
AcDbEntity
8
0-1
62
3
370
-3
100
AcDbText
10
335.947
20
67.395
30
0.0
40
6.564
41
0.675
50
0.000
1
12
72
1
11
340.335
21
66.666
31
0.0
100
AcDbText
73
1
0
TEXT
5
91e
100
AcDbEntity
8
0-0
62
3
370
-3
100
AcDbText
10
251.226
20
475.027
30
0.0
40
6.564
41
0.588
50
0.000
1
45
72
1
11
255.614
21
474.297
31
0.0
100
AcDbText
73
1
0
TEXT
5
91f
100
AcDbEntity
8
0-0
62
3
370
-3
100
AcDbText
10
584.226
20
475.027
30
0.0
40
6.564
41
0.588
50
0.000
1
45
72
1
11
588.614
21
474.297
31
0.0
100
AcDbText
73
1
0
TEXT
5
920
100
AcDbEntity
8
0-1
62
3
370
-3
100
AcDbText
10
230.827
20
281.532
30
0.0
40
5.743
1
本体リブ付溝板
41
0.979
50
0.000
100
AcDbText
0
TEXT
5
921
100
AcDbEntity
8
0-1
62
3
370
-3
100
AcDbText
10
260.396
20
261.915
30
0.0
40
5.743
1
止水テープ
41
0.979
50
0.000
100
AcDbText
0
TEXT
5
922
100
AcDbEntity
8
0-1
62
3
370
-3
100
AcDbText
10
266.938
20
256.200
30
0.0
40
4.102
1
（オプション）
41
0.942
50
0.000
100
AcDbText
0
MTEXT
5
923
100
AcDbEntity
8
0-0
62
3
370
-3
100
AcDbMText
10
535.244
20
452.932
30
0.0
40
5.424
41
0.000
71
7
72
1
1
\W1.111;止水{\W0.800;ﾃｰﾌﾟ}
7
STANDARD
11
1.00000
21
0.00000
31
0.0
0
TEXT
5
924
100
AcDbEntity
8
0-0
62
3
370
-3
100
AcDbText
10
533.202
20
447.070
30
0.0
40
3.282
1
（オプション）
41
0.963
50
0.000
100
AcDbText
0
TEXT
5
925
100
AcDbEntity
8
0-2
62
3
370
-3
100
AcDbText
10
250.726
20
625.559
30
0.0
40
6.564
41
0.542
50
0.000
1
26
72
1
11
255.114
21
624.830
31
0.0
100
AcDbText
73
1
0
TEXT
5
926
100
AcDbEntity
8
0-2
62
3
370
-3
100
AcDbText
10
268.726
20
625.559
30
0.0
40
6.564
41
0.816
50
0.000
1
10
72
1
11
273.114
21
624.830
31
0.0
100
AcDbText
73
1
0
TEXT
5
927
100
AcDbEntity
8
0-2
62
3
370
-3
100
AcDbText
10
217.967
20
674.424
30
0.0
40
6.564
41
0.566
50
90.000
1
65
72
1
11
218.696
21
678.811
31
0.0
100
AcDbText
73
1
0
TEXT
5
928
100
AcDbEntity
8
0-2
62
3
370
-3
100
AcDbText
10
584.726
20
625.559
30
0.0
40
6.564
41
0.542
50
0.000
1
26
72
1
11
589.114
21
624.830
31
0.0
100
AcDbText
73
1
0
TEXT
5
929
100
AcDbEntity
8
0-2
62
3
370
-3
100
AcDbText
10
566.726
20
625.559
30
0.0
40
6.564
41
0.816
50
0.000
1
10
72
1
11
571.114
21
624.830
31
0.0
100
AcDbText
73
1
0
TEXT
5
92a
100
AcDbEntity
8
0-2
62
3
370
-3
100
AcDbText
10
630.967
20
674.424
30
0.0
40
6.564
41
0.566
50
90.000
1
65
72
1
11
631.696
21
678.811
31
0.0
100
AcDbText
73
1
0
TEXT
5
92b
100
AcDbEntity
8
0-2
62
3
370
-3
100
AcDbText
10
415.476
20
625.559
30
0.0
40
6.564
41
0.542
50
0.000
1
288
72
1
11
422.057
21
624.830
31
0.0
100
AcDbText
73
1
0
TEXT
5
92c
100
AcDbEntity
8
0-1
62
3
370
-3
100
AcDbText
10
797.152
20
213.287
30
0.0
40
6.564
41
0.542
50
90.000
1
26
72
1
11
797.881
21
217.675
31
0.0
100
AcDbText
73
1
0
TEXT
5
92d
100
AcDbEntity
8
0-2
62
3
370
-3
100
AcDbText
10
415.476
20
734.138
30
0.0
40
6.564
41
0.581
50
0.000
1
333
72
1
11
422.057
21
733.409
31
0.0
100
AcDbText
73
1
0
TEXT
5
92e
100
AcDbEntity
8
0-2
62
3
370
-3
100
AcDbText
10
415.476
20
750.038
30
0.0
40
6.564
41
0.612
50
0.000
1
360
72
1
11
422.057
21
749.308
31
0.0
100
AcDbText
73
1
0
TEXT
5
92f
100
AcDbEntity
8
0-0
62
3
370
-3
100
AcDbText
10
135.615
20
515.527
30
0.0
40
6.564
41
0.963
50
0.000
1
＠３３５
72
1
11
153.165
21
514.798
31
0.0
100
AcDbText
73
1
0
TEXT
5
930
100
AcDbEntity
8
0-0
62
3
370
-3
100
AcDbText
10
410.476
20
515.527
30
0.0
40
6.564
41
0.963
50
0.000
1
３３５
72
1
11
423.639
21
514.798
31
0.0
100
AcDbText
73
1
0
TEXT
5
931
100
AcDbEntity
8
0-0
62
3
370
-3
100
AcDbText
10
673.337
20
515.527
30
0.0
40
6.564
41
0.963
50
0.000
1
＠３３５
72
1
11
690.887
21
514.798
31
0.0
100
AcDbText
73
1
0
TEXT
5
932
100
AcDbEntity
8
0-1
62
3
370
-3
100
AcDbText
10
415.476
20
192.216
30
0.0
40
6.564
41
0.575
50
0.000
1
335
72
1
11
422.057
21
191.487
31
0.0
100
AcDbText
73
1
0
TEXT
5
933
100
AcDbEntity
8
0-0
62
3
370
-3
100
AcDbText
10
415.476
20
475.027
30
0.0
40
6.564
41
0.603
50
0.000
1
290
72
1
11
422.057
21
474.297
31
0.0
100
AcDbText
73
1
0
TEXT
5
934
100
AcDbEntity
8
0-1
62
3
370
-3
100
AcDbText
10
303.976
20
233.421
30
0.0
40
6.564
41
0.716
50
0.000
1
61
72
1
11
308.364
21
232.691
31
0.0
100
AcDbText
73
1
0
TEXT
5
935
100
AcDbEntity
8
0-1
62
3
370
-3
100
AcDbText
10
415.476
20
233.421
30
0.0
40
6.564
41
0.705
50
0.000
1
108
72
1
11
422.057
21
232.691
31
0.0
100
AcDbText
73
1
0
MTEXT
5
936
100
AcDbEntity
8
0-0
62
3
370
-3
100
AcDbMText
10
319.712
20
440.413
30
0.0
40
5.424
41
0.000
71
7
72
1
1
\W1.111;嵌合瓦棒 Ｈ４０-{\fMS Gothic;Ⅰ}型
7
STANDARD
11
1.00000
21
0.00000
31
0.0
0
TEXT
5
937
100
AcDbEntity
8
0-0
62
3
370
-3
100
AcDbText
10
47.096
20
555.474
30
0.0
40
8.205
1
ラジアル仕様　Ｒ＝１５０００まで（サザナミ）
41
0.942
50
0.000
100
AcDbText
0
TEXT
5
938
100
AcDbEntity
8
0-2
62
3
370
-3
100
AcDbText
10
261.474
20
766.713
30
0.0
40
5.743
1
棟面戸板
41
0.979
50
0.000
100
AcDbText
0
TEXT
5
939
100
AcDbEntity
8
F-F
62
3
370
-3
100
AcDbText
10
611.422
20
22.356
30
0.0
40
2.461
1
MA 2015-06-06
41
0.664
50
0.000
100
AcDbText
0
MTEXT
5
93a
100
AcDbEntity
8
F-F
62
3
370
-3
100
AcDbMText
10
658.986
20
23.354
30
0.0
40
3.100
41
0.000
71
7
72
1
1
\W1.093;コイケルーフ　嵌合瓦棒 Ｈ４０-{\fMS Gothic;Ⅰ}型　部材詳細図
7
STANDARD
11
1.00000
21
0.00000
31
0.0
0
TEXT
5
93b
100
AcDbEntity
8
F-F
62
3
370
-3
100
AcDbText
10
778.992
20
37.599
30
0.0
40
3.282
1
ＫＲ－ＫＫ－Ｍ１
41
0.963
50
0.000
100
AcDbText
0
POLYLINE
5
93c
100
AcDbEntity
  8
0-0
6
CONTINUOUS
62
3
100
AcDb2dPolyline
66
1
10
0
20
0
70
1
40
0.400
41
0.400
0
VERTEX
5
93d
100
AcDbEntity
  8
0-0
6
CONTINUOUS
62
3
100
AcDbVertex
100
AcDb2dVertex
10
57.242
20
513.830
30
0.0
42
1.000
0
VERTEX
5
93e
100
AcDbEntity
  8
0-0
6
CONTINUOUS
62
3
100
AcDbVertex
100
AcDb2dVertex
10
57.642
20
513.830
30
0.0
42
1.000
0
SEQEND
5
93f
100
AcDbEntity
  8
0-0
0
POLYLINE
5
940
100
AcDbEntity
  8
0-0
6
CONTINUOUS
62
3
100
AcDb2dPolyline
66
1
10
0
20
0
70
1
40
0.400
41
0.400
0
VERTEX
5
941
100
AcDbEntity
  8
0-0
6
CONTINUOUS
62
3
100
AcDbVertex
100
AcDb2dVertex
10
254.964
20
513.830
30
0.0
42
1.000
0
VERTEX
5
942
100
AcDbEntity
  8
0-0
6
CONTINUOUS
62
3
100
AcDbVertex
100
AcDb2dVertex
10
255.364
20
513.830
30
0.0
42
1.000
0
SEQEND
5
943
100
AcDbEntity
  8
0-0
0
POLYLINE
5
944
100
AcDbEntity
  8
0-0
6
CONTINUOUS
62
3
100
AcDb2dPolyline
66
1
10
0
20
0
70
1
40
0.400
41
0.400
0
VERTEX
5
945
100
AcDbEntity
  8
0-0
6
CONTINUOUS
62
3
100
AcDbVertex
100
AcDb2dVertex
10
587.964
20
513.830
30
0.0
42
1.000
0
VERTEX
5
946
100
AcDbEntity
  8
0-0
6
CONTINUOUS
62
3
100
AcDbVertex
100
AcDb2dVertex
10
588.364
20
513.830
30
0.0
42
1.000
0
SEQEND
5
947
100
AcDbEntity
  8
0-0
0
POLYLINE
5
948
100
AcDbEntity
  8
0-0
6
CONTINUOUS
62
3
100
AcDb2dPolyline
66
1
10
0
20
0
70
1
40
0.400
41
0.400
0
VERTEX
5
949
100
AcDbEntity
  8
0-0
6
CONTINUOUS
62
3
100
AcDbVertex
100
AcDb2dVertex
10
785.686
20
513.830
30
0.0
42
1.000
0
VERTEX
5
94a
100
AcDbEntity
  8
0-0
6
CONTINUOUS
62
3
100
AcDbVertex
100
AcDb2dVertex
10
786.086
20
513.830
30
0.0
42
1.000
0
SEQEND
5
94b
100
AcDbEntity
  8
0-0
0
POLYLINE
5
94c
100
AcDbEntity
  8
0-0
6
CONTINUOUS
62
3
100
AcDb2dPolyline
66
1
10
0
20
0
70
1
40
0.400
41
0.400
0
VERTEX
5
94d
100
AcDbEntity
  8
0-0
6
CONTINUOUS
62
3
100
AcDbVertex
100
AcDb2dVertex
10
218.043
20
440.430
30
0.0
42
1.000
0
VERTEX
5
94e
100
AcDbEntity
  8
0-0
6
CONTINUOUS
62
3
100
AcDbVertex
100
AcDb2dVertex
10
218.443
20
440.430
30
0.0
42
1.000
0
SEQEND
5
94f
100
AcDbEntity
  8
0-0
0
POLYLINE
5
950
100
AcDbEntity
  8
0-0
6
CONTINUOUS
62
3
100
AcDb2dPolyline
66
1
10
0
20
0
70
1
40
0.400
41
0.400
0
VERTEX
5
951
100
AcDbEntity
  8
0-0
6
CONTINUOUS
62
3
100
AcDbVertex
100
AcDb2dVertex
10
218.043
20
400.330
30
0.0
42
1.000
0
VERTEX
5
952
100
AcDbEntity
  8
0-0
6
CONTINUOUS
62
3
100
AcDbVertex
100
AcDb2dVertex
10
218.443
20
400.330
30
0.0
42
1.000
0
SEQEND
5
953
100
AcDbEntity
  8
0-0
0
POLYLINE
5
954
100
AcDbEntity
  8
0-1
6
CONTINUOUS
62
3
100
AcDb2dPolyline
66
1
10
0
20
0
70
1
40
0.400
41
0.400
0
VERTEX
5
955
100
AcDbEntity
  8
0-1
6
CONTINUOUS
62
3
100
AcDbVertex
100
AcDb2dVertex
10
119.280
20
157.325
30
0.0
42
1.000
0
VERTEX
5
956
100
AcDbEntity
  8
0-1
6
CONTINUOUS
62
3
100
AcDbVertex
100
AcDb2dVertex
10
119.680
20
157.325
30
0.0
42
1.000
0
SEQEND
5
957
100
AcDbEntity
  8
0-1
0
POLYLINE
5
958
100
AcDbEntity
  8
0-1
6
CONTINUOUS
62
3
100
AcDb2dPolyline
66
1
10
0
20
0
70
1
40
0.400
41
0.400
0
VERTEX
5
959
100
AcDbEntity
  8
0-1
6
CONTINUOUS
62
3
100
AcDbVertex
100
AcDb2dVertex
10
100.274
20
133.371
30
0.0
42
1.000
0
VERTEX
5
95a
100
AcDbEntity
  8
0-1
6
CONTINUOUS
62
3
100
AcDbVertex
100
AcDb2dVertex
10
100.674
20
133.371
30
0.0
42
1.000
0
SEQEND
5
95b
100
AcDbEntity
  8
0-1
0
POLYLINE
5
95c
100
AcDbEntity
  8
0-1
6
CONTINUOUS
62
3
100
AcDb2dPolyline
66
1
10
0
20
0
70
1
40
0.400
41
0.400
0
VERTEX
5
95d
100
AcDbEntity
  8
0-1
6
CONTINUOUS
62
3
100
AcDbVertex
100
AcDb2dVertex
10
100.274
20
101.371
30
0.0
42
1.000
0
VERTEX
5
95e
100
AcDbEntity
  8
0-1
6
CONTINUOUS
62
3
100
AcDbVertex
100
AcDb2dVertex
10
100.674
20
101.371
30
0.0
42
1.000
0
SEQEND
5
95f
100
AcDbEntity
  8
0-1
0
POLYLINE
5
960
100
AcDbEntity
  8
0-1
6
CONTINUOUS
62
3
100
AcDb2dPolyline
66
1
10
0
20
0
70
1
40
0.400
41
0.400
0
VERTEX
5
961
100
AcDbEntity
  8
0-1
6
CONTINUOUS
62
3
100
AcDbVertex
100
AcDb2dVertex
10
126.780
20
86.371
30
0.0
42
1.000
0
VERTEX
5
962
100
AcDbEntity
  8
0-1
6
CONTINUOUS
62
3
100
AcDbVertex
100
AcDb2dVertex
10
127.180
20
86.371
30
0.0
42
1.000
0
SEQEND
5
963
100
AcDbEntity
  8
0-1
0
POLYLINE
5
964
100
AcDbEntity
  8
0-1
6
CONTINUOUS
62
3
100
AcDb2dPolyline
66
1
10
0
20
0
70
1
40
0.400
41
0.400
0
VERTEX
5
965
100
AcDbEntity
  8
0-1
6
CONTINUOUS
62
3
100
AcDbVertex
100
AcDb2dVertex
10
153.280
20
157.325
30
0.0
42
1.000
0
VERTEX
5
966
100
AcDbEntity
  8
0-1
6
CONTINUOUS
62
3
100
AcDbVertex
100
AcDb2dVertex
10
153.680
20
157.325
30
0.0
42
1.000
0
SEQEND
5
967
100
AcDbEntity
  8
0-1
0
POLYLINE
5
968
100
AcDbEntity
  8
0-1
6
CONTINUOUS
62
3
100
AcDb2dPolyline
66
1
10
0
20
0
70
1
40
0.400
41
0.400
0
VERTEX
5
969
100
AcDbEntity
  8
0-1
6
CONTINUOUS
62
3
100
AcDbVertex
100
AcDb2dVertex
10
145.780
20
86.371
30
0.0
42
1.000
0
VERTEX
5
96a
100
AcDbEntity
  8
0-1
6
CONTINUOUS
62
3
100
AcDbVertex
100
AcDb2dVertex
10
146.180
20
86.371
30
0.0
42
1.000
0
SEQEND
5
96b
100
AcDbEntity
  8
0-1
0
POLYLINE
5
96c
100
AcDbEntity
  8
0-1
6
CONTINUOUS
62
3
100
AcDb2dPolyline
66
1
10
0
20
0
70
1
40
0.400
41
0.400
0
VERTEX
5
96d
100
AcDbEntity
  8
0-1
6
CONTINUOUS
62
3
100
AcDbVertex
100
AcDb2dVertex
10
462.649
20
157.325
30
0.0
42
1.000
0
VERTEX
5
96e
100
AcDbEntity
  8
0-1
6
CONTINUOUS
62
3
100
AcDbVertex
100
AcDb2dVertex
10
463.049
20
157.325
30
0.0
42
1.000
0
SEQEND
5
96f
100
AcDbEntity
  8
0-1
0
POLYLINE
5
970
100
AcDbEntity
  8
0-1
6
CONTINUOUS
62
3
100
AcDb2dPolyline
66
1
10
0
20
0
70
1
40
0.400
41
0.400
0
VERTEX
5
971
100
AcDbEntity
  8
0-1
6
CONTINUOUS
62
3
100
AcDbVertex
100
AcDb2dVertex
10
487.649
20
75.698
30
0.0
42
1.000
0
VERTEX
5
972
100
AcDbEntity
  8
0-1
6
CONTINUOUS
62
3
100
AcDbVertex
100
AcDb2dVertex
10
488.049
20
75.698
30
0.0
42
1.000
0
SEQEND
5
973
100
AcDbEntity
  8
0-1
0
POLYLINE
5
974
100
AcDbEntity
  8
0-1
6
CONTINUOUS
62
3
100
AcDb2dPolyline
66
1
10
0
20
0
70
1
40
0.400
41
0.400
0
VERTEX
5
975
100
AcDbEntity
  8
0-1
6
CONTINUOUS
62
3
100
AcDbVertex
100
AcDb2dVertex
10
677.649
20
157.325
30
0.0
42
1.000
0
VERTEX
5
976
100
AcDbEntity
  8
0-1
6
CONTINUOUS
62
3
100
AcDbVertex
100
AcDb2dVertex
10
678.049
20
157.325
30
0.0
42
1.000
0
SEQEND
5
977
100
AcDbEntity
  8
0-1
0
POLYLINE
5
978
100
AcDbEntity
  8
0-1
6
CONTINUOUS
62
3
100
AcDb2dPolyline
66
1
10
0
20
0
70
1
40
0.400
41
0.400
0
VERTEX
5
979
100
AcDbEntity
  8
0-1
6
CONTINUOUS
62
3
100
AcDbVertex
100
AcDb2dVertex
10
702.649
20
157.325
30
0.0
42
1.000
0
VERTEX
5
97a
100
AcDbEntity
  8
0-1
6
CONTINUOUS
62
3
100
AcDbVertex
100
AcDb2dVertex
10
703.049
20
157.325
30
0.0
42
1.000
0
SEQEND
5
97b
100
AcDbEntity
  8
0-1
0
POLYLINE
5
97c
100
AcDbEntity
  8
0-1
6
CONTINUOUS
62
3
100
AcDb2dPolyline
66
1
10
0
20
0
70
1
40
0.400
41
0.400
0
VERTEX
5
97d
100
AcDbEntity
  8
0-1
6
CONTINUOUS
62
3
100
AcDbVertex
100
AcDb2dVertex
10
767.649
20
157.325
30
0.0
42
1.000
0
VERTEX
5
97e
100
AcDbEntity
  8
0-1
6
CONTINUOUS
62
3
100
AcDbVertex
100
AcDb2dVertex
10
768.049
20
157.325
30
0.0
42
1.000
0
SEQEND
5
97f
100
AcDbEntity
  8
0-1
0
POLYLINE
5
980
100
AcDbEntity
  8
0-1
6
CONTINUOUS
62
3
100
AcDb2dPolyline
66
1
10
0
20
0
70
1
40
0.400
41
0.400
0
VERTEX
5
981
100
AcDbEntity
  8
0-1
6
CONTINUOUS
62
3
100
AcDbVertex
100
AcDb2dVertex
10
462.649
20
75.698
30
0.0
42
1.000
0
VERTEX
5
982
100
AcDbEntity
  8
0-1
6
CONTINUOUS
62
3
100
AcDbVertex
100
AcDb2dVertex
10
463.049
20
75.698
30
0.0
42
1.000
0
SEQEND
5
983
100
AcDbEntity
  8
0-1
0
POLYLINE
5
984
100
AcDbEntity
  8
0-1
6
CONTINUOUS
62
3
100
AcDb2dPolyline
66
1
10
0
20
0
70
1
40
0.400
41
0.400
0
VERTEX
5
985
100
AcDbEntity
  8
0-1
6
CONTINUOUS
62
3
100
AcDbVertex
100
AcDb2dVertex
10
677.649
20
75.698
30
0.0
42
1.000
0
VERTEX
5
986
100
AcDbEntity
  8
0-1
6
CONTINUOUS
62
3
100
AcDbVertex
100
AcDb2dVertex
10
678.049
20
75.698
30
0.0
42
1.000
0
SEQEND
5
987
100
AcDbEntity
  8
0-1
0
POLYLINE
5
988
100
AcDbEntity
  8
0-1
6
CONTINUOUS
62
3
100
AcDb2dPolyline
66
1
10
0
20
0
70
1
40
0.400
41
0.400
0
VERTEX
5
989
100
AcDbEntity
  8
0-1
6
CONTINUOUS
62
3
100
AcDbVertex
100
AcDb2dVertex
10
652.649
20
75.698
30
0.0
42
1.000
0
VERTEX
5
98a
100
AcDbEntity
  8
0-1
6
CONTINUOUS
62
3
100
AcDbVertex
100
AcDb2dVertex
10
653.049
20
75.698
30
0.0
42
1.000
0
SEQEND
5
98b
100
AcDbEntity
  8
0-1
0
POLYLINE
5
98c
100
AcDbEntity
  8
0-1
6
CONTINUOUS
62
3
100
AcDb2dPolyline
66
1
10
0
20
0
70
1
40
0.400
41
0.400
0
VERTEX
5
98d
100
AcDbEntity
  8
0-1
6
CONTINUOUS
62
3
100
AcDbVertex
100
AcDb2dVertex
10
702.649
20
75.698
30
0.0
42
1.000
0
VERTEX
5
98e
100
AcDbEntity
  8
0-1
6
CONTINUOUS
62
3
100
AcDbVertex
100
AcDb2dVertex
10
703.049
20
75.698
30
0.0
42
1.000
0
SEQEND
5
98f
100
AcDbEntity
  8
0-1
0
POLYLINE
5
990
100
AcDbEntity
  8
0-1
6
CONTINUOUS
62
3
100
AcDb2dPolyline
66
1
10
0
20
0
70
1
40
0.400
41
0.400
0
VERTEX
5
991
100
AcDbEntity
  8
0-1
6
CONTINUOUS
62
3
100
AcDbVertex
100
AcDb2dVertex
10
722.649
20
75.698
30
0.0
42
1.000
0
VERTEX
5
992
100
AcDbEntity
  8
0-1
6
CONTINUOUS
62
3
100
AcDbVertex
100
AcDb2dVertex
10
723.049
20
75.698
30
0.0
42
1.000
0
SEQEND
5
993
100
AcDbEntity
  8
0-1
0
POLYLINE
5
994
100
AcDbEntity
  8
0-1
6
CONTINUOUS
62
3
100
AcDb2dPolyline
66
1
10
0
20
0
70
1
40
0.400
41
0.400
0
VERTEX
5
995
100
AcDbEntity
  8
0-1
6
CONTINUOUS
62
3
100
AcDbVertex
100
AcDb2dVertex
10
733.649
20
75.698
30
0.0
42
1.000
0
VERTEX
5
996
100
AcDbEntity
  8
0-1
6
CONTINUOUS
62
3
100
AcDbVertex
100
AcDb2dVertex
10
734.049
20
75.698
30
0.0
42
1.000
0
SEQEND
5
997
100
AcDbEntity
  8
0-1
0
POLYLINE
5
998
100
AcDbEntity
  8
0-1
6
CONTINUOUS
62
3
100
AcDb2dPolyline
66
1
10
0
20
0
70
1
40
0.400
41
0.400
0
VERTEX
5
999
100
AcDbEntity
  8
0-1
6
CONTINUOUS
62
3
100
AcDbVertex
100
AcDb2dVertex
10
789.649
20
240.225
30
0.0
42
1.000
0
VERTEX
5
99a
100
AcDbEntity
  8
0-1
6
CONTINUOUS
62
3
100
AcDbVertex
100
AcDb2dVertex
10
790.049
20
240.225
30
0.0
42
1.000
0
SEQEND
5
99b
100
AcDbEntity
  8
0-1
0
POLYLINE
5
99c
100
AcDbEntity
  8
0-1
6
CONTINUOUS
62
3
100
AcDb2dPolyline
66
1
10
0
20
0
70
1
40
0.400
41
0.400
0
VERTEX
5
99d
100
AcDbEntity
  8
0-1
6
CONTINUOUS
62
3
100
AcDbVertex
100
AcDb2dVertex
10
789.649
20
204.225
30
0.0
42
1.000
0
VERTEX
5
99e
100
AcDbEntity
  8
0-1
6
CONTINUOUS
62
3
100
AcDbVertex
100
AcDb2dVertex
10
790.049
20
204.225
30
0.0
42
1.000
0
SEQEND
5
99f
100
AcDbEntity
  8
0-1
0
POLYLINE
5
9a0
100
AcDbEntity
  8
0-1
6
CONTINUOUS
62
3
100
AcDb2dPolyline
66
1
10
0
20
0
70
1
40
0.400
41
0.400
0
VERTEX
5
9a1
100
AcDbEntity
  8
0-1
6
CONTINUOUS
62
3
100
AcDbVertex
100
AcDb2dVertex
10
447.649
20
132.225
30
0.0
42
1.000
0
VERTEX
5
9a2
100
AcDbEntity
  8
0-1
6
CONTINUOUS
62
3
100
AcDbVertex
100
AcDb2dVertex
10
448.049
20
132.225
30
0.0
42
1.000
0
SEQEND
5
9a3
100
AcDbEntity
  8
0-1
0
POLYLINE
5
9a4
100
AcDbEntity
  8
0-1
6
CONTINUOUS
62
3
100
AcDb2dPolyline
66
1
10
0
20
0
70
1
40
0.400
41
0.400
0
VERTEX
5
9a5
100
AcDbEntity
  8
0-1
6
CONTINUOUS
62
3
100
AcDbVertex
100
AcDb2dVertex
10
447.649
20
97.225
30
0.0
42
1.000
0
VERTEX
5
9a6
100
AcDbEntity
  8
0-1
6
CONTINUOUS
62
3
100
AcDbVertex
100
AcDb2dVertex
10
448.049
20
97.225
30
0.0
42
1.000
0
SEQEND
5
9a7
100
AcDbEntity
  8
0-1
0
POLYLINE
5
9a8
100
AcDbEntity
  8
0-1
6
CONTINUOUS
62
3
100
AcDb2dPolyline
66
1
10
0
20
0
70
1
40
0.400
41
0.400
0
VERTEX
5
9a9
100
AcDbEntity
  8
0-1
6
CONTINUOUS
62
3
100
AcDbVertex
100
AcDb2dVertex
10
231.964
20
157.325
30
0.0
42
1.000
0
VERTEX
5
9aa
100
AcDbEntity
  8
0-1
6
CONTINUOUS
62
3
100
AcDbVertex
100
AcDb2dVertex
10
232.364
20
157.325
30
0.0
42
1.000
0
SEQEND
5
9ab
100
AcDbEntity
  8
0-1
0
POLYLINE
5
9ac
100
AcDbEntity
  8
0-1
6
CONTINUOUS
62
3
100
AcDb2dPolyline
66
1
10
0
20
0
70
1
40
0.400
41
0.400
0
VERTEX
5
9ad
100
AcDbEntity
  8
0-1
6
CONTINUOUS
62
3
100
AcDbVertex
100
AcDb2dVertex
10
317.185
20
157.325
30
0.0
42
1.000
0
VERTEX
5
9ae
100
AcDbEntity
  8
0-1
6
CONTINUOUS
62
3
100
AcDbVertex
100
AcDb2dVertex
10
317.585
20
157.325
30
0.0
42
1.000
0
SEQEND
5
9af
100
AcDbEntity
  8
0-1
0
POLYLINE
5
9b0
100
AcDbEntity
  8
0-1
6
CONTINUOUS
62
3
100
AcDb2dPolyline
66
1
10
0
20
0
70
1
40
0.400
41
0.400
0
VERTEX
5
9b1
100
AcDbEntity
  8
0-1
6
CONTINUOUS
62
3
100
AcDbVertex
100
AcDb2dVertex
10
337.185
20
157.325
30
0.0
42
1.000
0
VERTEX
5
9b2
100
AcDbEntity
  8
0-1
6
CONTINUOUS
62
3
100
AcDbVertex
100
AcDb2dVertex
10
337.585
20
157.325
30
0.0
42
1.000
0
SEQEND
5
9b3
100
AcDbEntity
  8
0-1
0
POLYLINE
5
9b4
100
AcDbEntity
  8
0-1
6
CONTINUOUS
62
3
100
AcDb2dPolyline
66
1
10
0
20
0
70
1
40
0.400
41
0.400
0
VERTEX
5
9b5
100
AcDbEntity
  8
0-1
6
CONTINUOUS
62
3
100
AcDbVertex
100
AcDb2dVertex
10
191.464
20
131.525
30
0.0
42
1.000
0
VERTEX
5
9b6
100
AcDbEntity
  8
0-1
6
CONTINUOUS
62
3
100
AcDbVertex
100
AcDb2dVertex
10
191.864
20
131.525
30
0.0
42
1.000
0
SEQEND
5
9b7
100
AcDbEntity
  8
0-1
0
POLYLINE
5
9b8
100
AcDbEntity
  8
0-1
6
CONTINUOUS
62
3
100
AcDb2dPolyline
66
1
10
0
20
0
70
1
40
0.400
41
0.400
0
VERTEX
5
9b9
100
AcDbEntity
  8
0-1
6
CONTINUOUS
62
3
100
AcDbVertex
100
AcDb2dVertex
10
191.464
20
86.498
30
0.0
42
1.000
0
VERTEX
5
9ba
100
AcDbEntity
  8
0-1
6
CONTINUOUS
62
3
100
AcDbVertex
100
AcDb2dVertex
10
191.864
20
86.498
30
0.0
42
1.000
0
SEQEND
5
9bb
100
AcDbEntity
  8
0-1
0
POLYLINE
5
9bc
100
AcDbEntity
  8
0-1
6
CONTINUOUS
62
3
100
AcDb2dPolyline
66
1
10
0
20
0
70
1
40
0.400
41
0.400
0
VERTEX
5
9bd
100
AcDbEntity
  8
0-1
6
CONTINUOUS
62
3
100
AcDbVertex
100
AcDb2dVertex
10
702.649
20
182.225
30
0.0
42
1.000
0
VERTEX
5
9be
100
AcDbEntity
  8
0-1
6
CONTINUOUS
62
3
100
AcDbVertex
100
AcDb2dVertex
10
703.049
20
182.225
30
0.0
42
1.000
0
SEQEND
5
9bf
100
AcDbEntity
  8
0-1
0
POLYLINE
5
9c0
100
AcDbEntity
  8
0-1
6
CONTINUOUS
62
3
100
AcDb2dPolyline
66
1
10
0
20
0
70
1
40
0.400
41
0.400
0
VERTEX
5
9c1
100
AcDbEntity
  8
0-1
6
CONTINUOUS
62
3
100
AcDbVertex
100
AcDb2dVertex
10
767.649
20
182.225
30
0.0
42
1.000
0
VERTEX
5
9c2
100
AcDbEntity
  8
0-1
6
CONTINUOUS
62
3
100
AcDbVertex
100
AcDb2dVertex
10
768.049
20
182.225
30
0.0
42
1.000
0
SEQEND
5
9c3
100
AcDbEntity
  8
0-1
0
POLYLINE
5
9c4
100
AcDbEntity
  8
0-0
6
CONTINUOUS
62
3
100
AcDb2dPolyline
66
1
10
0
20
0
70
1
40
0.400
41
0.400
0
VERTEX
5
9c5
100
AcDbEntity
  8
0-0
6
CONTINUOUS
62
3
100
AcDbVertex
100
AcDb2dVertex
10
274.964
20
454.779
30
0.0
42
1.000
0
VERTEX
5
9c6
100
AcDbEntity
  8
0-0
6
CONTINUOUS
62
3
100
AcDbVertex
100
AcDb2dVertex
10
275.364
20
454.779
30
0.0
42
1.000
0
SEQEND
5
9c7
100
AcDbEntity
  8
0-0
0
POLYLINE
5
9c8
100
AcDbEntity
  8
0-0
6
CONTINUOUS
62
3
100
AcDb2dPolyline
66
1
10
0
20
0
70
1
40
0.400
41
0.400
0
VERTEX
5
9c9
100
AcDbEntity
  8
0-0
6
CONTINUOUS
62
3
100
AcDbVertex
100
AcDb2dVertex
10
234.964
20
454.779
30
0.0
42
1.000
0
VERTEX
5
9ca
100
AcDbEntity
  8
0-0
6
CONTINUOUS
62
3
100
AcDbVertex
100
AcDb2dVertex
10
235.364
20
454.779
30
0.0
42
1.000
0
SEQEND
5
9cb
100
AcDbEntity
  8
0-0
0
POLYLINE
5
9cc
100
AcDbEntity
  8
0-0
6
CONTINUOUS
62
3
100
AcDb2dPolyline
66
1
10
0
20
0
70
1
40
0.400
41
0.400
0
VERTEX
5
9cd
100
AcDbEntity
  8
0-0
6
CONTINUOUS
62
3
100
AcDbVertex
100
AcDb2dVertex
10
551.043
20
440.430
30
0.0
42
1.000
0
VERTEX
5
9ce
100
AcDbEntity
  8
0-0
6
CONTINUOUS
62
3
100
AcDbVertex
100
AcDb2dVertex
10
551.443
20
440.430
30
0.0
42
1.000
0
SEQEND
5
9cf
100
AcDbEntity
  8
0-0
0
POLYLINE
5
9d0
100
AcDbEntity
  8
0-0
6
CONTINUOUS
62
3
100
AcDb2dPolyline
66
1
10
0
20
0
70
1
40
0.400
41
0.400
0
VERTEX
5
9d1
100
AcDbEntity
  8
0-0
6
CONTINUOUS
62
3
100
AcDbVertex
100
AcDb2dVertex
10
551.043
20
400.330
30
0.0
42
1.000
0
VERTEX
5
9d2
100
AcDbEntity
  8
0-0
6
CONTINUOUS
62
3
100
AcDbVertex
100
AcDb2dVertex
10
551.443
20
400.330
30
0.0
42
1.000
0
SEQEND
5
9d3
100
AcDbEntity
  8
0-0
0
POLYLINE
5
9d4
100
AcDbEntity
  8
0-0
6
CONTINUOUS
62
3
100
AcDb2dPolyline
66
1
10
0
20
0
70
1
40
0.400
41
0.400
0
VERTEX
5
9d5
100
AcDbEntity
  8
0-0
6
CONTINUOUS
62
3
100
AcDbVertex
100
AcDb2dVertex
10
607.964
20
454.779
30
0.0
42
1.000
0
VERTEX
5
9d6
100
AcDbEntity
  8
0-0
6
CONTINUOUS
62
3
100
AcDbVertex
100
AcDb2dVertex
10
608.364
20
454.779
30
0.0
42
1.000
0
SEQEND
5
9d7
100
AcDbEntity
  8
0-0
0
POLYLINE
5
9d8
100
AcDbEntity
  8
0-0
6
CONTINUOUS
62
3
100
AcDb2dPolyline
66
1
10
0
20
0
70
1
40
0.400
41
0.400
0
VERTEX
5
9d9
100
AcDbEntity
  8
0-0
6
CONTINUOUS
62
3
100
AcDbVertex
100
AcDb2dVertex
10
567.964
20
454.779
30
0.0
42
1.000
0
VERTEX
5
9da
100
AcDbEntity
  8
0-0
6
CONTINUOUS
62
3
100
AcDbVertex
100
AcDb2dVertex
10
568.364
20
454.779
30
0.0
42
1.000
0
SEQEND
5
9db
100
AcDbEntity
  8
0-0
0
POLYLINE
5
9dc
100
AcDbEntity
  8
0-0
6
CONTINUOUS
62
3
100
AcDb2dPolyline
66
1
10
0
20
0
70
1
40
0.400
41
0.400
0
VERTEX
5
9dd
100
AcDbEntity
  8
0-0
6
CONTINUOUS
62
3
100
AcDbVertex
100
AcDb2dVertex
10
421.464
20
399.830
30
0.0
42
1.000
0
VERTEX
5
9de
100
AcDbEntity
  8
0-0
6
CONTINUOUS
62
3
100
AcDbVertex
100
AcDb2dVertex
10
421.864
20
399.830
30
0.0
42
1.000
0
SEQEND
5
9df
100
AcDbEntity
  8
0-0
0
POLYLINE
5
9e0
100
AcDbEntity
  8
0-0
6
CONTINUOUS
62
3
100
AcDb2dPolyline
66
1
10
0
20
0
70
1
40
0.400
41
0.400
0
VERTEX
5
9e1
100
AcDbEntity
  8
0-0
6
CONTINUOUS
62
3
100
AcDbVertex
100
AcDb2dVertex
10
88.464
20
399.830
30
0.0
42
1.000
0
VERTEX
5
9e2
100
AcDbEntity
  8
0-0
6
CONTINUOUS
62
3
100
AcDbVertex
100
AcDb2dVertex
10
88.864
20
399.830
30
0.0
42
1.000
0
SEQEND
5
9e3
100
AcDbEntity
  8
0-0
0
POLYLINE
5
9e4
100
AcDbEntity
  8
0-0
6
CONTINUOUS
62
3
100
AcDb2dPolyline
66
1
10
0
20
0
70
1
40
0.400
41
0.400
0
VERTEX
5
9e5
100
AcDbEntity
  8
0-0
6
CONTINUOUS
62
3
100
AcDbVertex
100
AcDb2dVertex
10
754.464
20
399.830
30
0.0
42
1.000
0
VERTEX
5
9e6
100
AcDbEntity
  8
0-0
6
CONTINUOUS
62
3
100
AcDbVertex
100
AcDb2dVertex
10
754.864
20
399.830
30
0.0
42
1.000
0
SEQEND
5
9e7
100
AcDbEntity
  8
0-0
0
POLYLINE
5
9e8
100
AcDbEntity
  8
0-1
6
CONTINUOUS
62
4
100
AcDb2dPolyline
66
1
10
0
20
0
70
1
40
0.400
41
0.400
0
VERTEX
5
9e9
100
AcDbEntity
  8
0-1
6
CONTINUOUS
62
4
100
AcDbVertex
100
AcDb2dVertex
10
565.464
20
211.173
30
0.0
42
1.000
0
VERTEX
5
9ea
100
AcDbEntity
  8
0-1
6
CONTINUOUS
62
4
100
AcDbVertex
100
AcDb2dVertex
10
565.864
20
211.173
30
0.0
42
1.000
0
SEQEND
5
9eb
100
AcDbEntity
  8
0-1
0
POLYLINE
5
9ec
100
AcDbEntity
  8
0-1
6
CONTINUOUS
62
4
100
AcDb2dPolyline
66
1
10
0
20
0
70
1
40
0.400
41
0.400
0
VERTEX
5
9ed
100
AcDbEntity
  8
0-1
6
CONTINUOUS
62
4
100
AcDbVertex
100
AcDb2dVertex
10
489.464
20
210.173
30
0.0
42
1.000
0
VERTEX
5
9ee
100
AcDbEntity
  8
0-1
6
CONTINUOUS
62
4
100
AcDbVertex
100
AcDb2dVertex
10
489.864
20
210.173
30
0.0
42
1.000
0
SEQEND
5
9ef
100
AcDbEntity
  8
0-1
0
POLYLINE
5
9f0
100
AcDbEntity
  8
0-1
6
CONTINUOUS
62
4
100
AcDb2dPolyline
66
1
10
0
20
0
70
1
40
0.400
41
0.400
0
VERTEX
5
9f1
100
AcDbEntity
  8
0-1
6
CONTINUOUS
62
4
100
AcDbVertex
100
AcDb2dVertex
10
276.964
20
211.173
30
0.0
42
1.000
0
VERTEX
5
9f2
100
AcDbEntity
  8
0-1
6
CONTINUOUS
62
4
100
AcDbVertex
100
AcDb2dVertex
10
277.364
20
211.173
30
0.0
42
1.000
0
SEQEND
5
9f3
100
AcDbEntity
  8
0-1
0
POLYLINE
5
9f4
100
AcDbEntity
  8
0-1
6
CONTINUOUS
62
4
100
AcDb2dPolyline
66
1
10
0
20
0
70
1
40
0.400
41
0.400
0
VERTEX
5
9f5
100
AcDbEntity
  8
0-1
6
CONTINUOUS
62
4
100
AcDbVertex
100
AcDb2dVertex
10
352.964
20
210.173
30
0.0
42
1.000
0
VERTEX
5
9f6
100
AcDbEntity
  8
0-1
6
CONTINUOUS
62
4
100
AcDbVertex
100
AcDb2dVertex
10
353.364
20
210.173
30
0.0
42
1.000
0
SEQEND
5
9f7
100
AcDbEntity
  8
0-1
0
POLYLINE
5
9f8
100
AcDbEntity
  8
0-1
6
CONTINUOUS
62
3
100
AcDb2dPolyline
66
1
10
0
20
0
70
1
40
0.400
41
0.400
0
VERTEX
5
9f9
100
AcDbEntity
  8
0-1
6
CONTINUOUS
62
3
100
AcDbVertex
100
AcDb2dVertex
10
551.043
20
251.773
30
0.0
42
1.000
0
VERTEX
5
9fa
100
AcDbEntity
  8
0-1
6
CONTINUOUS
62
3
100
AcDbVertex
100
AcDb2dVertex
10
551.443
20
251.773
30
0.0
42
1.000
0
SEQEND
5
9fb
100
AcDbEntity
  8
0-1
0
POLYLINE
5
9fc
100
AcDbEntity
  8
0-1
6
CONTINUOUS
62
3
100
AcDb2dPolyline
66
1
10
0
20
0
70
1
40
0.400
41
0.400
0
VERTEX
5
9fd
100
AcDbEntity
  8
0-1
6
CONTINUOUS
62
3
100
AcDbVertex
100
AcDb2dVertex
10
551.043
20
211.673
30
0.0
42
1.000
0
VERTEX
5
9fe
100
AcDbEntity
  8
0-1
6
CONTINUOUS
62
3
100
AcDbVertex
100
AcDb2dVertex
10
551.443
20
211.673
30
0.0
42
1.000
0
SEQEND
5
9ff
100
AcDbEntity
  8
0-1
0
POLYLINE
5
a00
100
AcDbEntity
  8
0-1
6
CONTINUOUS
62
3
100
AcDb2dPolyline
66
1
10
0
20
0
70
1
40
0.400
41
0.400
0
VERTEX
5
a01
100
AcDbEntity
  8
0-1
6
CONTINUOUS
62
3
100
AcDbVertex
100
AcDb2dVertex
10
607.964
20
266.123
30
0.0
42
1.000
0
VERTEX
5
a02
100
AcDbEntity
  8
0-1
6
CONTINUOUS
62
3
100
AcDbVertex
100
AcDb2dVertex
10
608.364
20
266.123
30
0.0
42
1.000
0
SEQEND
5
a03
100
AcDbEntity
  8
0-1
0
POLYLINE
5
a04
100
AcDbEntity
  8
0-1
6
CONTINUOUS
62
3
100
AcDb2dPolyline
66
1
10
0
20
0
70
1
40
0.400
41
0.400
0
VERTEX
5
a05
100
AcDbEntity
  8
0-1
6
CONTINUOUS
62
3
100
AcDbVertex
100
AcDb2dVertex
10
567.964
20
266.123
30
0.0
42
1.000
0
VERTEX
5
a06
100
AcDbEntity
  8
0-1
6
CONTINUOUS
62
3
100
AcDbVertex
100
AcDb2dVertex
10
568.364
20
266.123
30
0.0
42
1.000
0
SEQEND
5
a07
100
AcDbEntity
  8
0-1
0
POLYLINE
5
a08
100
AcDbEntity
  8
0-1
6
CONTINUOUS
62
3
100
AcDb2dPolyline
66
1
10
0
20
0
70
1
40
0.400
41
0.400
0
VERTEX
5
a09
100
AcDbEntity
  8
0-1
6
CONTINUOUS
62
3
100
AcDbVertex
100
AcDb2dVertex
10
337.964
20
231.723
30
0.0
42
1.000
0
VERTEX
5
a0a
100
AcDbEntity
  8
0-1
6
CONTINUOUS
62
3
100
AcDbVertex
100
AcDb2dVertex
10
338.364
20
231.723
30
0.0
42
1.000
0
SEQEND
5
a0b
100
AcDbEntity
  8
0-1
0
POLYLINE
5
a0c
100
AcDbEntity
  8
0-1
6
CONTINUOUS
62
3
100
AcDb2dPolyline
66
1
10
0
20
0
70
1
40
0.400
41
0.400
0
VERTEX
5
a0d
100
AcDbEntity
  8
0-1
6
CONTINUOUS
62
3
100
AcDbVertex
100
AcDb2dVertex
10
367.964
20
231.723
30
0.0
42
1.000
0
VERTEX
5
a0e
100
AcDbEntity
  8
0-1
6
CONTINUOUS
62
3
100
AcDbVertex
100
AcDb2dVertex
10
368.364
20
231.723
30
0.0
42
1.000
0
SEQEND
5
a0f
100
AcDbEntity
  8
0-1
0
POLYLINE
5
a10
100
AcDbEntity
  8
0-1
6
CONTINUOUS
62
3
100
AcDb2dPolyline
66
1
10
0
20
0
70
1
40
0.400
41
0.400
0
VERTEX
5
a11
100
AcDbEntity
  8
0-1
6
CONTINUOUS
62
3
100
AcDbVertex
100
AcDb2dVertex
10
504.964
20
231.723
30
0.0
42
1.000
0
VERTEX
5
a12
100
AcDbEntity
  8
0-1
6
CONTINUOUS
62
3
100
AcDbVertex
100
AcDb2dVertex
10
505.364
20
231.723
30
0.0
42
1.000
0
SEQEND
5
a13
100
AcDbEntity
  8
0-1
0
POLYLINE
5
a14
100
AcDbEntity
  8
0-1
6
CONTINUOUS
62
3
100
AcDb2dPolyline
66
1
10
0
20
0
70
1
40
0.400
41
0.400
0
VERTEX
5
a15
100
AcDbEntity
  8
0-1
6
CONTINUOUS
62
3
100
AcDbVertex
100
AcDb2dVertex
10
474.964
20
231.723
30
0.0
42
1.000
0
VERTEX
5
a16
100
AcDbEntity
  8
0-1
6
CONTINUOUS
62
3
100
AcDbVertex
100
AcDb2dVertex
10
475.364
20
231.723
30
0.0
42
1.000
0
SEQEND
5
a17
100
AcDbEntity
  8
0-1
0
POLYLINE
5
a18
100
AcDbEntity
  8
0-1
6
CONTINUOUS
62
3
100
AcDb2dPolyline
66
1
10
0
20
0
70
1
40
0.400
41
0.400
0
VERTEX
5
a19
100
AcDbEntity
  8
0-1
6
CONTINUOUS
62
3
100
AcDbVertex
100
AcDb2dVertex
10
254.964
20
199.519
30
0.0
42
1.000
0
VERTEX
5
a1a
100
AcDbEntity
  8
0-1
6
CONTINUOUS
62
3
100
AcDbVertex
100
AcDb2dVertex
10
255.364
20
199.519
30
0.0
42
1.000
0
SEQEND
5
a1b
100
AcDbEntity
  8
0-1
0
POLYLINE
5
a1c
100
AcDbEntity
  8
0-1
6
CONTINUOUS
62
3
100
AcDb2dPolyline
66
1
10
0
20
0
70
1
40
0.400
41
0.400
0
VERTEX
5
a1d
100
AcDbEntity
  8
0-1
6
CONTINUOUS
62
3
100
AcDbVertex
100
AcDb2dVertex
10
587.964
20
199.519
30
0.0
42
1.000
0
VERTEX
5
a1e
100
AcDbEntity
  8
0-1
6
CONTINUOUS
62
3
100
AcDbVertex
100
AcDb2dVertex
10
588.364
20
199.519
30
0.0
42
1.000
0
SEQEND
5
a1f
100
AcDbEntity
  8
0-1
0
POLYLINE
5
a20
100
AcDbEntity
  8
0-1
6
CONTINUOUS
62
3
100
AcDb2dPolyline
66
1
10
0
20
0
70
1
40
0.400
41
0.400
0
VERTEX
5
a21
100
AcDbEntity
  8
0-1
6
CONTINUOUS
62
3
100
AcDbVertex
100
AcDb2dVertex
10
277.464
20
231.723
30
0.0
42
1.000
0
VERTEX
5
a22
100
AcDbEntity
  8
0-1
6
CONTINUOUS
62
3
100
AcDbVertex
100
AcDb2dVertex
10
277.864
20
231.723
30
0.0
42
1.000
0
SEQEND
5
a23
100
AcDbEntity
  8
0-1
0
POLYLINE
5
a24
100
AcDbEntity
  8
0-1
6
CONTINUOUS
62
3
100
AcDb2dPolyline
66
1
10
0
20
0
70
1
40
0.400
41
0.400
0
VERTEX
5
a25
100
AcDbEntity
  8
0-1
6
CONTINUOUS
62
3
100
AcDbVertex
100
AcDb2dVertex
10
191.464
20
91.498
30
0.0
42
1.000
0
VERTEX
5
a26
100
AcDbEntity
  8
0-1
6
CONTINUOUS
62
3
100
AcDbVertex
100
AcDb2dVertex
10
191.864
20
91.498
30
0.0
42
1.000
0
SEQEND
5
a27
100
AcDbEntity
  8
0-1
0
POLYLINE
5
a28
100
AcDbEntity
  8
0-1
6
CONTINUOUS
62
3
100
AcDb2dPolyline
66
1
10
0
20
0
70
1
40
0.400
41
0.400
0
VERTEX
5
a29
100
AcDbEntity
  8
0-1
6
CONTINUOUS
62
3
100
AcDbVertex
100
AcDb2dVertex
10
277.964
20
157.325
30
0.0
42
1.000
0
VERTEX
5
a2a
100
AcDbEntity
  8
0-1
6
CONTINUOUS
62
3
100
AcDbVertex
100
AcDb2dVertex
10
278.364
20
157.325
30
0.0
42
1.000
0
SEQEND
5
a2b
100
AcDbEntity
  8
0-1
0
POLYLINE
5
a2c
100
AcDbEntity
  8
0-1
6
CONTINUOUS
62
3
100
AcDb2dPolyline
66
1
10
0
20
0
70
1
40
0.400
41
0.400
0
VERTEX
5
a2d
100
AcDbEntity
  8
0-1
6
CONTINUOUS
62
3
100
AcDbVertex
100
AcDb2dVertex
10
211.716
20
65.698
30
0.0
42
1.000
0
VERTEX
5
a2e
100
AcDbEntity
  8
0-1
6
CONTINUOUS
62
3
100
AcDbVertex
100
AcDb2dVertex
10
212.116
20
65.698
30
0.0
42
1.000
0
SEQEND
5
a2f
100
AcDbEntity
  8
0-1
0
POLYLINE
5
a30
100
AcDbEntity
  8
0-1
6
CONTINUOUS
62
3
100
AcDb2dPolyline
66
1
10
0
20
0
70
1
40
0.400
41
0.400
0
VERTEX
5
a31
100
AcDbEntity
  8
0-1
6
CONTINUOUS
62
3
100
AcDbVertex
100
AcDb2dVertex
10
298.213
20
65.698
30
0.0
42
1.000
0
VERTEX
5
a32
100
AcDbEntity
  8
0-1
6
CONTINUOUS
62
3
100
AcDbVertex
100
AcDb2dVertex
10
298.613
20
65.698
30
0.0
42
1.000
0
SEQEND
5
a33
100
AcDbEntity
  8
0-1
0
POLYLINE
5
a34
100
AcDbEntity
  8
0-1
6
CONTINUOUS
62
3
100
AcDb2dPolyline
66
1
10
0
20
0
70
1
40
0.400
41
0.400
0
VERTEX
5
a35
100
AcDbEntity
  8
0-1
6
CONTINUOUS
62
3
100
AcDbVertex
100
AcDb2dVertex
10
317.185
20
65.698
30
0.0
42
1.000
0
VERTEX
5
a36
100
AcDbEntity
  8
0-1
6
CONTINUOUS
62
3
100
AcDbVertex
100
AcDb2dVertex
10
317.585
20
65.698
30
0.0
42
1.000
0
SEQEND
5
a37
100
AcDbEntity
  8
0-1
0
POLYLINE
5
a38
100
AcDbEntity
  8
0-1
6
CONTINUOUS
62
3
100
AcDb2dPolyline
66
1
10
0
20
0
70
1
40
0.400
41
0.400
0
VERTEX
5
a39
100
AcDbEntity
  8
0-1
6
CONTINUOUS
62
3
100
AcDbVertex
100
AcDb2dVertex
10
333.685
20
65.698
30
0.0
42
1.000
0
VERTEX
5
a3a
100
AcDbEntity
  8
0-1
6
CONTINUOUS
62
3
100
AcDbVertex
100
AcDb2dVertex
10
334.085
20
65.698
30
0.0
42
1.000
0
SEQEND
5
a3b
100
AcDbEntity
  8
0-1
0
POLYLINE
5
a3c
100
AcDbEntity
  8
0-1
6
CONTINUOUS
62
3
100
AcDb2dPolyline
66
1
10
0
20
0
70
1
40
0.400
41
0.400
0
VERTEX
5
a3d
100
AcDbEntity
  8
0-1
6
CONTINUOUS
62
3
100
AcDbVertex
100
AcDb2dVertex
10
345.685
20
65.698
30
0.0
42
1.000
0
VERTEX
5
a3e
100
AcDbEntity
  8
0-1
6
CONTINUOUS
62
3
100
AcDbVertex
100
AcDb2dVertex
10
346.085
20
65.698
30
0.0
42
1.000
0
SEQEND
5
a3f
100
AcDbEntity
  8
0-1
0
POLYLINE
5
a40
100
AcDbEntity
  8
0-0
6
CONTINUOUS
62
3
100
AcDb2dPolyline
66
1
10
0
20
0
70
1
40
0.400
41
0.400
0
VERTEX
5
a41
100
AcDbEntity
  8
0-0
6
CONTINUOUS
62
3
100
AcDbVertex
100
AcDb2dVertex
10
232.464
20
473.329
30
0.0
42
1.000
0
VERTEX
5
a42
100
AcDbEntity
  8
0-0
6
CONTINUOUS
62
3
100
AcDbVertex
100
AcDb2dVertex
10
232.864
20
473.329
30
0.0
42
1.000
0
SEQEND
5
a43
100
AcDbEntity
  8
0-0
0
POLYLINE
5
a44
100
AcDbEntity
  8
0-0
6
CONTINUOUS
62
3
100
AcDb2dPolyline
66
1
10
0
20
0
70
1
40
0.400
41
0.400
0
VERTEX
5
a45
100
AcDbEntity
  8
0-0
6
CONTINUOUS
62
3
100
AcDbVertex
100
AcDb2dVertex
10
277.464
20
473.329
30
0.0
42
1.000
0
VERTEX
5
a46
100
AcDbEntity
  8
0-0
6
CONTINUOUS
62
3
100
AcDbVertex
100
AcDb2dVertex
10
277.864
20
473.329
30
0.0
42
1.000
0
SEQEND
5
a47
100
AcDbEntity
  8
0-0
0
POLYLINE
5
a48
100
AcDbEntity
  8
0-0
6
CONTINUOUS
62
3
100
AcDb2dPolyline
66
1
10
0
20
0
70
1
40
0.400
41
0.400
0
VERTEX
5
a49
100
AcDbEntity
  8
0-0
6
CONTINUOUS
62
3
100
AcDbVertex
100
AcDb2dVertex
10
565.464
20
473.329
30
0.0
42
1.000
0
VERTEX
5
a4a
100
AcDbEntity
  8
0-0
6
CONTINUOUS
62
3
100
AcDbVertex
100
AcDb2dVertex
10
565.864
20
473.329
30
0.0
42
1.000
0
SEQEND
5
a4b
100
AcDbEntity
  8
0-0
0
POLYLINE
5
a4c
100
AcDbEntity
  8
0-0
6
CONTINUOUS
62
3
100
AcDb2dPolyline
66
1
10
0
20
0
70
1
40
0.400
41
0.400
0
VERTEX
5
a4d
100
AcDbEntity
  8
0-0
6
CONTINUOUS
62
3
100
AcDbVertex
100
AcDb2dVertex
10
610.464
20
473.329
30
0.0
42
1.000
0
VERTEX
5
a4e
100
AcDbEntity
  8
0-0
6
CONTINUOUS
62
3
100
AcDbVertex
100
AcDb2dVertex
10
610.864
20
473.329
30
0.0
42
1.000
0
SEQEND
5
a4f
100
AcDbEntity
  8
0-0
0
POLYLINE
5
a50
100
AcDbEntity
  8
0-2
6
CONTINUOUS
62
3
100
AcDb2dPolyline
66
1
10
0
20
0
70
1
40
0.400
41
0.400
0
VERTEX
5
a51
100
AcDbEntity
  8
0-2
6
CONTINUOUS
62
3
100
AcDbVertex
100
AcDb2dVertex
10
277.464
20
623.862
30
0.0
42
1.000
0
VERTEX
5
a52
100
AcDbEntity
  8
0-2
6
CONTINUOUS
62
3
100
AcDbVertex
100
AcDb2dVertex
10
277.864
20
623.862
30
0.0
42
1.000
0
SEQEND
5
a53
100
AcDbEntity
  8
0-2
0
POLYLINE
5
a54
100
AcDbEntity
  8
0-2
6
CONTINUOUS
62
3
100
AcDb2dPolyline
66
1
10
0
20
0
70
1
40
0.400
41
0.400
0
VERTEX
5
a55
100
AcDbEntity
  8
0-2
6
CONTINUOUS
62
3
100
AcDbVertex
100
AcDb2dVertex
10
267.464
20
623.862
30
0.0
42
1.000
0
VERTEX
5
a56
100
AcDbEntity
  8
0-2
6
CONTINUOUS
62
3
100
AcDbVertex
100
AcDb2dVertex
10
267.864
20
623.862
30
0.0
42
1.000
0
SEQEND
5
a57
100
AcDbEntity
  8
0-2
0
POLYLINE
5
a58
100
AcDbEntity
  8
0-2
6
CONTINUOUS
62
3
100
AcDb2dPolyline
66
1
10
0
20
0
70
1
40
0.400
41
0.400
0
VERTEX
5
a59
100
AcDbEntity
  8
0-2
6
CONTINUOUS
62
3
100
AcDbVertex
100
AcDb2dVertex
10
241.464
20
623.862
30
0.0
42
1.000
0
VERTEX
5
a5a
100
AcDbEntity
  8
0-2
6
CONTINUOUS
62
3
100
AcDbVertex
100
AcDb2dVertex
10
241.864
20
623.862
30
0.0
42
1.000
0
SEQEND
5
a5b
100
AcDbEntity
  8
0-2
0
POLYLINE
5
a5c
100
AcDbEntity
  8
0-2
6
CONTINUOUS
62
3
100
AcDb2dPolyline
66
1
10
0
20
0
70
1
40
0.400
41
0.400
0
VERTEX
5
a5d
100
AcDbEntity
  8
0-2
6
CONTINUOUS
62
3
100
AcDbVertex
100
AcDb2dVertex
10
219.464
20
710.862
30
0.0
42
1.000
0
VERTEX
5
a5e
100
AcDbEntity
  8
0-2
6
CONTINUOUS
62
3
100
AcDbVertex
100
AcDb2dVertex
10
219.864
20
710.862
30
0.0
42
1.000
0
SEQEND
5
a5f
100
AcDbEntity
  8
0-2
0
POLYLINE
5
a60
100
AcDbEntity
  8
0-2
6
CONTINUOUS
62
3
100
AcDb2dPolyline
66
1
10
0
20
0
70
1
40
0.400
41
0.400
0
VERTEX
5
a61
100
AcDbEntity
  8
0-2
6
CONTINUOUS
62
3
100
AcDbVertex
100
AcDb2dVertex
10
219.464
20
645.862
30
0.0
42
1.000
0
VERTEX
5
a62
100
AcDbEntity
  8
0-2
6
CONTINUOUS
62
3
100
AcDbVertex
100
AcDb2dVertex
10
219.864
20
645.862
30
0.0
42
1.000
0
SEQEND
5
a63
100
AcDbEntity
  8
0-2
0
POLYLINE
5
a64
100
AcDbEntity
  8
0-2
6
CONTINUOUS
62
3
100
AcDb2dPolyline
66
1
10
0
20
0
70
1
40
0.400
41
0.400
0
VERTEX
5
a65
100
AcDbEntity
  8
0-2
6
CONTINUOUS
62
3
100
AcDbVertex
100
AcDb2dVertex
10
565.464
20
623.862
30
0.0
42
1.000
0
VERTEX
5
a66
100
AcDbEntity
  8
0-2
6
CONTINUOUS
62
3
100
AcDbVertex
100
AcDb2dVertex
10
565.864
20
623.862
30
0.0
42
1.000
0
SEQEND
5
a67
100
AcDbEntity
  8
0-2
0
POLYLINE
5
a68
100
AcDbEntity
  8
0-2
6
CONTINUOUS
62
3
100
AcDb2dPolyline
66
1
10
0
20
0
70
1
40
0.400
41
0.400
0
VERTEX
5
a69
100
AcDbEntity
  8
0-2
6
CONTINUOUS
62
3
100
AcDbVertex
100
AcDb2dVertex
10
575.464
20
623.862
30
0.0
42
1.000
0
VERTEX
5
a6a
100
AcDbEntity
  8
0-2
6
CONTINUOUS
62
3
100
AcDbVertex
100
AcDb2dVertex
10
575.864
20
623.862
30
0.0
42
1.000
0
SEQEND
5
a6b
100
AcDbEntity
  8
0-2
0
POLYLINE
5
a6c
100
AcDbEntity
  8
0-2
6
CONTINUOUS
62
3
100
AcDb2dPolyline
66
1
10
0
20
0
70
1
40
0.400
41
0.400
0
VERTEX
5
a6d
100
AcDbEntity
  8
0-2
6
CONTINUOUS
62
3
100
AcDbVertex
100
AcDb2dVertex
10
601.464
20
623.862
30
0.0
42
1.000
0
VERTEX
5
a6e
100
AcDbEntity
  8
0-2
6
CONTINUOUS
62
3
100
AcDbVertex
100
AcDb2dVertex
10
601.864
20
623.862
30
0.0
42
1.000
0
SEQEND
5
a6f
100
AcDbEntity
  8
0-2
0
POLYLINE
5
a70
100
AcDbEntity
  8
0-2
6
CONTINUOUS
62
3
100
AcDb2dPolyline
66
1
10
0
20
0
70
1
40
0.400
41
0.400
0
VERTEX
5
a71
100
AcDbEntity
  8
0-2
6
CONTINUOUS
62
3
100
AcDbVertex
100
AcDb2dVertex
10
623.464
20
710.862
30
0.0
42
1.000
0
VERTEX
5
a72
100
AcDbEntity
  8
0-2
6
CONTINUOUS
62
3
100
AcDbVertex
100
AcDb2dVertex
10
623.864
20
710.862
30
0.0
42
1.000
0
SEQEND
5
a73
100
AcDbEntity
  8
0-2
0
POLYLINE
5
a74
100
AcDbEntity
  8
0-2
6
CONTINUOUS
62
3
100
AcDb2dPolyline
66
1
10
0
20
0
70
1
40
0.400
41
0.400
0
VERTEX
5
a75
100
AcDbEntity
  8
0-2
6
CONTINUOUS
62
3
100
AcDbVertex
100
AcDb2dVertex
10
623.464
20
645.862
30
0.0
42
1.000
0
VERTEX
5
a76
100
AcDbEntity
  8
0-2
6
CONTINUOUS
62
3
100
AcDbVertex
100
AcDb2dVertex
10
623.864
20
645.862
30
0.0
42
1.000
0
SEQEND
5
a77
100
AcDbEntity
  8
0-2
0
POLYLINE
5
a78
100
AcDbEntity
  8
0-2
6
CONTINUOUS
62
3
100
AcDb2dPolyline
66
1
10
0
20
0
70
1
40
0.400
41
0.400
0
VERTEX
5
a79
100
AcDbEntity
  8
0-2
6
CONTINUOUS
62
3
100
AcDbVertex
100
AcDb2dVertex
10
277.464
20
623.862
30
0.0
42
1.000
0
VERTEX
5
a7a
100
AcDbEntity
  8
0-2
6
CONTINUOUS
62
3
100
AcDbVertex
100
AcDb2dVertex
10
277.864
20
623.862
30
0.0
42
1.000
0
SEQEND
5
a7b
100
AcDbEntity
  8
0-2
0
POLYLINE
5
a7c
100
AcDbEntity
  8
0-2
6
CONTINUOUS
62
3
100
AcDb2dPolyline
66
1
10
0
20
0
70
1
40
0.400
41
0.400
0
VERTEX
5
a7d
100
AcDbEntity
  8
0-2
6
CONTINUOUS
62
3
100
AcDbVertex
100
AcDb2dVertex
10
565.464
20
623.862
30
0.0
42
1.000
0
VERTEX
5
a7e
100
AcDbEntity
  8
0-2
6
CONTINUOUS
62
3
100
AcDbVertex
100
AcDb2dVertex
10
565.864
20
623.862
30
0.0
42
1.000
0
SEQEND
5
a7f
100
AcDbEntity
  8
0-2
0
POLYLINE
5
a80
100
AcDbEntity
  8
0-1
6
CONTINUOUS
62
3
100
AcDb2dPolyline
66
1
10
0
20
0
70
1
40
0.400
41
0.400
0
VERTEX
5
a81
100
AcDbEntity
  8
0-1
6
CONTINUOUS
62
3
100
AcDbVertex
100
AcDb2dVertex
10
789.649
20
230.225
30
0.0
42
1.000
0
VERTEX
5
a82
100
AcDbEntity
  8
0-1
6
CONTINUOUS
62
3
100
AcDbVertex
100
AcDb2dVertex
10
790.049
20
230.225
30
0.0
42
1.000
0
SEQEND
5
a83
100
AcDbEntity
  8
0-1
0
POLYLINE
5
a84
100
AcDbEntity
  8
0-2
6
CONTINUOUS
62
3
100
AcDb2dPolyline
66
1
10
0
20
0
70
1
40
0.400
41
0.400
0
VERTEX
5
a85
100
AcDbEntity
  8
0-2
6
CONTINUOUS
62
3
100
AcDbVertex
100
AcDb2dVertex
10
254.964
20
732.441
30
0.0
42
1.000
0
VERTEX
5
a86
100
AcDbEntity
  8
0-2
6
CONTINUOUS
62
3
100
AcDbVertex
100
AcDb2dVertex
10
255.364
20
732.441
30
0.0
42
1.000
0
SEQEND
5
a87
100
AcDbEntity
  8
0-2
0
POLYLINE
5
a88
100
AcDbEntity
  8
0-2
6
CONTINUOUS
62
3
100
AcDb2dPolyline
66
1
10
0
20
0
70
1
40
0.400
41
0.400
0
VERTEX
5
a89
100
AcDbEntity
  8
0-2
6
CONTINUOUS
62
3
100
AcDbVertex
100
AcDb2dVertex
10
587.964
20
732.441
30
0.0
42
1.000
0
VERTEX
5
a8a
100
AcDbEntity
  8
0-2
6
CONTINUOUS
62
3
100
AcDbVertex
100
AcDb2dVertex
10
588.364
20
732.441
30
0.0
42
1.000
0
SEQEND
5
a8b
100
AcDbEntity
  8
0-2
0
POLYLINE
5
a8c
100
AcDbEntity
  8
0-2
6
CONTINUOUS
62
3
100
AcDb2dPolyline
66
1
10
0
20
0
70
1
40
0.400
41
0.400
0
VERTEX
5
a8d
100
AcDbEntity
  8
0-2
6
CONTINUOUS
62
3
100
AcDbVertex
100
AcDb2dVertex
10
241.464
20
748.340
30
0.0
42
1.000
0
VERTEX
5
a8e
100
AcDbEntity
  8
0-2
6
CONTINUOUS
62
3
100
AcDbVertex
100
AcDb2dVertex
10
241.864
20
748.340
30
0.0
42
1.000
0
SEQEND
5
a8f
100
AcDbEntity
  8
0-2
0
POLYLINE
5
a90
100
AcDbEntity
  8
0-2
6
CONTINUOUS
62
3
100
AcDb2dPolyline
66
1
10
0
20
0
70
1
40
0.400
41
0.400
0
VERTEX
5
a91
100
AcDbEntity
  8
0-2
6
CONTINUOUS
62
3
100
AcDbVertex
100
AcDb2dVertex
10
601.464
20
748.340
30
0.0
42
1.000
0
VERTEX
5
a92
100
AcDbEntity
  8
0-2
6
CONTINUOUS
62
3
100
AcDbVertex
100
AcDb2dVertex
10
601.864
20
748.340
30
0.0
42
1.000
0
SEQEND
5
a93
100
AcDbEntity
  8
0-2
0
ENDSEC
 0
SECTION
  2
OBJECTS
 0
DICTIONARY
  5
C
100
AcDbDictionary
  3
ACAD_GROUP
350
D
  3
ACAD_MLINESTYLE
350
E
 0
DICTIONARY
  5
D
102
{ACAD_REACTORS
102
}
100
AcDbDictionary
 0
DICTIONARY
  5
E
102
{ACAD_REACTORS
102
}
100
AcDbDictionary
  3
STANDARD
350
13
0
MLINESTYLE
  5
13
102
{ACAD_REACTORS
102
}
100
AcDbMlineStyle
  2
STANDARD
 70
    0
3

62
256
51
90.0
52
90.0
71
0
0
ACDBPLACEHOLDER
  5
14
102
{ACAD_REACTORS
102
}
0
ENDSEC
0
EOF
