0
SECTION
2
HEADER
9
$ACADVER
1
AC1015
9
$ACADMAINTVER
 70
6
9
$DWGCODEPAGE
3
ANSI_932
9
$EXTMIN
10
0.000
20
0.000
30
0.0
9
$EXTMAX
10
1682.000
20
1188.000
30
0.0
9
$LIMMIN
10
0.000
20
0.000
9
$LIMMAX
10
1682.000
20
1188.000
9
$DIMSCALE
40
2.000000
9
$LTSCALE
40
2.000
9
$PDMODE
70
0
9
$PDSIZE
40
40.0
9
$HANDSEED
5
61f5f
9
$UNITMODE
70
0
9
$VISRETAIN
70
0
9
$PLINEGEN
70
0
9
$PSLTSCALE
70
1
9
$TREEDEPTH
70
3020
9
$CMLSTYLE
2
STANDARD
9
$CMLJUST
70
0
9
$CMLSCALE
40
1.0
9
$PROXYGRAPHICS
70
1
9
$MEASUREMENT
70
0
9
$CELWEIGHT
370
-1
9
$ENDCAPS
280
0
9
$JOINSTYLE
280
0
9
$LWDISPLAY
290
0
9
$INSUNITS
70
0
9
$HYPERLINKBASE
1

9
$STYLESHEET
1

9
$XEDIT
290
1
9
$CEPSNTYPE
380
0
9
$PSTYLEMODE
290
1
9
$FINGERPRINTGUID
2
{5F082321-0195-11D3-BDFB-0060B0CD5109}
9
$VERSIONGUID
2
{12943756-294D-11D3-98C2-0060B087942D}
9
$EXTNAMES
290
1
9
$PSVPSCALE
40
0.0
9
$OLESTARTUP
290
0
0
ENDSEC
0
SECTION
  2
CLASSES
0
ENDSEC
0
SECTION
2
TABLES
0
TABLE
2
VPORT
5
190
100
AcDbSymbolTable
70
2
0
VPORT
5
191
100
AcDbSymbolTableRecord
100
AcDbViewportTableRecord
2
*ACTIVE
70
0
10
0.0
20
0.0
11
1.0
21
1.0
12
841.000
22
594.000
13
0.0
23
0.0
14
1.0
24
1.0
15
0.0
25
0.0
16
0.0
26
0.0
36
1.0
17
0.0
27
0.0
37
0.0
40
1218.841
41
2.0
42
50.0
43
0.0
44
0.0
50
0.0
51
0.0
71
0
72
1000
73
1
74
1
75
0
76
0
77
0
78
0
0
ENDTAB
0
TABLE
2
LTYPE
5
1f4
100
AcDbSymbolTable
70
9
0
LTYPE
5
1f5
100
AcDbSymbolTableRecord
100
AcDbLinetypeTableRecord
2
BYBLOCK
70
 64
3

72
 65
73
  0
40
0.0
0
LTYPE
5
1f6
100
AcDbSymbolTableRecord
100
AcDbLinetypeTableRecord
2
BYLAYER
70
 64
3

72
 65
73
  0
40
0.0
0
LTYPE
5
1f7
100
AcDbSymbolTableRecord
100
AcDbLinetypeTableRecord
2
CONTINUOUS
70
64
3
SolidLine
72
65
73
0
40
0.0
0
LTYPE
5
1f8
100
AcDbSymbolTableRecord
100
AcDbLinetypeTableRecord
2
DOT
70
64
3
--  --  --  --  --  --  --  --     
72
65
73
2
40
3.000
49
1.000
74
0
49
-2.000
74
0
0
LTYPE
5
1f9
100
AcDbSymbolTableRecord
100
AcDbLinetypeTableRecord
2
DASHED
70
64
3
----    ----    ----    ----    
72
65
73
2
40
5.000
49
2.000
74
0
49
-3.000
74
0
0
LTYPE
5
1fa
100
AcDbSymbolTableRecord
100
AcDbLinetypeTableRecord
2
DASHED2
70
64
3
------  ------  ------  ------ 
72
65
73
2
40
10.000
49
4.000
74
0
49
-6.000
74
0
0
LTYPE
5
1fb
100
AcDbSymbolTableRecord
100
AcDbLinetypeTableRecord
2
CENTER
70
64
3
----- - ----- - ----- - ----- - 
72
65
73
4
40
10.000
49
6.000
74
0
49
-3.000
74
0
49
1.000
74
0
49
-3.000
74
0
0
LTYPE
5
1fc
100
AcDbSymbolTableRecord
100
AcDbLinetypeTableRecord
2
CENTER2
70
64
3
----------  --  ----------  -- 
72
65
73
4
40
17.000
49
12.000
74
0
49
-5.000
74
0
49
2.000
74
0
49
-5.000
74
0
0
LTYPE
5
1fd
100
AcDbSymbolTableRecord
100
AcDbLinetypeTableRecord
2
PHANTOM
70
64
3
--- - - --- - - --- - - --- - -
72
65
73
6
40
13.000
49
5.000
74
0
49
-3.000
74
0
49
1.000
74
0
49
-3.000
74
0
49
1.000
74
0
49
-3.000
74
0
0
LTYPE
5
1fe
100
AcDbSymbolTableRecord
100
AcDbLinetypeTableRecord
2
PHANTOM2
70
64
3
--------  -  -  --------  -  -
72
65
73
6
40
20.000
49
6.000
74
0
49
-5.000
74
0
49
2.000
74
0
49
-5.000
74
0
49
2.000
74
0
49
-5.000
74
0
0
LTYPE
5
1ff
100
AcDbSymbolTableRecord
100
AcDbLinetypeTableRecord
2
HIDDEN
70
64
3
-   -   -   -   -   -   -   -   
72
65
73
2
40
3.000
49
0.500
74
0
49
-2.500
74
0
0
ENDTAB
0
TABLE
2
STYLE
5
200
100
AcDbSymbolTable
70
1
0
STYLE
5
201
100
AcDbSymbolTableRecord
100
AcDbTextStyleTableRecord
2
STANDARD
70
0
40
0.0
41
1.0
50
0.0
71
0
42
0.0
3
txt.shx
4
extfont.shx
0
STYLE
5
202
100
AcDbSymbolTableRecord
100
AcDbTextStyleTableRecord
2
TATEGAKI
70
4
40
0.0
41
1.0
50
0.0
71
0
42
0.0
3
txt.shx
4
extfont.shx
0
STYLE
5
203
100
AcDbSymbolTableRecord
100
AcDbTextStyleTableRecord
2
DIM
70
0
40
0.0
41
0.75
50
0.0
71
0
42
0.0
3
txt.shx
4
extfont.shx
0
STYLE
5
204
100
AcDbSymbolTableRecord
100
AcDbTextStyleTableRecord
2
_Gothic_
70
0
40
1.0
41
1.0
50
0.0
71
0
42
10.0
3

4

1001
ACAD
1000
MS Gothic
1071
32817
0
STYLE
5
205
100
AcDbSymbolTableRecord
100
AcDbTextStyleTableRecord
2
_TateGothic_
70
4
40
0.0
41
1.0
50
0.0
71
0
42
0.0
3
@MS Gothic
4

0
ENDTAB
0
TABLE
2
VIEW
5
206
100
AcDbSymbolTable
70
0
0
ENDTAB
0
TABLE
2
UCS
5
207
100
AcDbSymbolTable
70
0
0
ENDTAB
0
TABLE
2
APPID
5
208
100
AcDbSymbolTable
70
1
0
APPID
5
209
100
AcDbSymbolTableRecord
100
AcDbRegAppTableRecord
2
ACAD
70
0
0
ENDTAB
0
TABLE
2
DIMSTYLE
5
403
330
0
100
AcDbSymbolTable
70
1
100
AcDbDimStyleTable
71
0
0
DIMSTYLE
105
404
330
402
100
AcDbSymbolTableRecord
100
AcDbDimStyleTableRecord
2
JAC_DIM
70
0
41
4.000
42
0.000
44
0.0
73
0
74
0
77
1
78
8
79
2
140
0.000
170
0
171
2
172
0
173
0
174
0
175
0
176
0
177
0
178
0
270
2
271
0
272
0
273
2
274
2
340
201
275
0
280
0
281
0
282
0
283
0
284
0
285
0
286
0
287
3
288
0
0
ENDTAB
0
TABLE
2
BLOCK_RECORD
5
405
100
AcDbSymbolTable
70
0
0
BLOCK_RECORD
5
406
100
AcDbSymbolTableRecord
100
AcDbBlockTableRecord
2
*MODEL_SPACE
0
BLOCK_RECORD
5
407
100
AcDbSymbolTableRecord
100
AcDbBlockTableRecord
2
*PAPER_SPACE
0
BLOCK_RECORD
5
408
100
AcDbSymbolTableRecord
100
AcDbBlockTableRecord
2
_JACCONVERT_
0
ENDTAB
0
TABLE
2
LAYER
5
409
100
AcDbSymbolTable
70
10
0
LAYER
5
40a
100
AcDbSymbolTableRecord
100
AcDbLayerTableRecord
2
0
70
0
62
7
6
CONTINUOUS
370
-3
390
14
0
LAYER
5
40b
100
AcDbSymbolTableRecord
100
AcDbLayerTableRecord
2
0-0
70
0
62
7
6
CONTINUOUS
370
-3
390
14
0
LAYER
5
40c
100
AcDbSymbolTableRecord
100
AcDbLayerTableRecord
2
0-1
70
0
62
7
6
CONTINUOUS
370
-3
390
14
0
LAYER
5
40d
100
AcDbSymbolTableRecord
100
AcDbLayerTableRecord
2
0-2
70
0
62
7
6
CONTINUOUS
370
-3
390
14
0
LAYER
5
40e
100
AcDbSymbolTableRecord
100
AcDbLayerTableRecord
2
F-E_J_ADD
70
0
62
-7
6
CONTINUOUS
290
0
370
-3
390
14
0
LAYER
5
40f
100
AcDbSymbolTableRecord
100
AcDbLayerTableRecord
2
F-F
70
0
62
7
6
CONTINUOUS
370
-3
390
14
0
ENDTAB
0
ENDSEC
0
SECTION
2
BLOCKS
0
BLOCK
5
410
100
AcDbEntity
67
1
8
0
100
AcDbBlockBegin
2
*MODEL_SPACE
70
0
10
0.0
20
0.0
30
0.0
3
*MODEL_SPACE
1

0
ENDBLK
5
411
100
AcDbEntity
8
0
100
AcDbBlockEnd
0
BLOCK
5
412
100
AcDbEntity
67
1
8
0
100
AcDbBlockBegin
2
*PAPER_SPACE
70
0
10
0.0
20
0.0
30
0.0
3
*PAPER_SPACE
1

0
ENDBLK
5
413
100
AcDbEntity
67
1
8
0
100
AcDbBlockEnd
0
BLOCK
5
414
100
AcDbEntity
8
0
100
AcDbBlockBegin
2
_JACCONVERT_
70
2
10
0.0
20
0.0
30
0.0
3
_JACCONVERT_
1
_JACCONVERT_
0
ATTDEF
5
415
100
AcDbEntity
8
0
62
0
100
AcDbText
10
0.0
20
0.0
30
0.0
40
1.0
1
User:460950EB0890EC0964308A
100
AcDbAttributeDefinition
3

2
USER
70
8
0
ATTDEF
5
416
100
AcDbEntity
8
0
62
0
100
AcDbText
10
0.0
20
2.0
30
0.0
40
1.0
1
Date:15/05/26 13:06
100
AcDbAttributeDefinition
3

2
REVDATE
70
8
0
ATTDEF
5
417
100
AcDbEntity
8
0
62
0
100
AcDbText
10
0.0
20
4.0
30
0.0
40
1.0
1
File:KR140-01.dxf
100
AcDbAttributeDefinition
3

2
FNAME
70
8
0
ATTDEF
5
418
100
AcDbEntity
8
0
62
0
100
AcDbText
10
0.0
20
6.0
30
0.0
40
1.0
1
JacConvert Version3.09 copyright (c) 2001-2013 K.Nakahara
100
AcDbAttributeDefinition
3

2
VER
70
8
0
ENDBLK
5
419
100
AcDbEntity
67
1
8
0
100
AcDbBlockEnd
0
ENDSEC
0
SECTION
2
ENTITIES
0
LINE
5
41a
100
AcDbEntity
8
0-0
6
CONTINUOUS
62
7
100
AcDbLine
10
670.780000000000
20
963.070000000000
30
0.0
11
670.710000000000
21
962.350000000000
31
0.0
0
LINE
5
41b
100
AcDbEntity
8
0-0
6
CONTINUOUS
62
7
100
AcDbLine
10
673.010000000000
20
954.350000000000
30
0.0
11
674.710000000000
21
954.350000000000
31
0.0
0
LINE
5
41c
100
AcDbEntity
8
0-0
6
CONTINUOUS
62
7
100
AcDbLine
10
671.760000000000
20
962.890000000000
30
0.0
11
671.710000000000
21
962.350000000000
31
0.0
0
LINE
5
41d
100
AcDbEntity
8
0-0
6
CONTINUOUS
62
7
100
AcDbLine
10
674.710000000000
20
953.350000000000
30
0.0
11
673.010000000000
21
953.350000000000
31
0.0
0
LINE
5
41e
100
AcDbEntity
8
0-0
6
CONTINUOUS
62
7
100
AcDbLine
10
662.410000000000
20
958.150000000000
30
0.0
11
662.410000000000
21
956.150000000000
31
0.0
0
LINE
5
41f
100
AcDbEntity
8
0-0
6
CONTINUOUS
62
7
100
AcDbLine
10
663.410000000000
20
958.090000000000
30
0.0
11
663.410000000000
21
956.150000000000
31
0.0
0
LINE
5
420
100
AcDbEntity
8
0-0
6
CONTINUOUS
62
7
100
AcDbLine
10
662.410000000000
20
956.150000000000
30
0.0
11
663.410000000000
21
956.150000000000
31
0.0
0
LINE
5
421
100
AcDbEntity
8
0-0
6
CONTINUOUS
62
7
100
AcDbLine
10
916.930000000000
20
798.820000000000
30
0.0
11
915.390000000000
21
800.350000000000
31
0.0
0
LINE
5
422
100
AcDbEntity
8
0-0
6
CONTINUOUS
62
7
100
AcDbLine
10
918.340000000000
20
798.230000000000
30
0.0
11
944.510000000000
21
798.230000000000
31
0.0
0
LINE
5
423
100
AcDbEntity
8
0-0
6
CONTINUOUS
62
7
100
AcDbLine
10
918.340000000000
20
797.230000000000
30
0.0
11
944.510000000000
21
797.230000000000
31
0.0
0
LINE
5
424
100
AcDbEntity
8
0-0
6
CONTINUOUS
62
7
100
AcDbLine
10
914.690000000000
20
799.650000000000
30
0.0
11
916.220000000000
21
798.110000000000
31
0.0
0
LINE
5
425
100
AcDbEntity
8
0-0
6
CONTINUOUS
62
7
100
AcDbLine
10
865.370000000000
20
801.230000000000
30
0.0
11
913.270000000000
21
801.230000000000
31
0.0
0
LINE
5
426
100
AcDbEntity
8
0-0
6
CONTINUOUS
62
7
100
AcDbLine
10
913.270000000000
20
800.230000000000
30
0.0
11
865.370000000000
21
800.230000000000
31
0.0
0
LINE
5
427
100
AcDbEntity
8
0-0
6
CONTINUOUS
62
7
100
AcDbLine
10
826.680000000000
20
839.610000000000
30
0.0
11
863.200000000000
21
801.170000000000
31
0.0
0
LINE
5
428
100
AcDbEntity
8
0-0
6
CONTINUOUS
62
7
100
AcDbLine
10
863.920000000000
20
801.850000000000
30
0.0
11
827.400000000000
21
840.300000000000
31
0.0
0
LINE
5
429
100
AcDbEntity
8
0-0
6
CONTINUOUS
62
7
100
AcDbLine
10
805.370000000000
20
841.230000000000
30
0.0
11
825.230000000000
21
841.230000000000
31
0.0
0
LINE
5
42a
100
AcDbEntity
8
0-0
6
CONTINUOUS
62
7
100
AcDbLine
10
825.230000000000
20
840.230000000000
30
0.0
11
805.370000000000
21
840.230000000000
31
0.0
0
LINE
5
42b
100
AcDbEntity
8
0-0
6
CONTINUOUS
62
7
100
AcDbLine
10
803.920000000000
20
841.850000000000
30
0.0
11
710.400000000000
21
940.300000000000
31
0.0
0
LINE
5
42c
100
AcDbEntity
8
0-0
6
CONTINUOUS
62
7
100
AcDbLine
10
708.230000000000
20
940.230000000000
30
0.0
11
673.010000000000
21
940.230000000000
31
0.0
0
LINE
5
42d
100
AcDbEntity
8
0-0
6
CONTINUOUS
62
7
100
AcDbLine
10
709.680000000000
20
939.610000000000
30
0.0
11
803.200000000000
21
841.160000000000
31
0.0
0
LINE
5
42e
100
AcDbEntity
8
0-0
6
CONTINUOUS
62
7
100
AcDbLine
10
673.010000000000
20
941.230000000000
30
0.0
11
708.230000000000
21
941.230000000000
31
0.0
0
LINE
5
42f
100
AcDbEntity
8
0-0
6
CONTINUOUS
62
7
100
AcDbLine
10
972.100000000000
20
798.820000000000
30
0.0
11
973.640000000000
21
800.350000000000
31
0.0
0
LINE
5
430
100
AcDbEntity
8
0-0
6
CONTINUOUS
62
7
100
AcDbLine
10
970.690000000000
20
798.230000000000
30
0.0
11
944.510000000000
21
798.230000000000
31
0.0
0
LINE
5
431
100
AcDbEntity
8
0-0
6
CONTINUOUS
62
7
100
AcDbLine
10
970.690000000000
20
797.230000000000
30
0.0
11
944.510000000000
21
797.230000000000
31
0.0
0
LINE
5
432
100
AcDbEntity
8
0-0
6
CONTINUOUS
62
7
100
AcDbLine
10
974.340000000000
20
799.650000000000
30
0.0
11
972.810000000000
21
798.110000000000
31
0.0
0
LINE
5
433
100
AcDbEntity
8
0-0
6
CONTINUOUS
62
7
100
AcDbLine
10
1023.660000000000
20
801.230000000000
30
0.0
11
975.760000000000
21
801.230000000000
31
0.0
0
LINE
5
434
100
AcDbEntity
8
0-0
6
CONTINUOUS
62
7
100
AcDbLine
10
975.760000000000
20
800.230000000000
30
0.0
11
1023.660000000000
21
800.230000000000
31
0.0
0
LINE
5
435
100
AcDbEntity
8
0-0
6
CONTINUOUS
62
7
100
AcDbLine
10
1062.350000000000
20
839.610000000000
30
0.0
11
1025.830000000000
21
801.170000000000
31
0.0
0
LINE
5
436
100
AcDbEntity
8
0-0
6
CONTINUOUS
62
7
100
AcDbLine
10
1025.110000000000
20
801.850000000000
30
0.0
11
1061.630000000000
21
840.300000000000
31
0.0
0
LINE
5
437
100
AcDbEntity
8
0-0
6
CONTINUOUS
62
7
100
AcDbLine
10
1083.660000000000
20
841.230000000000
30
0.0
11
1063.800000000000
21
841.230000000000
31
0.0
0
LINE
5
438
100
AcDbEntity
8
0-0
6
CONTINUOUS
62
7
100
AcDbLine
10
1063.800000000000
20
840.230000000000
30
0.0
11
1083.660000000000
21
840.230000000000
31
0.0
0
LINE
5
439
100
AcDbEntity
8
0-0
6
CONTINUOUS
62
7
100
AcDbLine
10
1085.110000000000
20
841.850000000000
30
0.0
11
1178.630000000000
21
940.300000000000
31
0.0
0
LINE
5
43a
100
AcDbEntity
8
0-0
6
CONTINUOUS
62
7
100
AcDbLine
10
1180.800000000000
20
940.230000000000
30
0.0
11
1216.020000000000
21
940.230000000000
31
0.0
0
LINE
5
43b
100
AcDbEntity
8
0-0
6
CONTINUOUS
62
7
100
AcDbLine
10
1179.350000000000
20
939.610000000000
30
0.0
11
1085.830000000000
21
841.160000000000
31
0.0
0
LINE
5
43c
100
AcDbEntity
8
0-0
6
CONTINUOUS
62
7
100
AcDbLine
10
1216.020000000000
20
941.230000000000
30
0.0
11
1180.800000000000
21
941.230000000000
31
0.0
0
LINE
5
43d
100
AcDbEntity
8
0-0
6
CONTINUOUS
62
7
100
AcDbLine
10
1216.010000000000
20
952.330000000000
30
0.0
11
1213.420000000000
21
952.330000000000
31
0.0
0
LINE
5
43e
100
AcDbEntity
8
0-0
6
CONTINUOUS
62
7
100
AcDbLine
10
1216.010000000000
20
953.330000000000
30
0.0
11
1213.420000000000
21
953.330000000000
31
0.0
0
LINE
5
43f
100
AcDbEntity
8
0-0
6
CONTINUOUS
62
7
100
AcDbLine
10
1211.420000000000
20
955.330000000000
30
0.0
11
1211.420000000000
21
958.130000000000
31
0.0
0
LINE
5
440
100
AcDbEntity
8
0-0
6
CONTINUOUS
62
7
100
AcDbLine
10
1210.420000000000
20
955.330000000000
30
0.0
11
1210.420000000000
21
958.130000000000
31
0.0
0
LINE
5
441
100
AcDbEntity
8
0-0
6
CONTINUOUS
62
7
100
AcDbLine
10
1234.320000000000
20
957.830000000000
30
0.0
11
1234.540000000000
21
953.510000000000
31
0.0
0
POLYLINE
5
442
100
AcDbEntity
8
0-0
6
CONTINUOUS
62
  7
100
AcDb2dPolyline
66
1
10
0.0
20
0.0
30
0.0
70
0
0
VERTEX
5
443
100
AcDbEntity
8
0-0
6
CONTINUOUS
62
  7
100
AcDbVertex
100
AcDb2dVertex
10
1235.320000000000
20
957.880000000000
30
0.0
0
VERTEX
5
444
100
AcDbEntity
8
0-0
6
CONTINUOUS
62
  7
100
AcDbVertex
100
AcDb2dVertex
10
1235.540000000000
20
953.560000000000
30
0.0
0
VERTEX
5
445
100
AcDbEntity
8
0-0
6
CONTINUOUS
62
  7
100
AcDbVertex
100
AcDb2dVertex
10
1234.540000000000
20
953.510000000000
30
0.0
0
SEQEND
5
446
100
AcDbEntity
8
0-0
0
LINE
5
447
100
AcDbEntity
8
0-0
6
CONTINUOUS
62
7
100
AcDbLine
10
669.580000000000
20
965.230000000000
30
0.0
11
669.900000000000
21
965.240000000000
31
0.0
0
LINE
5
448
100
AcDbEntity
8
0-0
6
CONTINUOUS
62
7
100
AcDbLine
10
669.660000000000
20
964.230000000000
30
0.0
11
669.870000000000
21
964.240000000000
31
0.0
0
LINE
5
449
100
AcDbEntity
8
0-0
6
CONTINUOUS
62
7
100
AcDbLine
10
1232.610000000000
20
966.280000000000
30
0.0
11
1235.880000000000
21
965.110000000000
31
0.0
0
POLYLINE
5
44a
100
AcDbEntity
8
0-0
6
CONTINUOUS
62
  7
100
AcDb2dPolyline
66
1
10
0.0
20
0.0
30
0.0
70
0
0
VERTEX
5
44b
100
AcDbEntity
8
0-0
6
CONTINUOUS
62
  7
100
AcDbVertex
100
AcDb2dVertex
10
1232.390000000000
20
965.300000000000
30
0.0
0
VERTEX
5
44c
100
AcDbEntity
8
0-0
6
CONTINUOUS
62
  7
100
AcDbVertex
100
AcDb2dVertex
10
1235.100000000000
20
964.460000000000
30
0.0
0
VERTEX
5
44d
100
AcDbEntity
8
0-0
6
CONTINUOUS
62
  7
100
AcDbVertex
100
AcDb2dVertex
10
1235.610000000000
20
963.870000000000
30
0.0
0
SEQEND
5
44e
100
AcDbEntity
8
0-0
0
LINE
5
44f
100
AcDbEntity
8
0-2
6
CONTINUOUS
62
7
100
AcDbLine
10
630.800000000000
20
577.640000000000
30
0.0
11
666.020000000000
21
577.640000000000
31
0.0
0
LINE
5
450
100
AcDbEntity
8
0-2
6
CONTINUOUS
62
7
100
AcDbLine
10
916.930000000000
20
436.220000000000
30
0.0
11
915.390000000000
21
437.760000000000
31
0.0
0
LINE
5
451
100
AcDbEntity
8
0-2
6
CONTINUOUS
62
7
100
AcDbLine
10
918.340000000000
20
435.640000000000
30
0.0
11
944.510000000000
21
435.640000000000
31
0.0
0
LINE
5
452
100
AcDbEntity
8
0-2
6
CONTINUOUS
62
7
100
AcDbLine
10
918.340000000000
20
434.640000000000
30
0.0
11
944.510000000000
21
434.640000000000
31
0.0
0
LINE
5
453
100
AcDbEntity
8
0-2
6
CONTINUOUS
62
7
100
AcDbLine
10
914.690000000000
20
437.050000000000
30
0.0
11
916.220000000000
21
435.510000000000
31
0.0
0
LINE
5
454
100
AcDbEntity
8
0-2
6
CONTINUOUS
62
7
100
AcDbLine
10
865.370000000000
20
438.640000000000
30
0.0
11
913.270000000000
21
438.640000000000
31
0.0
0
LINE
5
455
100
AcDbEntity
8
0-2
6
CONTINUOUS
62
7
100
AcDbLine
10
913.270000000000
20
437.640000000000
30
0.0
11
865.370000000000
21
437.640000000000
31
0.0
0
LINE
5
456
100
AcDbEntity
8
0-2
6
CONTINUOUS
62
7
100
AcDbLine
10
826.680000000000
20
477.010000000000
30
0.0
11
863.200000000000
21
438.570000000000
31
0.0
0
LINE
5
457
100
AcDbEntity
8
0-2
6
CONTINUOUS
62
7
100
AcDbLine
10
863.920000000000
20
439.260000000000
30
0.0
11
827.400000000000
21
477.700000000000
31
0.0
0
LINE
5
458
100
AcDbEntity
8
0-2
6
CONTINUOUS
62
7
100
AcDbLine
10
805.370000000000
20
478.640000000000
30
0.0
11
825.230000000000
21
478.640000000000
31
0.0
0
LINE
5
459
100
AcDbEntity
8
0-2
6
CONTINUOUS
62
7
100
AcDbLine
10
825.230000000000
20
477.640000000000
30
0.0
11
805.370000000000
21
477.640000000000
31
0.0
0
LINE
5
45a
100
AcDbEntity
8
0-2
6
CONTINUOUS
62
7
100
AcDbLine
10
803.920000000000
20
479.260000000000
30
0.0
11
710.400000000000
21
577.700000000000
31
0.0
0
LINE
5
45b
100
AcDbEntity
8
0-2
6
CONTINUOUS
62
7
100
AcDbLine
10
708.230000000000
20
577.640000000000
30
0.0
11
673.010000000000
21
577.640000000000
31
0.0
0
LINE
5
45c
100
AcDbEntity
8
0-2
6
CONTINUOUS
62
7
100
AcDbLine
10
709.680000000000
20
577.010000000000
30
0.0
11
803.200000000000
21
478.570000000000
31
0.0
0
LINE
5
45d
100
AcDbEntity
8
0-2
6
CONTINUOUS
62
7
100
AcDbLine
10
666.010000000000
20
589.740000000000
30
0.0
11
663.410000000000
21
589.740000000000
31
0.0
0
LINE
5
45e
100
AcDbEntity
8
0-2
6
CONTINUOUS
62
7
100
AcDbLine
10
666.010000000000
20
590.740000000000
30
0.0
11
663.410000000000
21
590.740000000000
31
0.0
0
LINE
5
45f
100
AcDbEntity
8
0-2
6
CONTINUOUS
62
7
100
AcDbLine
10
661.410000000000
20
592.740000000000
30
0.0
11
661.410000000000
21
595.540000000000
31
0.0
0
LINE
5
460
100
AcDbEntity
8
0-2
6
CONTINUOUS
62
7
100
AcDbLine
10
660.410000000000
20
592.740000000000
30
0.0
11
660.410000000000
21
595.540000000000
31
0.0
0
LINE
5
461
100
AcDbEntity
8
0-2
6
CONTINUOUS
62
7
100
AcDbLine
10
677.610000000000
20
594.510000000000
30
0.0
11
677.610000000000
21
595.540000000000
31
0.0
0
LINE
5
462
100
AcDbEntity
8
0-2
6
CONTINUOUS
62
7
100
AcDbLine
10
678.610000000000
20
594.630000000000
30
0.0
11
678.610000000000
21
595.540000000000
31
0.0
0
LINE
5
463
100
AcDbEntity
8
0-2
6
CONTINUOUS
62
7
100
AcDbLine
10
673.340000000000
20
589.370000000000
30
0.0
11
671.180000000000
21
585.630000000000
31
0.0
0
POLYLINE
5
464
100
AcDbEntity
8
0-2
6
CONTINUOUS
62
  7
100
AcDb2dPolyline
66
1
10
0.0
20
0.0
30
0.0
70
0
0
VERTEX
5
465
100
AcDbEntity
8
0-2
6
CONTINUOUS
62
  7
100
AcDbVertex
100
AcDb2dVertex
10
674.210000000000
20
588.870000000000
30
0.0
0
VERTEX
5
466
100
AcDbEntity
8
0-2
6
CONTINUOUS
62
  7
100
AcDbVertex
100
AcDb2dVertex
10
672.040000000000
20
585.130000000000
30
0.0
0
VERTEX
5
467
100
AcDbEntity
8
0-2
6
CONTINUOUS
62
  7
100
AcDbVertex
100
AcDb2dVertex
10
671.180000000000
20
585.630000000000
30
0.0
0
SEQEND
5
468
100
AcDbEntity
8
0-2
0
LINE
5
469
100
AcDbEntity
8
0-2
6
CONTINUOUS
62
7
100
AcDbLine
10
673.130000000000
20
600.020000000000
30
0.0
11
671.960000000000
21
600.020000000000
31
0.0
0
LINE
5
46a
100
AcDbEntity
8
0-2
6
CONTINUOUS
62
7
100
AcDbLine
10
666.010000000000
20
592.130000000000
30
0.0
11
663.410000000000
21
592.130000000000
31
0.0
0
LINE
5
46b
100
AcDbEntity
8
0-2
6
CONTINUOUS
62
7
100
AcDbLine
10
677.610000000000
20
594.510000000000
30
0.0
11
677.710000000000
21
593.740000000000
31
0.0
0
LINE
5
46c
100
AcDbEntity
8
0-2
6
CONTINUOUS
62
7
100
AcDbLine
10
670.780000000000
20
600.450000000000
30
0.0
11
670.710000000000
21
599.740000000000
31
0.0
0
LINE
5
46d
100
AcDbEntity
8
0-2
6
CONTINUOUS
62
7
100
AcDbLine
10
673.010000000000
20
591.740000000000
30
0.0
11
674.710000000000
21
591.740000000000
31
0.0
0
LINE
5
46e
100
AcDbEntity
8
0-2
6
CONTINUOUS
62
7
100
AcDbLine
10
671.760000000000
20
600.270000000000
30
0.0
11
671.710000000000
21
599.740000000000
31
0.0
0
LINE
5
46f
100
AcDbEntity
8
0-2
6
CONTINUOUS
62
7
100
AcDbLine
10
674.710000000000
20
590.740000000000
30
0.0
11
673.010000000000
21
590.740000000000
31
0.0
0
LINE
5
470
100
AcDbEntity
8
0-2
6
CONTINUOUS
62
7
100
AcDbLine
10
662.410000000000
20
595.540000000000
30
0.0
11
662.410000000000
21
593.540000000000
31
0.0
0
LINE
5
471
100
AcDbEntity
8
0-2
6
CONTINUOUS
62
7
100
AcDbLine
10
663.410000000000
20
595.480000000000
30
0.0
11
663.410000000000
21
593.540000000000
31
0.0
0
LINE
5
472
100
AcDbEntity
8
0-2
6
CONTINUOUS
62
7
100
AcDbLine
10
662.410000000000
20
593.540000000000
30
0.0
11
663.410000000000
21
593.540000000000
31
0.0
0
LINE
5
473
100
AcDbEntity
8
0-2
6
CONTINUOUS
62
7
100
AcDbLine
10
673.010000000000
20
578.640000000000
30
0.0
11
708.230000000000
21
578.640000000000
31
0.0
0
LINE
5
474
100
AcDbEntity
8
0-2
6
CONTINUOUS
62
7
100
AcDbLine
10
666.010000000000
20
578.640000000000
30
0.0
11
630.800000000000
21
578.640000000000
31
0.0
0
LINE
5
475
100
AcDbEntity
8
0-2
6
CONTINUOUS
62
7
100
AcDbLine
10
668.010000000000
20
580.640000000000
30
0.0
11
668.010000000000
21
587.740000000000
31
0.0
0
LINE
5
476
100
AcDbEntity
8
0-2
6
CONTINUOUS
62
7
100
AcDbLine
10
670.010000000000
20
580.640000000000
30
0.0
11
670.010000000000
21
588.740000000000
31
0.0
0
LINE
5
477
100
AcDbEntity
8
0-2
6
CONTINUOUS
62
7
100
AcDbLine
10
671.010000000000
20
580.640000000000
30
0.0
11
671.010000000000
21
588.740000000000
31
0.0
0
LINE
5
478
100
AcDbEntity
8
0-2
6
CONTINUOUS
62
7
100
AcDbLine
10
669.010000000000
20
580.640000000000
30
0.0
11
669.010000000000
21
587.740000000000
31
0.0
0
LINE
5
479
100
AcDbEntity
8
0-0
6
CONTINUOUS
62
7
100
AcDbLine
10
1218.020000000000
20
943.230000000000
30
0.0
11
1218.020000000000
21
950.330000000000
31
0.0
0
LINE
5
47a
100
AcDbEntity
8
0-0
6
CONTINUOUS
62
7
100
AcDbLine
10
1219.010000000000
20
943.230000000000
30
0.0
11
1219.010000000000
21
950.330000000000
31
0.0
0
LINE
5
47b
100
AcDbEntity
8
0-0
6
CONTINUOUS
62
7
100
AcDbLine
10
671.010000000000
20
951.350000000000
30
0.0
11
671.010000000000
21
943.230000000000
31
0.0
0
LINE
5
47c
100
AcDbEntity
8
0-0
6
CONTINUOUS
62
7
100
AcDbLine
10
670.010000000000
20
943.230000000000
30
0.0
11
670.010000000000
21
951.350000000000
31
0.0
0
LINE
5
47d
100
AcDbEntity
8
0-0
6
CONTINUOUS
62
4
100
AcDbLine
10
709.510000000000
20
1002.650000000000
30
0.0
11
709.510000000000
21
972.650000000000
31
0.0
0
LINE
5
47e
100
AcDbEntity
8
0-0
6
CONTINUOUS
62
4
100
AcDbLine
10
1179.510000000000
20
1002.650000000000
30
0.0
11
1179.510000000000
21
972.650000000000
31
0.0
0
POLYLINE
5
47f
100
AcDbEntity
8
0-0
6
CONTINUOUS
62
  4
100
AcDb2dPolyline
66
1
10
0.0
20
0.0
30
0.0
70
0
0
VERTEX
5
480
100
AcDbEntity
8
0-0
6
CONTINUOUS
62
  4
100
AcDbVertex
100
AcDb2dVertex
10
669.510000000000
20
1032.650000000000
30
0.0
0
VERTEX
5
481
100
AcDbEntity
8
0-0
6
CONTINUOUS
62
  4
100
AcDbVertex
100
AcDb2dVertex
10
1219.510000000000
20
1032.650000000000
30
0.0
0
VERTEX
5
482
100
AcDbEntity
8
0-0
6
CONTINUOUS
62
  4
100
AcDbVertex
100
AcDb2dVertex
10
1219.510000000000
20
972.650000000000
30
0.0
0
SEQEND
5
483
100
AcDbEntity
8
0-0
0
LINE
5
484
100
AcDbEntity
8
0-0
6
CONTINUOUS
62
4
100
AcDbLine
10
669.510000000000
20
1032.650000000000
30
0.0
11
669.510000000000
21
972.650000000000
31
0.0
0
LINE
5
485
100
AcDbEntity
8
0-0
6
CONTINUOUS
62
4
100
AcDbLine
10
1024.510000000000
20
761.230000000000
30
0.0
11
864.510000000000
21
761.230000000000
31
0.0
0
LINE
5
486
100
AcDbEntity
8
0-0
6
CONTINUOUS
62
4
100
AcDbLine
10
1024.510000000000
20
761.230000000000
30
0.0
11
1024.510000000000
21
791.230000000000
31
0.0
0
LINE
5
487
100
AcDbEntity
8
0-0
6
CONTINUOUS
62
4
100
AcDbLine
10
864.510000000000
20
761.230000000000
30
0.0
11
864.510000000000
21
791.230000000000
31
0.0
0
LINE
5
488
100
AcDbEntity
8
0-0
6
CONTINUOUS
62
4
100
AcDbLine
10
1003.180000000000
20
801.230000000000
30
0.0
11
1003.180000000000
21
941.230000000000
31
0.0
0
LINE
5
489
100
AcDbEntity
8
0-0
6
CONTINUOUS
62
4
100
AcDbLine
10
1149.510000000000
20
941.230000000000
30
0.0
11
1003.180000000000
21
941.230000000000
31
0.0
0
LINE
5
48a
100
AcDbEntity
8
0-0
6
CONTINUOUS
62
4
100
AcDbLine
10
669.510000000000
20
1002.650000000000
30
0.0
11
709.510000000000
21
1002.650000000000
31
0.0
0
LINE
5
48b
100
AcDbEntity
8
0-0
6
CONTINUOUS
62
4
100
AcDbLine
10
1179.510000000000
20
1002.650000000000
30
0.0
11
1219.510000000000
21
1002.650000000000
31
0.0
0
LINE
5
48c
100
AcDbEntity
8
0-2
6
CONTINUOUS
62
7
100
AcDbLine
10
972.100000000000
20
436.220000000000
30
0.0
11
973.640000000000
21
437.760000000000
31
0.0
0
LINE
5
48d
100
AcDbEntity
8
0-2
6
CONTINUOUS
62
7
100
AcDbLine
10
970.690000000000
20
435.640000000000
30
0.0
11
944.510000000000
21
435.640000000000
31
0.0
0
LINE
5
48e
100
AcDbEntity
8
0-2
6
CONTINUOUS
62
7
100
AcDbLine
10
970.690000000000
20
434.640000000000
30
0.0
11
944.510000000000
21
434.640000000000
31
0.0
0
LINE
5
48f
100
AcDbEntity
8
0-2
6
CONTINUOUS
62
7
100
AcDbLine
10
974.340000000000
20
437.050000000000
30
0.0
11
972.810000000000
21
435.510000000000
31
0.0
0
LINE
5
490
100
AcDbEntity
8
0-2
6
CONTINUOUS
62
7
100
AcDbLine
10
1023.660000000000
20
438.640000000000
30
0.0
11
975.760000000000
21
438.640000000000
31
0.0
0
LINE
5
491
100
AcDbEntity
8
0-2
6
CONTINUOUS
62
7
100
AcDbLine
10
975.760000000000
20
437.640000000000
30
0.0
11
1023.660000000000
21
437.640000000000
31
0.0
0
LINE
5
492
100
AcDbEntity
8
0-2
6
CONTINUOUS
62
7
100
AcDbLine
10
1062.350000000000
20
477.010000000000
30
0.0
11
1025.830000000000
21
438.570000000000
31
0.0
0
LINE
5
493
100
AcDbEntity
8
0-2
6
CONTINUOUS
62
7
100
AcDbLine
10
1025.110000000000
20
439.260000000000
30
0.0
11
1061.630000000000
21
477.700000000000
31
0.0
0
LINE
5
494
100
AcDbEntity
8
0-2
6
CONTINUOUS
62
7
100
AcDbLine
10
1083.660000000000
20
478.640000000000
30
0.0
11
1063.800000000000
21
478.640000000000
31
0.0
0
LINE
5
495
100
AcDbEntity
8
0-2
6
CONTINUOUS
62
7
100
AcDbLine
10
1063.800000000000
20
477.640000000000
30
0.0
11
1083.660000000000
21
477.640000000000
31
0.0
0
LINE
5
496
100
AcDbEntity
8
0-2
6
CONTINUOUS
62
7
100
AcDbLine
10
1085.110000000000
20
479.260000000000
30
0.0
11
1178.630000000000
21
577.700000000000
31
0.0
0
LINE
5
497
100
AcDbEntity
8
0-2
6
CONTINUOUS
62
7
100
AcDbLine
10
1180.800000000000
20
577.640000000000
30
0.0
11
1216.020000000000
21
577.640000000000
31
0.0
0
LINE
5
498
100
AcDbEntity
8
0-2
6
CONTINUOUS
62
7
100
AcDbLine
10
1179.350000000000
20
577.010000000000
30
0.0
11
1085.830000000000
21
478.570000000000
31
0.0
0
LINE
5
499
100
AcDbEntity
8
0-2
6
CONTINUOUS
62
7
100
AcDbLine
10
1258.230000000000
20
577.640000000000
30
0.0
11
1223.010000000000
21
577.640000000000
31
0.0
0
LINE
5
49a
100
AcDbEntity
8
0-2
6
CONTINUOUS
62
7
100
AcDbLine
10
1216.010000000000
20
589.740000000000
30
0.0
11
1213.410000000000
21
589.740000000000
31
0.0
0
LINE
5
49b
100
AcDbEntity
8
0-2
6
CONTINUOUS
62
7
100
AcDbLine
10
1216.010000000000
20
590.740000000000
30
0.0
11
1213.410000000000
21
590.740000000000
31
0.0
0
LINE
5
49c
100
AcDbEntity
8
0-2
6
CONTINUOUS
62
7
100
AcDbLine
10
1211.410000000000
20
592.740000000000
30
0.0
11
1211.410000000000
21
595.540000000000
31
0.0
0
LINE
5
49d
100
AcDbEntity
8
0-2
6
CONTINUOUS
62
7
100
AcDbLine
10
1210.410000000000
20
592.740000000000
30
0.0
11
1210.410000000000
21
595.540000000000
31
0.0
0
LINE
5
49e
100
AcDbEntity
8
0-2
6
CONTINUOUS
62
7
100
AcDbLine
10
1227.610000000000
20
594.510000000000
30
0.0
11
1227.610000000000
21
595.540000000000
31
0.0
0
LINE
5
49f
100
AcDbEntity
8
0-2
6
CONTINUOUS
62
7
100
AcDbLine
10
1228.610000000000
20
594.630000000000
30
0.0
11
1228.610000000000
21
595.540000000000
31
0.0
0
LINE
5
4a0
100
AcDbEntity
8
0-2
6
CONTINUOUS
62
7
100
AcDbLine
10
1223.340000000000
20
589.370000000000
30
0.0
11
1221.180000000000
21
585.630000000000
31
0.0
0
POLYLINE
5
4a1
100
AcDbEntity
8
0-2
6
CONTINUOUS
62
  7
100
AcDb2dPolyline
66
1
10
0.0
20
0.0
30
0.0
70
0
0
VERTEX
5
4a2
100
AcDbEntity
8
0-2
6
CONTINUOUS
62
  7
100
AcDbVertex
100
AcDb2dVertex
10
1224.210000000000
20
588.870000000000
30
0.0
0
VERTEX
5
4a3
100
AcDbEntity
8
0-2
6
CONTINUOUS
62
  7
100
AcDbVertex
100
AcDb2dVertex
10
1222.040000000000
20
585.130000000000
30
0.0
0
VERTEX
5
4a4
100
AcDbEntity
8
0-2
6
CONTINUOUS
62
  7
100
AcDbVertex
100
AcDb2dVertex
10
1221.180000000000
20
585.630000000000
30
0.0
0
SEQEND
5
4a5
100
AcDbEntity
8
0-2
0
LINE
5
4a6
100
AcDbEntity
8
0-2
6
CONTINUOUS
62
7
100
AcDbLine
10
1223.130000000000
20
600.020000000000
30
0.0
11
1221.960000000000
21
600.020000000000
31
0.0
0
LINE
5
4a7
100
AcDbEntity
8
0-2
6
CONTINUOUS
62
7
100
AcDbLine
10
1216.010000000000
20
592.130000000000
30
0.0
11
1213.410000000000
21
592.130000000000
31
0.0
0
LINE
5
4a8
100
AcDbEntity
8
0-2
6
CONTINUOUS
62
7
100
AcDbLine
10
1227.610000000000
20
594.510000000000
30
0.0
11
1227.710000000000
21
593.740000000000
31
0.0
0
LINE
5
4a9
100
AcDbEntity
8
0-2
6
CONTINUOUS
62
7
100
AcDbLine
10
1220.780000000000
20
600.450000000000
30
0.0
11
1220.710000000000
21
599.740000000000
31
0.0
0
LINE
5
4aa
100
AcDbEntity
8
0-2
6
CONTINUOUS
62
7
100
AcDbLine
10
1223.010000000000
20
591.740000000000
30
0.0
11
1224.710000000000
21
591.740000000000
31
0.0
0
LINE
5
4ab
100
AcDbEntity
8
0-2
6
CONTINUOUS
62
7
100
AcDbLine
10
1221.760000000000
20
600.270000000000
30
0.0
11
1221.710000000000
21
599.740000000000
31
0.0
0
LINE
5
4ac
100
AcDbEntity
8
0-2
6
CONTINUOUS
62
7
100
AcDbLine
10
1224.710000000000
20
590.740000000000
30
0.0
11
1223.010000000000
21
590.740000000000
31
0.0
0
LINE
5
4ad
100
AcDbEntity
8
0-2
6
CONTINUOUS
62
7
100
AcDbLine
10
1212.410000000000
20
595.540000000000
30
0.0
11
1212.410000000000
21
593.540000000000
31
0.0
0
LINE
5
4ae
100
AcDbEntity
8
0-2
6
CONTINUOUS
62
7
100
AcDbLine
10
1213.410000000000
20
595.480000000000
30
0.0
11
1213.410000000000
21
593.540000000000
31
0.0
0
LINE
5
4af
100
AcDbEntity
8
0-2
6
CONTINUOUS
62
7
100
AcDbLine
10
1212.410000000000
20
593.540000000000
30
0.0
11
1213.410000000000
21
593.540000000000
31
0.0
0
LINE
5
4b0
100
AcDbEntity
8
0-2
6
CONTINUOUS
62
7
100
AcDbLine
10
1223.010000000000
20
578.640000000000
30
0.0
11
1258.230000000000
21
578.640000000000
31
0.0
0
LINE
5
4b1
100
AcDbEntity
8
0-2
6
CONTINUOUS
62
7
100
AcDbLine
10
1216.010000000000
20
578.640000000000
30
0.0
11
1180.800000000000
21
578.640000000000
31
0.0
0
LINE
5
4b2
100
AcDbEntity
8
0-2
6
CONTINUOUS
62
7
100
AcDbLine
10
1218.010000000000
20
580.640000000000
30
0.0
11
1218.010000000000
21
587.740000000000
31
0.0
0
LINE
5
4b3
100
AcDbEntity
8
0-2
6
CONTINUOUS
62
7
100
AcDbLine
10
1220.010000000000
20
580.640000000000
30
0.0
11
1220.010000000000
21
588.740000000000
31
0.0
0
LINE
5
4b4
100
AcDbEntity
8
0-2
6
CONTINUOUS
62
7
100
AcDbLine
10
1221.010000000000
20
580.640000000000
30
0.0
11
1221.010000000000
21
588.740000000000
31
0.0
0
LINE
5
4b5
100
AcDbEntity
8
0-2
6
CONTINUOUS
62
7
100
AcDbLine
10
1219.010000000000
20
580.640000000000
30
0.0
11
1219.010000000000
21
587.740000000000
31
0.0
0
LINE
5
4b6
100
AcDbEntity
8
0-2
6
CONTINUOUS
62
7
100
AcDbLine
10
569.510000000000
20
515.480000000000
30
0.0
11
628.630000000000
21
577.700000000000
31
0.0
0
LINE
5
4b7
100
AcDbEntity
8
0-2
6
CONTINUOUS
62
7
100
AcDbLine
10
629.350000000000
20
577.010000000000
30
0.0
11
569.510000000000
21
514.030000000000
31
0.0
0
LINE
5
4b8
100
AcDbEntity
8
0-2
6
CONTINUOUS
62
7
100
AcDbLine
10
1259.680000000000
20
577.010000000000
30
0.0
11
1319.510000000000
21
514.030000000000
31
0.0
0
LINE
5
4b9
100
AcDbEntity
8
0-2
6
CONTINUOUS
62
7
100
AcDbLine
10
1319.510000000000
20
515.480000000000
30
0.0
11
1260.400000000000
21
577.700000000000
31
0.0
0
LINE
5
4ba
100
AcDbEntity
8
0-2
6
CONTINUOUS
62
7
100
AcDbLine
10
673.790000000000
20
435.340000000000
30
0.0
11
675.940000000000
21
443.340000000000
31
0.0
0
LINE
5
4bb
100
AcDbEntity
8
0-2
6
CONTINUOUS
62
7
100
AcDbLine
10
673.790000000000
20
435.340000000000
30
0.0
11
679.650000000000
21
441.200000000000
31
0.0
0
LINE
5
4bc
100
AcDbEntity
8
0-2
6
CONTINUOUS
62
7
100
AcDbLine
10
673.790000000000
20
435.340000000000
30
0.0
11
689.130000000000
21
461.910000000000
31
0.0
0
POLYLINE
5
4bd
100
AcDbEntity
8
0-2
6
CONTINUOUS
62
  7
100
AcDb2dPolyline
66
1
10
0.0
20
0.0
30
0.0
70
0
0
VERTEX
5
4be
100
AcDbEntity
8
0-2
6
CONTINUOUS
62
  7
100
AcDbVertex
100
AcDb2dVertex
10
569.510000000000
20
654.720000000000
30
0.0
0
VERTEX
5
4bf
100
AcDbEntity
8
0-2
6
CONTINUOUS
62
  7
100
AcDbVertex
100
AcDb2dVertex
10
669.510000000000
20
654.720000000000
30
0.0
0
VERTEX
5
4c0
100
AcDbEntity
8
0-2
6
CONTINUOUS
62
  7
100
AcDbVertex
100
AcDb2dVertex
10
1219.510000000000
20
654.720000000000
30
0.0
0
VERTEX
5
4c1
100
AcDbEntity
8
0-2
6
CONTINUOUS
62
  7
100
AcDbVertex
100
AcDb2dVertex
10
1319.510000000000
20
654.720000000000
30
0.0
0
SEQEND
5
4c2
100
AcDbEntity
8
0-2
0
LINE
5
4c3
100
AcDbEntity
8
0-2
6
CONTINUOUS
62
7
100
AcDbLine
10
569.510000000000
20
654.720000000000
30
0.0
11
579.170000000000
21
657.310000000000
31
0.0
0
LINE
5
4c4
100
AcDbEntity
8
0-2
6
CONTINUOUS
62
7
100
AcDbLine
10
569.510000000000
20
654.720000000000
30
0.0
11
579.170000000000
21
652.130000000000
31
0.0
0
LINE
5
4c5
100
AcDbEntity
8
0-2
6
CONTINUOUS
62
7
100
AcDbLine
10
1319.510000000000
20
654.720000000000
30
0.0
11
1309.860000000000
21
652.130000000000
31
0.0
0
LINE
5
4c6
100
AcDbEntity
8
0-2
6
CONTINUOUS
62
7
100
AcDbLine
10
1319.510000000000
20
654.720000000000
30
0.0
11
1309.860000000000
21
657.310000000000
31
0.0
0
LINE
5
4c7
100
AcDbEntity
8
0-2
6
CONTINUOUS
62
7
100
AcDbLine
10
756.200000000000
20
529.490000000000
30
0.0
11
758.350000000000
21
537.490000000000
31
0.0
0
LINE
5
4c8
100
AcDbEntity
8
0-2
6
CONTINUOUS
62
7
100
AcDbLine
10
756.200000000000
20
529.490000000000
30
0.0
11
762.060000000000
21
535.350000000000
31
0.0
0
LINE
5
4c9
100
AcDbEntity
8
0-2
6
CONTINUOUS
62
7
100
AcDbLine
10
822.650000000000
20
473.640000000000
30
0.0
11
804.090000000000
21
473.640000000000
31
0.0
0
LINE
5
4ca
100
AcDbEntity
8
0-2
6
CONTINUOUS
62
7
100
AcDbLine
10
861.190000000000
20
434.880000000000
30
0.0
11
825.550000000000
21
472.390000000000
31
0.0
0
LINE
5
4cb
100
AcDbEntity
8
0-2
6
CONTINUOUS
62
7
100
AcDbLine
10
917.100000000000
20
430.640000000000
30
0.0
11
944.510000000000
21
430.640000000000
31
0.0
0
LINE
5
4cc
100
AcDbEntity
8
0-2
6
CONTINUOUS
62
7
100
AcDbLine
10
910.790000000000
20
433.640000000000
30
0.0
11
864.090000000000
21
433.640000000000
31
0.0
0
LINE
5
4cd
100
AcDbEntity
8
0-2
6
CONTINUOUS
62
7
100
AcDbLine
10
913.610000000000
20
432.460000000000
30
0.0
11
914.270000000000
21
431.810000000000
31
0.0
0
LINE
5
4ce
100
AcDbEntity
8
0-2
6
CONTINUOUS
62
4
100
AcDbLine
10
777.130000000000
20
500.200000000000
30
0.0
11
803.680000000000
21
473.660000000000
31
0.0
0
LINE
5
4cf
100
AcDbEntity
8
0-2
6
CONTINUOUS
62
4
100
AcDbLine
10
805.350000000000
20
477.640000000000
30
0.0
11
809.350000000000
21
473.640000000000
31
0.0
0
LINE
5
4d0
100
AcDbEntity
8
0-2
6
CONTINUOUS
62
4
100
AcDbLine
10
808.180000000000
20
477.640000000000
30
0.0
11
812.180000000000
21
473.640000000000
31
0.0
0
LINE
5
4d1
100
AcDbEntity
8
0-2
6
CONTINUOUS
62
4
100
AcDbLine
10
811.010000000000
20
477.640000000000
30
0.0
11
815.010000000000
21
473.640000000000
31
0.0
0
LINE
5
4d2
100
AcDbEntity
8
0-2
6
CONTINUOUS
62
4
100
AcDbLine
10
813.840000000000
20
477.640000000000
30
0.0
11
817.840000000000
21
473.640000000000
31
0.0
0
LINE
5
4d3
100
AcDbEntity
8
0-2
6
CONTINUOUS
62
4
100
AcDbLine
10
816.670000000000
20
477.640000000000
30
0.0
11
820.670000000000
21
473.640000000000
31
0.0
0
LINE
5
4d4
100
AcDbEntity
8
0-2
6
CONTINUOUS
62
4
100
AcDbLine
10
819.500000000000
20
477.640000000000
30
0.0
11
823.610000000000
21
473.520000000000
31
0.0
0
LINE
5
4d5
100
AcDbEntity
8
0-2
6
CONTINUOUS
62
4
100
AcDbLine
10
840.950000000000
20
456.180000000000
30
0.0
11
863.440000000000
21
433.690000000000
31
0.0
0
LINE
5
4d6
100
AcDbEntity
8
0-2
6
CONTINUOUS
62
4
100
AcDbLine
10
822.320000000000
20
477.640000000000
30
0.0
11
866.320000000000
21
433.640000000000
31
0.0
0
LINE
5
4d7
100
AcDbEntity
8
0-2
6
CONTINUOUS
62
4
100
AcDbLine
10
825.150000000000
20
477.640000000000
30
0.0
11
843.810000000000
21
458.970000000000
31
0.0
0
LINE
5
4d8
100
AcDbEntity
8
0-2
6
CONTINUOUS
62
4
100
AcDbLine
10
865.140000000000
20
437.640000000000
30
0.0
11
869.150000000000
21
433.640000000000
31
0.0
0
LINE
5
4d9
100
AcDbEntity
8
0-2
6
CONTINUOUS
62
4
100
AcDbLine
10
867.980000000000
20
437.640000000000
30
0.0
11
871.980000000000
21
433.640000000000
31
0.0
0
LINE
5
4da
100
AcDbEntity
8
0-2
6
CONTINUOUS
62
4
100
AcDbLine
10
870.810000000000
20
437.640000000000
30
0.0
11
874.810000000000
21
433.640000000000
31
0.0
0
LINE
5
4db
100
AcDbEntity
8
0-2
6
CONTINUOUS
62
4
100
AcDbLine
10
873.640000000000
20
437.640000000000
30
0.0
11
877.640000000000
21
433.640000000000
31
0.0
0
LINE
5
4dc
100
AcDbEntity
8
0-2
6
CONTINUOUS
62
4
100
AcDbLine
10
876.470000000000
20
437.640000000000
30
0.0
11
880.470000000000
21
433.640000000000
31
0.0
0
LINE
5
4dd
100
AcDbEntity
8
0-2
6
CONTINUOUS
62
4
100
AcDbLine
10
879.290000000000
20
437.640000000000
30
0.0
11
883.290000000000
21
433.640000000000
31
0.0
0
LINE
5
4de
100
AcDbEntity
8
0-2
6
CONTINUOUS
62
4
100
AcDbLine
10
882.120000000000
20
437.640000000000
30
0.0
11
886.120000000000
21
433.640000000000
31
0.0
0
LINE
5
4df
100
AcDbEntity
8
0-2
6
CONTINUOUS
62
4
100
AcDbLine
10
884.950000000000
20
437.640000000000
30
0.0
11
888.950000000000
21
433.640000000000
31
0.0
0
LINE
5
4e0
100
AcDbEntity
8
0-2
6
CONTINUOUS
62
4
100
AcDbLine
10
887.780000000000
20
437.640000000000
30
0.0
11
891.780000000000
21
433.640000000000
31
0.0
0
LINE
5
4e1
100
AcDbEntity
8
0-2
6
CONTINUOUS
62
4
100
AcDbLine
10
890.610000000000
20
437.640000000000
30
0.0
11
894.610000000000
21
433.640000000000
31
0.0
0
LINE
5
4e2
100
AcDbEntity
8
0-2
6
CONTINUOUS
62
4
100
AcDbLine
10
893.440000000000
20
437.640000000000
30
0.0
11
897.440000000000
21
433.640000000000
31
0.0
0
LINE
5
4e3
100
AcDbEntity
8
0-2
6
CONTINUOUS
62
4
100
AcDbLine
10
896.260000000000
20
437.640000000000
30
0.0
11
900.260000000000
21
433.640000000000
31
0.0
0
LINE
5
4e4
100
AcDbEntity
8
0-2
6
CONTINUOUS
62
4
100
AcDbLine
10
899.090000000000
20
437.640000000000
30
0.0
11
903.090000000000
21
433.640000000000
31
0.0
0
LINE
5
4e5
100
AcDbEntity
8
0-2
6
CONTINUOUS
62
4
100
AcDbLine
10
901.920000000000
20
437.640000000000
30
0.0
11
905.920000000000
21
433.640000000000
31
0.0
0
LINE
5
4e6
100
AcDbEntity
8
0-2
6
CONTINUOUS
62
4
100
AcDbLine
10
904.750000000000
20
437.640000000000
30
0.0
11
908.750000000000
21
433.640000000000
31
0.0
0
LINE
5
4e7
100
AcDbEntity
8
0-2
6
CONTINUOUS
62
4
100
AcDbLine
10
907.580000000000
20
437.640000000000
30
0.0
11
911.680000000000
21
433.540000000000
31
0.0
0
LINE
5
4e8
100
AcDbEntity
8
0-2
6
CONTINUOUS
62
4
100
AcDbLine
10
910.410000000000
20
437.640000000000
30
0.0
11
917.410000000000
21
430.640000000000
31
0.0
0
LINE
5
4e9
100
AcDbEntity
8
0-2
6
CONTINUOUS
62
4
100
AcDbLine
10
913.240000000000
20
437.640000000000
30
0.0
11
920.240000000000
21
430.640000000000
31
0.0
0
LINE
5
4ea
100
AcDbEntity
8
0-2
6
CONTINUOUS
62
4
100
AcDbLine
10
919.060000000000
20
434.640000000000
30
0.0
11
923.060000000000
21
430.640000000000
31
0.0
0
LINE
5
4eb
100
AcDbEntity
8
0-2
6
CONTINUOUS
62
4
100
AcDbLine
10
921.890000000000
20
434.640000000000
30
0.0
11
925.890000000000
21
430.640000000000
31
0.0
0
LINE
5
4ec
100
AcDbEntity
8
0-2
6
CONTINUOUS
62
4
100
AcDbLine
10
924.720000000000
20
434.640000000000
30
0.0
11
928.720000000000
21
430.640000000000
31
0.0
0
LINE
5
4ed
100
AcDbEntity
8
0-2
6
CONTINUOUS
62
4
100
AcDbLine
10
927.550000000000
20
434.640000000000
30
0.0
11
931.550000000000
21
430.640000000000
31
0.0
0
LINE
5
4ee
100
AcDbEntity
8
0-2
6
CONTINUOUS
62
4
100
AcDbLine
10
930.380000000000
20
434.640000000000
30
0.0
11
934.380000000000
21
430.640000000000
31
0.0
0
LINE
5
4ef
100
AcDbEntity
8
0-2
6
CONTINUOUS
62
4
100
AcDbLine
10
933.210000000000
20
434.640000000000
30
0.0
11
937.210000000000
21
430.640000000000
31
0.0
0
LINE
5
4f0
100
AcDbEntity
8
0-2
6
CONTINUOUS
62
4
100
AcDbLine
10
936.030000000000
20
434.640000000000
30
0.0
11
940.030000000000
21
430.640000000000
31
0.0
0
LINE
5
4f1
100
AcDbEntity
8
0-2
6
CONTINUOUS
62
4
100
AcDbLine
10
938.860000000000
20
434.640000000000
30
0.0
11
942.860000000000
21
430.640000000000
31
0.0
0
LINE
5
4f2
100
AcDbEntity
8
0-2
6
CONTINUOUS
62
4
100
AcDbLine
10
939.260000000000
20
430.640000000000
30
0.0
11
943.260000000000
21
434.640000000000
31
0.0
0
LINE
5
4f3
100
AcDbEntity
8
0-2
6
CONTINUOUS
62
4
100
AcDbLine
10
936.430000000000
20
430.640000000000
30
0.0
11
940.430000000000
21
434.640000000000
31
0.0
0
LINE
5
4f4
100
AcDbEntity
8
0-2
6
CONTINUOUS
62
4
100
AcDbLine
10
933.600000000000
20
430.640000000000
30
0.0
11
937.600000000000
21
434.640000000000
31
0.0
0
LINE
5
4f5
100
AcDbEntity
8
0-2
6
CONTINUOUS
62
4
100
AcDbLine
10
930.770000000000
20
430.640000000000
30
0.0
11
934.770000000000
21
434.640000000000
31
0.0
0
LINE
5
4f6
100
AcDbEntity
8
0-2
6
CONTINUOUS
62
4
100
AcDbLine
10
927.940000000000
20
430.640000000000
30
0.0
11
931.940000000000
21
434.640000000000
31
0.0
0
LINE
5
4f7
100
AcDbEntity
8
0-2
6
CONTINUOUS
62
4
100
AcDbLine
10
925.110000000000
20
430.640000000000
30
0.0
11
929.110000000000
21
434.640000000000
31
0.0
0
LINE
5
4f8
100
AcDbEntity
8
0-2
6
CONTINUOUS
62
4
100
AcDbLine
10
922.290000000000
20
430.640000000000
30
0.0
11
926.290000000000
21
434.640000000000
31
0.0
0
LINE
5
4f9
100
AcDbEntity
8
0-2
6
CONTINUOUS
62
4
100
AcDbLine
10
919.460000000000
20
430.640000000000
30
0.0
11
923.460000000000
21
434.640000000000
31
0.0
0
LINE
5
4fa
100
AcDbEntity
8
0-2
6
CONTINUOUS
62
4
100
AcDbLine
10
916.650000000000
20
430.660000000000
30
0.0
11
920.630000000000
21
434.640000000000
31
0.0
0
LINE
5
4fb
100
AcDbEntity
8
0-2
6
CONTINUOUS
62
4
100
AcDbLine
10
914.640000000000
20
431.480000000000
30
0.0
11
917.840000000000
21
434.680000000000
31
0.0
0
LINE
5
4fc
100
AcDbEntity
8
0-2
6
CONTINUOUS
62
4
100
AcDbLine
10
913.180000000000
20
432.840000000000
30
0.0
11
916.040000000000
21
435.700000000000
31
0.0
0
LINE
5
4fd
100
AcDbEntity
8
0-2
6
CONTINUOUS
62
4
100
AcDbLine
10
911.130000000000
20
433.620000000000
30
0.0
11
914.620000000000
21
437.110000000000
31
0.0
0
LINE
5
4fe
100
AcDbEntity
8
0-2
6
CONTINUOUS
62
4
100
AcDbLine
10
908.320000000000
20
433.640000000000
30
0.0
11
912.320000000000
21
437.640000000000
31
0.0
0
LINE
5
4ff
100
AcDbEntity
8
0-2
6
CONTINUOUS
62
4
100
AcDbLine
10
905.490000000000
20
433.640000000000
30
0.0
11
909.490000000000
21
437.640000000000
31
0.0
0
LINE
5
500
100
AcDbEntity
8
0-2
6
CONTINUOUS
62
4
100
AcDbLine
10
902.660000000000
20
433.640000000000
30
0.0
11
906.660000000000
21
437.640000000000
31
0.0
0
LINE
5
501
100
AcDbEntity
8
0-2
6
CONTINUOUS
62
4
100
AcDbLine
10
899.830000000000
20
433.640000000000
30
0.0
11
903.830000000000
21
437.640000000000
31
0.0
0
LINE
5
502
100
AcDbEntity
8
0-2
6
CONTINUOUS
62
4
100
AcDbLine
10
897.000000000000
20
433.640000000000
30
0.0
11
901.000000000000
21
437.640000000000
31
0.0
0
LINE
5
503
100
AcDbEntity
8
0-2
6
CONTINUOUS
62
4
100
AcDbLine
10
894.170000000000
20
433.640000000000
30
0.0
11
898.170000000000
21
437.640000000000
31
0.0
0
LINE
5
504
100
AcDbEntity
8
0-2
6
CONTINUOUS
62
4
100
AcDbLine
10
891.350000000000
20
433.640000000000
30
0.0
11
895.350000000000
21
437.640000000000
31
0.0
0
LINE
5
505
100
AcDbEntity
8
0-2
6
CONTINUOUS
62
4
100
AcDbLine
10
888.520000000000
20
433.640000000000
30
0.0
11
892.520000000000
21
437.640000000000
31
0.0
0
LINE
5
506
100
AcDbEntity
8
0-2
6
CONTINUOUS
62
4
100
AcDbLine
10
885.690000000000
20
433.640000000000
30
0.0
11
889.690000000000
21
437.640000000000
31
0.0
0
LINE
5
507
100
AcDbEntity
8
0-2
6
CONTINUOUS
62
4
100
AcDbLine
10
882.860000000000
20
433.640000000000
30
0.0
11
886.860000000000
21
437.640000000000
31
0.0
0
LINE
5
508
100
AcDbEntity
8
0-2
6
CONTINUOUS
62
4
100
AcDbLine
10
880.030000000000
20
433.640000000000
30
0.0
11
884.030000000000
21
437.640000000000
31
0.0
0
LINE
5
509
100
AcDbEntity
8
0-2
6
CONTINUOUS
62
4
100
AcDbLine
10
877.200000000000
20
433.640000000000
30
0.0
11
881.200000000000
21
437.640000000000
31
0.0
0
LINE
5
50a
100
AcDbEntity
8
0-2
6
CONTINUOUS
62
4
100
AcDbLine
10
874.370000000000
20
433.640000000000
30
0.0
11
878.370000000000
21
437.640000000000
31
0.0
0
LINE
5
50b
100
AcDbEntity
8
0-2
6
CONTINUOUS
62
4
100
AcDbLine
10
871.550000000000
20
433.640000000000
30
0.0
11
875.550000000000
21
437.640000000000
31
0.0
0
LINE
5
50c
100
AcDbEntity
8
0-2
6
CONTINUOUS
62
4
100
AcDbLine
10
868.720000000000
20
433.640000000000
30
0.0
11
872.720000000000
21
437.640000000000
31
0.0
0
LINE
5
50d
100
AcDbEntity
8
0-2
6
CONTINUOUS
62
4
100
AcDbLine
10
865.890000000000
20
433.640000000000
30
0.0
11
869.890000000000
21
437.640000000000
31
0.0
0
LINE
5
50e
100
AcDbEntity
8
0-2
6
CONTINUOUS
62
4
100
AcDbLine
10
863.170000000000
20
433.740000000000
30
0.0
11
867.060000000000
21
437.640000000000
31
0.0
0
LINE
5
50f
100
AcDbEntity
8
0-2
6
CONTINUOUS
62
4
100
AcDbLine
10
861.330000000000
20
434.730000000000
30
0.0
11
864.400000000000
21
437.800000000000
31
0.0
0
LINE
5
510
100
AcDbEntity
8
0-2
6
CONTINUOUS
62
4
100
AcDbLine
10
859.950000000000
20
436.180000000000
30
0.0
11
862.780000000000
21
439.010000000000
31
0.0
0
LINE
5
511
100
AcDbEntity
8
0-2
6
CONTINUOUS
62
4
100
AcDbLine
10
858.570000000000
20
437.630000000000
30
0.0
11
861.400000000000
21
440.460000000000
31
0.0
0
LINE
5
512
100
AcDbEntity
8
0-2
6
CONTINUOUS
62
4
100
AcDbLine
10
857.190000000000
20
439.080000000000
30
0.0
11
860.020000000000
21
441.910000000000
31
0.0
0
LINE
5
513
100
AcDbEntity
8
0-2
6
CONTINUOUS
62
4
100
AcDbLine
10
855.820000000000
20
440.530000000000
30
0.0
11
858.650000000000
21
443.360000000000
31
0.0
0
LINE
5
514
100
AcDbEntity
8
0-2
6
CONTINUOUS
62
4
100
AcDbLine
10
854.440000000000
20
441.980000000000
30
0.0
11
857.270000000000
21
444.810000000000
31
0.0
0
LINE
5
515
100
AcDbEntity
8
0-2
6
CONTINUOUS
62
4
100
AcDbLine
10
853.060000000000
20
443.430000000000
30
0.0
11
855.890000000000
21
446.260000000000
31
0.0
0
LINE
5
516
100
AcDbEntity
8
0-2
6
CONTINUOUS
62
4
100
AcDbLine
10
851.680000000000
20
444.880000000000
30
0.0
11
854.510000000000
21
447.710000000000
31
0.0
0
LINE
5
517
100
AcDbEntity
8
0-2
6
CONTINUOUS
62
4
100
AcDbLine
10
850.300000000000
20
446.340000000000
30
0.0
11
853.130000000000
21
449.160000000000
31
0.0
0
LINE
5
518
100
AcDbEntity
8
0-2
6
CONTINUOUS
62
4
100
AcDbLine
10
848.930000000000
20
447.790000000000
30
0.0
11
851.760000000000
21
450.610000000000
31
0.0
0
LINE
5
519
100
AcDbEntity
8
0-2
6
CONTINUOUS
62
4
100
AcDbLine
10
847.550000000000
20
449.240000000000
30
0.0
11
850.380000000000
21
452.070000000000
31
0.0
0
LINE
5
51a
100
AcDbEntity
8
0-2
6
CONTINUOUS
62
4
100
AcDbLine
10
846.170000000000
20
450.690000000000
30
0.0
11
849.000000000000
21
453.520000000000
31
0.0
0
LINE
5
51b
100
AcDbEntity
8
0-2
6
CONTINUOUS
62
4
100
AcDbLine
10
844.790000000000
20
452.140000000000
30
0.0
11
847.620000000000
21
454.970000000000
31
0.0
0
LINE
5
51c
100
AcDbEntity
8
0-2
6
CONTINUOUS
62
4
100
AcDbLine
10
843.410000000000
20
453.590000000000
30
0.0
11
846.240000000000
21
456.420000000000
31
0.0
0
LINE
5
51d
100
AcDbEntity
8
0-2
6
CONTINUOUS
62
4
100
AcDbLine
10
842.040000000000
20
455.040000000000
30
0.0
11
844.870000000000
21
457.870000000000
31
0.0
0
LINE
5
51e
100
AcDbEntity
8
0-2
6
CONTINUOUS
62
4
100
AcDbLine
10
840.660000000000
20
456.490000000000
30
0.0
11
843.490000000000
21
459.320000000000
31
0.0
0
LINE
5
51f
100
AcDbEntity
8
0-2
6
CONTINUOUS
62
4
100
AcDbLine
10
839.280000000000
20
457.940000000000
30
0.0
11
842.110000000000
21
460.770000000000
31
0.0
0
LINE
5
520
100
AcDbEntity
8
0-2
6
CONTINUOUS
62
4
100
AcDbLine
10
837.900000000000
20
459.390000000000
30
0.0
11
840.730000000000
21
462.220000000000
31
0.0
0
LINE
5
521
100
AcDbEntity
8
0-2
6
CONTINUOUS
62
4
100
AcDbLine
10
836.520000000000
20
460.840000000000
30
0.0
11
839.350000000000
21
463.670000000000
31
0.0
0
LINE
5
522
100
AcDbEntity
8
0-2
6
CONTINUOUS
62
4
100
AcDbLine
10
835.150000000000
20
462.290000000000
30
0.0
11
837.980000000000
21
465.120000000000
31
0.0
0
LINE
5
523
100
AcDbEntity
8
0-2
6
CONTINUOUS
62
4
100
AcDbLine
10
833.770000000000
20
463.740000000000
30
0.0
11
836.600000000000
21
466.570000000000
31
0.0
0
LINE
5
524
100
AcDbEntity
8
0-2
6
CONTINUOUS
62
4
100
AcDbLine
10
832.390000000000
20
465.190000000000
30
0.0
11
835.220000000000
21
468.020000000000
31
0.0
0
LINE
5
525
100
AcDbEntity
8
0-2
6
CONTINUOUS
62
4
100
AcDbLine
10
831.010000000000
20
466.640000000000
30
0.0
11
833.840000000000
21
469.470000000000
31
0.0
0
LINE
5
526
100
AcDbEntity
8
0-2
6
CONTINUOUS
62
4
100
AcDbLine
10
829.630000000000
20
468.090000000000
30
0.0
11
832.460000000000
21
470.920000000000
31
0.0
0
LINE
5
527
100
AcDbEntity
8
0-2
6
CONTINUOUS
62
4
100
AcDbLine
10
828.260000000000
20
469.540000000000
30
0.0
11
831.090000000000
21
472.370000000000
31
0.0
0
LINE
5
528
100
AcDbEntity
8
0-2
6
CONTINUOUS
62
4
100
AcDbLine
10
826.880000000000
20
470.990000000000
30
0.0
11
829.710000000000
21
473.820000000000
31
0.0
0
LINE
5
529
100
AcDbEntity
8
0-2
6
CONTINUOUS
62
4
100
AcDbLine
10
825.500000000000
20
472.440000000000
30
0.0
11
828.330000000000
21
475.270000000000
31
0.0
0
LINE
5
52a
100
AcDbEntity
8
0-2
6
CONTINUOUS
62
4
100
AcDbLine
10
823.720000000000
20
473.490000000000
30
0.0
11
826.950000000000
21
476.720000000000
31
0.0
0
LINE
5
52b
100
AcDbEntity
8
0-2
6
CONTINUOUS
62
4
100
AcDbLine
10
821.040000000000
20
473.640000000000
30
0.0
11
825.040000000000
21
477.640000000000
31
0.0
0
LINE
5
52c
100
AcDbEntity
8
0-2
6
CONTINUOUS
62
4
100
AcDbLine
10
818.210000000000
20
473.640000000000
30
0.0
11
822.210000000000
21
477.640000000000
31
0.0
0
LINE
5
52d
100
AcDbEntity
8
0-2
6
CONTINUOUS
62
4
100
AcDbLine
10
815.380000000000
20
473.640000000000
30
0.0
11
819.380000000000
21
477.640000000000
31
0.0
0
LINE
5
52e
100
AcDbEntity
8
0-2
6
CONTINUOUS
62
4
100
AcDbLine
10
812.550000000000
20
473.640000000000
30
0.0
11
816.550000000000
21
477.640000000000
31
0.0
0
LINE
5
52f
100
AcDbEntity
8
0-2
6
CONTINUOUS
62
4
100
AcDbLine
10
809.720000000000
20
473.640000000000
30
0.0
11
813.720000000000
21
477.640000000000
31
0.0
0
LINE
5
530
100
AcDbEntity
8
0-2
6
CONTINUOUS
62
4
100
AcDbLine
10
806.890000000000
20
473.640000000000
30
0.0
11
810.890000000000
21
477.640000000000
31
0.0
0
LINE
5
531
100
AcDbEntity
8
0-2
6
CONTINUOUS
62
4
100
AcDbLine
10
804.070000000000
20
473.640000000000
30
0.0
11
808.070000000000
21
477.640000000000
31
0.0
0
LINE
5
532
100
AcDbEntity
8
0-2
6
CONTINUOUS
62
4
100
AcDbLine
10
801.890000000000
20
474.290000000000
30
0.0
11
805.240000000000
21
477.640000000000
31
0.0
0
LINE
5
533
100
AcDbEntity
8
0-2
6
CONTINUOUS
62
4
100
AcDbLine
10
800.440000000000
20
475.670000000000
30
0.0
11
803.270000000000
21
478.500000000000
31
0.0
0
LINE
5
534
100
AcDbEntity
8
0-2
6
CONTINUOUS
62
4
100
AcDbLine
10
799.060000000000
20
477.120000000000
30
0.0
11
801.890000000000
21
479.950000000000
31
0.0
0
LINE
5
535
100
AcDbEntity
8
0-2
6
CONTINUOUS
62
4
100
AcDbLine
10
797.680000000000
20
478.570000000000
30
0.0
11
800.510000000000
21
481.400000000000
31
0.0
0
LINE
5
536
100
AcDbEntity
8
0-2
6
CONTINUOUS
62
4
100
AcDbLine
10
796.310000000000
20
480.020000000000
30
0.0
11
799.130000000000
21
482.850000000000
31
0.0
0
LINE
5
537
100
AcDbEntity
8
0-2
6
CONTINUOUS
62
4
100
AcDbLine
10
794.930000000000
20
481.470000000000
30
0.0
11
797.760000000000
21
484.300000000000
31
0.0
0
LINE
5
538
100
AcDbEntity
8
0-2
6
CONTINUOUS
62
4
100
AcDbLine
10
793.550000000000
20
482.920000000000
30
0.0
11
796.380000000000
21
485.750000000000
31
0.0
0
LINE
5
539
100
AcDbEntity
8
0-2
6
CONTINUOUS
62
4
100
AcDbLine
10
792.170000000000
20
484.370000000000
30
0.0
11
795.000000000000
21
487.200000000000
31
0.0
0
LINE
5
53a
100
AcDbEntity
8
0-2
6
CONTINUOUS
62
4
100
AcDbLine
10
790.790000000000
20
485.820000000000
30
0.0
11
793.620000000000
21
488.650000000000
31
0.0
0
LINE
5
53b
100
AcDbEntity
8
0-2
6
CONTINUOUS
62
4
100
AcDbLine
10
789.420000000000
20
487.270000000000
30
0.0
11
792.250000000000
21
490.100000000000
31
0.0
0
LINE
5
53c
100
AcDbEntity
8
0-2
6
CONTINUOUS
62
4
100
AcDbLine
10
788.040000000000
20
488.720000000000
30
0.0
11
790.870000000000
21
491.550000000000
31
0.0
0
LINE
5
53d
100
AcDbEntity
8
0-2
6
CONTINUOUS
62
4
100
AcDbLine
10
786.660000000000
20
490.170000000000
30
0.0
11
789.490000000000
21
493.000000000000
31
0.0
0
LINE
5
53e
100
AcDbEntity
8
0-2
6
CONTINUOUS
62
4
100
AcDbLine
10
785.280000000000
20
491.620000000000
30
0.0
11
788.110000000000
21
494.450000000000
31
0.0
0
LINE
5
53f
100
AcDbEntity
8
0-2
6
CONTINUOUS
62
4
100
AcDbLine
10
783.900000000000
20
493.070000000000
30
0.0
11
786.730000000000
21
495.900000000000
31
0.0
0
LINE
5
540
100
AcDbEntity
8
0-2
6
CONTINUOUS
62
4
100
AcDbLine
10
782.530000000000
20
494.520000000000
30
0.0
11
785.360000000000
21
497.350000000000
31
0.0
0
LINE
5
541
100
AcDbEntity
8
0-2
6
CONTINUOUS
62
4
100
AcDbLine
10
781.150000000000
20
495.970000000000
30
0.0
11
783.980000000000
21
498.800000000000
31
0.0
0
LINE
5
542
100
AcDbEntity
8
0-2
6
CONTINUOUS
62
4
100
AcDbLine
10
779.770000000000
20
497.420000000000
30
0.0
11
782.600000000000
21
500.250000000000
31
0.0
0
LINE
5
543
100
AcDbEntity
8
0-2
6
CONTINUOUS
62
4
100
AcDbLine
10
778.390000000000
20
498.870000000000
30
0.0
11
781.220000000000
21
501.700000000000
31
0.0
0
LINE
5
544
100
AcDbEntity
8
0-2
6
CONTINUOUS
62
4
100
AcDbLine
10
777.010000000000
20
500.320000000000
30
0.0
11
779.840000000000
21
503.150000000000
31
0.0
0
LINE
5
545
100
AcDbEntity
8
0-2
6
CONTINUOUS
62
4
100
AcDbLine
10
775.640000000000
20
501.770000000000
30
0.0
11
778.470000000000
21
504.600000000000
31
0.0
0
LINE
5
546
100
AcDbEntity
8
0-2
6
CONTINUOUS
62
4
100
AcDbLine
10
774.260000000000
20
503.230000000000
30
0.0
11
777.090000000000
21
506.050000000000
31
0.0
0
LINE
5
547
100
AcDbEntity
8
0-2
6
CONTINUOUS
62
4
100
AcDbLine
10
772.880000000000
20
504.680000000000
30
0.0
11
775.710000000000
21
507.500000000000
31
0.0
0
LINE
5
548
100
AcDbEntity
8
0-2
6
CONTINUOUS
62
4
100
AcDbLine
10
771.500000000000
20
506.130000000000
30
0.0
11
774.330000000000
21
508.960000000000
31
0.0
0
LINE
5
549
100
AcDbEntity
8
0-2
6
CONTINUOUS
62
4
100
AcDbLine
10
770.120000000000
20
507.580000000000
30
0.0
11
772.950000000000
21
510.410000000000
31
0.0
0
LINE
5
54a
100
AcDbEntity
8
0-2
6
CONTINUOUS
62
4
100
AcDbLine
10
768.750000000000
20
509.030000000000
30
0.0
11
771.580000000000
21
511.860000000000
31
0.0
0
LINE
5
54b
100
AcDbEntity
8
0-2
6
CONTINUOUS
62
4
100
AcDbLine
10
767.370000000000
20
510.480000000000
30
0.0
11
770.200000000000
21
513.310000000000
31
0.0
0
LINE
5
54c
100
AcDbEntity
8
0-2
6
CONTINUOUS
62
4
100
AcDbLine
10
765.990000000000
20
511.930000000000
30
0.0
11
768.820000000000
21
514.760000000000
31
0.0
0
LINE
5
54d
100
AcDbEntity
8
0-2
6
CONTINUOUS
62
4
100
AcDbLine
10
764.610000000000
20
513.380000000000
30
0.0
11
767.440000000000
21
516.210000000000
31
0.0
0
LINE
5
54e
100
AcDbEntity
8
0-2
6
CONTINUOUS
62
4
100
AcDbLine
10
763.230000000000
20
514.830000000000
30
0.0
11
766.060000000000
21
517.660000000000
31
0.0
0
LINE
5
54f
100
AcDbEntity
8
0-2
6
CONTINUOUS
62
4
100
AcDbLine
10
761.860000000000
20
516.280000000000
30
0.0
11
764.690000000000
21
519.110000000000
31
0.0
0
LINE
5
550
100
AcDbEntity
8
0-2
6
CONTINUOUS
62
4
100
AcDbLine
10
760.480000000000
20
517.730000000000
30
0.0
11
763.310000000000
21
520.560000000000
31
0.0
0
LINE
5
551
100
AcDbEntity
8
0-2
6
CONTINUOUS
62
4
100
AcDbLine
10
759.100000000000
20
519.180000000000
30
0.0
11
761.930000000000
21
522.010000000000
31
0.0
0
LINE
5
552
100
AcDbEntity
8
0-2
6
CONTINUOUS
62
4
100
AcDbLine
10
757.720000000000
20
520.630000000000
30
0.0
11
760.550000000000
21
523.460000000000
31
0.0
0
LINE
5
553
100
AcDbEntity
8
0-2
6
CONTINUOUS
62
4
100
AcDbLine
10
756.340000000000
20
522.080000000000
30
0.0
11
759.170000000000
21
524.910000000000
31
0.0
0
LINE
5
554
100
AcDbEntity
8
0-2
6
CONTINUOUS
62
4
100
AcDbLine
10
754.970000000000
20
523.530000000000
30
0.0
11
757.800000000000
21
526.360000000000
31
0.0
0
LINE
5
555
100
AcDbEntity
8
0-2
6
CONTINUOUS
62
4
100
AcDbLine
10
753.590000000000
20
524.980000000000
30
0.0
11
756.420000000000
21
527.810000000000
31
0.0
0
LINE
5
556
100
AcDbEntity
8
0-2
6
CONTINUOUS
62
4
100
AcDbLine
10
752.210000000000
20
526.430000000000
30
0.0
11
755.040000000000
21
529.260000000000
31
0.0
0
LINE
5
557
100
AcDbEntity
8
0-2
6
CONTINUOUS
62
4
100
AcDbLine
10
750.830000000000
20
527.880000000000
30
0.0
11
753.660000000000
21
530.710000000000
31
0.0
0
LINE
5
558
100
AcDbEntity
8
0-2
6
CONTINUOUS
62
4
100
AcDbLine
10
749.460000000000
20
529.330000000000
30
0.0
11
752.280000000000
21
532.160000000000
31
0.0
0
LINE
5
559
100
AcDbEntity
8
0-2
6
CONTINUOUS
62
4
100
AcDbLine
10
748.080000000000
20
530.780000000000
30
0.0
11
750.910000000000
21
533.610000000000
31
0.0
0
LINE
5
55a
100
AcDbEntity
8
0-2
6
CONTINUOUS
62
4
100
AcDbLine
10
746.700000000000
20
532.230000000000
30
0.0
11
749.530000000000
21
535.060000000000
31
0.0
0
LINE
5
55b
100
AcDbEntity
8
0-2
6
CONTINUOUS
62
4
100
AcDbLine
10
745.320000000000
20
533.690000000000
30
0.0
11
748.150000000000
21
536.510000000000
31
0.0
0
LINE
5
55c
100
AcDbEntity
8
0-2
6
CONTINUOUS
62
4
100
AcDbLine
10
743.940000000000
20
535.140000000000
30
0.0
11
746.770000000000
21
537.960000000000
31
0.0
0
LINE
5
55d
100
AcDbEntity
8
0-2
6
CONTINUOUS
62
4
100
AcDbLine
10
742.570000000000
20
536.590000000000
30
0.0
11
745.390000000000
21
539.420000000000
31
0.0
0
LINE
5
55e
100
AcDbEntity
8
0-2
6
CONTINUOUS
62
4
100
AcDbLine
10
741.190000000000
20
538.040000000000
30
0.0
11
744.020000000000
21
540.870000000000
31
0.0
0
LINE
5
55f
100
AcDbEntity
8
0-2
6
CONTINUOUS
62
4
100
AcDbLine
10
739.810000000000
20
539.490000000000
30
0.0
11
742.640000000000
21
542.320000000000
31
0.0
0
LINE
5
560
100
AcDbEntity
8
0-2
6
CONTINUOUS
62
4
100
AcDbLine
10
738.430000000000
20
540.940000000000
30
0.0
11
741.260000000000
21
543.770000000000
31
0.0
0
LINE
5
561
100
AcDbEntity
8
0-2
6
CONTINUOUS
62
4
100
AcDbLine
10
737.050000000000
20
542.390000000000
30
0.0
11
739.880000000000
21
545.220000000000
31
0.0
0
LINE
5
562
100
AcDbEntity
8
0-2
6
CONTINUOUS
62
4
100
AcDbLine
10
735.680000000000
20
543.840000000000
30
0.0
11
738.500000000000
21
546.670000000000
31
0.0
0
LINE
5
563
100
AcDbEntity
8
0-2
6
CONTINUOUS
62
4
100
AcDbLine
10
734.300000000000
20
545.290000000000
30
0.0
11
737.130000000000
21
548.120000000000
31
0.0
0
LINE
5
564
100
AcDbEntity
8
0-2
6
CONTINUOUS
62
4
100
AcDbLine
10
732.920000000000
20
546.740000000000
30
0.0
11
735.750000000000
21
549.570000000000
31
0.0
0
LINE
5
565
100
AcDbEntity
8
0-2
6
CONTINUOUS
62
4
100
AcDbLine
10
731.540000000000
20
548.190000000000
30
0.0
11
734.370000000000
21
551.020000000000
31
0.0
0
LINE
5
566
100
AcDbEntity
8
0-2
6
CONTINUOUS
62
4
100
AcDbLine
10
730.160000000000
20
549.640000000000
30
0.0
11
732.990000000000
21
552.470000000000
31
0.0
0
LINE
5
567
100
AcDbEntity
8
0-2
6
CONTINUOUS
62
4
100
AcDbLine
10
728.790000000000
20
551.090000000000
30
0.0
11
731.620000000000
21
553.920000000000
31
0.0
0
LINE
5
568
100
AcDbEntity
8
0-2
6
CONTINUOUS
62
4
100
AcDbLine
10
727.410000000000
20
552.540000000000
30
0.0
11
730.240000000000
21
555.370000000000
31
0.0
0
LINE
5
569
100
AcDbEntity
8
0-2
6
CONTINUOUS
62
7
100
AcDbLine
10
1066.380000000000
20
473.640000000000
30
0.0
11
1084.940000000000
21
473.640000000000
31
0.0
0
LINE
5
56a
100
AcDbEntity
8
0-2
6
CONTINUOUS
62
7
100
AcDbLine
10
1027.840000000000
20
434.880000000000
30
0.0
11
1063.480000000000
21
472.390000000000
31
0.0
0
LINE
5
56b
100
AcDbEntity
8
0-2
6
CONTINUOUS
62
7
100
AcDbLine
10
971.930000000000
20
430.640000000000
30
0.0
11
944.510000000000
21
430.640000000000
31
0.0
0
LINE
5
56c
100
AcDbEntity
8
0-2
6
CONTINUOUS
62
7
100
AcDbLine
10
978.240000000000
20
433.640000000000
30
0.0
11
1024.940000000000
21
433.640000000000
31
0.0
0
LINE
5
56d
100
AcDbEntity
8
0-2
6
CONTINUOUS
62
7
100
AcDbLine
10
975.410000000000
20
432.460000000000
30
0.0
11
974.760000000000
21
431.810000000000
31
0.0
0
LINE
5
56e
100
AcDbEntity
8
0-2
6
CONTINUOUS
62
4
100
AcDbLine
10
1111.900000000000
20
500.200000000000
30
0.0
11
1085.350000000000
21
473.660000000000
31
0.0
0
LINE
5
56f
100
AcDbEntity
8
0-2
6
CONTINUOUS
62
4
100
AcDbLine
10
1165.640000000000
20
556.770000000000
30
0.0
11
1082.500000000000
21
473.640000000000
31
0.0
0
LINE
5
570
100
AcDbEntity
8
0-2
6
CONTINUOUS
62
4
100
AcDbLine
10
1083.680000000000
20
477.640000000000
30
0.0
11
1079.680000000000
21
473.640000000000
31
0.0
0
LINE
5
571
100
AcDbEntity
8
0-2
6
CONTINUOUS
62
4
100
AcDbLine
10
1080.850000000000
20
477.640000000000
30
0.0
11
1076.850000000000
21
473.640000000000
31
0.0
0
LINE
5
572
100
AcDbEntity
8
0-2
6
CONTINUOUS
62
4
100
AcDbLine
10
1078.020000000000
20
477.640000000000
30
0.0
11
1074.020000000000
21
473.640000000000
31
0.0
0
LINE
5
573
100
AcDbEntity
8
0-2
6
CONTINUOUS
62
4
100
AcDbLine
10
1075.190000000000
20
477.640000000000
30
0.0
11
1071.190000000000
21
473.640000000000
31
0.0
0
LINE
5
574
100
AcDbEntity
8
0-2
6
CONTINUOUS
62
4
100
AcDbLine
10
1072.360000000000
20
477.640000000000
30
0.0
11
1068.360000000000
21
473.640000000000
31
0.0
0
LINE
5
575
100
AcDbEntity
8
0-2
6
CONTINUOUS
62
4
100
AcDbLine
10
1069.530000000000
20
477.640000000000
30
0.0
11
1065.420000000000
21
473.520000000000
31
0.0
0
LINE
5
576
100
AcDbEntity
8
0-2
6
CONTINUOUS
62
4
100
AcDbLine
10
1048.080000000000
20
456.180000000000
30
0.0
11
1025.590000000000
21
433.690000000000
31
0.0
0
LINE
5
577
100
AcDbEntity
8
0-2
6
CONTINUOUS
62
4
100
AcDbLine
10
1066.710000000000
20
477.640000000000
30
0.0
11
1022.710000000000
21
433.640000000000
31
0.0
0
LINE
5
578
100
AcDbEntity
8
0-2
6
CONTINUOUS
62
4
100
AcDbLine
10
1063.880000000000
20
477.640000000000
30
0.0
11
1045.210000000000
21
458.970000000000
31
0.0
0
LINE
5
579
100
AcDbEntity
8
0-2
6
CONTINUOUS
62
4
100
AcDbLine
10
1023.890000000000
20
437.640000000000
30
0.0
11
1019.880000000000
21
433.640000000000
31
0.0
0
LINE
5
57a
100
AcDbEntity
8
0-2
6
CONTINUOUS
62
4
100
AcDbLine
10
1021.050000000000
20
437.640000000000
30
0.0
11
1017.050000000000
21
433.640000000000
31
0.0
0
LINE
5
57b
100
AcDbEntity
8
0-2
6
CONTINUOUS
62
4
100
AcDbLine
10
1018.220000000000
20
437.640000000000
30
0.0
11
1014.220000000000
21
433.640000000000
31
0.0
0
LINE
5
57c
100
AcDbEntity
8
0-2
6
CONTINUOUS
62
4
100
AcDbLine
10
1015.390000000000
20
437.640000000000
30
0.0
11
1011.390000000000
21
433.640000000000
31
0.0
0
LINE
5
57d
100
AcDbEntity
8
0-2
6
CONTINUOUS
62
4
100
AcDbLine
10
1012.560000000000
20
437.640000000000
30
0.0
11
1008.560000000000
21
433.640000000000
31
0.0
0
LINE
5
57e
100
AcDbEntity
8
0-2
6
CONTINUOUS
62
4
100
AcDbLine
10
1009.730000000000
20
437.640000000000
30
0.0
11
1005.730000000000
21
433.640000000000
31
0.0
0
LINE
5
57f
100
AcDbEntity
8
0-2
6
CONTINUOUS
62
4
100
AcDbLine
10
1006.910000000000
20
437.640000000000
30
0.0
11
1002.910000000000
21
433.640000000000
31
0.0
0
LINE
5
580
100
AcDbEntity
8
0-2
6
CONTINUOUS
62
4
100
AcDbLine
10
1004.080000000000
20
437.640000000000
30
0.0
11
1000.080000000000
21
433.640000000000
31
0.0
0
LINE
5
581
100
AcDbEntity
8
0-2
6
CONTINUOUS
62
4
100
AcDbLine
10
1001.250000000000
20
437.640000000000
30
0.0
11
997.250000000000
21
433.640000000000
31
0.0
0
LINE
5
582
100
AcDbEntity
8
0-2
6
CONTINUOUS
62
4
100
AcDbLine
10
998.420000000000
20
437.640000000000
30
0.0
11
994.420000000000
21
433.640000000000
31
0.0
0
LINE
5
583
100
AcDbEntity
8
0-2
6
CONTINUOUS
62
4
100
AcDbLine
10
995.590000000000
20
437.640000000000
30
0.0
11
991.590000000000
21
433.640000000000
31
0.0
0
LINE
5
584
100
AcDbEntity
8
0-2
6
CONTINUOUS
62
4
100
AcDbLine
10
992.760000000000
20
437.640000000000
30
0.0
11
988.760000000000
21
433.640000000000
31
0.0
0
LINE
5
585
100
AcDbEntity
8
0-2
6
CONTINUOUS
62
4
100
AcDbLine
10
989.940000000000
20
437.640000000000
30
0.0
11
985.940000000000
21
433.640000000000
31
0.0
0
LINE
5
586
100
AcDbEntity
8
0-2
6
CONTINUOUS
62
4
100
AcDbLine
10
987.110000000000
20
437.640000000000
30
0.0
11
983.110000000000
21
433.640000000000
31
0.0
0
LINE
5
587
100
AcDbEntity
8
0-2
6
CONTINUOUS
62
4
100
AcDbLine
10
984.280000000000
20
437.640000000000
30
0.0
11
980.280000000000
21
433.640000000000
31
0.0
0
LINE
5
588
100
AcDbEntity
8
0-2
6
CONTINUOUS
62
4
100
AcDbLine
10
981.450000000000
20
437.640000000000
30
0.0
11
977.350000000000
21
433.540000000000
31
0.0
0
LINE
5
589
100
AcDbEntity
8
0-2
6
CONTINUOUS
62
4
100
AcDbLine
10
978.620000000000
20
437.640000000000
30
0.0
11
971.620000000000
21
430.640000000000
31
0.0
0
LINE
5
58a
100
AcDbEntity
8
0-2
6
CONTINUOUS
62
4
100
AcDbLine
10
975.790000000000
20
437.640000000000
30
0.0
11
968.790000000000
21
430.640000000000
31
0.0
0
LINE
5
58b
100
AcDbEntity
8
0-2
6
CONTINUOUS
62
4
100
AcDbLine
10
969.960000000000
20
434.640000000000
30
0.0
11
965.960000000000
21
430.640000000000
31
0.0
0
LINE
5
58c
100
AcDbEntity
8
0-2
6
CONTINUOUS
62
4
100
AcDbLine
10
967.140000000000
20
434.640000000000
30
0.0
11
963.140000000000
21
430.640000000000
31
0.0
0
LINE
5
58d
100
AcDbEntity
8
0-2
6
CONTINUOUS
62
4
100
AcDbLine
10
964.310000000000
20
434.640000000000
30
0.0
11
960.310000000000
21
430.640000000000
31
0.0
0
LINE
5
58e
100
AcDbEntity
8
0-2
6
CONTINUOUS
62
4
100
AcDbLine
10
961.480000000000
20
434.640000000000
30
0.0
11
957.480000000000
21
430.640000000000
31
0.0
0
LINE
5
58f
100
AcDbEntity
8
0-2
6
CONTINUOUS
62
4
100
AcDbLine
10
958.650000000000
20
434.640000000000
30
0.0
11
954.650000000000
21
430.640000000000
31
0.0
0
LINE
5
590
100
AcDbEntity
8
0-2
6
CONTINUOUS
62
4
100
AcDbLine
10
955.820000000000
20
434.640000000000
30
0.0
11
951.820000000000
21
430.640000000000
31
0.0
0
LINE
5
591
100
AcDbEntity
8
0-2
6
CONTINUOUS
62
4
100
AcDbLine
10
952.990000000000
20
434.640000000000
30
0.0
11
948.990000000000
21
430.640000000000
31
0.0
0
LINE
5
592
100
AcDbEntity
8
0-2
6
CONTINUOUS
62
4
100
AcDbLine
10
950.170000000000
20
434.640000000000
30
0.0
11
946.170000000000
21
430.640000000000
31
0.0
0
LINE
5
593
100
AcDbEntity
8
0-2
6
CONTINUOUS
62
4
100
AcDbLine
10
949.770000000000
20
430.640000000000
30
0.0
11
945.770000000000
21
434.640000000000
31
0.0
0
LINE
5
594
100
AcDbEntity
8
0-2
6
CONTINUOUS
62
4
100
AcDbLine
10
952.600000000000
20
430.640000000000
30
0.0
11
948.600000000000
21
434.640000000000
31
0.0
0
LINE
5
595
100
AcDbEntity
8
0-2
6
CONTINUOUS
62
4
100
AcDbLine
10
955.430000000000
20
430.640000000000
30
0.0
11
951.430000000000
21
434.640000000000
31
0.0
0
LINE
5
596
100
AcDbEntity
8
0-2
6
CONTINUOUS
62
4
100
AcDbLine
10
958.260000000000
20
430.640000000000
30
0.0
11
954.260000000000
21
434.640000000000
31
0.0
0
LINE
5
597
100
AcDbEntity
8
0-2
6
CONTINUOUS
62
4
100
AcDbLine
10
961.090000000000
20
430.640000000000
30
0.0
11
957.090000000000
21
434.640000000000
31
0.0
0
LINE
5
598
100
AcDbEntity
8
0-2
6
CONTINUOUS
62
4
100
AcDbLine
10
963.910000000000
20
430.640000000000
30
0.0
11
959.910000000000
21
434.640000000000
31
0.0
0
LINE
5
599
100
AcDbEntity
8
0-2
6
CONTINUOUS
62
4
100
AcDbLine
10
966.740000000000
20
430.640000000000
30
0.0
11
962.740000000000
21
434.640000000000
31
0.0
0
LINE
5
59a
100
AcDbEntity
8
0-2
6
CONTINUOUS
62
4
100
AcDbLine
10
969.570000000000
20
430.640000000000
30
0.0
11
965.570000000000
21
434.640000000000
31
0.0
0
LINE
5
59b
100
AcDbEntity
8
0-2
6
CONTINUOUS
62
4
100
AcDbLine
10
972.370000000000
20
430.660000000000
30
0.0
11
968.400000000000
21
434.640000000000
31
0.0
0
LINE
5
59c
100
AcDbEntity
8
0-2
6
CONTINUOUS
62
4
100
AcDbLine
10
974.380000000000
20
431.480000000000
30
0.0
11
971.190000000000
21
434.680000000000
31
0.0
0
LINE
5
59d
100
AcDbEntity
8
0-2
6
CONTINUOUS
62
4
100
AcDbLine
10
975.850000000000
20
432.840000000000
30
0.0
11
972.990000000000
21
435.700000000000
31
0.0
0
LINE
5
59e
100
AcDbEntity
8
0-2
6
CONTINUOUS
62
4
100
AcDbLine
10
977.900000000000
20
433.620000000000
30
0.0
11
974.410000000000
21
437.110000000000
31
0.0
0
LINE
5
59f
100
AcDbEntity
8
0-2
6
CONTINUOUS
62
4
100
AcDbLine
10
980.710000000000
20
433.640000000000
30
0.0
11
976.710000000000
21
437.640000000000
31
0.0
0
LINE
5
5a0
100
AcDbEntity
8
0-2
6
CONTINUOUS
62
4
100
AcDbLine
10
983.540000000000
20
433.640000000000
30
0.0
11
979.540000000000
21
437.640000000000
31
0.0
0
LINE
5
5a1
100
AcDbEntity
8
0-2
6
CONTINUOUS
62
4
100
AcDbLine
10
986.370000000000
20
433.640000000000
30
0.0
11
982.370000000000
21
437.640000000000
31
0.0
0
LINE
5
5a2
100
AcDbEntity
8
0-2
6
CONTINUOUS
62
4
100
AcDbLine
10
989.200000000000
20
433.640000000000
30
0.0
11
985.200000000000
21
437.640000000000
31
0.0
0
LINE
5
5a3
100
AcDbEntity
8
0-2
6
CONTINUOUS
62
4
100
AcDbLine
10
992.030000000000
20
433.640000000000
30
0.0
11
988.030000000000
21
437.640000000000
31
0.0
0
LINE
5
5a4
100
AcDbEntity
8
0-2
6
CONTINUOUS
62
4
100
AcDbLine
10
994.860000000000
20
433.640000000000
30
0.0
11
990.860000000000
21
437.640000000000
31
0.0
0
LINE
5
5a5
100
AcDbEntity
8
0-2
6
CONTINUOUS
62
4
100
AcDbLine
10
997.680000000000
20
433.640000000000
30
0.0
11
993.680000000000
21
437.640000000000
31
0.0
0
LINE
5
5a6
100
AcDbEntity
8
0-2
6
CONTINUOUS
62
4
100
AcDbLine
10
1000.510000000000
20
433.640000000000
30
0.0
11
996.510000000000
21
437.640000000000
31
0.0
0
LINE
5
5a7
100
AcDbEntity
8
0-2
6
CONTINUOUS
62
4
100
AcDbLine
10
1003.340000000000
20
433.640000000000
30
0.0
11
999.340000000000
21
437.640000000000
31
0.0
0
LINE
5
5a8
100
AcDbEntity
8
0-2
6
CONTINUOUS
62
4
100
AcDbLine
10
1006.170000000000
20
433.640000000000
30
0.0
11
1002.170000000000
21
437.640000000000
31
0.0
0
LINE
5
5a9
100
AcDbEntity
8
0-2
6
CONTINUOUS
62
4
100
AcDbLine
10
1009.000000000000
20
433.640000000000
30
0.0
11
1005.000000000000
21
437.640000000000
31
0.0
0
LINE
5
5aa
100
AcDbEntity
8
0-2
6
CONTINUOUS
62
4
100
AcDbLine
10
1011.830000000000
20
433.640000000000
30
0.0
11
1007.830000000000
21
437.640000000000
31
0.0
0
LINE
5
5ab
100
AcDbEntity
8
0-2
6
CONTINUOUS
62
4
100
AcDbLine
10
1014.650000000000
20
433.640000000000
30
0.0
11
1010.650000000000
21
437.640000000000
31
0.0
0
LINE
5
5ac
100
AcDbEntity
8
0-2
6
CONTINUOUS
62
4
100
AcDbLine
10
1017.480000000000
20
433.640000000000
30
0.0
11
1013.480000000000
21
437.640000000000
31
0.0
0
LINE
5
5ad
100
AcDbEntity
8
0-2
6
CONTINUOUS
62
4
100
AcDbLine
10
1020.310000000000
20
433.640000000000
30
0.0
11
1016.310000000000
21
437.640000000000
31
0.0
0
LINE
5
5ae
100
AcDbEntity
8
0-2
6
CONTINUOUS
62
4
100
AcDbLine
10
1023.140000000000
20
433.640000000000
30
0.0
11
1019.140000000000
21
437.640000000000
31
0.0
0
LINE
5
5af
100
AcDbEntity
8
0-2
6
CONTINUOUS
62
4
100
AcDbLine
10
1025.860000000000
20
433.740000000000
30
0.0
11
1021.970000000000
21
437.640000000000
31
0.0
0
LINE
5
5b0
100
AcDbEntity
8
0-2
6
CONTINUOUS
62
4
100
AcDbLine
10
1027.700000000000
20
434.730000000000
30
0.0
11
1024.630000000000
21
437.800000000000
31
0.0
0
LINE
5
5b1
100
AcDbEntity
8
0-2
6
CONTINUOUS
62
4
100
AcDbLine
10
1029.080000000000
20
436.180000000000
30
0.0
11
1026.250000000000
21
439.010000000000
31
0.0
0
LINE
5
5b2
100
AcDbEntity
8
0-2
6
CONTINUOUS
62
4
100
AcDbLine
10
1030.460000000000
20
437.630000000000
30
0.0
11
1027.630000000000
21
440.460000000000
31
0.0
0
LINE
5
5b3
100
AcDbEntity
8
0-2
6
CONTINUOUS
62
4
100
AcDbLine
10
1031.830000000000
20
439.080000000000
30
0.0
11
1029.010000000000
21
441.910000000000
31
0.0
0
LINE
5
5b4
100
AcDbEntity
8
0-2
6
CONTINUOUS
62
4
100
AcDbLine
10
1033.210000000000
20
440.530000000000
30
0.0
11
1030.380000000000
21
443.360000000000
31
0.0
0
LINE
5
5b5
100
AcDbEntity
8
0-2
6
CONTINUOUS
62
4
100
AcDbLine
10
1034.590000000000
20
441.980000000000
30
0.0
11
1031.760000000000
21
444.810000000000
31
0.0
0
LINE
5
5b6
100
AcDbEntity
8
0-2
6
CONTINUOUS
62
4
100
AcDbLine
10
1035.970000000000
20
443.430000000000
30
0.0
11
1033.140000000000
21
446.260000000000
31
0.0
0
LINE
5
5b7
100
AcDbEntity
8
0-2
6
CONTINUOUS
62
4
100
AcDbLine
10
1037.350000000000
20
444.880000000000
30
0.0
11
1034.520000000000
21
447.710000000000
31
0.0
0
LINE
5
5b8
100
AcDbEntity
8
0-2
6
CONTINUOUS
62
4
100
AcDbLine
10
1038.720000000000
20
446.340000000000
30
0.0
11
1035.900000000000
21
449.160000000000
31
0.0
0
LINE
5
5b9
100
AcDbEntity
8
0-2
6
CONTINUOUS
62
4
100
AcDbLine
10
1040.100000000000
20
447.790000000000
30
0.0
11
1037.270000000000
21
450.610000000000
31
0.0
0
LINE
5
5ba
100
AcDbEntity
8
0-2
6
CONTINUOUS
62
4
100
AcDbLine
10
1041.480000000000
20
449.240000000000
30
0.0
11
1038.650000000000
21
452.070000000000
31
0.0
0
LINE
5
5bb
100
AcDbEntity
8
0-2
6
CONTINUOUS
62
4
100
AcDbLine
10
1042.860000000000
20
450.690000000000
30
0.0
11
1040.030000000000
21
453.520000000000
31
0.0
0
LINE
5
5bc
100
AcDbEntity
8
0-2
6
CONTINUOUS
62
4
100
AcDbLine
10
1044.240000000000
20
452.140000000000
30
0.0
11
1041.410000000000
21
454.970000000000
31
0.0
0
LINE
5
5bd
100
AcDbEntity
8
0-2
6
CONTINUOUS
62
4
100
AcDbLine
10
1045.610000000000
20
453.590000000000
30
0.0
11
1042.780000000000
21
456.420000000000
31
0.0
0
LINE
5
5be
100
AcDbEntity
8
0-2
6
CONTINUOUS
62
4
100
AcDbLine
10
1046.990000000000
20
455.040000000000
30
0.0
11
1044.160000000000
21
457.870000000000
31
0.0
0
LINE
5
5bf
100
AcDbEntity
8
0-2
6
CONTINUOUS
62
4
100
AcDbLine
10
1048.370000000000
20
456.490000000000
30
0.0
11
1045.540000000000
21
459.320000000000
31
0.0
0
LINE
5
5c0
100
AcDbEntity
8
0-2
6
CONTINUOUS
62
4
100
AcDbLine
10
1049.750000000000
20
457.940000000000
30
0.0
11
1046.920000000000
21
460.770000000000
31
0.0
0
LINE
5
5c1
100
AcDbEntity
8
0-2
6
CONTINUOUS
62
4
100
AcDbLine
10
1051.130000000000
20
459.390000000000
30
0.0
11
1048.300000000000
21
462.220000000000
31
0.0
0
LINE
5
5c2
100
AcDbEntity
8
0-2
6
CONTINUOUS
62
4
100
AcDbLine
10
1052.500000000000
20
460.840000000000
30
0.0
11
1049.670000000000
21
463.670000000000
31
0.0
0
LINE
5
5c3
100
AcDbEntity
8
0-2
6
CONTINUOUS
62
4
100
AcDbLine
10
1053.880000000000
20
462.290000000000
30
0.0
11
1051.050000000000
21
465.120000000000
31
0.0
0
LINE
5
5c4
100
AcDbEntity
8
0-2
6
CONTINUOUS
62
4
100
AcDbLine
10
1055.260000000000
20
463.740000000000
30
0.0
11
1052.430000000000
21
466.570000000000
31
0.0
0
LINE
5
5c5
100
AcDbEntity
8
0-2
6
CONTINUOUS
62
4
100
AcDbLine
10
1056.640000000000
20
465.190000000000
30
0.0
11
1053.810000000000
21
468.020000000000
31
0.0
0
LINE
5
5c6
100
AcDbEntity
8
0-2
6
CONTINUOUS
62
4
100
AcDbLine
10
1058.020000000000
20
466.640000000000
30
0.0
11
1055.190000000000
21
469.470000000000
31
0.0
0
LINE
5
5c7
100
AcDbEntity
8
0-2
6
CONTINUOUS
62
4
100
AcDbLine
10
1059.390000000000
20
468.090000000000
30
0.0
11
1056.560000000000
21
470.920000000000
31
0.0
0
LINE
5
5c8
100
AcDbEntity
8
0-2
6
CONTINUOUS
62
4
100
AcDbLine
10
1060.770000000000
20
469.540000000000
30
0.0
11
1057.940000000000
21
472.370000000000
31
0.0
0
LINE
5
5c9
100
AcDbEntity
8
0-2
6
CONTINUOUS
62
4
100
AcDbLine
10
1062.150000000000
20
470.990000000000
30
0.0
11
1059.320000000000
21
473.820000000000
31
0.0
0
LINE
5
5ca
100
AcDbEntity
8
0-2
6
CONTINUOUS
62
4
100
AcDbLine
10
1063.530000000000
20
472.440000000000
30
0.0
11
1060.700000000000
21
475.270000000000
31
0.0
0
LINE
5
5cb
100
AcDbEntity
8
0-2
6
CONTINUOUS
62
4
100
AcDbLine
10
1065.310000000000
20
473.490000000000
30
0.0
11
1062.080000000000
21
476.720000000000
31
0.0
0
LINE
5
5cc
100
AcDbEntity
8
0-2
6
CONTINUOUS
62
4
100
AcDbLine
10
1067.990000000000
20
473.640000000000
30
0.0
11
1063.990000000000
21
477.640000000000
31
0.0
0
LINE
5
5cd
100
AcDbEntity
8
0-2
6
CONTINUOUS
62
4
100
AcDbLine
10
1070.820000000000
20
473.640000000000
30
0.0
11
1066.820000000000
21
477.640000000000
31
0.0
0
LINE
5
5ce
100
AcDbEntity
8
0-2
6
CONTINUOUS
62
4
100
AcDbLine
10
1073.650000000000
20
473.640000000000
30
0.0
11
1069.650000000000
21
477.640000000000
31
0.0
0
LINE
5
5cf
100
AcDbEntity
8
0-2
6
CONTINUOUS
62
4
100
AcDbLine
10
1076.480000000000
20
473.640000000000
30
0.0
11
1072.480000000000
21
477.640000000000
31
0.0
0
LINE
5
5d0
100
AcDbEntity
8
0-2
6
CONTINUOUS
62
4
100
AcDbLine
10
1079.310000000000
20
473.640000000000
30
0.0
11
1075.310000000000
21
477.640000000000
31
0.0
0
LINE
5
5d1
100
AcDbEntity
8
0-2
6
CONTINUOUS
62
4
100
AcDbLine
10
1082.130000000000
20
473.640000000000
30
0.0
11
1078.130000000000
21
477.640000000000
31
0.0
0
LINE
5
5d2
100
AcDbEntity
8
0-2
6
CONTINUOUS
62
4
100
AcDbLine
10
1084.960000000000
20
473.640000000000
30
0.0
11
1080.960000000000
21
477.640000000000
31
0.0
0
LINE
5
5d3
100
AcDbEntity
8
0-2
6
CONTINUOUS
62
4
100
AcDbLine
10
1087.140000000000
20
474.290000000000
30
0.0
11
1083.790000000000
21
477.640000000000
31
0.0
0
LINE
5
5d4
100
AcDbEntity
8
0-2
6
CONTINUOUS
62
4
100
AcDbLine
10
1088.590000000000
20
475.670000000000
30
0.0
11
1085.760000000000
21
478.500000000000
31
0.0
0
LINE
5
5d5
100
AcDbEntity
8
0-2
6
CONTINUOUS
62
4
100
AcDbLine
10
1089.970000000000
20
477.120000000000
30
0.0
11
1087.140000000000
21
479.950000000000
31
0.0
0
LINE
5
5d6
100
AcDbEntity
8
0-2
6
CONTINUOUS
62
4
100
AcDbLine
10
1091.350000000000
20
478.570000000000
30
0.0
11
1088.520000000000
21
481.400000000000
31
0.0
0
LINE
5
5d7
100
AcDbEntity
8
0-2
6
CONTINUOUS
62
4
100
AcDbLine
10
1092.720000000000
20
480.020000000000
30
0.0
11
1089.890000000000
21
482.850000000000
31
0.0
0
LINE
5
5d8
100
AcDbEntity
8
0-2
6
CONTINUOUS
62
4
100
AcDbLine
10
1094.100000000000
20
481.470000000000
30
0.0
11
1091.270000000000
21
484.300000000000
31
0.0
0
LINE
5
5d9
100
AcDbEntity
8
0-2
6
CONTINUOUS
62
4
100
AcDbLine
10
1095.480000000000
20
482.920000000000
30
0.0
11
1092.650000000000
21
485.750000000000
31
0.0
0
LINE
5
5da
100
AcDbEntity
8
0-2
6
CONTINUOUS
62
4
100
AcDbLine
10
1096.860000000000
20
484.370000000000
30
0.0
11
1094.030000000000
21
487.200000000000
31
0.0
0
LINE
5
5db
100
AcDbEntity
8
0-2
6
CONTINUOUS
62
4
100
AcDbLine
10
1098.230000000000
20
485.820000000000
30
0.0
11
1095.410000000000
21
488.650000000000
31
0.0
0
LINE
5
5dc
100
AcDbEntity
8
0-2
6
CONTINUOUS
62
4
100
AcDbLine
10
1099.610000000000
20
487.270000000000
30
0.0
11
1096.780000000000
21
490.100000000000
31
0.0
0
LINE
5
5dd
100
AcDbEntity
8
0-2
6
CONTINUOUS
62
4
100
AcDbLine
10
1100.990000000000
20
488.720000000000
30
0.0
11
1098.160000000000
21
491.550000000000
31
0.0
0
LINE
5
5de
100
AcDbEntity
8
0-2
6
CONTINUOUS
62
4
100
AcDbLine
10
1102.370000000000
20
490.170000000000
30
0.0
11
1099.540000000000
21
493.000000000000
31
0.0
0
LINE
5
5df
100
AcDbEntity
8
0-2
6
CONTINUOUS
62
4
100
AcDbLine
10
1103.750000000000
20
491.620000000000
30
0.0
11
1100.920000000000
21
494.450000000000
31
0.0
0
LINE
5
5e0
100
AcDbEntity
8
0-2
6
CONTINUOUS
62
4
100
AcDbLine
10
1105.120000000000
20
493.070000000000
30
0.0
11
1102.300000000000
21
495.900000000000
31
0.0
0
LINE
5
5e1
100
AcDbEntity
8
0-2
6
CONTINUOUS
62
4
100
AcDbLine
10
1106.500000000000
20
494.520000000000
30
0.0
11
1103.670000000000
21
497.350000000000
31
0.0
0
LINE
5
5e2
100
AcDbEntity
8
0-2
6
CONTINUOUS
62
4
100
AcDbLine
10
1107.880000000000
20
495.970000000000
30
0.0
11
1105.050000000000
21
498.800000000000
31
0.0
0
LINE
5
5e3
100
AcDbEntity
8
0-2
6
CONTINUOUS
62
4
100
AcDbLine
10
1109.260000000000
20
497.420000000000
30
0.0
11
1106.430000000000
21
500.250000000000
31
0.0
0
LINE
5
5e4
100
AcDbEntity
8
0-2
6
CONTINUOUS
62
4
100
AcDbLine
10
1110.640000000000
20
498.870000000000
30
0.0
11
1107.810000000000
21
501.700000000000
31
0.0
0
LINE
5
5e5
100
AcDbEntity
8
0-2
6
CONTINUOUS
62
4
100
AcDbLine
10
1112.010000000000
20
500.320000000000
30
0.0
11
1109.190000000000
21
503.150000000000
31
0.0
0
LINE
5
5e6
100
AcDbEntity
8
0-2
6
CONTINUOUS
62
4
100
AcDbLine
10
1113.390000000000
20
501.770000000000
30
0.0
11
1110.560000000000
21
504.600000000000
31
0.0
0
LINE
5
5e7
100
AcDbEntity
8
0-2
6
CONTINUOUS
62
4
100
AcDbLine
10
1114.770000000000
20
503.230000000000
30
0.0
11
1111.940000000000
21
506.050000000000
31
0.0
0
LINE
5
5e8
100
AcDbEntity
8
0-2
6
CONTINUOUS
62
4
100
AcDbLine
10
1116.150000000000
20
504.680000000000
30
0.0
11
1113.320000000000
21
507.500000000000
31
0.0
0
LINE
5
5e9
100
AcDbEntity
8
0-2
6
CONTINUOUS
62
4
100
AcDbLine
10
1117.530000000000
20
506.130000000000
30
0.0
11
1114.700000000000
21
508.960000000000
31
0.0
0
LINE
5
5ea
100
AcDbEntity
8
0-2
6
CONTINUOUS
62
4
100
AcDbLine
10
1118.900000000000
20
507.580000000000
30
0.0
11
1116.080000000000
21
510.410000000000
31
0.0
0
LINE
5
5eb
100
AcDbEntity
8
0-2
6
CONTINUOUS
62
4
100
AcDbLine
10
1120.280000000000
20
509.030000000000
30
0.0
11
1117.450000000000
21
511.860000000000
31
0.0
0
LINE
5
5ec
100
AcDbEntity
8
0-2
6
CONTINUOUS
62
4
100
AcDbLine
10
1121.660000000000
20
510.480000000000
30
0.0
11
1118.830000000000
21
513.310000000000
31
0.0
0
LINE
5
5ed
100
AcDbEntity
8
0-2
6
CONTINUOUS
62
4
100
AcDbLine
10
1123.040000000000
20
511.930000000000
30
0.0
11
1120.210000000000
21
514.760000000000
31
0.0
0
LINE
5
5ee
100
AcDbEntity
8
0-2
6
CONTINUOUS
62
4
100
AcDbLine
10
1124.420000000000
20
513.380000000000
30
0.0
11
1121.590000000000
21
516.210000000000
31
0.0
0
LINE
5
5ef
100
AcDbEntity
8
0-2
6
CONTINUOUS
62
4
100
AcDbLine
10
1125.790000000000
20
514.830000000000
30
0.0
11
1122.960000000000
21
517.660000000000
31
0.0
0
LINE
5
5f0
100
AcDbEntity
8
0-2
6
CONTINUOUS
62
4
100
AcDbLine
10
1127.170000000000
20
516.280000000000
30
0.0
11
1124.340000000000
21
519.110000000000
31
0.0
0
LINE
5
5f1
100
AcDbEntity
8
0-2
6
CONTINUOUS
62
4
100
AcDbLine
10
1128.550000000000
20
517.730000000000
30
0.0
11
1125.720000000000
21
520.560000000000
31
0.0
0
LINE
5
5f2
100
AcDbEntity
8
0-2
6
CONTINUOUS
62
4
100
AcDbLine
10
1129.930000000000
20
519.180000000000
30
0.0
11
1127.100000000000
21
522.010000000000
31
0.0
0
LINE
5
5f3
100
AcDbEntity
8
0-2
6
CONTINUOUS
62
4
100
AcDbLine
10
1131.310000000000
20
520.630000000000
30
0.0
11
1128.480000000000
21
523.460000000000
31
0.0
0
LINE
5
5f4
100
AcDbEntity
8
0-2
6
CONTINUOUS
62
4
100
AcDbLine
10
1132.680000000000
20
522.080000000000
30
0.0
11
1129.850000000000
21
524.910000000000
31
0.0
0
LINE
5
5f5
100
AcDbEntity
8
0-2
6
CONTINUOUS
62
4
100
AcDbLine
10
1134.060000000000
20
523.530000000000
30
0.0
11
1131.230000000000
21
526.360000000000
31
0.0
0
LINE
5
5f6
100
AcDbEntity
8
0-2
6
CONTINUOUS
62
4
100
AcDbLine
10
1135.440000000000
20
524.980000000000
30
0.0
11
1132.610000000000
21
527.810000000000
31
0.0
0
LINE
5
5f7
100
AcDbEntity
8
0-2
6
CONTINUOUS
62
4
100
AcDbLine
10
1136.820000000000
20
526.430000000000
30
0.0
11
1133.990000000000
21
529.260000000000
31
0.0
0
LINE
5
5f8
100
AcDbEntity
8
0-2
6
CONTINUOUS
62
4
100
AcDbLine
10
1138.200000000000
20
527.880000000000
30
0.0
11
1135.370000000000
21
530.710000000000
31
0.0
0
LINE
5
5f9
100
AcDbEntity
8
0-2
6
CONTINUOUS
62
4
100
AcDbLine
10
1139.570000000000
20
529.330000000000
30
0.0
11
1136.740000000000
21
532.160000000000
31
0.0
0
LINE
5
5fa
100
AcDbEntity
8
0-2
6
CONTINUOUS
62
4
100
AcDbLine
10
1140.950000000000
20
530.780000000000
30
0.0
11
1138.120000000000
21
533.610000000000
31
0.0
0
LINE
5
5fb
100
AcDbEntity
8
0-2
6
CONTINUOUS
62
4
100
AcDbLine
10
1142.330000000000
20
532.230000000000
30
0.0
11
1139.500000000000
21
535.060000000000
31
0.0
0
LINE
5
5fc
100
AcDbEntity
8
0-2
6
CONTINUOUS
62
4
100
AcDbLine
10
1143.710000000000
20
533.690000000000
30
0.0
11
1140.880000000000
21
536.510000000000
31
0.0
0
LINE
5
5fd
100
AcDbEntity
8
0-2
6
CONTINUOUS
62
4
100
AcDbLine
10
1145.090000000000
20
535.140000000000
30
0.0
11
1142.260000000000
21
537.960000000000
31
0.0
0
LINE
5
5fe
100
AcDbEntity
8
0-2
6
CONTINUOUS
62
4
100
AcDbLine
10
1146.460000000000
20
536.590000000000
30
0.0
11
1143.630000000000
21
539.420000000000
31
0.0
0
LINE
5
5ff
100
AcDbEntity
8
0-2
6
CONTINUOUS
62
4
100
AcDbLine
10
1147.840000000000
20
538.040000000000
30
0.0
11
1145.010000000000
21
540.870000000000
31
0.0
0
LINE
5
600
100
AcDbEntity
8
0-2
6
CONTINUOUS
62
4
100
AcDbLine
10
1149.220000000000
20
539.490000000000
30
0.0
11
1146.390000000000
21
542.320000000000
31
0.0
0
LINE
5
601
100
AcDbEntity
8
0-2
6
CONTINUOUS
62
4
100
AcDbLine
10
1150.600000000000
20
540.940000000000
30
0.0
11
1147.770000000000
21
543.770000000000
31
0.0
0
LINE
5
602
100
AcDbEntity
8
0-2
6
CONTINUOUS
62
4
100
AcDbLine
10
1151.980000000000
20
542.390000000000
30
0.0
11
1149.150000000000
21
545.220000000000
31
0.0
0
LINE
5
603
100
AcDbEntity
8
0-2
6
CONTINUOUS
62
4
100
AcDbLine
10
1153.350000000000
20
543.840000000000
30
0.0
11
1150.520000000000
21
546.670000000000
31
0.0
0
LINE
5
604
100
AcDbEntity
8
0-2
6
CONTINUOUS
62
4
100
AcDbLine
10
1154.730000000000
20
545.290000000000
30
0.0
11
1151.900000000000
21
548.120000000000
31
0.0
0
LINE
5
605
100
AcDbEntity
8
0-2
6
CONTINUOUS
62
4
100
AcDbLine
10
1156.110000000000
20
546.740000000000
30
0.0
11
1153.280000000000
21
549.570000000000
31
0.0
0
LINE
5
606
100
AcDbEntity
8
0-2
6
CONTINUOUS
62
4
100
AcDbLine
10
1157.490000000000
20
548.190000000000
30
0.0
11
1154.660000000000
21
551.020000000000
31
0.0
0
LINE
5
607
100
AcDbEntity
8
0-2
6
CONTINUOUS
62
4
100
AcDbLine
10
1158.860000000000
20
549.640000000000
30
0.0
11
1156.040000000000
21
552.470000000000
31
0.0
0
LINE
5
608
100
AcDbEntity
8
0-2
6
CONTINUOUS
62
4
100
AcDbLine
10
1160.240000000000
20
551.090000000000
30
0.0
11
1157.410000000000
21
553.920000000000
31
0.0
0
LINE
5
609
100
AcDbEntity
8
0-2
6
CONTINUOUS
62
4
100
AcDbLine
10
1161.620000000000
20
552.540000000000
30
0.0
11
1158.790000000000
21
555.370000000000
31
0.0
0
LINE
5
60a
100
AcDbEntity
8
0-2
6
CONTINUOUS
62
4
100
AcDbLine
10
1163.000000000000
20
553.990000000000
30
0.0
11
1160.170000000000
21
556.820000000000
31
0.0
0
LINE
5
60b
100
AcDbEntity
8
0-2
6
CONTINUOUS
62
4
100
AcDbLine
10
1164.380000000000
20
555.440000000000
30
0.0
11
1161.550000000000
21
558.270000000000
31
0.0
0
LINE
5
60c
100
AcDbEntity
8
0-2
6
CONTINUOUS
62
7
100
AcDbLine
10
1087.840000000000
20
474.880000000000
30
0.0
11
1181.660000000000
21
573.640000000000
31
0.0
0
LINE
5
60d
100
AcDbEntity
8
0-2
6
CONTINUOUS
62
4
100
AcDbLine
10
1315.990000000000
20
511.930000000000
30
0.0
11
1318.820000000000
21
514.760000000000
31
0.0
0
LINE
5
60e
100
AcDbEntity
8
0-2
6
CONTINUOUS
62
4
100
AcDbLine
10
1314.610000000000
20
513.380000000000
30
0.0
11
1317.440000000000
21
516.210000000000
31
0.0
0
LINE
5
60f
100
AcDbEntity
8
0-2
6
CONTINUOUS
62
4
100
AcDbLine
10
1313.230000000000
20
514.830000000000
30
0.0
11
1316.060000000000
21
517.660000000000
31
0.0
0
LINE
5
610
100
AcDbEntity
8
0-2
6
CONTINUOUS
62
4
100
AcDbLine
10
1311.860000000000
20
516.280000000000
30
0.0
11
1314.690000000000
21
519.110000000000
31
0.0
0
LINE
5
611
100
AcDbEntity
8
0-2
6
CONTINUOUS
62
4
100
AcDbLine
10
1310.480000000000
20
517.730000000000
30
0.0
11
1313.310000000000
21
520.560000000000
31
0.0
0
LINE
5
612
100
AcDbEntity
8
0-2
6
CONTINUOUS
62
4
100
AcDbLine
10
1309.100000000000
20
519.180000000000
30
0.0
11
1311.930000000000
21
522.010000000000
31
0.0
0
LINE
5
613
100
AcDbEntity
8
0-2
6
CONTINUOUS
62
4
100
AcDbLine
10
1307.720000000000
20
520.630000000000
30
0.0
11
1310.550000000000
21
523.460000000000
31
0.0
0
LINE
5
614
100
AcDbEntity
8
0-2
6
CONTINUOUS
62
4
100
AcDbLine
10
1306.350000000000
20
522.080000000000
30
0.0
11
1309.170000000000
21
524.910000000000
31
0.0
0
LINE
5
615
100
AcDbEntity
8
0-2
6
CONTINUOUS
62
4
100
AcDbLine
10
1304.970000000000
20
523.530000000000
30
0.0
11
1307.800000000000
21
526.360000000000
31
0.0
0
LINE
5
616
100
AcDbEntity
8
0-2
6
CONTINUOUS
62
4
100
AcDbLine
10
1303.590000000000
20
524.980000000000
30
0.0
11
1306.420000000000
21
527.810000000000
31
0.0
0
LINE
5
617
100
AcDbEntity
8
0-2
6
CONTINUOUS
62
4
100
AcDbLine
10
1302.210000000000
20
526.430000000000
30
0.0
11
1305.040000000000
21
529.260000000000
31
0.0
0
LINE
5
618
100
AcDbEntity
8
0-2
6
CONTINUOUS
62
4
100
AcDbLine
10
1300.830000000000
20
527.880000000000
30
0.0
11
1303.660000000000
21
530.710000000000
31
0.0
0
LINE
5
619
100
AcDbEntity
8
0-2
6
CONTINUOUS
62
4
100
AcDbLine
10
1299.460000000000
20
529.330000000000
30
0.0
11
1302.280000000000
21
532.160000000000
31
0.0
0
LINE
5
61a
100
AcDbEntity
8
0-2
6
CONTINUOUS
62
4
100
AcDbLine
10
1298.080000000000
20
530.780000000000
30
0.0
11
1300.910000000000
21
533.610000000000
31
0.0
0
LINE
5
61b
100
AcDbEntity
8
0-2
6
CONTINUOUS
62
4
100
AcDbLine
10
1296.700000000000
20
532.230000000000
30
0.0
11
1299.530000000000
21
535.060000000000
31
0.0
0
LINE
5
61c
100
AcDbEntity
8
0-2
6
CONTINUOUS
62
4
100
AcDbLine
10
1295.320000000000
20
533.690000000000
30
0.0
11
1298.150000000000
21
536.510000000000
31
0.0
0
LINE
5
61d
100
AcDbEntity
8
0-2
6
CONTINUOUS
62
4
100
AcDbLine
10
1293.940000000000
20
535.140000000000
30
0.0
11
1296.770000000000
21
537.960000000000
31
0.0
0
LINE
5
61e
100
AcDbEntity
8
0-2
6
CONTINUOUS
62
4
100
AcDbLine
10
1292.570000000000
20
536.590000000000
30
0.0
11
1295.390000000000
21
539.420000000000
31
0.0
0
LINE
5
61f
100
AcDbEntity
8
0-2
6
CONTINUOUS
62
4
100
AcDbLine
10
1291.190000000000
20
538.040000000000
30
0.0
11
1294.020000000000
21
540.870000000000
31
0.0
0
LINE
5
620
100
AcDbEntity
8
0-2
6
CONTINUOUS
62
4
100
AcDbLine
10
1289.810000000000
20
539.490000000000
30
0.0
11
1292.640000000000
21
542.320000000000
31
0.0
0
LINE
5
621
100
AcDbEntity
8
0-2
6
CONTINUOUS
62
4
100
AcDbLine
10
1288.430000000000
20
540.940000000000
30
0.0
11
1291.260000000000
21
543.770000000000
31
0.0
0
LINE
5
622
100
AcDbEntity
8
0-2
6
CONTINUOUS
62
4
100
AcDbLine
10
1287.050000000000
20
542.390000000000
30
0.0
11
1289.880000000000
21
545.220000000000
31
0.0
0
LINE
5
623
100
AcDbEntity
8
0-2
6
CONTINUOUS
62
4
100
AcDbLine
10
1285.680000000000
20
543.840000000000
30
0.0
11
1288.500000000000
21
546.670000000000
31
0.0
0
LINE
5
624
100
AcDbEntity
8
0-2
6
CONTINUOUS
62
4
100
AcDbLine
10
1282.920000000000
20
546.740000000000
30
0.0
11
1285.750000000000
21
549.570000000000
31
0.0
0
LINE
5
625
100
AcDbEntity
8
0-2
6
CONTINUOUS
62
4
100
AcDbLine
10
1281.540000000000
20
548.190000000000
30
0.0
11
1284.370000000000
21
551.020000000000
31
0.0
0
LINE
5
626
100
AcDbEntity
8
0-2
6
CONTINUOUS
62
4
100
AcDbLine
10
1280.160000000000
20
549.640000000000
30
0.0
11
1282.990000000000
21
552.470000000000
31
0.0
0
LINE
5
627
100
AcDbEntity
8
0-2
6
CONTINUOUS
62
4
100
AcDbLine
10
1278.790000000000
20
551.090000000000
30
0.0
11
1281.620000000000
21
553.920000000000
31
0.0
0
LINE
5
628
100
AcDbEntity
8
0-2
6
CONTINUOUS
62
4
100
AcDbLine
10
1273.150000000000
20
559.840000000000
30
0.0
11
1319.510000000000
21
513.470000000000
31
0.0
0
LINE
5
629
100
AcDbEntity
8
0-2
6
CONTINUOUS
62
4
100
AcDbLine
10
573.040000000000
20
511.930000000000
30
0.0
11
570.210000000000
21
514.760000000000
31
0.0
0
LINE
5
62a
100
AcDbEntity
8
0-2
6
CONTINUOUS
62
4
100
AcDbLine
10
574.420000000000
20
513.380000000000
30
0.0
11
571.590000000000
21
516.210000000000
31
0.0
0
LINE
5
62b
100
AcDbEntity
8
0-2
6
CONTINUOUS
62
4
100
AcDbLine
10
575.790000000000
20
514.830000000000
30
0.0
11
572.960000000000
21
517.660000000000
31
0.0
0
LINE
5
62c
100
AcDbEntity
8
0-2
6
CONTINUOUS
62
4
100
AcDbLine
10
577.170000000000
20
516.280000000000
30
0.0
11
574.340000000000
21
519.110000000000
31
0.0
0
LINE
5
62d
100
AcDbEntity
8
0-2
6
CONTINUOUS
62
4
100
AcDbLine
10
578.550000000000
20
517.730000000000
30
0.0
11
575.720000000000
21
520.560000000000
31
0.0
0
LINE
5
62e
100
AcDbEntity
8
0-2
6
CONTINUOUS
62
4
100
AcDbLine
10
579.930000000000
20
519.180000000000
30
0.0
11
577.100000000000
21
522.010000000000
31
0.0
0
LINE
5
62f
100
AcDbEntity
8
0-2
6
CONTINUOUS
62
4
100
AcDbLine
10
581.310000000000
20
520.630000000000
30
0.0
11
578.480000000000
21
523.460000000000
31
0.0
0
LINE
5
630
100
AcDbEntity
8
0-2
6
CONTINUOUS
62
4
100
AcDbLine
10
582.680000000000
20
522.080000000000
30
0.0
11
579.850000000000
21
524.910000000000
31
0.0
0
LINE
5
631
100
AcDbEntity
8
0-2
6
CONTINUOUS
62
4
100
AcDbLine
10
584.060000000000
20
523.530000000000
30
0.0
11
581.230000000000
21
526.360000000000
31
0.0
0
LINE
5
632
100
AcDbEntity
8
0-2
6
CONTINUOUS
62
4
100
AcDbLine
10
585.440000000000
20
524.980000000000
30
0.0
11
582.610000000000
21
527.810000000000
31
0.0
0
LINE
5
633
100
AcDbEntity
8
0-2
6
CONTINUOUS
62
4
100
AcDbLine
10
586.820000000000
20
526.430000000000
30
0.0
11
583.990000000000
21
529.260000000000
31
0.0
0
LINE
5
634
100
AcDbEntity
8
0-2
6
CONTINUOUS
62
4
100
AcDbLine
10
588.200000000000
20
527.880000000000
30
0.0
11
585.370000000000
21
530.710000000000
31
0.0
0
LINE
5
635
100
AcDbEntity
8
0-2
6
CONTINUOUS
62
4
100
AcDbLine
10
589.570000000000
20
529.330000000000
30
0.0
11
586.740000000000
21
532.160000000000
31
0.0
0
LINE
5
636
100
AcDbEntity
8
0-2
6
CONTINUOUS
62
4
100
AcDbLine
10
590.950000000000
20
530.780000000000
30
0.0
11
588.120000000000
21
533.610000000000
31
0.0
0
LINE
5
637
100
AcDbEntity
8
0-2
6
CONTINUOUS
62
4
100
AcDbLine
10
592.330000000000
20
532.230000000000
30
0.0
11
589.500000000000
21
535.060000000000
31
0.0
0
LINE
5
638
100
AcDbEntity
8
0-2
6
CONTINUOUS
62
4
100
AcDbLine
10
593.710000000000
20
533.690000000000
30
0.0
11
590.880000000000
21
536.510000000000
31
0.0
0
LINE
5
639
100
AcDbEntity
8
0-2
6
CONTINUOUS
62
4
100
AcDbLine
10
595.090000000000
20
535.140000000000
30
0.0
11
592.260000000000
21
537.960000000000
31
0.0
0
LINE
5
63a
100
AcDbEntity
8
0-2
6
CONTINUOUS
62
4
100
AcDbLine
10
596.460000000000
20
536.590000000000
30
0.0
11
593.630000000000
21
539.420000000000
31
0.0
0
LINE
5
63b
100
AcDbEntity
8
0-2
6
CONTINUOUS
62
4
100
AcDbLine
10
597.840000000000
20
538.040000000000
30
0.0
11
595.010000000000
21
540.870000000000
31
0.0
0
LINE
5
63c
100
AcDbEntity
8
0-2
6
CONTINUOUS
62
4
100
AcDbLine
10
599.220000000000
20
539.490000000000
30
0.0
11
596.390000000000
21
542.320000000000
31
0.0
0
LINE
5
63d
100
AcDbEntity
8
0-2
6
CONTINUOUS
62
4
100
AcDbLine
10
600.600000000000
20
540.940000000000
30
0.0
11
597.770000000000
21
543.770000000000
31
0.0
0
LINE
5
63e
100
AcDbEntity
8
0-2
6
CONTINUOUS
62
4
100
AcDbLine
10
601.980000000000
20
542.390000000000
30
0.0
11
599.150000000000
21
545.220000000000
31
0.0
0
LINE
5
63f
100
AcDbEntity
8
0-2
6
CONTINUOUS
62
4
100
AcDbLine
10
603.350000000000
20
543.840000000000
30
0.0
11
600.520000000000
21
546.670000000000
31
0.0
0
LINE
5
640
100
AcDbEntity
8
0-2
6
CONTINUOUS
62
4
100
AcDbLine
10
604.730000000000
20
545.290000000000
30
0.0
11
601.900000000000
21
548.120000000000
31
0.0
0
LINE
5
641
100
AcDbEntity
8
0-2
6
CONTINUOUS
62
4
100
AcDbLine
10
606.110000000000
20
546.740000000000
30
0.0
11
603.280000000000
21
549.570000000000
31
0.0
0
LINE
5
642
100
AcDbEntity
8
0-2
6
CONTINUOUS
62
4
100
AcDbLine
10
607.490000000000
20
548.190000000000
30
0.0
11
604.660000000000
21
551.020000000000
31
0.0
0
LINE
5
643
100
AcDbEntity
8
0-2
6
CONTINUOUS
62
4
100
AcDbLine
10
608.860000000000
20
549.640000000000
30
0.0
11
606.040000000000
21
552.470000000000
31
0.0
0
LINE
5
644
100
AcDbEntity
8
0-2
6
CONTINUOUS
62
4
100
AcDbLine
10
610.240000000000
20
551.090000000000
30
0.0
11
607.410000000000
21
553.920000000000
31
0.0
0
LINE
5
645
100
AcDbEntity
8
0-2
6
CONTINUOUS
62
4
100
AcDbLine
10
611.620000000000
20
552.540000000000
30
0.0
11
608.790000000000
21
555.370000000000
31
0.0
0
LINE
5
646
100
AcDbEntity
8
0-2
6
CONTINUOUS
62
4
100
AcDbLine
10
613.000000000000
20
553.990000000000
30
0.0
11
610.170000000000
21
556.820000000000
31
0.0
0
LINE
5
647
100
AcDbEntity
8
0-2
6
CONTINUOUS
62
4
100
AcDbLine
10
571.660000000000
20
510.480000000000
30
0.0
11
569.510000000000
21
512.620000000000
31
0.0
0
LINE
5
648
100
AcDbEntity
8
0-2
6
CONTINUOUS
62
4
100
AcDbLine
10
570.280000000000
20
509.030000000000
30
0.0
11
569.510000000000
21
509.790000000000
31
0.0
0
LINE
5
649
100
AcDbEntity
8
0-2
6
CONTINUOUS
62
7
100
AcDbLine
10
569.510000000000
20
508.220000000000
30
0.0
11
631.660000000000
21
573.640000000000
31
0.0
0
LINE
5
64a
100
AcDbEntity
8
0-2
6
CONTINUOUS
62
7
100
AcDbLine
10
1000.520000000000
20
578.640000000000
30
0.0
11
1146.360000000000
21
578.640000000000
31
0.0
0
LINE
5
64b
100
AcDbEntity
8
0-2
6
CONTINUOUS
62
7
100
AcDbLine
10
1000.520000000000
20
604.640000000000
30
0.0
11
1146.360000000000
21
604.640000000000
31
0.0
0
LINE
5
64c
100
AcDbEntity
8
0-2
6
CONTINUOUS
62
7
100
AcDbLine
10
1000.520000000000
20
604.640000000000
30
0.0
11
1000.520000000000
21
438.640000000000
31
0.0
0
LINE
5
64d
100
AcDbEntity
8
0-2
6
CONTINUOUS
62
3
100
AcDbLine
10
569.510000000000
20
412.940000000000
30
0.0
11
1319.510000000000
21
412.940000000000
31
0.0
0
LINE
5
64e
100
AcDbEntity
8
0-2
6
CONTINUOUS
62
7
100
AcDbLine
10
1116.050000000000
20
504.570000000000
30
0.0
11
1118.190000000000
21
496.570000000000
31
0.0
0
LINE
5
64f
100
AcDbEntity
8
0-2
6
CONTINUOUS
62
7
100
AcDbLine
10
1116.050000000000
20
504.570000000000
30
0.0
11
1121.910000000000
21
498.720000000000
31
0.0
0
LINE
5
650
100
AcDbEntity
8
0-2
6
CONTINUOUS
62
7
100
AcDbLine
10
1116.050000000000
20
504.570000000000
30
0.0
11
1129.040000000000
21
482.070000000000
31
0.0
0
LINE
5
651
100
AcDbEntity
8
F-F
6
CONTINUOUS
62
2
100
AcDbLine
10
34.760000000000
20
123.630000000000
30
0.0
11
34.760000000000
21
1243.640000000000
31
0.0
0
LINE
5
652
100
AcDbEntity
8
F-F
6
CONTINUOUS
62
2
100
AcDbLine
10
1264.760000000000
20
182.890000000000
30
0.0
11
1264.760000000000
21
123.630000000000
31
0.0
0
LINE
5
653
100
AcDbEntity
8
F-F
6
CONTINUOUS
62
2
100
AcDbLine
10
1194.540000000000
20
182.890000000000
30
0.0
11
1194.540000000000
21
123.630000000000
31
0.0
0
LINE
5
654
100
AcDbEntity
8
F-F
6
CONTINUOUS
62
2
100
AcDbLine
10
1517.120000000000
20
123.630000000000
30
0.0
11
1517.120000000000
21
182.890000000000
31
0.0
0
LINE
5
655
100
AcDbEntity
8
F-F
6
CONTINUOUS
62
2
100
AcDbLine
10
786.890000000000
20
182.890000000000
30
0.0
11
786.890000000000
21
123.630000000000
31
0.0
0
LINE
5
656
100
AcDbEntity
8
F-F
6
CONTINUOUS
62
2
100
AcDbLine
10
989.740000000000
20
182.890000000000
30
0.0
11
989.740000000000
21
123.630000000000
31
0.0
0
LINE
5
657
100
AcDbEntity
8
F-F
6
CONTINUOUS
62
2
100
AcDbLine
10
786.890000000000
20
163.140000000000
30
0.0
11
349.760000000000
21
163.140000000000
31
0.0
0
LINE
5
658
100
AcDbEntity
8
F-F
6
CONTINUOUS
62
2
100
AcDbLine
10
786.890000000000
20
143.390000000000
30
0.0
11
349.760000000000
21
143.390000000000
31
0.0
0
LINE
5
659
100
AcDbEntity
8
F-F
6
CONTINUOUS
62
2
100
AcDbLine
10
786.890000000000
20
133.510000000000
30
0.0
11
349.760000000000
21
133.510000000000
31
0.0
0
LINE
5
65a
100
AcDbEntity
8
F-F
6
CONTINUOUS
62
2
100
AcDbLine
10
786.890000000000
20
173.020000000000
30
0.0
11
349.760000000000
21
173.020000000000
31
0.0
0
LINE
5
65b
100
AcDbEntity
8
F-F
6
CONTINUOUS
62
2
100
AcDbLine
10
402.420000000000
20
182.890000000000
30
0.0
11
402.420000000000
21
123.630000000000
31
0.0
0
LINE
5
65c
100
AcDbEntity
8
F-F
6
CONTINUOUS
62
2
100
AcDbLine
10
349.760000000000
20
182.890000000000
30
0.0
11
349.760000000000
21
123.630000000000
31
0.0
0
LINE
5
65d
100
AcDbEntity
8
F-F
6
CONTINUOUS
62
2
100
AcDbLine
10
1611.650000000000
20
123.630000000000
30
0.0
11
1611.650000000000
21
1243.640000000000
31
0.0
0
LINE
5
65e
100
AcDbEntity
8
F-F
6
CONTINUOUS
62
2
100
AcDbLine
10
34.760000000000
20
1243.640000000000
30
0.0
11
1611.650000000000
21
1243.640000000000
31
0.0
0
LINE
5
65f
100
AcDbEntity
8
F-F
6
CONTINUOUS
62
2
100
AcDbLine
10
34.760000000000
20
123.630000000000
30
0.0
11
1611.650000000000
21
123.630000000000
31
0.0
0
LINE
5
660
100
AcDbEntity
8
F-F
6
CONTINUOUS
62
2
100
AcDbLine
10
1611.650000000000
20
182.890000000000
30
0.0
11
34.760000000000
21
182.890000000000
31
0.0
0
LINE
5
661
100
AcDbEntity
8
F-F
6
CONTINUOUS
62
2
100
AcDbLine
10
349.760000000000
20
153.260000000000
30
0.0
11
1611.650000000000
21
153.260000000000
31
0.0
0
LINE
5
662
100
AcDbEntity
8
0-1
6
CONTINUOUS
62
3
100
AcDbLine
10
477.470000000000
20
604.640000000000
30
0.0
11
247.470000000000
21
604.640000000000
31
0.0
0
LINE
5
663
100
AcDbEntity
8
0-1
6
CONTINUOUS
62
7
100
AcDbLine
10
222.470000000000
20
604.640000000000
30
0.0
11
222.470000000000
21
579.740000000000
31
0.0
0
LINE
5
664
100
AcDbEntity
8
0-1
6
CONTINUOUS
62
7
100
AcDbLine
10
237.470000000000
20
604.640000000000
30
0.0
11
222.470000000000
21
604.640000000000
31
0.0
0
LINE
5
665
100
AcDbEntity
8
0-1
6
CONTINUOUS
62
7
100
AcDbLine
10
237.470000000000
20
579.740000000000
30
0.0
11
222.470000000000
21
579.740000000000
31
0.0
0
LINE
5
666
100
AcDbEntity
8
0-1
6
CONTINUOUS
62
7
100
AcDbLine
10
237.470000000000
20
420.940000000000
30
0.0
11
222.470000000000
21
420.940000000000
31
0.0
0
POLYLINE
5
667
100
AcDbEntity
8
0-1
6
CONTINUOUS
62
  3
100
AcDb2dPolyline
66
1
10
0.0
20
0.0
30
0.0
70
0
0
VERTEX
5
668
100
AcDbEntity
8
0-1
6
CONTINUOUS
62
  3
100
AcDbVertex
100
AcDb2dVertex
10
317.470000000000
20
420.940000000000
30
0.0
0
VERTEX
5
669
100
AcDbEntity
8
0-1
6
CONTINUOUS
62
  3
100
AcDbVertex
100
AcDb2dVertex
10
317.480000000000
20
412.940000000000
30
0.0
0
VERTEX
5
66a
100
AcDbEntity
8
0-1
6
CONTINUOUS
62
  3
100
AcDbVertex
100
AcDb2dVertex
10
351.730000000000
20
412.940000000000
30
0.0
0
SEQEND
5
66b
100
AcDbEntity
8
0-1
0
LINE
5
66c
100
AcDbEntity
8
0-1
6
CONTINUOUS
62
3
100
AcDbLine
10
359.720000000000
20
333.440000000000
30
0.0
11
359.720000000000
21
404.940000000000
31
0.0
0
POLYLINE
5
66d
100
AcDbEntity
8
0-1
6
CONTINUOUS
62
  3
100
AcDb2dPolyline
66
1
10
0.0
20
0.0
30
0.0
70
0
0
VERTEX
5
66e
100
AcDbEntity
8
0-1
6
CONTINUOUS
62
  3
100
AcDbVertex
100
AcDb2dVertex
10
407.470000000000
20
420.940000000000
30
0.0
0
VERTEX
5
66f
100
AcDbEntity
8
0-1
6
CONTINUOUS
62
  3
100
AcDbVertex
100
AcDb2dVertex
10
407.470000000000
20
412.940000000000
30
0.0
0
VERTEX
5
670
100
AcDbEntity
8
0-1
6
CONTINUOUS
62
  3
100
AcDbVertex
100
AcDb2dVertex
10
373.220000000000
20
412.940000000000
30
0.0
0
SEQEND
5
671
100
AcDbEntity
8
0-1
0
LINE
5
672
100
AcDbEntity
8
0-1
6
CONTINUOUS
62
3
100
AcDbLine
10
407.470000000000
20
420.940000000000
30
0.0
11
319.770000000000
21
420.940000000000
31
0.0
0
LINE
5
673
100
AcDbEntity
8
0-1
6
CONTINUOUS
62
3
100
AcDbLine
10
365.220000000000
20
333.440000000000
30
0.0
11
365.220000000000
21
404.940000000000
31
0.0
0
LINE
5
674
100
AcDbEntity
8
F-E_J_ADD
6
HIDDEN
62
3
100
AcDbLine
10
319.770000000000
20
420.940000000000
30
0.0
11
315.370000000000
21
420.940000000000
31
0.0
0
LINE
5
675
100
AcDbEntity
8
0-1
6
CONTINUOUS
62
3
100
AcDbLine
10
477.470000000000
20
438.640000000000
30
0.0
11
382.470000000000
21
438.640000000000
31
0.0
0
LINE
5
676
100
AcDbEntity
8
0-1
6
CONTINUOUS
62
3
100
AcDbLine
10
342.470000000000
20
438.640000000000
30
0.0
11
247.470000000000
21
438.640000000000
31
0.0
0
LINE
5
677
100
AcDbEntity
8
0-1
6
CONTINUOUS
62
3
100
AcDbLine
10
342.470000000000
20
478.640000000000
30
0.0
11
247.470000000000
21
478.640000000000
31
0.0
0
LINE
5
678
100
AcDbEntity
8
0-1
6
DOT
62
3
100
AcDbLine
10
342.470000000000
20
478.640000000000
30
0.0
11
382.470000000000
21
478.640000000000
31
0.0
0
LINE
5
679
100
AcDbEntity
8
0-1
6
CONTINUOUS
62
3
100
AcDbLine
10
477.470000000000
20
478.640000000000
30
0.0
11
382.470000000000
21
478.640000000000
31
0.0
0
LINE
5
67a
100
AcDbEntity
8
0-1
6
CONTINUOUS
62
7
100
AcDbLine
10
222.470000000000
20
579.740000000000
30
0.0
11
222.470000000000
21
438.640000000000
31
0.0
0
LINE
5
67b
100
AcDbEntity
8
0-1
6
CONTINUOUS
62
7
100
AcDbLine
10
417.470000000000
20
573.140000000000
30
0.0
11
419.620000000000
21
565.140000000000
31
0.0
0
LINE
5
67c
100
AcDbEntity
8
0-1
6
CONTINUOUS
62
7
100
AcDbLine
10
417.470000000000
20
573.140000000000
30
0.0
11
423.330000000000
21
567.280000000000
31
0.0
0
LINE
5
67d
100
AcDbEntity
8
0-1
6
CONTINUOUS
62
7
100
AcDbLine
10
417.470000000000
20
573.140000000000
30
0.0
11
430.470000000000
21
550.640000000000
31
0.0
0
LINE
5
67e
100
AcDbEntity
8
0-1
6
CONTINUOUS
62
7
100
AcDbLine
10
342.470000000000
20
487.690000000000
30
0.0
11
340.330000000000
21
495.690000000000
31
0.0
0
LINE
5
67f
100
AcDbEntity
8
0-1
6
CONTINUOUS
62
7
100
AcDbLine
10
342.470000000000
20
487.690000000000
30
0.0
11
336.620000000000
21
493.540000000000
31
0.0
0
LINE
5
680
100
AcDbEntity
8
0-1
6
CONTINUOUS
62
7
100
AcDbLine
10
342.470000000000
20
487.690000000000
30
0.0
11
329.480000000000
21
510.180000000000
31
0.0
0
LINE
5
681
100
AcDbEntity
8
0-2
6
CONTINUOUS
62
7
100
AcDbLine
10
673.130000000000
20
600.020000000000
30
0.0
11
675.270000000000
21
608.020000000000
31
0.0
0
LINE
5
682
100
AcDbEntity
8
0-2
6
CONTINUOUS
62
7
100
AcDbLine
10
673.130000000000
20
600.020000000000
30
0.0
11
678.980000000000
21
605.880000000000
31
0.0
0
LINE
5
683
100
AcDbEntity
8
0-2
6
CONTINUOUS
62
7
100
AcDbLine
10
702.810000000000
20
620.470000000000
30
0.0
11
684.940000000000
21
620.470000000000
31
0.0
0
LINE
5
684
100
AcDbEntity
8
0-2
6
CONTINUOUS
62
7
100
AcDbLine
10
673.130000000000
20
600.020000000000
30
0.0
11
684.940000000000
21
620.470000000000
31
0.0
0
LINE
5
685
100
AcDbEntity
8
0-2
6
CONTINUOUS
62
7
100
AcDbLine
10
756.200000000000
20
529.490000000000
30
0.0
11
769.010000000000
21
551.670000000000
31
0.0
0
POLYLINE
5
686
100
AcDbEntity
8
F-F
6
CONTINUOUS
62
  3
100
AcDb2dPolyline
66
1
10
0.0
20
0.0
30
0.0
70
0
0
VERTEX
5
687
100
AcDbEntity
8
F-F
6
CONTINUOUS
62
  3
100
AcDbVertex
100
AcDb2dVertex
10
51.720000000000
20
159.100000000000
30
0.0
0
VERTEX
5
688
100
AcDbEntity
8
F-F
6
CONTINUOUS
62
  3
100
AcDbVertex
100
AcDb2dVertex
10
51.720000000000
20
175.100000000000
30
0.0
0
VERTEX
5
689
100
AcDbEntity
8
F-F
6
CONTINUOUS
62
  3
100
AcDbVertex
100
AcDb2dVertex
10
67.720000000000
20
175.100000000000
30
0.0
0
VERTEX
5
68a
100
AcDbEntity
8
F-F
6
CONTINUOUS
62
  3
100
AcDbVertex
100
AcDb2dVertex
10
67.720000000000
20
159.100000000000
30
0.0
0
VERTEX
5
68b
100
AcDbEntity
8
F-F
6
CONTINUOUS
62
  3
100
AcDbVertex
100
AcDb2dVertex
10
51.720000000000
20
159.100000000000
30
0.0
0
SEQEND
5
68c
100
AcDbEntity
8
F-F
0
LINE
5
68d
100
AcDbEntity
8
F-F
6
CONTINUOUS
62
3
100
AcDbLine
10
53.320000000000
20
161.260000000000
30
0.0
11
53.320000000000
21
173.500000000000
31
0.0
0
LINE
5
68e
100
AcDbEntity
8
F-F
6
CONTINUOUS
62
3
100
AcDbLine
10
66.120000000000
20
160.700000000000
30
0.0
11
53.880000000000
21
160.700000000000
31
0.0
0
POLYLINE
5
68f
100
AcDbEntity
8
F-F
6
CONTINUOUS
62
  3
100
AcDb2dPolyline
66
1
10
0.0
20
0.0
30
0.0
70
0
0
VERTEX
5
690
100
AcDbEntity
8
F-F
6
CONTINUOUS
62
  3
100
AcDbVertex
100
AcDb2dVertex
10
53.320000000000
20
173.500000000000
30
0.0
0
VERTEX
5
691
100
AcDbEntity
8
F-F
6
CONTINUOUS
62
  3
100
AcDbVertex
100
AcDb2dVertex
10
65.550000000000
20
173.500000000000
30
0.0
0
VERTEX
5
692
100
AcDbEntity
8
F-F
6
CONTINUOUS
62
  3
100
AcDbVertex
100
AcDb2dVertex
10
53.320000000000
20
161.260000000000
30
0.0
0
SEQEND
5
693
100
AcDbEntity
8
F-F
0
LINE
5
694
100
AcDbEntity
8
F-F
6
CONTINUOUS
62
3
100
AcDbLine
10
66.120000000000
20
172.930000000000
30
0.0
11
53.880000000000
21
160.700000000000
31
0.0
0
LINE
5
695
100
AcDbEntity
8
F-F
6
CONTINUOUS
62
3
100
AcDbLine
10
66.120000000000
20
172.930000000000
30
0.0
11
66.120000000000
21
160.700000000000
31
0.0
0
LINE
5
696
100
AcDbEntity
8
F-F
6
CONTINUOUS
62
4
100
AcDbLine
10
51.720000000000
20
174.940000000000
30
0.0
11
67.720000000000
21
174.940000000000
31
0.0
0
LINE
5
697
100
AcDbEntity
8
F-F
6
CONTINUOUS
62
4
100
AcDbLine
10
51.720000000000
20
174.620000000000
30
0.0
11
67.720000000000
21
174.620000000000
31
0.0
0
LINE
5
698
100
AcDbEntity
8
F-F
6
CONTINUOUS
62
4
100
AcDbLine
10
51.720000000000
20
174.300000000000
30
0.0
11
67.720000000000
21
174.300000000000
31
0.0
0
LINE
5
699
100
AcDbEntity
8
F-F
6
CONTINUOUS
62
4
100
AcDbLine
10
51.720000000000
20
173.980000000000
30
0.0
11
67.720000000000
21
173.980000000000
31
0.0
0
LINE
5
69a
100
AcDbEntity
8
F-F
6
CONTINUOUS
62
4
100
AcDbLine
10
51.720000000000
20
173.660000000000
30
0.0
11
67.720000000000
21
173.660000000000
31
0.0
0
LINE
5
69b
100
AcDbEntity
8
F-F
6
CONTINUOUS
62
4
100
AcDbLine
10
51.720000000000
20
160.540000000000
30
0.0
11
67.720000000000
21
160.540000000000
31
0.0
0
LINE
5
69c
100
AcDbEntity
8
F-F
6
CONTINUOUS
62
4
100
AcDbLine
10
51.720000000000
20
160.220000000000
30
0.0
11
67.720000000000
21
160.220000000000
31
0.0
0
LINE
5
69d
100
AcDbEntity
8
F-F
6
CONTINUOUS
62
4
100
AcDbLine
10
51.720000000000
20
159.900000000000
30
0.0
11
67.720000000000
21
159.900000000000
31
0.0
0
LINE
5
69e
100
AcDbEntity
8
F-F
6
CONTINUOUS
62
4
100
AcDbLine
10
51.720000000000
20
159.580000000000
30
0.0
11
67.720000000000
21
159.580000000000
31
0.0
0
LINE
5
69f
100
AcDbEntity
8
F-F
6
CONTINUOUS
62
4
100
AcDbLine
10
51.720000000000
20
159.260000000000
30
0.0
11
67.720000000000
21
159.260000000000
31
0.0
0
LINE
5
6a0
100
AcDbEntity
8
F-F
6
CONTINUOUS
62
4
100
AcDbLine
10
51.720000000000
20
161.500000000000
30
0.0
11
53.320000000000
21
161.500000000000
31
0.0
0
LINE
5
6a1
100
AcDbEntity
8
F-F
6
CONTINUOUS
62
4
100
AcDbLine
10
51.720000000000
20
161.820000000000
30
0.0
11
53.320000000000
21
161.820000000000
31
0.0
0
LINE
5
6a2
100
AcDbEntity
8
F-F
6
CONTINUOUS
62
4
100
AcDbLine
10
51.720000000000
20
162.140000000000
30
0.0
11
53.320000000000
21
162.140000000000
31
0.0
0
LINE
5
6a3
100
AcDbEntity
8
F-F
6
CONTINUOUS
62
4
100
AcDbLine
10
51.720000000000
20
162.460000000000
30
0.0
11
53.320000000000
21
162.460000000000
31
0.0
0
LINE
5
6a4
100
AcDbEntity
8
F-F
6
CONTINUOUS
62
4
100
AcDbLine
10
51.720000000000
20
162.780000000000
30
0.0
11
53.320000000000
21
162.780000000000
31
0.0
0
LINE
5
6a5
100
AcDbEntity
8
F-F
6
CONTINUOUS
62
4
100
AcDbLine
10
51.720000000000
20
163.100000000000
30
0.0
11
53.320000000000
21
163.100000000000
31
0.0
0
LINE
5
6a6
100
AcDbEntity
8
F-F
6
CONTINUOUS
62
4
100
AcDbLine
10
51.720000000000
20
163.420000000000
30
0.0
11
53.320000000000
21
163.420000000000
31
0.0
0
LINE
5
6a7
100
AcDbEntity
8
F-F
6
CONTINUOUS
62
4
100
AcDbLine
10
51.720000000000
20
163.740000000000
30
0.0
11
53.320000000000
21
163.740000000000
31
0.0
0
LINE
5
6a8
100
AcDbEntity
8
F-F
6
CONTINUOUS
62
4
100
AcDbLine
10
51.720000000000
20
164.060000000000
30
0.0
11
53.320000000000
21
164.060000000000
31
0.0
0
LINE
5
6a9
100
AcDbEntity
8
F-F
6
CONTINUOUS
62
4
100
AcDbLine
10
51.720000000000
20
164.380000000000
30
0.0
11
53.320000000000
21
164.380000000000
31
0.0
0
LINE
5
6aa
100
AcDbEntity
8
F-F
6
CONTINUOUS
62
4
100
AcDbLine
10
51.720000000000
20
164.700000000000
30
0.0
11
53.320000000000
21
164.700000000000
31
0.0
0
LINE
5
6ab
100
AcDbEntity
8
F-F
6
CONTINUOUS
62
4
100
AcDbLine
10
51.720000000000
20
165.020000000000
30
0.0
11
53.320000000000
21
165.020000000000
31
0.0
0
LINE
5
6ac
100
AcDbEntity
8
F-F
6
CONTINUOUS
62
4
100
AcDbLine
10
51.720000000000
20
165.340000000000
30
0.0
11
53.320000000000
21
165.340000000000
31
0.0
0
LINE
5
6ad
100
AcDbEntity
8
F-F
6
CONTINUOUS
62
4
100
AcDbLine
10
51.720000000000
20
165.660000000000
30
0.0
11
53.320000000000
21
165.660000000000
31
0.0
0
LINE
5
6ae
100
AcDbEntity
8
F-F
6
CONTINUOUS
62
4
100
AcDbLine
10
51.720000000000
20
165.980000000000
30
0.0
11
53.320000000000
21
165.980000000000
31
0.0
0
LINE
5
6af
100
AcDbEntity
8
F-F
6
CONTINUOUS
62
4
100
AcDbLine
10
51.720000000000
20
166.300000000000
30
0.0
11
53.320000000000
21
166.300000000000
31
0.0
0
LINE
5
6b0
100
AcDbEntity
8
F-F
6
CONTINUOUS
62
4
100
AcDbLine
10
51.720000000000
20
166.620000000000
30
0.0
11
53.320000000000
21
166.620000000000
31
0.0
0
LINE
5
6b1
100
AcDbEntity
8
F-F
6
CONTINUOUS
62
4
100
AcDbLine
10
51.720000000000
20
166.940000000000
30
0.0
11
53.320000000000
21
166.940000000000
31
0.0
0
LINE
5
6b2
100
AcDbEntity
8
F-F
6
CONTINUOUS
62
4
100
AcDbLine
10
51.720000000000
20
167.260000000000
30
0.0
11
53.320000000000
21
167.260000000000
31
0.0
0
LINE
5
6b3
100
AcDbEntity
8
F-F
6
CONTINUOUS
62
4
100
AcDbLine
10
51.720000000000
20
167.580000000000
30
0.0
11
53.320000000000
21
167.580000000000
31
0.0
0
LINE
5
6b4
100
AcDbEntity
8
F-F
6
CONTINUOUS
62
4
100
AcDbLine
10
51.720000000000
20
167.900000000000
30
0.0
11
53.320000000000
21
167.900000000000
31
0.0
0
LINE
5
6b5
100
AcDbEntity
8
F-F
6
CONTINUOUS
62
4
100
AcDbLine
10
51.720000000000
20
168.220000000000
30
0.0
11
53.320000000000
21
168.220000000000
31
0.0
0
LINE
5
6b6
100
AcDbEntity
8
F-F
6
CONTINUOUS
62
4
100
AcDbLine
10
51.720000000000
20
168.540000000000
30
0.0
11
53.320000000000
21
168.540000000000
31
0.0
0
LINE
5
6b7
100
AcDbEntity
8
F-F
6
CONTINUOUS
62
4
100
AcDbLine
10
51.720000000000
20
168.860000000000
30
0.0
11
53.320000000000
21
168.860000000000
31
0.0
0
LINE
5
6b8
100
AcDbEntity
8
F-F
6
CONTINUOUS
62
4
100
AcDbLine
10
51.720000000000
20
169.820000000000
30
0.0
11
53.320000000000
21
169.820000000000
31
0.0
0
LINE
5
6b9
100
AcDbEntity
8
F-F
6
CONTINUOUS
62
4
100
AcDbLine
10
51.720000000000
20
170.780000000000
30
0.0
11
53.320000000000
21
170.780000000000
31
0.0
0
LINE
5
6ba
100
AcDbEntity
8
F-F
6
CONTINUOUS
62
4
100
AcDbLine
10
51.720000000000
20
171.100000000000
30
0.0
11
53.320000000000
21
171.100000000000
31
0.0
0
LINE
5
6bb
100
AcDbEntity
8
F-F
6
CONTINUOUS
62
4
100
AcDbLine
10
51.720000000000
20
171.420000000000
30
0.0
11
53.320000000000
21
171.420000000000
31
0.0
0
LINE
5
6bc
100
AcDbEntity
8
F-F
6
CONTINUOUS
62
4
100
AcDbLine
10
51.720000000000
20
171.740000000000
30
0.0
11
53.320000000000
21
171.740000000000
31
0.0
0
LINE
5
6bd
100
AcDbEntity
8
F-F
6
CONTINUOUS
62
4
100
AcDbLine
10
51.720000000000
20
173.340000000000
30
0.0
11
53.320000000000
21
173.340000000000
31
0.0
0
LINE
5
6be
100
AcDbEntity
8
F-F
6
CONTINUOUS
62
4
100
AcDbLine
10
51.720000000000
20
173.020000000000
30
0.0
11
53.320000000000
21
173.020000000000
31
0.0
0
LINE
5
6bf
100
AcDbEntity
8
F-F
6
CONTINUOUS
62
4
100
AcDbLine
10
51.720000000000
20
172.700000000000
30
0.0
11
53.320000000000
21
172.700000000000
31
0.0
0
LINE
5
6c0
100
AcDbEntity
8
F-F
6
CONTINUOUS
62
4
100
AcDbLine
10
51.720000000000
20
172.380000000000
30
0.0
11
53.320000000000
21
172.380000000000
31
0.0
0
LINE
5
6c1
100
AcDbEntity
8
F-F
6
CONTINUOUS
62
4
100
AcDbLine
10
51.720000000000
20
172.060000000000
30
0.0
11
53.320000000000
21
172.060000000000
31
0.0
0
LINE
5
6c2
100
AcDbEntity
8
F-F
6
CONTINUOUS
62
4
100
AcDbLine
10
51.720000000000
20
170.140000000000
30
0.0
11
53.320000000000
21
170.140000000000
31
0.0
0
LINE
5
6c3
100
AcDbEntity
8
F-F
6
CONTINUOUS
62
4
100
AcDbLine
10
51.720000000000
20
170.460000000000
30
0.0
11
53.320000000000
21
170.460000000000
31
0.0
0
LINE
5
6c4
100
AcDbEntity
8
F-F
6
CONTINUOUS
62
4
100
AcDbLine
10
51.720000000000
20
169.500000000000
30
0.0
11
53.320000000000
21
169.500000000000
31
0.0
0
LINE
5
6c5
100
AcDbEntity
8
F-F
6
CONTINUOUS
62
4
100
AcDbLine
10
51.720000000000
20
169.180000000000
30
0.0
11
53.320000000000
21
169.180000000000
31
0.0
0
LINE
5
6c6
100
AcDbEntity
8
F-F
6
CONTINUOUS
62
4
100
AcDbLine
10
53.870000000000
20
161.820000000000
30
0.0
11
55.000000000000
21
161.820000000000
31
0.0
0
LINE
5
6c7
100
AcDbEntity
8
F-F
6
CONTINUOUS
62
4
100
AcDbLine
10
53.550000000000
20
161.500000000000
30
0.0
11
54.680000000000
21
161.500000000000
31
0.0
0
LINE
5
6c8
100
AcDbEntity
8
F-F
6
CONTINUOUS
62
4
100
AcDbLine
10
51.720000000000
20
161.180000000000
30
0.0
11
54.360000000000
21
161.180000000000
31
0.0
0
LINE
5
6c9
100
AcDbEntity
8
F-F
6
CONTINUOUS
62
4
100
AcDbLine
10
51.720000000000
20
160.860000000000
30
0.0
11
54.040000000000
21
160.860000000000
31
0.0
0
LINE
5
6ca
100
AcDbEntity
8
F-F
6
CONTINUOUS
62
4
100
AcDbLine
10
55.790000000000
20
163.740000000000
30
0.0
11
56.920000000000
21
163.740000000000
31
0.0
0
LINE
5
6cb
100
AcDbEntity
8
F-F
6
CONTINUOUS
62
4
100
AcDbLine
10
55.470000000000
20
163.420000000000
30
0.0
11
56.600000000000
21
163.420000000000
31
0.0
0
LINE
5
6cc
100
AcDbEntity
8
F-F
6
CONTINUOUS
62
4
100
AcDbLine
10
55.150000000000
20
163.100000000000
30
0.0
11
56.280000000000
21
163.100000000000
31
0.0
0
LINE
5
6cd
100
AcDbEntity
8
F-F
6
CONTINUOUS
62
4
100
AcDbLine
10
54.830000000000
20
162.780000000000
30
0.0
11
55.960000000000
21
162.780000000000
31
0.0
0
LINE
5
6ce
100
AcDbEntity
8
F-F
6
CONTINUOUS
62
4
100
AcDbLine
10
54.510000000000
20
162.460000000000
30
0.0
11
55.640000000000
21
162.460000000000
31
0.0
0
LINE
5
6cf
100
AcDbEntity
8
F-F
6
CONTINUOUS
62
4
100
AcDbLine
10
54.190000000000
20
162.140000000000
30
0.0
11
55.320000000000
21
162.140000000000
31
0.0
0
LINE
5
6d0
100
AcDbEntity
8
F-F
6
CONTINUOUS
62
4
100
AcDbLine
10
53.320000000000
20
173.500000000000
30
0.0
11
53.320000000000
21
173.820000000000
31
0.0
0
LINE
5
6d1
100
AcDbEntity
8
F-F
6
CONTINUOUS
62
4
100
AcDbLine
10
66.120000000000
20
161.500000000000
30
0.0
11
67.720000000000
21
161.500000000000
31
0.0
0
LINE
5
6d2
100
AcDbEntity
8
F-F
6
CONTINUOUS
62
4
100
AcDbLine
10
66.120000000000
20
161.820000000000
30
0.0
11
67.720000000000
21
161.820000000000
31
0.0
0
LINE
5
6d3
100
AcDbEntity
8
F-F
6
CONTINUOUS
62
4
100
AcDbLine
10
66.120000000000
20
162.140000000000
30
0.0
11
67.720000000000
21
162.140000000000
31
0.0
0
LINE
5
6d4
100
AcDbEntity
8
F-F
6
CONTINUOUS
62
4
100
AcDbLine
10
66.120000000000
20
162.460000000000
30
0.0
11
67.720000000000
21
162.460000000000
31
0.0
0
LINE
5
6d5
100
AcDbEntity
8
F-F
6
CONTINUOUS
62
4
100
AcDbLine
10
66.120000000000
20
162.780000000000
30
0.0
11
67.720000000000
21
162.780000000000
31
0.0
0
LINE
5
6d6
100
AcDbEntity
8
F-F
6
CONTINUOUS
62
4
100
AcDbLine
10
66.120000000000
20
163.100000000000
30
0.0
11
67.720000000000
21
163.100000000000
31
0.0
0
LINE
5
6d7
100
AcDbEntity
8
F-F
6
CONTINUOUS
62
4
100
AcDbLine
10
66.120000000000
20
163.420000000000
30
0.0
11
67.720000000000
21
163.420000000000
31
0.0
0
LINE
5
6d8
100
AcDbEntity
8
F-F
6
CONTINUOUS
62
4
100
AcDbLine
10
66.120000000000
20
163.740000000000
30
0.0
11
67.720000000000
21
163.740000000000
31
0.0
0
LINE
5
6d9
100
AcDbEntity
8
F-F
6
CONTINUOUS
62
4
100
AcDbLine
10
66.120000000000
20
164.060000000000
30
0.0
11
67.720000000000
21
164.060000000000
31
0.0
0
LINE
5
6da
100
AcDbEntity
8
F-F
6
CONTINUOUS
62
4
100
AcDbLine
10
66.120000000000
20
164.380000000000
30
0.0
11
67.720000000000
21
164.380000000000
31
0.0
0
LINE
5
6db
100
AcDbEntity
8
F-F
6
CONTINUOUS
62
4
100
AcDbLine
10
66.120000000000
20
164.700000000000
30
0.0
11
67.720000000000
21
164.700000000000
31
0.0
0
LINE
5
6dc
100
AcDbEntity
8
F-F
6
CONTINUOUS
62
4
100
AcDbLine
10
66.120000000000
20
165.020000000000
30
0.0
11
67.720000000000
21
165.020000000000
31
0.0
0
LINE
5
6dd
100
AcDbEntity
8
F-F
6
CONTINUOUS
62
4
100
AcDbLine
10
66.120000000000
20
165.340000000000
30
0.0
11
67.720000000000
21
165.340000000000
31
0.0
0
LINE
5
6de
100
AcDbEntity
8
F-F
6
CONTINUOUS
62
4
100
AcDbLine
10
66.120000000000
20
165.980000000000
30
0.0
11
67.720000000000
21
165.980000000000
31
0.0
0
LINE
5
6df
100
AcDbEntity
8
F-F
6
CONTINUOUS
62
4
100
AcDbLine
10
66.120000000000
20
166.300000000000
30
0.0
11
67.720000000000
21
166.300000000000
31
0.0
0
LINE
5
6e0
100
AcDbEntity
8
F-F
6
CONTINUOUS
62
4
100
AcDbLine
10
66.120000000000
20
166.620000000000
30
0.0
11
67.720000000000
21
166.620000000000
31
0.0
0
LINE
5
6e1
100
AcDbEntity
8
F-F
6
CONTINUOUS
62
4
100
AcDbLine
10
66.120000000000
20
166.940000000000
30
0.0
11
67.720000000000
21
166.940000000000
31
0.0
0
LINE
5
6e2
100
AcDbEntity
8
F-F
6
CONTINUOUS
62
4
100
AcDbLine
10
66.120000000000
20
167.260000000000
30
0.0
11
67.720000000000
21
167.260000000000
31
0.0
0
LINE
5
6e3
100
AcDbEntity
8
F-F
6
CONTINUOUS
62
4
100
AcDbLine
10
66.120000000000
20
167.580000000000
30
0.0
11
67.720000000000
21
167.580000000000
31
0.0
0
LINE
5
6e4
100
AcDbEntity
8
F-F
6
CONTINUOUS
62
4
100
AcDbLine
10
66.120000000000
20
167.900000000000
30
0.0
11
67.720000000000
21
167.900000000000
31
0.0
0
LINE
5
6e5
100
AcDbEntity
8
F-F
6
CONTINUOUS
62
4
100
AcDbLine
10
66.120000000000
20
168.220000000000
30
0.0
11
67.720000000000
21
168.220000000000
31
0.0
0
LINE
5
6e6
100
AcDbEntity
8
F-F
6
CONTINUOUS
62
4
100
AcDbLine
10
66.120000000000
20
168.540000000000
30
0.0
11
67.720000000000
21
168.540000000000
31
0.0
0
LINE
5
6e7
100
AcDbEntity
8
F-F
6
CONTINUOUS
62
4
100
AcDbLine
10
66.120000000000
20
168.860000000000
30
0.0
11
67.720000000000
21
168.860000000000
31
0.0
0
LINE
5
6e8
100
AcDbEntity
8
F-F
6
CONTINUOUS
62
4
100
AcDbLine
10
66.120000000000
20
169.820000000000
30
0.0
11
67.720000000000
21
169.820000000000
31
0.0
0
LINE
5
6e9
100
AcDbEntity
8
F-F
6
CONTINUOUS
62
4
100
AcDbLine
10
66.120000000000
20
170.780000000000
30
0.0
11
67.720000000000
21
170.780000000000
31
0.0
0
LINE
5
6ea
100
AcDbEntity
8
F-F
6
CONTINUOUS
62
4
100
AcDbLine
10
66.120000000000
20
171.100000000000
30
0.0
11
67.720000000000
21
171.100000000000
31
0.0
0
LINE
5
6eb
100
AcDbEntity
8
F-F
6
CONTINUOUS
62
4
100
AcDbLine
10
66.120000000000
20
171.420000000000
30
0.0
11
67.720000000000
21
171.420000000000
31
0.0
0
LINE
5
6ec
100
AcDbEntity
8
F-F
6
CONTINUOUS
62
4
100
AcDbLine
10
66.120000000000
20
171.740000000000
30
0.0
11
67.720000000000
21
171.740000000000
31
0.0
0
LINE
5
6ed
100
AcDbEntity
8
F-F
6
CONTINUOUS
62
4
100
AcDbLine
10
66.120000000000
20
172.700000000000
30
0.0
11
67.720000000000
21
172.700000000000
31
0.0
0
LINE
5
6ee
100
AcDbEntity
8
F-F
6
CONTINUOUS
62
4
100
AcDbLine
10
66.120000000000
20
172.380000000000
30
0.0
11
67.720000000000
21
172.380000000000
31
0.0
0
LINE
5
6ef
100
AcDbEntity
8
F-F
6
CONTINUOUS
62
4
100
AcDbLine
10
66.120000000000
20
172.060000000000
30
0.0
11
67.720000000000
21
172.060000000000
31
0.0
0
LINE
5
6f0
100
AcDbEntity
8
F-F
6
CONTINUOUS
62
4
100
AcDbLine
10
66.120000000000
20
170.140000000000
30
0.0
11
67.720000000000
21
170.140000000000
31
0.0
0
LINE
5
6f1
100
AcDbEntity
8
F-F
6
CONTINUOUS
62
4
100
AcDbLine
10
66.120000000000
20
170.460000000000
30
0.0
11
67.720000000000
21
170.460000000000
31
0.0
0
LINE
5
6f2
100
AcDbEntity
8
F-F
6
CONTINUOUS
62
4
100
AcDbLine
10
66.120000000000
20
169.500000000000
30
0.0
11
67.720000000000
21
169.500000000000
31
0.0
0
LINE
5
6f3
100
AcDbEntity
8
F-F
6
CONTINUOUS
62
4
100
AcDbLine
10
66.120000000000
20
169.180000000000
30
0.0
11
67.720000000000
21
169.180000000000
31
0.0
0
LINE
5
6f4
100
AcDbEntity
8
F-F
6
CONTINUOUS
62
4
100
AcDbLine
10
66.120000000000
20
160.860000000000
30
0.0
11
67.720000000000
21
160.860000000000
31
0.0
0
LINE
5
6f5
100
AcDbEntity
8
F-F
6
CONTINUOUS
62
4
100
AcDbLine
10
66.120000000000
20
161.180000000000
30
0.0
11
67.720000000000
21
161.180000000000
31
0.0
0
LINE
5
6f6
100
AcDbEntity
8
F-F
6
CONTINUOUS
62
4
100
AcDbLine
10
65.390000000000
20
173.340000000000
30
0.0
11
67.720000000000
21
173.340000000000
31
0.0
0
LINE
5
6f7
100
AcDbEntity
8
F-F
6
CONTINUOUS
62
4
100
AcDbLine
10
65.070000000000
20
173.020000000000
30
0.0
11
67.720000000000
21
173.020000000000
31
0.0
0
LINE
5
6f8
100
AcDbEntity
8
F-F
6
CONTINUOUS
62
4
100
AcDbLine
10
57.070000000000
20
165.020000000000
30
0.0
11
58.200000000000
21
165.020000000000
31
0.0
0
LINE
5
6f9
100
AcDbEntity
8
F-F
6
CONTINUOUS
62
4
100
AcDbLine
10
56.750000000000
20
164.700000000000
30
0.0
11
57.880000000000
21
164.700000000000
31
0.0
0
LINE
5
6fa
100
AcDbEntity
8
F-F
6
CONTINUOUS
62
4
100
AcDbLine
10
56.430000000000
20
164.380000000000
30
0.0
11
57.560000000000
21
164.380000000000
31
0.0
0
LINE
5
6fb
100
AcDbEntity
8
F-F
6
CONTINUOUS
62
4
100
AcDbLine
10
56.110000000000
20
164.060000000000
30
0.0
11
57.240000000000
21
164.060000000000
31
0.0
0
LINE
5
6fc
100
AcDbEntity
8
F-F
6
CONTINUOUS
62
4
100
AcDbLine
10
58.350000000000
20
166.300000000000
30
0.0
11
59.480000000000
21
166.300000000000
31
0.0
0
LINE
5
6fd
100
AcDbEntity
8
F-F
6
CONTINUOUS
62
4
100
AcDbLine
10
58.030000000000
20
165.980000000000
30
0.0
11
59.160000000000
21
165.980000000000
31
0.0
0
LINE
5
6fe
100
AcDbEntity
8
F-F
6
CONTINUOUS
62
4
100
AcDbLine
10
57.710000000000
20
165.660000000000
30
0.0
11
58.840000000000
21
165.660000000000
31
0.0
0
LINE
5
6ff
100
AcDbEntity
8
F-F
6
CONTINUOUS
62
4
100
AcDbLine
10
57.390000000000
20
165.340000000000
30
0.0
11
58.520000000000
21
165.340000000000
31
0.0
0
LINE
5
700
100
AcDbEntity
8
F-F
6
CONTINUOUS
62
4
100
AcDbLine
10
59.630000000000
20
167.580000000000
30
0.0
11
60.760000000000
21
167.580000000000
31
0.0
0
LINE
5
701
100
AcDbEntity
8
F-F
6
CONTINUOUS
62
4
100
AcDbLine
10
59.310000000000
20
167.260000000000
30
0.0
11
60.440000000000
21
167.260000000000
31
0.0
0
LINE
5
702
100
AcDbEntity
8
F-F
6
CONTINUOUS
62
4
100
AcDbLine
10
58.990000000000
20
166.940000000000
30
0.0
11
60.120000000000
21
166.940000000000
31
0.0
0
LINE
5
703
100
AcDbEntity
8
F-F
6
CONTINUOUS
62
4
100
AcDbLine
10
58.670000000000
20
166.620000000000
30
0.0
11
59.800000000000
21
166.620000000000
31
0.0
0
LINE
5
704
100
AcDbEntity
8
F-F
6
CONTINUOUS
62
4
100
AcDbLine
10
60.910000000000
20
168.860000000000
30
0.0
11
62.040000000000
21
168.860000000000
31
0.0
0
LINE
5
705
100
AcDbEntity
8
F-F
6
CONTINUOUS
62
4
100
AcDbLine
10
60.590000000000
20
168.540000000000
30
0.0
11
61.720000000000
21
168.540000000000
31
0.0
0
LINE
5
706
100
AcDbEntity
8
F-F
6
CONTINUOUS
62
4
100
AcDbLine
10
60.270000000000
20
168.220000000000
30
0.0
11
61.400000000000
21
168.220000000000
31
0.0
0
LINE
5
707
100
AcDbEntity
8
F-F
6
CONTINUOUS
62
4
100
AcDbLine
10
59.950000000000
20
167.900000000000
30
0.0
11
61.080000000000
21
167.900000000000
31
0.0
0
LINE
5
708
100
AcDbEntity
8
F-F
6
CONTINUOUS
62
4
100
AcDbLine
10
62.190000000000
20
170.140000000000
30
0.0
11
63.320000000000
21
170.140000000000
31
0.0
0
LINE
5
709
100
AcDbEntity
8
F-F
6
CONTINUOUS
62
4
100
AcDbLine
10
61.870000000000
20
169.820000000000
30
0.0
11
63.000000000000
21
169.820000000000
31
0.0
0
LINE
5
70a
100
AcDbEntity
8
F-F
6
CONTINUOUS
62
4
100
AcDbLine
10
61.550000000000
20
169.500000000000
30
0.0
11
62.680000000000
21
169.500000000000
31
0.0
0
LINE
5
70b
100
AcDbEntity
8
F-F
6
CONTINUOUS
62
4
100
AcDbLine
10
61.230000000000
20
169.180000000000
30
0.0
11
62.360000000000
21
169.180000000000
31
0.0
0
LINE
5
70c
100
AcDbEntity
8
F-F
6
CONTINUOUS
62
4
100
AcDbLine
10
63.470000000000
20
171.420000000000
30
0.0
11
64.600000000000
21
171.420000000000
31
0.0
0
LINE
5
70d
100
AcDbEntity
8
F-F
6
CONTINUOUS
62
4
100
AcDbLine
10
63.150000000000
20
171.100000000000
30
0.0
11
64.280000000000
21
171.100000000000
31
0.0
0
LINE
5
70e
100
AcDbEntity
8
F-F
6
CONTINUOUS
62
4
100
AcDbLine
10
62.830000000000
20
170.780000000000
30
0.0
11
63.960000000000
21
170.780000000000
31
0.0
0
LINE
5
70f
100
AcDbEntity
8
F-F
6
CONTINUOUS
62
4
100
AcDbLine
10
62.510000000000
20
170.460000000000
30
0.0
11
63.640000000000
21
170.460000000000
31
0.0
0
LINE
5
710
100
AcDbEntity
8
F-F
6
CONTINUOUS
62
4
100
AcDbLine
10
64.750000000000
20
172.700000000000
30
0.0
11
65.880000000000
21
172.700000000000
31
0.0
0
LINE
5
711
100
AcDbEntity
8
F-F
6
CONTINUOUS
62
4
100
AcDbLine
10
64.430000000000
20
172.380000000000
30
0.0
11
65.560000000000
21
172.380000000000
31
0.0
0
LINE
5
712
100
AcDbEntity
8
F-F
6
CONTINUOUS
62
4
100
AcDbLine
10
64.110000000000
20
172.060000000000
30
0.0
11
65.240000000000
21
172.060000000000
31
0.0
0
LINE
5
713
100
AcDbEntity
8
F-F
6
CONTINUOUS
62
4
100
AcDbLine
10
63.790000000000
20
171.740000000000
30
0.0
11
64.920000000000
21
171.740000000000
31
0.0
0
LINE
5
714
100
AcDbEntity
8
F-F
6
CONTINUOUS
62
4
100
AcDbLine
10
66.120000000000
20
165.660000000000
30
0.0
11
67.720000000000
21
165.660000000000
31
0.0
0
LINE
5
715
100
AcDbEntity
8
0-2
6
CONTINUOUS
62
4
100
AcDbLine
10
947.340000000000
20
434.640000000000
30
0.0
11
943.340000000000
21
430.640000000000
31
0.0
0
LINE
5
716
100
AcDbEntity
8
0-2
6
CONTINUOUS
62
4
100
AcDbLine
10
946.940000000000
20
430.640000000000
30
0.0
11
942.940000000000
21
434.640000000000
31
0.0
0
LINE
5
717
100
AcDbEntity
8
0-2
6
CONTINUOUS
62
7
100
AcDbLine
10
1218.910000000000
20
573.140000000000
30
0.0
11
1220.110000000000
21
573.140000000000
31
0.0
0
LINE
5
718
100
AcDbEntity
8
0-2
6
CONTINUOUS
62
3
100
AcDbLine
10
1218.910000000000
20
531.140000000000
30
0.0
11
1215.710000000000
21
531.140000000000
31
0.0
0
LINE
5
719
100
AcDbEntity
8
0-2
6
CONTINUOUS
62
3
100
AcDbLine
10
1215.710000000000
20
577.140000000000
30
0.0
11
1188.910000000000
21
577.140000000000
31
0.0
0
LINE
5
71a
100
AcDbEntity
8
0-2
6
CONTINUOUS
62
3
100
AcDbLine
10
1213.920000000000
20
544.640000000000
30
0.0
11
1213.420000000000
21
549.710000000000
31
0.0
0
LINE
5
71b
100
AcDbEntity
8
0-2
6
CONTINUOUS
62
3
100
AcDbLine
10
1215.710000000000
20
573.940000000000
30
0.0
11
1188.910000000000
21
573.940000000000
31
0.0
0
LINE
5
71c
100
AcDbEntity
8
0-2
6
CONTINUOUS
62
3
100
AcDbLine
10
1215.710000000000
20
573.940000000000
30
0.0
11
1215.710000000000
21
531.140000000000
31
0.0
0
LINE
5
71d
100
AcDbEntity
8
0-2
6
CONTINUOUS
62
3
100
AcDbLine
10
1188.910000000000
20
577.140000000000
30
0.0
11
1188.910000000000
21
573.940000000000
31
0.0
0
POLYLINE
5
71e
100
AcDbEntity
8
0-2
6
CONTINUOUS
62
  7
100
AcDb2dPolyline
66
1
10
0.0
20
0.0
30
0.0
70
0
0
VERTEX
5
71f
100
AcDbEntity
8
0-2
6
CONTINUOUS
62
  7
100
AcDbVertex
100
AcDb2dVertex
10
1215.110000000000
20
530.140000000000
30
0.0
0
VERTEX
5
720
100
AcDbEntity
8
0-2
6
CONTINUOUS
62
  7
100
AcDbVertex
100
AcDb2dVertex
10
1215.110000000000
20
531.340000000000
30
0.0
0
VERTEX
5
721
100
AcDbEntity
8
0-2
6
CONTINUOUS
62
  7
100
AcDbVertex
100
AcDb2dVertex
10
1218.910000000000
20
531.340000000000
30
0.0
0
SEQEND
5
722
100
AcDbEntity
8
0-2
0
LINE
5
723
100
AcDbEntity
8
0-2
6
CONTINUOUS
62
7
100
AcDbLine
10
1215.110000000000
20
530.140000000000
30
0.0
11
1218.910000000000
21
530.140000000000
31
0.0
0
LINE
5
724
100
AcDbEntity
8
0-2
6
CONTINUOUS
62
3
100
AcDbLine
10
1223.310000000000
20
563.640000000000
30
0.0
11
1230.060000000000
21
563.640000000000
31
0.0
0
LINE
5
725
100
AcDbEntity
8
0-2
6
CONTINUOUS
62
3
100
AcDbLine
10
1223.310000000000
20
555.140000000000
30
0.0
11
1229.410000000000
21
555.140000000000
31
0.0
0
LINE
5
726
100
AcDbEntity
8
0-2
6
CONTINUOUS
62
3
100
AcDbLine
10
1223.310000000000
20
546.640000000000
30
0.0
11
1230.060000000000
21
546.640000000000
31
0.0
0
LINE
5
727
100
AcDbEntity
8
0-2
6
CONTINUOUS
62
3
100
AcDbLine
10
1205.410000000000
20
550.140000000000
30
0.0
11
1199.810000000000
21
550.140000000000
31
0.0
0
LINE
5
728
100
AcDbEntity
8
0-2
6
CONTINUOUS
62
3
100
AcDbLine
10
1205.410000000000
20
560.140000000000
30
0.0
11
1199.810000000000
21
560.140000000000
31
0.0
0
LINE
5
729
100
AcDbEntity
8
0-2
6
CONTINUOUS
62
3
100
AcDbLine
10
1199.810000000000
20
550.140000000000
30
0.0
11
1198.310000000000
21
551.640000000000
31
0.0
0
POLYLINE
5
72a
100
AcDbEntity
8
0-2
6
CONTINUOUS
62
  3
100
AcDb2dPolyline
66
1
10
0.0
20
0.0
30
0.0
70
0
0
VERTEX
5
72b
100
AcDbEntity
8
0-2
6
CONTINUOUS
62
  3
100
AcDbVertex
100
AcDb2dVertex
10
1199.810000000000
20
560.140000000000
30
0.0
0
VERTEX
5
72c
100
AcDbEntity
8
0-2
6
CONTINUOUS
62
  3
100
AcDbVertex
100
AcDb2dVertex
10
1198.310000000000
20
558.640000000000
30
0.0
0
VERTEX
5
72d
100
AcDbEntity
8
0-2
6
CONTINUOUS
62
  3
100
AcDbVertex
100
AcDb2dVertex
10
1198.310000000000
20
551.640000000000
30
0.0
0
SEQEND
5
72e
100
AcDbEntity
8
0-2
0
LINE
5
72f
100
AcDbEntity
8
0-2
6
CONTINUOUS
62
3
100
AcDbLine
10
1199.810000000000
20
560.140000000000
30
0.0
11
1199.810000000000
21
550.140000000000
31
0.0
0
LINE
5
730
100
AcDbEntity
8
0-2
6
CONTINUOUS
62
3
100
AcDbLine
10
1205.410000000000
20
559.390000000000
30
0.0
11
1199.060000000000
21
559.390000000000
31
0.0
0
LINE
5
731
100
AcDbEntity
8
0-2
6
CONTINUOUS
62
3
100
AcDbLine
10
1205.410000000000
20
550.890000000000
30
0.0
11
1199.060000000000
21
550.890000000000
31
0.0
0
LINE
5
732
100
AcDbEntity
8
0-2
6
CONTINUOUS
62
3
100
AcDbLine
10
1213.920000000000
20
565.640000000000
30
0.0
11
1213.920000000000
21
544.640000000000
31
0.0
0
LINE
5
733
100
AcDbEntity
8
0-2
6
CONTINUOUS
62
3
100
AcDbLine
10
1220.110000000000
20
573.940000000000
30
0.0
11
1220.110000000000
21
424.140000000000
31
0.0
0
LINE
5
734
100
AcDbEntity
8
0-2
6
CONTINUOUS
62
3
100
AcDbLine
10
663.410000000000
20
564.950000000000
30
0.0
11
656.320000000000
21
564.950000000000
31
0.0
0
LINE
5
735
100
AcDbEntity
8
0-2
6
CONTINUOUS
62
3
100
AcDbLine
10
663.410000000000
20
564.950000000000
30
0.0
11
663.410000000000
21
545.320000000000
31
0.0
0
LINE
5
736
100
AcDbEntity
8
0-2
6
CONTINUOUS
62
3
100
AcDbLine
10
663.410000000000
20
560.040000000000
30
0.0
11
656.320000000000
21
560.040000000000
31
0.0
0
LINE
5
737
100
AcDbEntity
8
0-2
6
CONTINUOUS
62
3
100
AcDbLine
10
663.920000000000
20
544.640000000000
30
0.0
11
663.420000000000
21
549.710000000000
31
0.0
0
LINE
5
738
100
AcDbEntity
8
0-2
6
CONTINUOUS
62
3
100
AcDbLine
10
1213.410000000000
20
564.950000000000
30
0.0
11
1206.320000000000
21
564.950000000000
31
0.0
0
LINE
5
739
100
AcDbEntity
8
0-2
6
CONTINUOUS
62
3
100
AcDbLine
10
1255.610000000000
20
577.140000000000
30
0.0
11
1223.310000000000
21
577.140000000000
31
0.0
0
LINE
5
73a
100
AcDbEntity
8
0-2
6
CONTINUOUS
62
3
100
AcDbLine
10
655.410000000000
20
546.890000000000
30
0.0
11
656.320000000000
21
545.320000000000
31
0.0
0
LINE
5
73b
100
AcDbEntity
8
0-2
6
CONTINUOUS
62
3
100
AcDbLine
10
663.410000000000
20
550.230000000000
30
0.0
11
656.320000000000
21
550.230000000000
31
0.0
0
LINE
5
73c
100
AcDbEntity
8
0-2
6
CONTINUOUS
62
3
100
AcDbLine
10
655.410000000000
20
563.390000000000
30
0.0
11
655.410000000000
21
546.890000000000
31
0.0
0
LINE
5
73d
100
AcDbEntity
8
0-2
6
CONTINUOUS
62
3
100
AcDbLine
10
663.410000000000
20
545.320000000000
30
0.0
11
656.320000000000
21
545.320000000000
31
0.0
0
LINE
5
73e
100
AcDbEntity
8
0-2
6
CONTINUOUS
62
7
100
AcDbLine
10
665.110000000000
20
530.140000000000
30
0.0
11
668.910000000000
21
530.140000000000
31
0.0
0
LINE
5
73f
100
AcDbEntity
8
0-2
6
CONTINUOUS
62
3
100
AcDbLine
10
1213.410000000000
20
564.950000000000
30
0.0
11
1213.410000000000
21
545.320000000000
31
0.0
0
LINE
5
740
100
AcDbEntity
8
0-2
6
CONTINUOUS
62
3
100
AcDbLine
10
668.910000000000
20
531.140000000000
30
0.0
11
665.710000000000
21
531.140000000000
31
0.0
0
LINE
5
741
100
AcDbEntity
8
0-2
6
CONTINUOUS
62
3
100
AcDbLine
10
1205.410000000000
20
563.390000000000
30
0.0
11
1205.410000000000
21
546.890000000000
31
0.0
0
LINE
5
742
100
AcDbEntity
8
0-2
6
CONTINUOUS
62
3
100
AcDbLine
10
665.710000000000
20
573.940000000000
30
0.0
11
665.710000000000
21
531.140000000000
31
0.0
0
LINE
5
743
100
AcDbEntity
8
0-2
6
CONTINUOUS
62
3
100
AcDbLine
10
638.910000000000
20
577.140000000000
30
0.0
11
638.910000000000
21
573.940000000000
31
0.0
0
LINE
5
744
100
AcDbEntity
8
0-2
6
CONTINUOUS
62
3
100
AcDbLine
10
1213.410000000000
20
545.320000000000
30
0.0
11
1206.320000000000
21
545.320000000000
31
0.0
0
LINE
5
745
100
AcDbEntity
8
0-2
6
CONTINUOUS
62
7
100
AcDbLine
10
668.910000000000
20
573.140000000000
30
0.0
11
670.110000000000
21
573.140000000000
31
0.0
0
LINE
5
746
100
AcDbEntity
8
0-2
6
CONTINUOUS
62
3
100
AcDbLine
10
665.710000000000
20
573.940000000000
30
0.0
11
638.910000000000
21
573.940000000000
31
0.0
0
LINE
5
747
100
AcDbEntity
8
0-2
6
CONTINUOUS
62
3
100
AcDbLine
10
1213.410000000000
20
560.040000000000
30
0.0
11
1206.320000000000
21
560.040000000000
31
0.0
0
LINE
5
748
100
AcDbEntity
8
0-2
6
CONTINUOUS
62
3
100
AcDbLine
10
1205.410000000000
20
546.890000000000
30
0.0
11
1206.320000000000
21
545.320000000000
31
0.0
0
LINE
5
749
100
AcDbEntity
8
0-2
6
CONTINUOUS
62
3
100
AcDbLine
10
1213.410000000000
20
550.230000000000
30
0.0
11
1206.320000000000
21
550.230000000000
31
0.0
0
LINE
5
74a
100
AcDbEntity
8
0-2
6
CONTINUOUS
62
3
100
AcDbLine
10
1205.410000000000
20
563.390000000000
30
0.0
11
1206.320000000000
21
564.950000000000
31
0.0
0
LINE
5
74b
100
AcDbEntity
8
0-2
6
CONTINUOUS
62
3
100
AcDbLine
10
1215.710000000000
20
544.810000000000
30
0.0
11
1213.920000000000
21
544.640000000000
31
0.0
0
LINE
5
74c
100
AcDbEntity
8
0-2
6
CONTINUOUS
62
7
100
AcDbLine
10
665.110000000000
20
531.340000000000
30
0.0
11
668.910000000000
21
531.340000000000
31
0.0
0
LINE
5
74d
100
AcDbEntity
8
0-2
6
CONTINUOUS
62
3
100
AcDbLine
10
1230.310000000000
20
563.390000000000
30
0.0
11
1230.310000000000
21
546.890000000000
31
0.0
0
LINE
5
74e
100
AcDbEntity
8
0-2
6
CONTINUOUS
62
7
100
AcDbLine
10
665.110000000000
20
530.140000000000
30
0.0
11
665.110000000000
21
531.340000000000
31
0.0
0
LINE
5
74f
100
AcDbEntity
8
0-2
6
CONTINUOUS
62
3
100
AcDbLine
10
665.710000000000
20
577.140000000000
30
0.0
11
638.910000000000
21
577.140000000000
31
0.0
0
LINE
5
750
100
AcDbEntity
8
0-2
6
CONTINUOUS
62
3
100
AcDbLine
10
1230.060000000000
20
563.640000000000
30
0.0
11
1230.310000000000
21
563.390000000000
31
0.0
0
POLYLINE
5
751
100
AcDbEntity
8
0-2
6
CONTINUOUS
62
  3
100
AcDb2dPolyline
66
1
10
0.0
20
0.0
30
0.0
70
0
0
VERTEX
5
752
100
AcDbEntity
8
0-2
6
CONTINUOUS
62
  3
100
AcDbVertex
100
AcDb2dVertex
10
665.710000000000
20
565.460000000000
30
0.0
0
VERTEX
5
753
100
AcDbEntity
8
0-2
6
CONTINUOUS
62
  3
100
AcDbVertex
100
AcDb2dVertex
10
663.920000000000
20
565.640000000000
30
0.0
0
VERTEX
5
754
100
AcDbEntity
8
0-2
6
CONTINUOUS
62
  3
100
AcDbVertex
100
AcDb2dVertex
10
663.420000000000
20
560.560000000000
30
0.0
0
SEQEND
5
755
100
AcDbEntity
8
0-2
0
POLYLINE
5
756
100
AcDbEntity
8
0-2
6
CONTINUOUS
62
  3
100
AcDb2dPolyline
66
1
10
0.0
20
0.0
30
0.0
70
0
0
VERTEX
5
757
100
AcDbEntity
8
0-2
6
CONTINUOUS
62
  3
100
AcDbVertex
100
AcDb2dVertex
10
665.710000000000
20
565.460000000000
30
0.0
0
VERTEX
5
758
100
AcDbEntity
8
0-2
6
CONTINUOUS
62
  3
100
AcDbVertex
100
AcDb2dVertex
10
665.710000000000
20
544.810000000000
30
0.0
0
VERTEX
5
759
100
AcDbEntity
8
0-2
6
CONTINUOUS
62
  3
100
AcDbVertex
100
AcDb2dVertex
10
663.920000000000
20
544.640000000000
30
0.0
0
SEQEND
5
75a
100
AcDbEntity
8
0-2
0
LINE
5
75b
100
AcDbEntity
8
0-2
6
CONTINUOUS
62
3
100
AcDbLine
10
655.410000000000
20
563.390000000000
30
0.0
11
656.320000000000
21
564.950000000000
31
0.0
0
LINE
5
75c
100
AcDbEntity
8
0-2
6
CONTINUOUS
62
3
100
AcDbLine
10
1230.060000000000
20
546.640000000000
30
0.0
11
1230.310000000000
21
546.890000000000
31
0.0
0
LINE
5
75d
100
AcDbEntity
8
0-2
6
CONTINUOUS
62
3
100
AcDbLine
10
663.920000000000
20
565.640000000000
30
0.0
11
663.920000000000
21
544.640000000000
31
0.0
0
LINE
5
75e
100
AcDbEntity
8
0-2
6
CONTINUOUS
62
3
100
AcDbLine
10
1215.710000000000
20
565.460000000000
30
0.0
11
1215.710000000000
21
544.810000000000
31
0.0
0
LINE
5
75f
100
AcDbEntity
8
0-2
6
CONTINUOUS
62
3
100
AcDbLine
10
1213.920000000000
20
565.640000000000
30
0.0
11
1213.420000000000
21
560.560000000000
31
0.0
0
LINE
5
760
100
AcDbEntity
8
0-2
6
CONTINUOUS
62
3
100
AcDbLine
10
1215.710000000000
20
565.460000000000
30
0.0
11
1213.920000000000
21
565.640000000000
31
0.0
0
POLYLINE
5
761
100
AcDbEntity
8
0-2
6
CONTINUOUS
62
  3
100
AcDb2dPolyline
66
1
10
0.0
20
0.0
30
0.0
70
0
0
VERTEX
5
762
100
AcDbEntity
8
0-2
6
CONTINUOUS
62
  3
100
AcDbVertex
100
AcDb2dVertex
10
1255.610000000000
20
573.940000000000
30
0.0
0
VERTEX
5
763
100
AcDbEntity
8
0-2
6
CONTINUOUS
62
  3
100
AcDbVertex
100
AcDb2dVertex
10
1223.310000000000
20
573.940000000000
30
0.0
0
VERTEX
5
764
100
AcDbEntity
8
0-2
6
CONTINUOUS
62
  3
100
AcDbVertex
100
AcDb2dVertex
10
1223.310000000000
20
424.140000000000
30
0.0
0
SEQEND
5
765
100
AcDbEntity
8
0-2
0
LINE
5
766
100
AcDbEntity
8
0-2
6
CONTINUOUS
62
3
100
AcDbLine
10
1220.110000000000
20
424.140000000000
30
0.0
11
833.610000000000
21
424.140000000000
31
0.0
0
LINE
5
767
100
AcDbEntity
8
0-2
6
CONTINUOUS
62
3
100
AcDbLine
10
1220.110000000000
20
420.940000000000
30
0.0
11
833.610000000000
21
420.940000000000
31
0.0
0
POLYLINE
5
768
100
AcDbEntity
8
0-2
6
CONTINUOUS
62
  3
100
AcDb2dPolyline
66
1
10
0.0
20
0.0
30
0.0
70
0
0
VERTEX
5
769
100
AcDbEntity
8
0-2
6
CONTINUOUS
62
  3
100
AcDbVertex
100
AcDb2dVertex
10
680.060000000000
20
563.640000000000
30
0.0
0
VERTEX
5
76a
100
AcDbEntity
8
0-2
6
CONTINUOUS
62
  3
100
AcDbVertex
100
AcDb2dVertex
10
680.310000000000
20
563.390000000000
30
0.0
0
VERTEX
5
76b
100
AcDbEntity
8
0-2
6
CONTINUOUS
62
  3
100
AcDbVertex
100
AcDb2dVertex
10
680.310000000000
20
546.890000000000
30
0.0
0
SEQEND
5
76c
100
AcDbEntity
8
0-2
0
LINE
5
76d
100
AcDbEntity
8
0-2
6
CONTINUOUS
62
3
100
AcDbLine
10
705.610000000000
20
573.940000000000
30
0.0
11
673.310000000000
21
573.940000000000
31
0.0
0
LINE
5
76e
100
AcDbEntity
8
0-2
6
CONTINUOUS
62
3
100
AcDbLine
10
831.150000000000
20
422.100000000000
30
0.0
11
705.610000000000
21
573.940000000000
31
0.0
0
LINE
5
76f
100
AcDbEntity
8
0-2
6
CONTINUOUS
62
3
100
AcDbLine
10
673.310000000000
20
573.940000000000
30
0.0
11
673.310000000000
21
424.140000000000
31
0.0
0
LINE
5
770
100
AcDbEntity
8
0-2
6
CONTINUOUS
62
3
100
AcDbLine
10
705.610000000000
20
577.140000000000
30
0.0
11
673.310000000000
21
577.140000000000
31
0.0
0
LINE
5
771
100
AcDbEntity
8
0-2
6
CONTINUOUS
62
3
100
AcDbLine
10
833.610000000000
20
424.140000000000
30
0.0
11
708.070000000000
21
575.980000000000
31
0.0
0
LINE
5
772
100
AcDbEntity
8
0-2
6
CONTINUOUS
62
3
100
AcDbLine
10
670.110000000000
20
573.940000000000
30
0.0
11
670.110000000000
21
424.140000000000
31
0.0
0
LINE
5
773
100
AcDbEntity
8
0-2
6
CONTINUOUS
62
3
100
AcDbLine
10
655.410000000000
20
550.890000000000
30
0.0
11
649.060000000000
21
550.890000000000
31
0.0
0
LINE
5
774
100
AcDbEntity
8
0-2
6
CONTINUOUS
62
3
100
AcDbLine
10
655.410000000000
20
559.390000000000
30
0.0
11
649.060000000000
21
559.390000000000
31
0.0
0
LINE
5
775
100
AcDbEntity
8
0-2
6
CONTINUOUS
62
3
100
AcDbLine
10
649.810000000000
20
560.140000000000
30
0.0
11
649.810000000000
21
550.140000000000
31
0.0
0
LINE
5
776
100
AcDbEntity
8
0-2
6
CONTINUOUS
62
3
100
AcDbLine
10
648.310000000000
20
558.640000000000
30
0.0
11
648.310000000000
21
551.640000000000
31
0.0
0
LINE
5
777
100
AcDbEntity
8
0-2
6
CONTINUOUS
62
3
100
AcDbLine
10
649.810000000000
20
560.140000000000
30
0.0
11
648.310000000000
21
558.640000000000
31
0.0
0
LINE
5
778
100
AcDbEntity
8
0-2
6
CONTINUOUS
62
3
100
AcDbLine
10
649.810000000000
20
550.140000000000
30
0.0
11
648.310000000000
21
551.640000000000
31
0.0
0
LINE
5
779
100
AcDbEntity
8
0-2
6
CONTINUOUS
62
3
100
AcDbLine
10
655.410000000000
20
560.140000000000
30
0.0
11
649.810000000000
21
560.140000000000
31
0.0
0
LINE
5
77a
100
AcDbEntity
8
0-2
6
CONTINUOUS
62
3
100
AcDbLine
10
655.410000000000
20
550.140000000000
30
0.0
11
649.810000000000
21
550.140000000000
31
0.0
0
LINE
5
77b
100
AcDbEntity
8
0-2
6
CONTINUOUS
62
3
100
AcDbLine
10
673.310000000000
20
546.640000000000
30
0.0
11
680.060000000000
21
546.640000000000
31
0.0
0
LINE
5
77c
100
AcDbEntity
8
0-2
6
CONTINUOUS
62
3
100
AcDbLine
10
673.310000000000
20
555.140000000000
30
0.0
11
679.410000000000
21
555.140000000000
31
0.0
0
LINE
5
77d
100
AcDbEntity
8
0-2
6
CONTINUOUS
62
3
100
AcDbLine
10
673.310000000000
20
563.640000000000
30
0.0
11
680.060000000000
21
563.640000000000
31
0.0
0
LINE
5
77e
100
AcDbEntity
8
0-2
6
CONTINUOUS
62
3
100
AcDbLine
10
680.060000000000
20
546.640000000000
30
0.0
11
680.310000000000
21
546.890000000000
31
0.0
0
POLYLINE
5
77f
100
AcDbEntity
8
0-1
6
CONTINUOUS
62
  3
100
AcDb2dPolyline
66
1
10
0.0
20
0.0
30
0.0
70
0
0
VERTEX
5
780
100
AcDbEntity
8
0-1
6
CONTINUOUS
62
  3
100
AcDbVertex
100
AcDb2dVertex
10
477.470000000000
20
420.940000000000
30
0.0
0
VERTEX
5
781
100
AcDbEntity
8
0-1
6
CONTINUOUS
62
  3
100
AcDbVertex
100
AcDb2dVertex
10
477.070000000000
20
420.940000000000
30
0.0
0
VERTEX
5
782
100
AcDbEntity
8
0-1
6
CONTINUOUS
62
  3
100
AcDbVertex
100
AcDb2dVertex
10
247.470000000000
20
420.940000000000
30
0.0
0
SEQEND
5
783
100
AcDbEntity
8
0-1
0
LINE
5
784
100
AcDbEntity
8
0-2
6
CENTER2
62
7
100
AcDbLine
10
669.510000000000
20
531.340000000000
30
0.0
11
669.510000000000
21
654.720000000000
31
0.0
0
LINE
5
785
100
AcDbEntity
8
0-2
6
CENTER2
62
7
100
AcDbLine
10
1219.510000000000
20
654.720000000000
30
0.0
11
1219.510000000000
21
531.340000000000
31
0.0
0
LINE
5
786
100
AcDbEntity
8
0-1
6
CONTINUOUS
62
7
100
AcDbLine
10
387.470000000000
20
573.140000000000
30
0.0
11
417.470000000000
21
573.140000000000
31
0.0
0
LINE
5
787
100
AcDbEntity
8
0-1
6
CONTINUOUS
62
7
100
AcDbLine
10
307.470000000000
20
573.140000000000
30
0.0
11
337.470000000000
21
573.140000000000
31
0.0
0
LINE
5
788
100
AcDbEntity
8
0-1
6
CONTINUOUS
62
7
100
AcDbLine
10
342.470000000000
20
530.140000000000
30
0.0
11
382.470000000000
21
530.140000000000
31
0.0
0
LINE
5
789
100
AcDbEntity
8
0-1
6
CONTINUOUS
62
3
100
AcDbLine
10
381.970000000000
20
577.140000000000
30
0.0
11
342.970000000000
21
577.140000000000
31
0.0
0
LINE
5
78a
100
AcDbEntity
8
0-1
6
CONTINUOUS
62
7
100
AcDbLine
10
302.470000000000
20
603.140000000000
30
0.0
11
302.470000000000
21
578.140000000000
31
0.0
0
LINE
5
78b
100
AcDbEntity
8
0-1
6
CONTINUOUS
62
3
100
AcDbLine
10
381.970000000000
20
573.940000000000
30
0.0
11
342.970000000000
21
573.940000000000
31
0.0
0
LINE
5
78c
100
AcDbEntity
8
0-1
6
CONTINUOUS
62
3
100
AcDbLine
10
381.970000000000
20
531.140000000000
30
0.0
11
342.970000000000
21
531.140000000000
31
0.0
0
LINE
5
78d
100
AcDbEntity
8
0-1
6
CONTINUOUS
62
7
100
AcDbLine
10
422.470000000000
20
603.140000000000
30
0.0
11
422.470000000000
21
578.140000000000
31
0.0
0
LINE
5
78e
100
AcDbEntity
8
0-1
6
CONTINUOUS
62
7
100
AcDbLine
10
382.470000000000
20
568.140000000000
30
0.0
11
382.470000000000
21
530.140000000000
31
0.0
0
LINE
5
78f
100
AcDbEntity
8
0-1
6
CONTINUOUS
62
7
100
AcDbLine
10
342.470000000000
20
568.140000000000
30
0.0
11
342.470000000000
21
530.140000000000
31
0.0
0
LINE
5
790
100
AcDbEntity
8
0-1
6
CONTINUOUS
62
7
100
AcDbLine
10
302.470000000000
20
603.140000000000
30
0.0
11
422.470000000000
21
603.140000000000
31
0.0
0
LINE
5
791
100
AcDbEntity
8
0-1
6
CONTINUOUS
62
7
100
AcDbLine
10
302.470000000000
20
590.140000000000
30
0.0
11
422.470000000000
21
590.140000000000
31
0.0
0
LINE
5
792
100
AcDbEntity
8
0-1
6
CONTINUOUS
62
3
100
AcDbLine
10
342.970000000000
20
531.140000000000
30
0.0
11
342.970000000000
21
577.140000000000
31
0.0
0
LINE
5
793
100
AcDbEntity
8
0-1
6
CONTINUOUS
62
3
100
AcDbLine
10
381.970000000000
20
531.140000000000
30
0.0
11
381.970000000000
21
577.140000000000
31
0.0
0
LINE
5
794
100
AcDbEntity
8
0-1
6
CONTINUOUS
62
7
100
AcDbLine
10
342.470000000000
20
531.340000000000
30
0.0
11
382.470000000000
21
531.340000000000
31
0.0
0
POLYLINE
5
795
100
AcDbEntity
8
0-1
6
CONTINUOUS
62
  3
100
AcDb2dPolyline
66
1
10
0.0
20
0.0
30
0.0
70
0
0
VERTEX
5
796
100
AcDbEntity
8
0-1
6
CONTINUOUS
62
  3
100
AcDbVertex
100
AcDb2dVertex
10
362.470000000000
20
564.950000000000
30
0.0
0
VERTEX
5
797
100
AcDbEntity
8
0-1
6
CONTINUOUS
62
  3
100
AcDbVertex
100
AcDb2dVertex
10
370.970000000000
20
560.040000000000
30
0.0
0
VERTEX
5
798
100
AcDbEntity
8
0-1
6
CONTINUOUS
62
  3
100
AcDbVertex
100
AcDb2dVertex
10
370.970000000000
20
550.230000000000
30
0.0
0
SEQEND
5
799
100
AcDbEntity
8
0-1
0
POLYLINE
5
79a
100
AcDbEntity
8
0-1
6
CONTINUOUS
62
  3
100
AcDb2dPolyline
66
1
10
0.0
20
0.0
30
0.0
70
0
0
VERTEX
5
79b
100
AcDbEntity
8
0-1
6
CONTINUOUS
62
  3
100
AcDbVertex
100
AcDb2dVertex
10
362.470000000000
20
564.950000000000
30
0.0
0
VERTEX
5
79c
100
AcDbEntity
8
0-1
6
CONTINUOUS
62
  3
100
AcDbVertex
100
AcDb2dVertex
10
353.970000000000
20
560.040000000000
30
0.0
0
VERTEX
5
79d
100
AcDbEntity
8
0-1
6
CONTINUOUS
62
  3
100
AcDbVertex
100
AcDb2dVertex
10
353.970000000000
20
550.230000000000
30
0.0
0
SEQEND
5
79e
100
AcDbEntity
8
0-1
0
POLYLINE
5
79f
100
AcDbEntity
8
0-1
6
CONTINUOUS
62
  3
100
AcDb2dPolyline
66
1
10
0.0
20
0.0
30
0.0
70
0
0
VERTEX
5
7a0
100
AcDbEntity
8
0-1
6
CONTINUOUS
62
  3
100
AcDbVertex
100
AcDb2dVertex
10
370.970000000000
20
550.230000000000
30
0.0
0
VERTEX
5
7a1
100
AcDbEntity
8
0-1
6
CONTINUOUS
62
  3
100
AcDbVertex
100
AcDb2dVertex
10
362.470000000000
20
545.320000000000
30
0.0
0
VERTEX
5
7a2
100
AcDbEntity
8
0-1
6
CONTINUOUS
62
  3
100
AcDbVertex
100
AcDb2dVertex
10
353.970000000000
20
550.230000000000
30
0.0
0
SEQEND
5
7a3
100
AcDbEntity
8
0-1
0
LINE
5
7a4
100
AcDbEntity
8
0-1
6
CONTINUOUS
62
3
100
AcDbLine
10
381.970000000000
20
420.940000000000
30
0.0
11
342.970000000000
21
420.940000000000
31
0.0
0
LINE
5
7a5
100
AcDbEntity
8
0-1
6
CONTINUOUS
62
3
100
AcDbLine
10
381.970000000000
20
424.140000000000
30
0.0
11
342.970000000000
21
424.140000000000
31
0.0
0
LINE
5
7a6
100
AcDbEntity
8
0-1
6
CONTINUOUS
62
3
100
AcDbLine
10
342.970000000000
20
420.940000000000
30
0.0
11
342.970000000000
21
530.140000000000
31
0.0
0
LINE
5
7a7
100
AcDbEntity
8
0-1
6
CONTINUOUS
62
3
100
AcDbLine
10
381.970000000000
20
420.940000000000
30
0.0
11
381.970000000000
21
530.140000000000
31
0.0
0
LINE
5
7a8
100
AcDbEntity
8
0-2
6
CONTINUOUS
62
7
100
AcDbLine
10
1050.520000000000
20
435.940000000000
30
0.0
11
1036.070000000000
21
435.940000000000
31
0.0
0
LINE
5
7a9
100
AcDbEntity
8
0-2
6
CONTINUOUS
62
7
100
AcDbLine
10
1050.520000000000
20
435.940000000000
30
0.0
11
1050.520000000000
21
420.940000000000
31
0.0
0
LINE
5
7aa
100
AcDbEntity
8
0-2
6
CONTINUOUS
62
7
100
AcDbLine
10
631.660000000000
20
573.640000000000
30
0.0
11
638.910000000000
21
573.640000000000
31
0.0
0
LINE
5
7ab
100
AcDbEntity
8
0-2
6
CONTINUOUS
62
4
100
AcDbLine
10
615.750000000000
20
556.890000000000
30
0.0
11
612.930000000000
21
559.720000000000
31
0.0
0
LINE
5
7ac
100
AcDbEntity
8
0-2
6
CONTINUOUS
62
4
100
AcDbLine
10
614.380000000000
20
555.440000000000
30
0.0
11
611.550000000000
21
558.270000000000
31
0.0
0
LINE
5
7ad
100
AcDbEntity
8
0-2
6
CONTINUOUS
62
4
100
AcDbLine
10
630.850000000000
20
577.640000000000
30
0.0
11
612.780000000000
21
559.560000000000
31
0.0
0
LINE
5
7ae
100
AcDbEntity
8
0-2
6
CONTINUOUS
62
4
100
AcDbLine
10
615.640000000000
20
556.770000000000
30
0.0
11
569.510000000000
21
510.650000000000
31
0.0
0
LINE
5
7af
100
AcDbEntity
8
0-2
6
CONTINUOUS
62
4
100
AcDbLine
10
621.270000000000
20
562.690000000000
30
0.0
11
618.440000000000
21
565.520000000000
31
0.0
0
LINE
5
7b0
100
AcDbEntity
8
0-2
6
CONTINUOUS
62
4
100
AcDbLine
10
619.890000000000
20
561.240000000000
30
0.0
11
617.060000000000
21
564.070000000000
31
0.0
0
LINE
5
7b1
100
AcDbEntity
8
0-2
6
CONTINUOUS
62
4
100
AcDbLine
10
618.510000000000
20
559.790000000000
30
0.0
11
615.680000000000
21
562.620000000000
31
0.0
0
LINE
5
7b2
100
AcDbEntity
8
0-2
6
CONTINUOUS
62
4
100
AcDbLine
10
617.130000000000
20
558.340000000000
30
0.0
11
614.300000000000
21
561.170000000000
31
0.0
0
LINE
5
7b3
100
AcDbEntity
8
0-2
6
CONTINUOUS
62
4
100
AcDbLine
10
622.640000000000
20
564.150000000000
30
0.0
11
619.820000000000
21
566.970000000000
31
0.0
0
LINE
5
7b4
100
AcDbEntity
8
0-2
6
CONTINUOUS
62
4
100
AcDbLine
10
630.910000000000
20
572.850000000000
30
0.0
11
628.080000000000
21
575.680000000000
31
0.0
0
LINE
5
7b5
100
AcDbEntity
8
0-2
6
CONTINUOUS
62
4
100
AcDbLine
10
629.530000000000
20
571.400000000000
30
0.0
11
626.700000000000
21
574.230000000000
31
0.0
0
LINE
5
7b6
100
AcDbEntity
8
0-2
6
CONTINUOUS
62
4
100
AcDbLine
10
628.160000000000
20
569.950000000000
30
0.0
11
625.330000000000
21
572.780000000000
31
0.0
0
LINE
5
7b7
100
AcDbEntity
8
0-2
6
CONTINUOUS
62
4
100
AcDbLine
10
626.780000000000
20
568.500000000000
30
0.0
11
623.950000000000
21
571.330000000000
31
0.0
0
LINE
5
7b8
100
AcDbEntity
8
0-2
6
CONTINUOUS
62
4
100
AcDbLine
10
625.400000000000
20
567.050000000000
30
0.0
11
622.570000000000
21
569.880000000000
31
0.0
0
LINE
5
7b9
100
AcDbEntity
8
0-2
6
CONTINUOUS
62
4
100
AcDbLine
10
624.020000000000
20
565.600000000000
30
0.0
11
621.190000000000
21
568.420000000000
31
0.0
0
LINE
5
7ba
100
AcDbEntity
8
0-2
6
CONTINUOUS
62
4
100
AcDbLine
10
633.680000000000
20
577.640000000000
30
0.0
11
569.510000000000
21
513.470000000000
31
0.0
0
LINE
5
7bb
100
AcDbEntity
8
0-2
6
CONTINUOUS
62
4
100
AcDbLine
10
636.500000000000
20
577.640000000000
30
0.0
11
632.500000000000
21
573.640000000000
31
0.0
0
LINE
5
7bc
100
AcDbEntity
8
0-2
6
CONTINUOUS
62
4
100
AcDbLine
10
632.950000000000
20
573.640000000000
30
0.0
11
629.460000000000
21
577.130000000000
31
0.0
0
LINE
5
7bd
100
AcDbEntity
8
0-2
6
CONTINUOUS
62
4
100
AcDbLine
10
635.780000000000
20
573.640000000000
30
0.0
11
631.780000000000
21
577.640000000000
31
0.0
0
LINE
5
7be
100
AcDbEntity
8
0-2
6
CONTINUOUS
62
4
100
AcDbLine
10
638.610000000000
20
573.640000000000
30
0.0
11
634.610000000000
21
577.640000000000
31
0.0
0
LINE
5
7bf
100
AcDbEntity
8
0-2
6
CONTINUOUS
62
4
100
AcDbLine
10
638.910000000000
20
576.160000000000
30
0.0
11
637.440000000000
21
577.640000000000
31
0.0
0
LINE
5
7c0
100
AcDbEntity
8
0-2
6
CONTINUOUS
62
4
100
AcDbLine
10
639.330000000000
20
577.640000000000
30
0.0
11
635.330000000000
21
573.640000000000
31
0.0
0
LINE
5
7c1
100
AcDbEntity
8
0-2
6
CONTINUOUS
62
4
100
AcDbLine
10
638.910000000000
20
574.390000000000
30
0.0
11
638.160000000000
21
573.640000000000
31
0.0
0
LINE
5
7c2
100
AcDbEntity
8
0-2
6
CONTINUOUS
62
4
100
AcDbLine
10
726.150000000000
20
554.110000000000
30
0.0
11
728.860000000000
21
556.820000000000
31
0.0
0
LINE
5
7c3
100
AcDbEntity
8
0-2
6
CONTINUOUS
62
4
100
AcDbLine
10
724.870000000000
20
555.660000000000
30
0.0
11
727.480000000000
21
558.270000000000
31
0.0
0
LINE
5
7c4
100
AcDbEntity
8
0-2
6
CONTINUOUS
62
4
100
AcDbLine
10
723.590000000000
20
557.210000000000
30
0.0
11
726.100000000000
21
559.720000000000
31
0.0
0
LINE
5
7c5
100
AcDbEntity
8
0-2
6
CONTINUOUS
62
4
100
AcDbLine
10
722.310000000000
20
558.760000000000
30
0.0
11
724.730000000000
21
561.170000000000
31
0.0
0
LINE
5
7c6
100
AcDbEntity
8
0-2
6
CONTINUOUS
62
7
100
AcDbLine
10
801.190000000000
20
474.880000000000
30
0.0
11
727.730000000000
21
552.210000000000
31
0.0
0
LINE
5
7c7
100
AcDbEntity
8
0-2
6
CONTINUOUS
62
4
100
AcDbLine
10
726.640000000000
20
553.520000000000
30
0.0
11
806.520000000000
21
473.640000000000
31
0.0
0
LINE
5
7c8
100
AcDbEntity
8
0-2
6
CONTINUOUS
62
4
100
AcDbLine
10
706.590000000000
20
576.980000000000
30
0.0
11
707.250000000000
21
577.640000000000
31
0.0
0
LINE
5
7c9
100
AcDbEntity
8
0-2
6
CONTINUOUS
62
4
100
AcDbLine
10
708.230000000000
20
575.790000000000
30
0.0
11
709.570000000000
21
577.130000000000
31
0.0
0
LINE
5
7ca
100
AcDbEntity
8
0-2
6
CONTINUOUS
62
4
100
AcDbLine
10
709.510000000000
20
574.240000000000
30
0.0
11
710.950000000000
21
575.680000000000
31
0.0
0
LINE
5
7cb
100
AcDbEntity
8
0-2
6
CONTINUOUS
62
4
100
AcDbLine
10
710.790000000000
20
572.690000000000
30
0.0
11
712.320000000000
21
574.230000000000
31
0.0
0
LINE
5
7cc
100
AcDbEntity
8
0-2
6
CONTINUOUS
62
4
100
AcDbLine
10
712.070000000000
20
571.140000000000
30
0.0
11
713.700000000000
21
572.780000000000
31
0.0
0
LINE
5
7cd
100
AcDbEntity
8
0-2
6
CONTINUOUS
62
4
100
AcDbLine
10
713.350000000000
20
569.600000000000
30
0.0
11
715.080000000000
21
571.330000000000
31
0.0
0
LINE
5
7ce
100
AcDbEntity
8
0-2
6
CONTINUOUS
62
4
100
AcDbLine
10
714.630000000000
20
568.050000000000
30
0.0
11
716.460000000000
21
569.880000000000
31
0.0
0
LINE
5
7cf
100
AcDbEntity
8
0-2
6
CONTINUOUS
62
4
100
AcDbLine
10
715.910000000000
20
566.500000000000
30
0.0
11
717.840000000000
21
568.420000000000
31
0.0
0
LINE
5
7d0
100
AcDbEntity
8
0-2
6
CONTINUOUS
62
4
100
AcDbLine
10
717.190000000000
20
564.950000000000
30
0.0
11
719.210000000000
21
566.970000000000
31
0.0
0
LINE
5
7d1
100
AcDbEntity
8
0-2
6
CONTINUOUS
62
4
100
AcDbLine
10
718.470000000000
20
563.400000000000
30
0.0
11
720.590000000000
21
565.520000000000
31
0.0
0
LINE
5
7d2
100
AcDbEntity
8
0-2
6
CONTINUOUS
62
4
100
AcDbLine
10
719.750000000000
20
561.850000000000
30
0.0
11
721.970000000000
21
564.070000000000
31
0.0
0
LINE
5
7d3
100
AcDbEntity
8
0-2
6
CONTINUOUS
62
4
100
AcDbLine
10
721.030000000000
20
560.310000000000
30
0.0
11
723.350000000000
21
562.620000000000
31
0.0
0
LINE
5
7d4
100
AcDbEntity
8
0-2
6
CONTINUOUS
62
4
100
AcDbLine
10
713.130000000000
20
569.850000000000
30
0.0
11
779.990000000000
21
503.000000000000
31
0.0
0
LINE
5
7d5
100
AcDbEntity
8
0-2
6
CONTINUOUS
62
7
100
AcDbLine
10
1181.660000000000
20
573.640000000000
30
0.0
11
1188.910000000000
21
573.640000000000
31
0.0
0
LINE
5
7d6
100
AcDbEntity
8
0-2
6
CONTINUOUS
62
4
100
AcDbLine
10
1171.270000000000
20
562.690000000000
30
0.0
11
1168.440000000000
21
565.520000000000
31
0.0
0
LINE
5
7d7
100
AcDbEntity
8
0-2
6
CONTINUOUS
62
4
100
AcDbLine
10
1169.890000000000
20
561.240000000000
30
0.0
11
1167.060000000000
21
564.070000000000
31
0.0
0
LINE
5
7d8
100
AcDbEntity
8
0-2
6
CONTINUOUS
62
4
100
AcDbLine
10
1172.640000000000
20
564.150000000000
30
0.0
11
1169.820000000000
21
566.970000000000
31
0.0
0
LINE
5
7d9
100
AcDbEntity
8
0-2
6
CONTINUOUS
62
4
100
AcDbLine
10
1180.910000000000
20
572.850000000000
30
0.0
11
1178.080000000000
21
575.680000000000
31
0.0
0
LINE
5
7da
100
AcDbEntity
8
0-2
6
CONTINUOUS
62
4
100
AcDbLine
10
1179.530000000000
20
571.400000000000
30
0.0
11
1176.700000000000
21
574.230000000000
31
0.0
0
LINE
5
7db
100
AcDbEntity
8
0-2
6
CONTINUOUS
62
4
100
AcDbLine
10
1178.160000000000
20
569.950000000000
30
0.0
11
1175.330000000000
21
572.780000000000
31
0.0
0
LINE
5
7dc
100
AcDbEntity
8
0-2
6
CONTINUOUS
62
4
100
AcDbLine
10
1176.780000000000
20
568.500000000000
30
0.0
11
1173.950000000000
21
571.330000000000
31
0.0
0
LINE
5
7dd
100
AcDbEntity
8
0-2
6
CONTINUOUS
62
4
100
AcDbLine
10
1175.400000000000
20
567.050000000000
30
0.0
11
1172.570000000000
21
569.880000000000
31
0.0
0
LINE
5
7de
100
AcDbEntity
8
0-2
6
CONTINUOUS
62
4
100
AcDbLine
10
1174.020000000000
20
565.600000000000
30
0.0
11
1171.190000000000
21
568.420000000000
31
0.0
0
LINE
5
7df
100
AcDbEntity
8
0-2
6
CONTINUOUS
62
4
100
AcDbLine
10
1186.500000000000
20
577.640000000000
30
0.0
11
1182.500000000000
21
573.640000000000
31
0.0
0
LINE
5
7e0
100
AcDbEntity
8
0-2
6
CONTINUOUS
62
4
100
AcDbLine
10
1182.950000000000
20
573.640000000000
30
0.0
11
1179.460000000000
21
577.130000000000
31
0.0
0
LINE
5
7e1
100
AcDbEntity
8
0-2
6
CONTINUOUS
62
4
100
AcDbLine
10
1185.780000000000
20
573.640000000000
30
0.0
11
1181.780000000000
21
577.640000000000
31
0.0
0
LINE
5
7e2
100
AcDbEntity
8
0-2
6
CONTINUOUS
62
4
100
AcDbLine
10
1188.610000000000
20
573.640000000000
30
0.0
11
1184.610000000000
21
577.640000000000
31
0.0
0
LINE
5
7e3
100
AcDbEntity
8
0-2
6
CONTINUOUS
62
4
100
AcDbLine
10
1188.910000000000
20
576.160000000000
30
0.0
11
1187.440000000000
21
577.640000000000
31
0.0
0
LINE
5
7e4
100
AcDbEntity
8
0-2
6
CONTINUOUS
62
4
100
AcDbLine
10
1189.330000000000
20
577.640000000000
30
0.0
11
1185.330000000000
21
573.640000000000
31
0.0
0
LINE
5
7e5
100
AcDbEntity
8
0-2
6
CONTINUOUS
62
4
100
AcDbLine
10
1188.910000000000
20
574.390000000000
30
0.0
11
1188.160000000000
21
573.640000000000
31
0.0
0
LINE
5
7e6
100
AcDbEntity
8
0-2
6
CONTINUOUS
62
4
100
AcDbLine
10
1183.680000000000
20
577.640000000000
30
0.0
11
1109.040000000000
21
503.000000000000
31
0.0
0
LINE
5
7e7
100
AcDbEntity
8
0-2
6
CONTINUOUS
62
4
100
AcDbLine
10
1168.510000000000
20
559.790000000000
30
0.0
11
1165.680000000000
21
562.620000000000
31
0.0
0
LINE
5
7e8
100
AcDbEntity
8
0-2
6
CONTINUOUS
62
4
100
AcDbLine
10
1167.130000000000
20
558.340000000000
30
0.0
11
1164.300000000000
21
561.170000000000
31
0.0
0
LINE
5
7e9
100
AcDbEntity
8
0-2
6
CONTINUOUS
62
4
100
AcDbLine
10
1165.750000000000
20
556.890000000000
30
0.0
11
1162.930000000000
21
559.720000000000
31
0.0
0
LINE
5
7ea
100
AcDbEntity
8
0-2
6
CONTINUOUS
62
4
100
AcDbLine
10
1180.850000000000
20
577.640000000000
30
0.0
11
1162.780000000000
21
559.560000000000
31
0.0
0
LINE
5
7eb
100
AcDbEntity
8
0-2
6
CONTINUOUS
62
7
100
AcDbLine
10
1319.510000000000
20
508.220000000000
30
0.0
11
1277.730000000000
21
552.210000000000
31
0.0
0
LINE
5
7ec
100
AcDbEntity
8
0-2
6
CONTINUOUS
62
4
100
AcDbLine
10
1284.300000000000
20
545.290000000000
30
0.0
11
1287.130000000000
21
548.120000000000
31
0.0
0
LINE
5
7ed
100
AcDbEntity
8
0-2
6
CONTINUOUS
62
4
100
AcDbLine
10
1277.430000000000
20
552.560000000000
30
0.0
11
1280.240000000000
21
555.370000000000
31
0.0
0
LINE
5
7ee
100
AcDbEntity
8
0-2
6
CONTINUOUS
62
4
100
AcDbLine
10
1276.640000000000
20
553.520000000000
30
0.0
11
1319.510000000000
21
510.650000000000
31
0.0
0
LINE
5
7ef
100
AcDbEntity
8
0-2
6
CONTINUOUS
62
4
100
AcDbLine
10
1276.150000000000
20
554.110000000000
30
0.0
11
1278.860000000000
21
556.820000000000
31
0.0
0
LINE
5
7f0
100
AcDbEntity
8
0-2
6
CONTINUOUS
62
4
100
AcDbLine
10
1274.870000000000
20
555.660000000000
30
0.0
11
1277.480000000000
21
558.270000000000
31
0.0
0
LINE
5
7f1
100
AcDbEntity
8
0-2
6
CONTINUOUS
62
4
100
AcDbLine
10
1273.590000000000
20
557.210000000000
30
0.0
11
1276.100000000000
21
559.720000000000
31
0.0
0
LINE
5
7f2
100
AcDbEntity
8
0-2
6
CONTINUOUS
62
4
100
AcDbLine
10
1272.310000000000
20
558.760000000000
30
0.0
11
1274.730000000000
21
561.170000000000
31
0.0
0
LINE
5
7f3
100
AcDbEntity
8
0-2
6
CONTINUOUS
62
4
100
AcDbLine
10
1274.870000000000
20
555.660000000000
30
0.0
11
1277.480000000000
21
558.270000000000
31
0.0
0
LINE
5
7f4
100
AcDbEntity
8
0-2
6
CONTINUOUS
62
4
100
AcDbLine
10
1273.590000000000
20
557.210000000000
30
0.0
11
1276.100000000000
21
559.720000000000
31
0.0
0
LINE
5
7f5
100
AcDbEntity
8
0-2
6
CONTINUOUS
62
4
100
AcDbLine
10
1272.310000000000
20
558.760000000000
30
0.0
11
1274.730000000000
21
561.170000000000
31
0.0
0
LINE
5
7f6
100
AcDbEntity
8
0-2
6
CONTINUOUS
62
4
100
AcDbLine
10
1256.590000000000
20
576.980000000000
30
0.0
11
1257.250000000000
21
577.640000000000
31
0.0
0
LINE
5
7f7
100
AcDbEntity
8
0-2
6
CONTINUOUS
62
4
100
AcDbLine
10
1258.230000000000
20
575.790000000000
30
0.0
11
1259.570000000000
21
577.130000000000
31
0.0
0
LINE
5
7f8
100
AcDbEntity
8
0-2
6
CONTINUOUS
62
4
100
AcDbLine
10
1259.510000000000
20
574.240000000000
30
0.0
11
1260.950000000000
21
575.680000000000
31
0.0
0
LINE
5
7f9
100
AcDbEntity
8
0-2
6
CONTINUOUS
62
4
100
AcDbLine
10
1260.790000000000
20
572.690000000000
30
0.0
11
1262.320000000000
21
574.230000000000
31
0.0
0
LINE
5
7fa
100
AcDbEntity
8
0-2
6
CONTINUOUS
62
4
100
AcDbLine
10
1262.070000000000
20
571.140000000000
30
0.0
11
1263.700000000000
21
572.780000000000
31
0.0
0
LINE
5
7fb
100
AcDbEntity
8
0-2
6
CONTINUOUS
62
4
100
AcDbLine
10
1263.350000000000
20
569.600000000000
30
0.0
11
1265.080000000000
21
571.330000000000
31
0.0
0
LINE
5
7fc
100
AcDbEntity
8
0-2
6
CONTINUOUS
62
4
100
AcDbLine
10
1264.630000000000
20
568.050000000000
30
0.0
11
1266.460000000000
21
569.880000000000
31
0.0
0
LINE
5
7fd
100
AcDbEntity
8
0-2
6
CONTINUOUS
62
4
100
AcDbLine
10
1265.910000000000
20
566.500000000000
30
0.0
11
1267.840000000000
21
568.420000000000
31
0.0
0
LINE
5
7fe
100
AcDbEntity
8
0-2
6
CONTINUOUS
62
4
100
AcDbLine
10
1267.190000000000
20
564.950000000000
30
0.0
11
1269.210000000000
21
566.970000000000
31
0.0
0
LINE
5
7ff
100
AcDbEntity
8
0-2
6
CONTINUOUS
62
4
100
AcDbLine
10
1268.470000000000
20
563.400000000000
30
0.0
11
1270.590000000000
21
565.520000000000
31
0.0
0
LINE
5
800
100
AcDbEntity
8
0-2
6
CONTINUOUS
62
4
100
AcDbLine
10
1269.750000000000
20
561.850000000000
30
0.0
11
1271.970000000000
21
564.070000000000
31
0.0
0
LINE
5
801
100
AcDbEntity
8
0-2
6
CONTINUOUS
62
4
100
AcDbLine
10
1271.030000000000
20
560.310000000000
30
0.0
11
1273.350000000000
21
562.620000000000
31
0.0
0
LINE
5
802
100
AcDbEntity
8
0-2
6
CONTINUOUS
62
3
100
AcDbLine
10
1319.510000000000
20
496.640000000000
30
0.0
11
1255.610000000000
21
573.940000000000
31
0.0
0
LINE
5
803
100
AcDbEntity
8
0-2
6
CONTINUOUS
62
4
100
AcDbLine
10
1318.750000000000
20
509.030000000000
30
0.0
11
1319.510000000000
21
509.790000000000
31
0.0
0
LINE
5
804
100
AcDbEntity
8
0-2
6
CONTINUOUS
62
4
100
AcDbLine
10
1317.370000000000
20
510.480000000000
30
0.0
11
1319.510000000000
21
512.620000000000
31
0.0
0
LINE
5
805
100
AcDbEntity
8
0-2
6
CONTINUOUS
62
3
100
AcDbLine
10
1319.510000000000
20
501.660000000000
30
0.0
11
1258.070000000000
21
575.980000000000
31
0.0
0
LINE
5
806
100
AcDbEntity
8
0-2
6
CONTINUOUS
62
3
100
AcDbLine
10
670.110000000000
20
424.140000000000
30
0.0
11
569.510000000000
21
424.140000000000
31
0.0
0
POLYLINE
5
807
100
AcDbEntity
8
0-2
6
CONTINUOUS
62
  3
100
AcDb2dPolyline
66
1
10
0.0
20
0.0
30
0.0
70
0
0
VERTEX
5
808
100
AcDbEntity
8
0-2
6
CONTINUOUS
62
  3
100
AcDbVertex
100
AcDb2dVertex
10
670.110000000000
20
420.940000000000
30
0.0
0
VERTEX
5
809
100
AcDbEntity
8
0-2
6
CONTINUOUS
62
  3
100
AcDbVertex
100
AcDb2dVertex
10
569.510000000000
20
420.940000000000
30
0.0
0
VERTEX
5
80a
100
AcDbEntity
8
0-2
6
CONTINUOUS
62
  3
100
AcDbVertex
100
AcDb2dVertex
10
1319.510000000000
20
420.940000000000
30
0.0
0
SEQEND
5
80b
100
AcDbEntity
8
0-2
0
LINE
5
80c
100
AcDbEntity
8
0-2
6
CONTINUOUS
62
7
100
AcDbLine
10
668.910000000000
20
531.340000000000
30
0.0
11
668.910000000000
21
577.140000000000
31
0.0
0
LINE
5
80d
100
AcDbEntity
8
0-2
6
CONTINUOUS
62
7
100
AcDbLine
10
670.110000000000
20
577.140000000000
30
0.0
11
670.110000000000
21
571.140000000000
31
0.0
0
LINE
5
80e
100
AcDbEntity
8
0-2
6
CONTINUOUS
62
7
100
AcDbLine
10
668.910000000000
20
577.140000000000
30
0.0
11
669.010000000000
21
580.640000000000
31
0.0
0
LINE
5
80f
100
AcDbEntity
8
0-2
6
CONTINUOUS
62
7
100
AcDbLine
10
670.110000000000
20
577.140000000000
30
0.0
11
670.010000000000
21
580.640000000000
31
0.0
0
LINE
5
810
100
AcDbEntity
8
0-2
6
CONTINUOUS
62
7
100
AcDbLine
10
1220.110000000000
20
577.140000000000
30
0.0
11
1220.110000000000
21
571.140000000000
31
0.0
0
LINE
5
811
100
AcDbEntity
8
0-2
6
CONTINUOUS
62
7
100
AcDbLine
10
1218.910000000000
20
531.340000000000
30
0.0
11
1218.910000000000
21
577.140000000000
31
0.0
0
LINE
5
812
100
AcDbEntity
8
0-2
6
CONTINUOUS
62
7
100
AcDbLine
10
1218.910000000000
20
577.140000000000
30
0.0
11
1219.010000000000
21
580.640000000000
31
0.0
0
LINE
5
813
100
AcDbEntity
8
0-2
6
CONTINUOUS
62
7
100
AcDbLine
10
1220.110000000000
20
577.140000000000
30
0.0
11
1220.010000000000
21
580.640000000000
31
0.0
0
POLYLINE
5
814
100
AcDbEntity
8
0-1
6
CONTINUOUS
62
  7
100
AcDb2dPolyline
66
1
10
0.0
20
0.0
30
0.0
70
0
0
VERTEX
5
815
100
AcDbEntity
8
0-1
6
CONTINUOUS
62
  7
100
AcDbVertex
100
AcDb2dVertex
10
302.470000000000
20
614.640000000000
30
0.0
0
VERTEX
5
816
100
AcDbEntity
8
0-1
6
CONTINUOUS
62
  7
100
AcDbVertex
100
AcDb2dVertex
10
302.470000000000
20
629.640000000000
30
0.0
0
VERTEX
5
817
100
AcDbEntity
8
0-1
6
CONTINUOUS
62
  7
100
AcDbVertex
100
AcDb2dVertex
10
422.470000000000
20
629.640000000000
30
0.0
0
SEQEND
5
818
100
AcDbEntity
8
0-1
0
LINE
5
819
100
AcDbEntity
8
0-1
6
CONTINUOUS
62
7
100
AcDbLine
10
422.470000000000
20
614.640000000000
30
0.0
11
422.470000000000
21
629.640000000000
31
0.0
0
LINE
5
81a
100
AcDbEntity
8
0-1
6
CONTINUOUS
62
3
100
AcDbLine
10
302.470000000000
20
579.740000000000
30
0.0
11
247.470000000000
21
579.740000000000
31
0.0
0
LINE
5
81b
100
AcDbEntity
8
0-1
6
DOT
62
3
100
AcDbLine
10
302.470000000000
20
579.740000000000
30
0.0
11
422.470000000000
21
579.740000000000
31
0.0
0
LINE
5
81c
100
AcDbEntity
8
0-1
6
CONTINUOUS
62
3
100
AcDbLine
10
477.470000000000
20
579.740000000000
30
0.0
11
422.470000000000
21
579.740000000000
31
0.0
0
POLYLINE
5
81d
100
AcDbEntity
8
0-1
6
CONTINUOUS
62
  7
100
AcDb2dPolyline
66
1
10
0.0
20
0.0
30
0.0
70
0
0
VERTEX
5
81e
100
AcDbEntity
8
0-1
6
CONTINUOUS
62
  7
100
AcDbVertex
100
AcDb2dVertex
10
237.470000000000
20
438.640000000000
30
0.0
0
VERTEX
5
81f
100
AcDbEntity
8
0-1
6
CONTINUOUS
62
  7
100
AcDbVertex
100
AcDb2dVertex
10
222.470000000000
20
438.640000000000
30
0.0
0
VERTEX
5
820
100
AcDbEntity
8
0-1
6
CONTINUOUS
62
  7
100
AcDbVertex
100
AcDb2dVertex
10
222.470000000000
20
420.940000000000
30
0.0
0
SEQEND
5
821
100
AcDbEntity
8
0-1
0
LINE
5
822
100
AcDbEntity
8
0-1
6
CONTINUOUS
62
7
100
AcDbLine
10
342.970000000000
20
453.860000000000
30
0.0
11
381.970000000000
21
453.860000000000
31
0.0
0
ARC
5
823
100
AcDbEntity
8
0-0
6
CONTINUOUS
62
7
100
AcDbCircle
10
674.710000000000
20
962.350000000000
30
0.0
40
3.999771559161
100
AcDbArc
50
180.000000000000
51
270.000000000000
0
ARC
5
824
100
AcDbEntity
8
0-0
6
CONTINUOUS
62
7
100
AcDbCircle
10
673.010000000000
20
943.230000000000
30
0.0
40
2.999828862913
100
AcDbArc
50
180.000000000000
51
-90.000000000000
0
ARC
5
825
100
AcDbEntity
8
0-0
6
CONTINUOUS
62
7
100
AcDbCircle
10
673.010000000000
20
951.350000000000
30
0.0
40
2.999828862913
100
AcDbArc
50
90.000000000000
51
180.000000000000
0
ARC
5
826
100
AcDbEntity
8
0-0
6
CONTINUOUS
62
7
100
AcDbCircle
10
674.710000000000
20
956.350000000000
30
0.0
40
1.999885779580
100
AcDbArc
50
270.000000000000
51
360.000000000000
0
ARC
5
827
100
AcDbEntity
8
0-0
6
CONTINUOUS
62
7
100
AcDbCircle
10
674.710000000000
20
956.350000000000
30
0.0
40
1.999885779580
100
AcDbArc
50
360.000000000000
51
450.000000000000
0
ARC
5
828
100
AcDbEntity
8
0-0
6
CONTINUOUS
62
7
100
AcDbCircle
10
674.710000000000
20
956.350000000000
30
0.0
40
2.999828862913
100
AcDbArc
50
360.000000000000
51
374.835113525391
0
ARC
5
829
100
AcDbEntity
8
0-0
6
CONTINUOUS
62
7
100
AcDbCircle
10
674.710000000000
20
956.350000000000
30
0.0
40
2.999828862913
100
AcDbArc
50
270.000000000000
51
360.000000000000
0
ARC
5
82a
100
AcDbEntity
8
0-0
6
CONTINUOUS
62
7
100
AcDbCircle
10
674.710000000000
20
962.350000000000
30
0.0
40
2.999828862913
100
AcDbArc
50
180.000000000000
51
270.000000000000
0
ARC
5
82b
100
AcDbEntity
8
0-0
6
CONTINUOUS
62
7
100
AcDbCircle
10
674.710000000000
20
956.350000000000
30
0.0
40
2.999828862913
100
AcDbArc
50
360.000000000000
51
450.000000000000
0
ARC
5
82c
100
AcDbEntity
8
0-0
6
CONTINUOUS
62
7
100
AcDbCircle
10
673.010000000000
20
951.350000000000
30
0.0
40
1.999885779580
100
AcDbArc
50
90.000000000000
51
180.000000000000
0
ARC
5
82d
100
AcDbEntity
8
0-0
6
CONTINUOUS
62
7
100
AcDbCircle
10
673.010000000000
20
943.230000000000
30
0.0
40
1.999885779580
100
AcDbArc
50
180.000000000000
51
-90.000000000000
0
ARC
5
82e
100
AcDbEntity
8
0-0
6
CONTINUOUS
62
7
100
AcDbCircle
10
913.270000000000
20
798.230000000000
30
0.0
40
1.999999776107
100
AcDbArc
50
45.000244140625
51
90.000000000000
0
ARC
5
82f
100
AcDbEntity
8
0-0
6
CONTINUOUS
62
7
100
AcDbCircle
10
913.270000000000
20
798.230000000000
30
0.0
40
2.999999760932
100
AcDbArc
50
45.000244140625
51
90.000000000000
0
ARC
5
830
100
AcDbEntity
8
0-0
6
CONTINUOUS
62
7
100
AcDbCircle
10
918.340000000000
20
800.230000000000
30
0.0
40
1.999999776107
100
AcDbArc
50
225.000244140625
51
270.000000000000
0
ARC
5
831
100
AcDbEntity
8
0-0
6
CONTINUOUS
62
7
100
AcDbCircle
10
918.340000000000
20
800.230000000000
30
0.0
40
2.999999760932
100
AcDbArc
50
225.000244140625
51
270.000000000000
0
ARC
5
832
100
AcDbEntity
8
0-0
6
CONTINUOUS
62
7
100
AcDbCircle
10
865.370000000000
20
803.230000000000
30
0.0
40
1.999999776107
100
AcDbArc
50
223.531219482422
51
270.000000000000
0
ARC
5
833
100
AcDbEntity
8
0-0
6
CONTINUOUS
62
7
100
AcDbCircle
10
865.370000000000
20
803.230000000000
30
0.0
40
2.999999760932
100
AcDbArc
50
223.531219482422
51
270.000000000000
0
ARC
5
834
100
AcDbEntity
8
0-0
6
CONTINUOUS
62
7
100
AcDbCircle
10
825.230000000000
20
838.230000000000
30
0.0
40
1.999999776107
100
AcDbArc
50
43.531219482422
51
90.000000000000
0
ARC
5
835
100
AcDbEntity
8
0-0
6
CONTINUOUS
62
7
100
AcDbCircle
10
825.230000000000
20
838.230000000000
30
0.0
40
2.999999760932
100
AcDbArc
50
43.531219482422
51
90.000000000000
0
ARC
5
836
100
AcDbEntity
8
0-0
6
CONTINUOUS
62
7
100
AcDbCircle
10
805.370000000000
20
843.230000000000
30
0.0
40
1.999999776107
100
AcDbArc
50
223.531341552734
51
270.000000000000
0
ARC
5
837
100
AcDbEntity
8
0-0
6
CONTINUOUS
62
7
100
AcDbCircle
10
805.370000000000
20
843.230000000000
30
0.0
40
2.999999760932
100
AcDbArc
50
223.531341552734
51
270.000000000000
0
ARC
5
838
100
AcDbEntity
8
0-0
6
CONTINUOUS
62
7
100
AcDbCircle
10
708.230000000000
20
938.230000000000
30
0.0
40
1.999999776107
100
AcDbArc
50
43.531280517578
51
90.000000000000
0
ARC
5
839
100
AcDbEntity
8
0-0
6
CONTINUOUS
62
7
100
AcDbCircle
10
708.230000000000
20
938.230000000000
30
0.0
40
2.999999760932
100
AcDbArc
50
43.531280517578
51
90.000000000000
0
ARC
5
83a
100
AcDbEntity
8
0-0
6
CONTINUOUS
62
7
100
AcDbCircle
10
1216.020000000000
20
943.230000000000
30
0.0
40
2.999828862913
100
AcDbArc
50
270.000000000000
51
0.000000000000
0
ARC
5
83b
100
AcDbEntity
8
0-0
6
CONTINUOUS
62
7
100
AcDbCircle
10
1216.020000000000
20
943.230000000000
30
0.0
40
1.999885779580
100
AcDbArc
50
270.000000000000
51
0.000000000000
0
ARC
5
83c
100
AcDbEntity
8
0-0
6
CONTINUOUS
62
7
100
AcDbCircle
10
975.760000000000
20
798.230000000000
30
0.0
40
1.999999776107
100
AcDbArc
50
90.000000000000
51
134.999755859375
0
ARC
5
83d
100
AcDbEntity
8
0-0
6
CONTINUOUS
62
7
100
AcDbCircle
10
975.760000000000
20
798.230000000000
30
0.0
40
2.999999760932
100
AcDbArc
50
90.000000000000
51
134.999755859375
0
ARC
5
83e
100
AcDbEntity
8
0-0
6
CONTINUOUS
62
7
100
AcDbCircle
10
970.690000000000
20
800.230000000000
30
0.0
40
1.999999776107
100
AcDbArc
50
270.000000000000
51
314.999755859375
0
ARC
5
83f
100
AcDbEntity
8
0-0
6
CONTINUOUS
62
7
100
AcDbCircle
10
970.690000000000
20
800.230000000000
30
0.0
40
2.999999760932
100
AcDbArc
50
270.000000000000
51
314.999755859375
0
ARC
5
840
100
AcDbEntity
8
0-0
6
CONTINUOUS
62
7
100
AcDbCircle
10
1023.660000000000
20
803.230000000000
30
0.0
40
1.999999776107
100
AcDbArc
50
270.000000000000
51
316.468780517578
0
ARC
5
841
100
AcDbEntity
8
0-0
6
CONTINUOUS
62
7
100
AcDbCircle
10
1023.660000000000
20
803.230000000000
30
0.0
40
2.999999760932
100
AcDbArc
50
270.000000000000
51
316.468780517578
0
ARC
5
842
100
AcDbEntity
8
0-0
6
CONTINUOUS
62
7
100
AcDbCircle
10
1063.800000000000
20
838.230000000000
30
0.0
40
1.999999776107
100
AcDbArc
50
90.000000000000
51
136.468780517578
0
ARC
5
843
100
AcDbEntity
8
0-0
6
CONTINUOUS
62
7
100
AcDbCircle
10
1063.800000000000
20
838.230000000000
30
0.0
40
2.999999760932
100
AcDbArc
50
90.000000000000
51
136.468780517578
0
ARC
5
844
100
AcDbEntity
8
0-0
6
CONTINUOUS
62
7
100
AcDbCircle
10
1083.660000000000
20
843.230000000000
30
0.0
40
1.999999776107
100
AcDbArc
50
270.000000000000
51
316.468658447266
0
ARC
5
845
100
AcDbEntity
8
0-0
6
CONTINUOUS
62
7
100
AcDbCircle
10
1083.660000000000
20
843.230000000000
30
0.0
40
2.999999760932
100
AcDbArc
50
270.000000000000
51
316.468658447266
0
ARC
5
846
100
AcDbEntity
8
0-0
6
CONTINUOUS
62
7
100
AcDbCircle
10
1180.800000000000
20
938.230000000000
30
0.0
40
1.999999776107
100
AcDbArc
50
90.000000000000
51
136.468719482422
0
ARC
5
847
100
AcDbEntity
8
0-0
6
CONTINUOUS
62
7
100
AcDbCircle
10
1180.800000000000
20
938.230000000000
30
0.0
40
2.999999760932
100
AcDbArc
50
90.000000000000
51
136.468719482422
0
ARC
5
848
100
AcDbEntity
8
0-0
6
CONTINUOUS
62
7
100
AcDbCircle
10
1216.010000000000
20
950.330000000000
30
0.0
40
1.999885779580
100
AcDbArc
50
360.000000000000
51
450.000000000000
0
ARC
5
849
100
AcDbEntity
8
0-0
6
CONTINUOUS
62
7
100
AcDbCircle
10
1216.010000000000
20
950.330000000000
30
0.0
40
2.999828862913
100
AcDbArc
50
360.000000000000
51
450.000000000000
0
ARC
5
84a
100
AcDbEntity
8
0-0
6
CONTINUOUS
62
7
100
AcDbCircle
10
1213.420000000000
20
955.330000000000
30
0.0
40
2.999828862913
100
AcDbArc
50
180.000000000000
51
-90.000000000000
0
ARC
5
84b
100
AcDbEntity
8
0-0
6
CONTINUOUS
62
7
100
AcDbCircle
10
1213.420000000000
20
955.330000000000
30
0.0
40
1.999885779580
100
AcDbArc
50
180.000000000000
51
-90.000000000000
0
ARC
5
84c
100
AcDbEntity
8
0-0
6
CONTINUOUS
62
7
100
AcDbCircle
10
1233.090000000000
20
962.240000000000
30
0.0
40
3.999771559161
100
AcDbArc
50
314.799819946289
51
393.011978149414
0
ARC
5
84d
100
AcDbEntity
8
0-0
6
CONTINUOUS
62
7
100
AcDbCircle
10
1237.320000000000
20
957.980000000000
30
0.0
40
2.999828862913
100
AcDbArc
50
134.799819946289
51
182.912216186523
0
ARC
5
84e
100
AcDbEntity
8
0-0
6
CONTINUOUS
62
7
100
AcDbCircle
10
1237.320000000000
20
957.980000000000
30
0.0
40
1.999885779580
100
AcDbArc
50
134.799819946289
51
182.912216186523
0
ARC
5
84f
100
AcDbEntity
8
0-0
6
CONTINUOUS
62
7
100
AcDbCircle
10
1233.090000000000
20
962.240000000000
30
0.0
40
2.999771767878
100
AcDbArc
50
314.799819946289
51
393.011978149414
0
ARC
5
850
100
AcDbEntity
8
0-0
6
CONTINUOUS
62
7
100
AcDbCircle
10
669.950000000000
20
957.690000000000
30
0.0
40
7.551915723832
100
AcDbArc
50
92.870895385742
51
176.485824584961
0
ARC
5
851
100
AcDbEntity
8
0-0
6
CONTINUOUS
62
7
100
AcDbCircle
10
669.790000000000
20
963.240000000000
30
0.0
40
1.999885779580
100
AcDbArc
50
349.720016479492
51
446.987884521484
0
ARC
5
852
100
AcDbEntity
8
0-0
6
CONTINUOUS
62
7
100
AcDbCircle
10
669.950000000000
20
957.690000000000
30
0.0
40
6.551974575925
100
AcDbArc
50
92.573730468750
51
176.485824584961
0
ARC
5
853
100
AcDbEntity
8
0-0
6
CONTINUOUS
62
7
100
AcDbCircle
10
669.790000000000
20
963.240000000000
30
0.0
40
0.999942889790
100
AcDbArc
50
349.720016479492
51
445.511260986328
0
ARC
5
854
100
AcDbEntity
8
0-0
6
CONTINUOUS
62
7
100
AcDbCircle
10
1219.510000000000
20
958.130000000000
30
0.0
40
9.099480703530
100
AcDbArc
50
90.003738403320
51
-180.000000000000
0
ARC
5
855
100
AcDbEntity
8
0-0
6
CONTINUOUS
62
7
100
AcDbCircle
10
1222.920000000000
20
923.540000000000
30
0.0
40
42.819191952864
100
AcDbArc
50
77.227188110352
51
94.457366943359
0
ARC
5
856
100
AcDbEntity
8
0-0
6
CONTINUOUS
62
7
100
AcDbCircle
10
1222.920000000000
20
923.540000000000
30
0.0
40
43.819187292669
100
AcDbArc
50
77.227172851563
51
94.457366943359
0
ARC
5
857
100
AcDbEntity
8
0-0
6
CONTINUOUS
62
7
100
AcDbCircle
10
1233.090000000000
20
962.240000000000
30
0.0
40
3.999771559161
100
AcDbArc
50
33.011978149414
51
45.851196289063
0
ARC
5
858
100
AcDbEntity
8
0-2
6
CONTINUOUS
62
7
100
AcDbCircle
10
630.800000000000
20
575.640000000000
30
0.0
40
1.999999776107
100
AcDbArc
50
90.000000000000
51
136.468719482422
0
ARC
5
859
100
AcDbEntity
8
0-2
6
CONTINUOUS
62
7
100
AcDbCircle
10
630.800000000000
20
575.640000000000
30
0.0
40
2.999999760932
100
AcDbArc
50
90.000000000000
51
136.468719482422
0
ARC
5
85a
100
AcDbEntity
8
0-2
6
CONTINUOUS
62
7
100
AcDbCircle
10
913.270000000000
20
435.640000000000
30
0.0
40
1.999999776107
100
AcDbArc
50
45.000244140625
51
90.000000000000
0
ARC
5
85b
100
AcDbEntity
8
0-2
6
CONTINUOUS
62
7
100
AcDbCircle
10
913.270000000000
20
435.640000000000
30
0.0
40
2.999999760932
100
AcDbArc
50
45.000244140625
51
90.000000000000
0
ARC
5
85c
100
AcDbEntity
8
0-2
6
CONTINUOUS
62
7
100
AcDbCircle
10
918.340000000000
20
437.640000000000
30
0.0
40
1.999999776107
100
AcDbArc
50
225.000244140625
51
270.000000000000
0
ARC
5
85d
100
AcDbEntity
8
0-2
6
CONTINUOUS
62
7
100
AcDbCircle
10
918.340000000000
20
437.640000000000
30
0.0
40
2.999999760932
100
AcDbArc
50
225.000244140625
51
270.000000000000
0
ARC
5
85e
100
AcDbEntity
8
0-2
6
CONTINUOUS
62
7
100
AcDbCircle
10
865.370000000000
20
440.640000000000
30
0.0
40
1.999999776107
100
AcDbArc
50
223.531219482422
51
270.000000000000
0
ARC
5
85f
100
AcDbEntity
8
0-2
6
CONTINUOUS
62
7
100
AcDbCircle
10
865.370000000000
20
440.640000000000
30
0.0
40
2.999999760932
100
AcDbArc
50
223.531219482422
51
270.000000000000
0
ARC
5
860
100
AcDbEntity
8
0-2
6
CONTINUOUS
62
7
100
AcDbCircle
10
825.230000000000
20
475.640000000000
30
0.0
40
1.999999776107
100
AcDbArc
50
43.531219482422
51
90.000000000000
0
ARC
5
861
100
AcDbEntity
8
0-2
6
CONTINUOUS
62
7
100
AcDbCircle
10
825.230000000000
20
475.640000000000
30
0.0
40
2.999999760932
100
AcDbArc
50
43.531219482422
51
90.000000000000
0
ARC
5
862
100
AcDbEntity
8
0-2
6
CONTINUOUS
62
7
100
AcDbCircle
10
805.370000000000
20
480.640000000000
30
0.0
40
1.999999776107
100
AcDbArc
50
223.531341552734
51
270.000000000000
0
ARC
5
863
100
AcDbEntity
8
0-2
6
CONTINUOUS
62
7
100
AcDbCircle
10
805.370000000000
20
480.640000000000
30
0.0
40
2.999999760932
100
AcDbArc
50
223.531341552734
51
270.000000000000
0
ARC
5
864
100
AcDbEntity
8
0-2
6
CONTINUOUS
62
7
100
AcDbCircle
10
708.230000000000
20
575.640000000000
30
0.0
40
1.999999776107
100
AcDbArc
50
43.531280517578
51
90.000000000000
0
ARC
5
865
100
AcDbEntity
8
0-2
6
CONTINUOUS
62
7
100
AcDbCircle
10
708.230000000000
20
575.640000000000
30
0.0
40
2.999999760932
100
AcDbArc
50
43.531280517578
51
90.000000000000
0
ARC
5
866
100
AcDbEntity
8
0-2
6
CONTINUOUS
62
7
100
AcDbCircle
10
666.010000000000
20
587.740000000000
30
0.0
40
1.999885779580
100
AcDbArc
50
360.000000000000
51
450.000000000000
0
ARC
5
867
100
AcDbEntity
8
0-2
6
CONTINUOUS
62
7
100
AcDbCircle
10
666.010000000000
20
587.740000000000
30
0.0
40
2.999828862913
100
AcDbArc
50
360.000000000000
51
450.000000000000
0
ARC
5
868
100
AcDbEntity
8
0-2
6
CONTINUOUS
62
7
100
AcDbCircle
10
663.410000000000
20
592.740000000000
30
0.0
40
2.999828862913
100
AcDbArc
50
180.000000000000
51
-90.000000000000
0
ARC
5
869
100
AcDbEntity
8
0-2
6
CONTINUOUS
62
7
100
AcDbCircle
10
663.410000000000
20
592.740000000000
30
0.0
40
1.999885779580
100
AcDbArc
50
180.000000000000
51
-90.000000000000
0
ARC
5
86a
100
AcDbEntity
8
0-2
6
CONTINUOUS
62
7
100
AcDbCircle
10
669.510000000000
20
595.540000000000
30
0.0
40
8.099537233112
100
AcDbArc
50
360.000000000000
51
180.000000000000
0
ARC
5
86b
100
AcDbEntity
8
0-2
6
CONTINUOUS
62
7
100
AcDbCircle
10
669.510000000000
20
595.540000000000
30
0.0
40
9.099480703530
100
AcDbArc
50
360.000000000000
51
180.000000000000
0
ARC
5
86c
100
AcDbEntity
8
0-2
6
CONTINUOUS
62
7
100
AcDbCircle
10
674.710000000000
20
593.740000000000
30
0.0
40
3.999771559161
100
AcDbArc
50
281.787841796875
51
360.000000000000
0
ARC
5
86d
100
AcDbEntity
8
0-2
6
CONTINUOUS
62
7
100
AcDbCircle
10
674.710000000000
20
593.740000000000
30
0.0
40
3.999771559161
100
AcDbArc
50
360.000000000000
51
372.838577270508
0
ARC
5
86e
100
AcDbEntity
8
0-2
6
CONTINUOUS
62
7
100
AcDbCircle
10
675.940000000000
20
587.860000000000
30
0.0
40
2.999828862913
100
AcDbArc
50
101.787841796875
51
149.900238037109
0
ARC
5
86f
100
AcDbEntity
8
0-2
6
CONTINUOUS
62
7
100
AcDbCircle
10
675.940000000000
20
587.860000000000
30
0.0
40
1.999885779580
100
AcDbArc
50
101.787841796875
51
149.900238037109
0
ARC
5
870
100
AcDbEntity
8
0-2
6
CONTINUOUS
62
7
100
AcDbCircle
10
669.790000000000
20
600.630000000000
30
0.0
40
3.387885814257
100
AcDbArc
50
349.720016479492
51
411.313583374023
0
ARC
5
871
100
AcDbEntity
8
0-2
6
CONTINUOUS
62
7
100
AcDbCircle
10
663.640000000000
20
593.340000000000
30
0.0
40
1.238751775341
100
AcDbArc
50
171.015380859375
51
-100.399444580078
0
ARC
5
872
100
AcDbEntity
8
0-2
6
CONTINUOUS
62
7
100
AcDbCircle
10
666.010000000000
20
587.740000000000
30
0.0
40
4.387828510505
100
AcDbArc
50
21.969833374023
51
90.000000000000
0
ARC
5
873
100
AcDbEntity
8
0-2
6
CONTINUOUS
62
7
100
AcDbCircle
10
674.710000000000
20
593.740000000000
30
0.0
40
2.999771767878
100
AcDbArc
50
281.787841796875
51
360.000000000000
0
ARC
5
874
100
AcDbEntity
8
0-2
6
CONTINUOUS
62
7
100
AcDbCircle
10
674.710000000000
20
599.740000000000
30
0.0
40
3.999771559161
100
AcDbArc
50
180.000000000000
51
270.000000000000
0
ARC
5
875
100
AcDbEntity
8
0-2
6
CONTINUOUS
62
7
100
AcDbCircle
10
669.790000000000
20
600.630000000000
30
0.0
40
0.999942889790
100
AcDbArc
50
349.720016479492
51
466.275909423828
0
ARC
5
876
100
AcDbEntity
8
0-2
6
CONTINUOUS
62
7
100
AcDbCircle
10
673.010000000000
20
588.740000000000
30
0.0
40
2.999828862913
100
AcDbArc
50
90.000000000000
51
180.000000000000
0
ARC
5
877
100
AcDbEntity
8
0-2
6
CONTINUOUS
62
7
100
AcDbCircle
10
674.710000000000
20
593.740000000000
30
0.0
40
1.999885779580
100
AcDbArc
50
270.000000000000
51
360.000000000000
0
ARC
5
878
100
AcDbEntity
8
0-2
6
CONTINUOUS
62
7
100
AcDbCircle
10
674.710000000000
20
593.740000000000
30
0.0
40
1.999885779580
100
AcDbArc
50
360.000000000000
51
450.000000000000
0
ARC
5
879
100
AcDbEntity
8
0-2
6
CONTINUOUS
62
7
100
AcDbCircle
10
674.710000000000
20
593.740000000000
30
0.0
40
2.999828862913
100
AcDbArc
50
360.000000000000
51
374.835113525391
0
ARC
5
87a
100
AcDbEntity
8
0-2
6
CONTINUOUS
62
7
100
AcDbCircle
10
674.710000000000
20
593.740000000000
30
0.0
40
2.999828862913
100
AcDbArc
50
270.000000000000
51
360.000000000000
0
ARC
5
87b
100
AcDbEntity
8
0-2
6
CONTINUOUS
62
7
100
AcDbCircle
10
669.950000000000
20
595.070000000000
30
0.0
40
7.551915723832
100
AcDbArc
50
90.364196777344
51
176.485824584961
0
ARC
5
87c
100
AcDbEntity
8
0-2
6
CONTINUOUS
62
7
100
AcDbCircle
10
669.950000000000
20
595.070000000000
30
0.0
40
6.551974575925
100
AcDbArc
50
90.364196777344
51
176.485824584961
0
ARC
5
87d
100
AcDbEntity
8
0-2
6
CONTINUOUS
62
7
100
AcDbCircle
10
669.790000000000
20
600.630000000000
30
0.0
40
1.999885779580
100
AcDbArc
50
349.720016479492
51
466.275909423828
0
ARC
5
87e
100
AcDbEntity
8
0-2
6
CONTINUOUS
62
7
100
AcDbCircle
10
674.710000000000
20
599.740000000000
30
0.0
40
2.999828862913
100
AcDbArc
50
180.000000000000
51
270.000000000000
0
ARC
5
87f
100
AcDbEntity
8
0-2
6
CONTINUOUS
62
7
100
AcDbCircle
10
674.710000000000
20
593.740000000000
30
0.0
40
2.999828862913
100
AcDbArc
50
360.000000000000
51
450.000000000000
0
ARC
5
880
100
AcDbEntity
8
0-2
6
CONTINUOUS
62
7
100
AcDbCircle
10
673.010000000000
20
588.740000000000
30
0.0
40
1.999885779580
100
AcDbArc
50
90.000000000000
51
180.000000000000
0
ARC
5
881
100
AcDbEntity
8
0-2
6
CONTINUOUS
62
7
100
AcDbCircle
10
673.010000000000
20
580.640000000000
30
0.0
40
1.999999776107
100
AcDbArc
50
180.000000000000
51
270.000000000000
0
ARC
5
882
100
AcDbEntity
8
0-2
6
CONTINUOUS
62
7
100
AcDbCircle
10
666.010000000000
20
580.640000000000
30
0.0
40
1.999999776107
100
AcDbArc
50
270.000000000000
51
0.000000000000
0
ARC
5
883
100
AcDbEntity
8
0-2
6
CONTINUOUS
62
7
100
AcDbCircle
10
666.010000000000
20
580.640000000000
30
0.0
40
2.999999760932
100
AcDbArc
50
270.000000000000
51
0.000000000000
0
ARC
5
884
100
AcDbEntity
8
0-2
6
CONTINUOUS
62
7
100
AcDbCircle
10
673.010000000000
20
580.640000000000
30
0.0
40
2.999999760932
100
AcDbArc
50
180.000000000000
51
270.000000000000
0
ARC
5
885
100
AcDbEntity
8
0-0
6
CONTINUOUS
62
7
100
AcDbCircle
10
1219.510000000000
20
958.130000000000
30
0.0
40
8.099537233112
100
AcDbArc
50
90.004211425781
51
-180.000000000000
0
ARC
5
886
100
AcDbEntity
8
0-2
6
CONTINUOUS
62
7
100
AcDbCircle
10
975.760000000000
20
435.640000000000
30
0.0
40
1.999999776107
100
AcDbArc
50
90.000000000000
51
134.999755859375
0
ARC
5
887
100
AcDbEntity
8
0-2
6
CONTINUOUS
62
7
100
AcDbCircle
10
975.760000000000
20
435.640000000000
30
0.0
40
2.999999760932
100
AcDbArc
50
90.000000000000
51
134.999755859375
0
ARC
5
888
100
AcDbEntity
8
0-2
6
CONTINUOUS
62
7
100
AcDbCircle
10
970.690000000000
20
437.640000000000
30
0.0
40
1.999999776107
100
AcDbArc
50
270.000000000000
51
314.999755859375
0
ARC
5
889
100
AcDbEntity
8
0-2
6
CONTINUOUS
62
7
100
AcDbCircle
10
970.690000000000
20
437.640000000000
30
0.0
40
2.999999760932
100
AcDbArc
50
270.000000000000
51
314.999755859375
0
ARC
5
88a
100
AcDbEntity
8
0-2
6
CONTINUOUS
62
7
100
AcDbCircle
10
1023.660000000000
20
440.640000000000
30
0.0
40
1.999999776107
100
AcDbArc
50
270.000000000000
51
316.468780517578
0
ARC
5
88b
100
AcDbEntity
8
0-2
6
CONTINUOUS
62
7
100
AcDbCircle
10
1023.660000000000
20
440.640000000000
30
0.0
40
2.999999760932
100
AcDbArc
50
270.000000000000
51
316.468780517578
0
ARC
5
88c
100
AcDbEntity
8
0-2
6
CONTINUOUS
62
7
100
AcDbCircle
10
1063.800000000000
20
475.640000000000
30
0.0
40
1.999999776107
100
AcDbArc
50
90.000000000000
51
136.468780517578
0
ARC
5
88d
100
AcDbEntity
8
0-2
6
CONTINUOUS
62
7
100
AcDbCircle
10
1063.800000000000
20
475.640000000000
30
0.0
40
2.999999760932
100
AcDbArc
50
90.000000000000
51
136.468780517578
0
ARC
5
88e
100
AcDbEntity
8
0-2
6
CONTINUOUS
62
7
100
AcDbCircle
10
1083.660000000000
20
480.640000000000
30
0.0
40
1.999999776107
100
AcDbArc
50
270.000000000000
51
316.468658447266
0
ARC
5
88f
100
AcDbEntity
8
0-2
6
CONTINUOUS
62
7
100
AcDbCircle
10
1083.660000000000
20
480.640000000000
30
0.0
40
2.999999760932
100
AcDbArc
50
270.000000000000
51
316.468658447266
0
ARC
5
890
100
AcDbEntity
8
0-2
6
CONTINUOUS
62
7
100
AcDbCircle
10
1180.800000000000
20
575.640000000000
30
0.0
40
1.999999776107
100
AcDbArc
50
90.000000000000
51
136.468719482422
0
ARC
5
891
100
AcDbEntity
8
0-2
6
CONTINUOUS
62
7
100
AcDbCircle
10
1180.800000000000
20
575.640000000000
30
0.0
40
2.999999760932
100
AcDbArc
50
90.000000000000
51
136.468719482422
0
ARC
5
892
100
AcDbEntity
8
0-2
6
CONTINUOUS
62
7
100
AcDbCircle
10
1258.230000000000
20
575.640000000000
30
0.0
40
1.999999776107
100
AcDbArc
50
43.531280517578
51
90.000000000000
0
ARC
5
893
100
AcDbEntity
8
0-2
6
CONTINUOUS
62
7
100
AcDbCircle
10
1258.230000000000
20
575.640000000000
30
0.0
40
2.999999760932
100
AcDbArc
50
43.531280517578
51
90.000000000000
0
ARC
5
894
100
AcDbEntity
8
0-2
6
CONTINUOUS
62
7
100
AcDbCircle
10
1216.010000000000
20
587.740000000000
30
0.0
40
1.999885779580
100
AcDbArc
50
360.000000000000
51
450.000000000000
0
ARC
5
895
100
AcDbEntity
8
0-2
6
CONTINUOUS
62
7
100
AcDbCircle
10
1216.010000000000
20
587.740000000000
30
0.0
40
2.999828862913
100
AcDbArc
50
360.000000000000
51
450.000000000000
0
ARC
5
896
100
AcDbEntity
8
0-2
6
CONTINUOUS
62
7
100
AcDbCircle
10
1213.410000000000
20
592.740000000000
30
0.0
40
2.999828862913
100
AcDbArc
50
180.000000000000
51
-90.000000000000
0
ARC
5
897
100
AcDbEntity
8
0-2
6
CONTINUOUS
62
7
100
AcDbCircle
10
1213.410000000000
20
592.740000000000
30
0.0
40
1.999885779580
100
AcDbArc
50
180.000000000000
51
-90.000000000000
0
ARC
5
898
100
AcDbEntity
8
0-2
6
CONTINUOUS
62
7
100
AcDbCircle
10
1219.510000000000
20
595.540000000000
30
0.0
40
8.099537233112
100
AcDbArc
50
360.000000000000
51
180.000000000000
0
ARC
5
899
100
AcDbEntity
8
0-2
6
CONTINUOUS
62
7
100
AcDbCircle
10
1219.510000000000
20
595.540000000000
30
0.0
40
9.099480703530
100
AcDbArc
50
360.000000000000
51
180.000000000000
0
ARC
5
89a
100
AcDbEntity
8
0-2
6
CONTINUOUS
62
7
100
AcDbCircle
10
1224.710000000000
20
593.740000000000
30
0.0
40
3.999771559161
100
AcDbArc
50
281.787841796875
51
360.000000000000
0
ARC
5
89b
100
AcDbEntity
8
0-2
6
CONTINUOUS
62
7
100
AcDbCircle
10
1224.710000000000
20
593.740000000000
30
0.0
40
3.999771559161
100
AcDbArc
50
360.000000000000
51
372.838577270508
0
ARC
5
89c
100
AcDbEntity
8
0-2
6
CONTINUOUS
62
7
100
AcDbCircle
10
1225.940000000000
20
587.860000000000
30
0.0
40
2.999828862913
100
AcDbArc
50
101.787841796875
51
149.900238037109
0
ARC
5
89d
100
AcDbEntity
8
0-2
6
CONTINUOUS
62
7
100
AcDbCircle
10
1225.940000000000
20
587.860000000000
30
0.0
40
1.999885779580
100
AcDbArc
50
101.787841796875
51
149.900238037109
0
ARC
5
89e
100
AcDbEntity
8
0-2
6
CONTINUOUS
62
7
100
AcDbCircle
10
1219.790000000000
20
600.630000000000
30
0.0
40
3.387885814257
100
AcDbArc
50
349.720016479492
51
411.313583374023
0
ARC
5
89f
100
AcDbEntity
8
0-2
6
CONTINUOUS
62
7
100
AcDbCircle
10
1213.640000000000
20
593.340000000000
30
0.0
40
1.238751775341
100
AcDbArc
50
171.015380859375
51
-100.399444580078
0
ARC
5
8a0
100
AcDbEntity
8
0-2
6
CONTINUOUS
62
7
100
AcDbCircle
10
1216.010000000000
20
587.740000000000
30
0.0
40
4.387828510505
100
AcDbArc
50
21.969833374023
51
90.000000000000
0
ARC
5
8a1
100
AcDbEntity
8
0-2
6
CONTINUOUS
62
7
100
AcDbCircle
10
1224.710000000000
20
593.740000000000
30
0.0
40
2.999771767878
100
AcDbArc
50
281.787841796875
51
360.000000000000
0
ARC
5
8a2
100
AcDbEntity
8
0-2
6
CONTINUOUS
62
7
100
AcDbCircle
10
1224.710000000000
20
599.740000000000
30
0.0
40
3.999771559161
100
AcDbArc
50
180.000000000000
51
270.000000000000
0
ARC
5
8a3
100
AcDbEntity
8
0-2
6
CONTINUOUS
62
7
100
AcDbCircle
10
1219.790000000000
20
600.630000000000
30
0.0
40
0.999942889790
100
AcDbArc
50
349.720016479492
51
466.275909423828
0
ARC
5
8a4
100
AcDbEntity
8
0-2
6
CONTINUOUS
62
7
100
AcDbCircle
10
1223.010000000000
20
588.740000000000
30
0.0
40
2.999828862913
100
AcDbArc
50
90.000000000000
51
180.000000000000
0
ARC
5
8a5
100
AcDbEntity
8
0-2
6
CONTINUOUS
62
7
100
AcDbCircle
10
1224.710000000000
20
593.740000000000
30
0.0
40
1.999885779580
100
AcDbArc
50
270.000000000000
51
360.000000000000
0
ARC
5
8a6
100
AcDbEntity
8
0-2
6
CONTINUOUS
62
7
100
AcDbCircle
10
1224.710000000000
20
593.740000000000
30
0.0
40
1.999885779580
100
AcDbArc
50
360.000000000000
51
450.000000000000
0
ARC
5
8a7
100
AcDbEntity
8
0-2
6
CONTINUOUS
62
7
100
AcDbCircle
10
1224.710000000000
20
593.740000000000
30
0.0
40
2.999828862913
100
AcDbArc
50
360.000000000000
51
374.835113525391
0
ARC
5
8a8
100
AcDbEntity
8
0-2
6
CONTINUOUS
62
7
100
AcDbCircle
10
1224.710000000000
20
593.740000000000
30
0.0
40
2.999828862913
100
AcDbArc
50
270.000000000000
51
360.000000000000
0
ARC
5
8a9
100
AcDbEntity
8
0-2
6
CONTINUOUS
62
7
100
AcDbCircle
10
1219.950000000000
20
595.070000000000
30
0.0
40
7.551915723832
100
AcDbArc
50
90.364196777344
51
176.485824584961
0
ARC
5
8aa
100
AcDbEntity
8
0-2
6
CONTINUOUS
62
7
100
AcDbCircle
10
1219.950000000000
20
595.070000000000
30
0.0
40
6.551974575925
100
AcDbArc
50
90.364196777344
51
176.485824584961
0
ARC
5
8ab
100
AcDbEntity
8
0-2
6
CONTINUOUS
62
7
100
AcDbCircle
10
1219.790000000000
20
600.630000000000
30
0.0
40
1.999885779580
100
AcDbArc
50
349.720016479492
51
466.275909423828
0
ARC
5
8ac
100
AcDbEntity
8
0-2
6
CONTINUOUS
62
7
100
AcDbCircle
10
1224.710000000000
20
599.740000000000
30
0.0
40
2.999828862913
100
AcDbArc
50
180.000000000000
51
270.000000000000
0
ARC
5
8ad
100
AcDbEntity
8
0-2
6
CONTINUOUS
62
7
100
AcDbCircle
10
1224.710000000000
20
593.740000000000
30
0.0
40
2.999828862913
100
AcDbArc
50
360.000000000000
51
450.000000000000
0
ARC
5
8ae
100
AcDbEntity
8
0-2
6
CONTINUOUS
62
7
100
AcDbCircle
10
1223.010000000000
20
588.740000000000
30
0.0
40
1.999885779580
100
AcDbArc
50
90.000000000000
51
180.000000000000
0
ARC
5
8af
100
AcDbEntity
8
0-2
6
CONTINUOUS
62
7
100
AcDbCircle
10
1223.010000000000
20
580.640000000000
30
0.0
40
1.999999776107
100
AcDbArc
50
180.000000000000
51
270.000000000000
0
ARC
5
8b0
100
AcDbEntity
8
0-2
6
CONTINUOUS
62
7
100
AcDbCircle
10
1216.010000000000
20
580.640000000000
30
0.0
40
1.999999776107
100
AcDbArc
50
270.000000000000
51
0.000000000000
0
ARC
5
8b1
100
AcDbEntity
8
0-2
6
CONTINUOUS
62
7
100
AcDbCircle
10
1216.010000000000
20
580.640000000000
30
0.0
40
2.999999760932
100
AcDbArc
50
270.000000000000
51
0.000000000000
0
ARC
5
8b2
100
AcDbEntity
8
0-2
6
CONTINUOUS
62
7
100
AcDbCircle
10
1223.010000000000
20
580.640000000000
30
0.0
40
2.999999760932
100
AcDbArc
50
180.000000000000
51
270.000000000000
0
ARC
5
8b3
100
AcDbEntity
8
0-2
6
CONTINUOUS
62
7
100
AcDbCircle
10
804.090000000000
20
477.640000000000
30
0.0
40
3.999999552214
100
AcDbArc
50
223.531463623047
51
270.000000000000
0
ARC
5
8b4
100
AcDbEntity
8
0-2
6
CONTINUOUS
62
7
100
AcDbCircle
10
822.650000000000
20
469.640000000000
30
0.0
40
3.999999552214
100
AcDbArc
50
43.531463623047
51
90.000000000000
0
ARC
5
8b5
100
AcDbEntity
8
0-2
6
CONTINUOUS
62
7
100
AcDbCircle
10
864.090000000000
20
437.640000000000
30
0.0
40
3.999999552214
100
AcDbArc
50
223.531463623047
51
270.000000000000
0
ARC
5
8b6
100
AcDbEntity
8
0-2
6
CONTINUOUS
62
7
100
AcDbCircle
10
917.100000000000
20
434.640000000000
30
0.0
40
3.999999552214
100
AcDbArc
50
225.001510620117
51
270.000000000000
0
ARC
5
8b7
100
AcDbEntity
8
0-2
6
CONTINUOUS
62
7
100
AcDbCircle
10
910.790000000000
20
429.640000000000
30
0.0
40
3.999999552214
100
AcDbArc
50
45.002014160156
51
90.000000000000
0
ARC
5
8b8
100
AcDbEntity
8
0-2
6
CONTINUOUS
62
7
100
AcDbCircle
10
1084.940000000000
20
477.640000000000
30
0.0
40
3.999999552214
100
AcDbArc
50
270.000000000000
51
316.468536376953
0
ARC
5
8b9
100
AcDbEntity
8
0-2
6
CONTINUOUS
62
7
100
AcDbCircle
10
1066.380000000000
20
469.640000000000
30
0.0
40
3.999999552214
100
AcDbArc
50
90.000000000000
51
136.468536376953
0
ARC
5
8ba
100
AcDbEntity
8
0-2
6
CONTINUOUS
62
7
100
AcDbCircle
10
1024.940000000000
20
437.640000000000
30
0.0
40
3.999999552214
100
AcDbArc
50
270.000000000000
51
316.468536376953
0
ARC
5
8bb
100
AcDbEntity
8
0-2
6
CONTINUOUS
62
7
100
AcDbCircle
10
971.930000000000
20
434.640000000000
30
0.0
40
3.999999552214
100
AcDbArc
50
270.000000000000
51
314.998489379883
0
ARC
5
8bc
100
AcDbEntity
8
0-2
6
CONTINUOUS
62
7
100
AcDbCircle
10
978.240000000000
20
429.640000000000
30
0.0
40
3.999999552214
100
AcDbArc
50
90.000000000000
51
134.997985839844
0
ARC
5
8bd
100
AcDbEntity
8
0-1
6
CONTINUOUS
62
3
100
AcDbCircle
10
351.730000000000
20
404.940000000000
30
0.0
40
7.999946460871
100
AcDbArc
50
359.999740600586
51
89.999740600586
0
ARC
5
8be
100
AcDbEntity
8
0-1
6
CONTINUOUS
62
3
100
AcDbCircle
10
373.220000000000
20
404.940000000000
30
0.0
40
7.999946460871
100
AcDbArc
50
89.999740600586
51
179.999740600586
0
CIRCLE
5
8bf
100
AcDbEntity
8
F-F
6
CONTINUOUS
62
3
100
AcDbCircle
10
59.720000000000
20
167.100000000000
30
0.0
40
11.313709759210
0
CIRCLE
5
8c0
100
AcDbEntity
8
F-F
6
CONTINUOUS
62
3
100
AcDbCircle
10
59.720000000000
20
167.100000000000
30
0.0
40
12.913709270428
0
CIRCLE
5
8c1
100
AcDbEntity
8
F-F
6
CONTINUOUS
62
4
100
AcDbCircle
10
59.720000000000
20
167.100000000000
30
0.0
40
11.473710561919
0
CIRCLE
5
8c2
100
AcDbEntity
8
F-F
6
CONTINUOUS
62
4
100
AcDbCircle
10
59.720000000000
20
167.100000000000
30
0.0
40
11.793707522317
0
CIRCLE
5
8c3
100
AcDbEntity
8
F-F
6
CONTINUOUS
62
4
100
AcDbCircle
10
59.720000000000
20
167.100000000000
30
0.0
40
12.113709127734
0
CIRCLE
5
8c4
100
AcDbEntity
8
F-F
6
CONTINUOUS
62
4
100
AcDbCircle
10
59.720000000000
20
167.100000000000
30
0.0
40
12.433706862302
0
CIRCLE
5
8c5
100
AcDbEntity
8
F-F
6
CONTINUOUS
62
4
100
AcDbCircle
10
59.720000000000
20
167.100000000000
30
0.0
40
12.753706145210
0
ARC
5
8c6
100
AcDbEntity
8
0-2
6
CONTINUOUS
62
3
100
AcDbCircle
10
1215.710000000000
20
573.940000000000
30
0.0
40
3.199999990148
100
AcDbArc
50
360.000000000000
51
450.000000000000
0
ARC
5
8c7
100
AcDbEntity
8
0-2
6
CONTINUOUS
62
7
100
AcDbCircle
10
1218.910000000000
20
531.340000000000
30
0.0
40
1.200000020498
100
AcDbArc
50
270.000000000000
51
360.000000000000
0
ARC
5
8c8
100
AcDbEntity
8
0-2
6
CONTINUOUS
62
3
100
AcDbCircle
10
1215.210000000000
20
549.890000000000
30
0.0
40
1.799999933976
100
AcDbArc
50
180.000000000000
51
185.628326416016
0
ARC
5
8c9
100
AcDbEntity
8
0-2
6
CONTINUOUS
62
3
100
AcDbCircle
10
1219.870000000000
20
559.390000000000
30
0.0
40
10.447648145326
100
AcDbArc
50
335.996658325195
51
384.003356933594
0
ARC
5
8ca
100
AcDbEntity
8
0-2
6
CONTINUOUS
62
3
100
AcDbCircle
10
1219.870000000000
20
550.890000000000
30
0.0
40
10.447648145326
100
AcDbArc
50
335.996658325195
51
384.003356933594
0
ARC
5
8cb
100
AcDbEntity
8
0-2
6
CONTINUOUS
62
7
100
AcDbCircle
10
668.910000000000
20
531.340000000000
30
0.0
40
1.200000020498
100
AcDbArc
50
270.000000000000
51
360.000000000000
0
ARC
5
8cc
100
AcDbEntity
8
0-2
6
CONTINUOUS
62
3
100
AcDbCircle
10
660.570000000000
20
562.500000000000
30
0.0
40
4.907468420681
100
AcDbArc
50
149.999954223633
51
-149.999938964844
0
ARC
5
8cd
100
AcDbEntity
8
0-2
6
CONTINUOUS
62
3
100
AcDbCircle
10
1223.310000000000
20
573.940000000000
30
0.0
40
3.199999990148
100
AcDbArc
50
90.000000000000
51
180.000000000000
0
ARC
5
8ce
100
AcDbEntity
8
0-2
6
CONTINUOUS
62
3
100
AcDbCircle
10
665.710000000000
20
573.940000000000
30
0.0
40
3.199999990148
100
AcDbArc
50
360.000000000000
51
450.000000000000
0
ARC
5
8cf
100
AcDbEntity
8
0-2
6
CONTINUOUS
62
3
100
AcDbCircle
10
1210.570000000000
20
562.500000000000
30
0.0
40
4.907468420681
100
AcDbArc
50
149.999954223633
51
-149.999938964844
0
ARC
5
8d0
100
AcDbEntity
8
0-2
6
CONTINUOUS
62
3
100
AcDbCircle
10
665.210000000000
20
549.890000000000
30
0.0
40
1.799999933976
100
AcDbArc
50
180.000000000000
51
185.628326416016
0
ARC
5
8d1
100
AcDbEntity
8
0-2
6
CONTINUOUS
62
3
100
AcDbCircle
10
1215.210000000000
20
560.390000000000
30
0.0
40
1.799999933976
100
AcDbArc
50
174.371688842773
51
180.000000000000
0
ARC
5
8d2
100
AcDbEntity
8
0-2
6
CONTINUOUS
62
3
100
AcDbCircle
10
660.570000000000
20
547.780000000000
30
0.0
40
4.907468420681
100
AcDbArc
50
149.999954223633
51
-149.999938964844
0
ARC
5
8d3
100
AcDbEntity
8
0-2
6
CONTINUOUS
62
3
100
AcDbCircle
10
669.190000000000
20
555.140000000000
30
0.0
40
13.779164709232
100
AcDbArc
50
159.135940551758
51
-159.135925292969
0
ARC
5
8d4
100
AcDbEntity
8
0-2
6
CONTINUOUS
62
3
100
AcDbCircle
10
665.210000000000
20
560.390000000000
30
0.0
40
1.799999933976
100
AcDbArc
50
174.371688842773
51
180.000000000000
0
ARC
5
8d5
100
AcDbEntity
8
0-2
6
CONTINUOUS
62
3
100
AcDbCircle
10
1219.190000000000
20
555.140000000000
30
0.0
40
13.779164709232
100
AcDbArc
50
159.135940551758
51
-159.135925292969
0
ARC
5
8d6
100
AcDbEntity
8
0-2
6
CONTINUOUS
62
3
100
AcDbCircle
10
1210.570000000000
20
547.780000000000
30
0.0
40
4.907468420681
100
AcDbArc
50
149.999954223633
51
-149.999938964844
0
ARC
5
8d7
100
AcDbEntity
8
0-2
6
CONTINUOUS
62
3
100
AcDbCircle
10
1255.610000000000
20
573.940000000000
30
0.0
40
3.199999990148
100
AcDbArc
50
39.583862304688
51
90.000000000000
0
ARC
5
8d8
100
AcDbEntity
8
0-2
6
CONTINUOUS
62
3
100
AcDbCircle
10
1220.110000000000
20
424.140000000000
30
0.0
40
3.199999990148
100
AcDbArc
50
270.000000000000
51
360.000000000000
0
ARC
5
8d9
100
AcDbEntity
8
0-2
6
CONTINUOUS
62
3
100
AcDbCircle
10
833.610000000000
20
424.140000000000
30
0.0
40
3.199999990148
100
AcDbArc
50
219.583862304688
51
270.000000000000
0
ARC
5
8da
100
AcDbEntity
8
0-2
6
CONTINUOUS
62
3
100
AcDbCircle
10
670.110000000000
20
424.140000000000
30
0.0
40
3.199999990148
100
AcDbArc
50
270.000000000000
51
360.000000000000
0
ARC
5
8db
100
AcDbEntity
8
0-2
6
CONTINUOUS
62
3
100
AcDbCircle
10
673.310000000000
20
573.940000000000
30
0.0
40
3.199999990148
100
AcDbArc
50
90.000000000000
51
180.000000000000
0
ARC
5
8dc
100
AcDbEntity
8
0-2
6
CONTINUOUS
62
3
100
AcDbCircle
10
669.870000000000
20
550.890000000000
30
0.0
40
10.447648145326
100
AcDbArc
50
335.996658325195
51
384.003356933594
0
ARC
5
8dd
100
AcDbEntity
8
0-2
6
CONTINUOUS
62
3
100
AcDbCircle
10
669.870000000000
20
559.390000000000
30
0.0
40
10.447648145326
100
AcDbArc
50
335.996658325195
51
384.003356933594
0
ARC
5
8de
100
AcDbEntity
8
0-2
6
CONTINUOUS
62
3
100
AcDbCircle
10
705.610000000000
20
573.940000000000
30
0.0
40
3.199999990148
100
AcDbArc
50
39.583862304688
51
90.000000000000
0
ARC
5
8df
100
AcDbEntity
8
0-1
6
CONTINUOUS
62
7
100
AcDbCircle
10
307.470000000000
20
578.140000000000
30
0.0
40
4.999999924124
100
AcDbArc
50
180.000000000000
51
270.000000000000
0
ARC
5
8e0
100
AcDbEntity
8
0-1
6
CONTINUOUS
62
7
100
AcDbCircle
10
337.470000000000
20
568.140000000000
30
0.0
40
4.999999924124
100
AcDbArc
50
360.000000000000
51
450.000000000000
0
ARC
5
8e1
100
AcDbEntity
8
0-1
6
CONTINUOUS
62
7
100
AcDbCircle
10
417.470000000000
20
578.140000000000
30
0.0
40
4.999999924124
100
AcDbArc
50
270.000000000000
51
360.000000000000
0
ARC
5
8e2
100
AcDbEntity
8
0-1
6
CONTINUOUS
62
7
100
AcDbCircle
10
387.470000000000
20
568.140000000000
30
0.0
40
4.999999924124
100
AcDbArc
50
90.000000000000
51
180.000000000000
0
CIRCLE
5
8e3
100
AcDbEntity
8
0-1
6
CONTINUOUS
62
3
100
AcDbCircle
10
362.470000000000
20
555.140000000000
30
0.0
40
10.499999840661
0
CIRCLE
5
8e4
100
AcDbEntity
8
0-1
6
CONTINUOUS
62
3
100
AcDbCircle
10
362.470000000000
20
555.140000000000
30
0.0
40
4.999999924124
0
CIRCLE
5
8e5
100
AcDbEntity
8
0-1
6
CONTINUOUS
62
3
100
AcDbCircle
10
362.470000000000
20
555.140000000000
30
0.0
40
8.249999487720
0
CIRCLE
5
8e6
100
AcDbEntity
8
0-1
6
CONTINUOUS
62
3
100
AcDbCircle
10
362.470000000000
20
555.140000000000
30
0.0
40
4.249999935506
0
TEXT
5
8e7
100
AcDbEntity
8
0-2
62
3
370
-3
100
AcDbText
10
680.873
20
465.266
30
0.0
40
11.486
1
タイトフレーム
41
0.918
50
0.000
100
AcDbText
0
TEXT
5
8e8
100
AcDbEntity
8
0-2
62
3
370
-3
100
AcDbText
10
1107.775
20
465.160
30
0.0
40
11.486
1
裏貼材
41
0.918
50
0.000
100
AcDbText
0
TEXT
5
8e9
100
AcDbEntity
8
0-0
62
3
370
-3
100
AcDbText
10
681.638
20
1008.046
30
0.0
40
13.127
41
0.657
50
0.000
1
40
72
1
11
690.413
21
1006.587
31
0.0
100
AcDbText
73
1
0
TEXT
5
8ea
100
AcDbEntity
8
0-0
62
3
370
-3
100
AcDbText
10
1191.638
20
1008.046
30
0.0
40
13.127
41
0.657
50
0.000
1
40
72
1
11
1200.413
21
1006.587
31
0.0
100
AcDbText
73
1
0
TEXT
5
8eb
100
AcDbEntity
8
0-0
62
3
370
-3
100
AcDbText
10
932.294
20
1038.645
30
0.0
40
16.409
41
0.591
50
0.000
1
550
72
1
11
948.382
21
1036.821
31
0.0
100
AcDbText
73
1
0
TEXT
5
8ec
100
AcDbEntity
8
0-0
62
3
370
-3
100
AcDbText
10
997.782
20
858.855
30
0.0
40
13.127
41
0.736
50
90.000
1
140
72
1
11
999.240
21
872.018
31
0.0
100
AcDbText
73
1
0
TEXT
5
8ed
100
AcDbEntity
8
0-0
62
3
370
-3
100
AcDbText
10
932.138
20
766.626
30
0.0
40
13.127
41
0.712
50
0.000
1
160
72
1
11
945.301
21
765.167
31
0.0
100
AcDbText
73
1
0
TEXT
5
8ee
100
AcDbEntity
8
0-2
62
3
370
-3
100
AcDbText
10
607.138
20
660.115
30
0.0
40
13.127
41
0.598
50
0.000
1
@550
72
1
11
624.688
21
658.657
31
0.0
100
AcDbText
73
1
0
TEXT
5
8ef
100
AcDbEntity
8
0-2
62
3
370
-3
100
AcDbText
10
932.138
20
660.115
30
0.0
40
13.127
41
0.604
50
0.000
1
550
72
1
11
945.301
21
658.657
31
0.0
100
AcDbText
73
1
0
TEXT
5
8f0
100
AcDbEntity
8
0-2
62
3
370
-3
100
AcDbText
10
1257.138
20
660.115
30
0.0
40
13.127
41
0.598
50
0.000
1
@550
72
1
11
1274.688
21
658.657
31
0.0
100
AcDbText
73
1
0
TEXT
5
8f1
100
AcDbEntity
8
0-2
62
3
370
-3
100
AcDbText
10
1005.914
20
599.512
30
0.0
40
13.127
41
0.542
50
270.000
1
26
72
1
11
1004.455
21
590.737
31
0.0
100
AcDbText
73
1
0
TEXT
5
8f2
100
AcDbEntity
8
0-2
62
3
370
-3
100
AcDbText
10
1005.914
20
521.012
30
0.0
40
13.127
41
0.736
50
270.000
1
140
72
1
11
1004.455
21
507.850
31
0.0
100
AcDbText
73
1
0
TEXT
5
8f3
100
AcDbEntity
8
F-F
62
3
370
-3
100
AcDbText
10
512.090
20
175.752
30
0.0
40
4.923
1
変　　　　　　更　　　　　　記　　　　　　事
41
0.914
50
0.000
100
AcDbText
0
TEXT
5
8f4
100
AcDbEntity
8
F-F
62
3
370
-3
100
AcDbText
10
795.825
20
174.952
30
0.0
40
4.923
1
受領　　日附
41
0.914
50
0.000
100
AcDbText
0
TEXT
5
8f5
100
AcDbEntity
8
F-F
62
3
370
-3
100
AcDbText
10
994.042
20
145.520
30
0.0
40
4.923
1
施工者
41
0.914
50
0.000
100
AcDbText
0
TEXT
5
8f6
100
AcDbEntity
8
F-F
62
3
370
-3
100
AcDbText
10
994.042
20
175.150
30
0.0
40
4.923
1
設計者
41
0.914
50
0.000
100
AcDbText
0
TEXT
5
8f7
100
AcDbEntity
8
F-F
62
3
370
-3
100
AcDbText
10
1199.525
20
144.977
30
0.0
40
4.923
1
作図
41
0.914
50
0.000
100
AcDbText
0
TEXT
5
8f8
100
AcDbEntity
8
F-F
62
3
370
-3
100
AcDbText
10
1271.352
20
145.508
30
0.0
40
4.923
1
図面名
41
0.914
50
0.000
100
AcDbText
0
TEXT
5
8f9
100
AcDbEntity
8
F-F
62
3
370
-3
100
AcDbText
10
1199.525
20
174.607
30
0.0
40
4.923
1
日附
41
0.914
50
0.000
100
AcDbText
0
TEXT
5
8fa
100
AcDbEntity
8
F-F
62
3
370
-3
100
AcDbText
10
1271.352
20
175.137
30
0.0
40
4.923
1
工事件名
41
0.914
50
0.000
100
AcDbText
0
TEXT
5
8fb
100
AcDbEntity
8
F-F
62
3
370
-3
100
AcDbText
10
1221.661
20
174.355
30
0.0
40
4.923
1
年　月　日
41
0.914
50
0.000
100
AcDbText
0
TEXT
5
8fc
100
AcDbEntity
8
F-F
62
3
370
-3
100
AcDbText
10
1221.661
20
144.726
30
0.0
40
4.923
1
年　月　日
41
0.914
50
0.000
100
AcDbText
0
TEXT
5
8fd
100
AcDbEntity
8
F-F
62
3
370
-3
100
AcDbText
10
1523.695
20
175.137
30
0.0
40
4.923
1
設計番号
41
0.914
50
0.000
100
AcDbText
0
MTEXT
5
8fe
100
AcDbEntity
8
F-F
62
3
370
-3
100
AcDbMText
10
367.012
20
167.821
30
0.0
40
4.649
41
0.000
71
7
72
1
1
\W1.037;{\W0.747;. }　{\W0.747;.}　{\W0.747; }
7
STANDARD
11
1.00000
21
0.00000
31
0.0
0
MTEXT
5
8ff
100
AcDbEntity
8
F-F
62
3
370
-3
100
AcDbMText
10
367.012
20
157.945
30
0.0
40
4.649
41
0.000
71
7
72
1
1
\W1.037;{\W0.747;. }　{\W0.747;.}　{\W0.747; }
7
STANDARD
11
1.00000
21
0.00000
31
0.0
0
MTEXT
5
900
100
AcDbEntity
8
F-F
62
3
370
-3
100
AcDbMText
10
367.012
20
148.068
30
0.0
40
4.649
41
0.000
71
7
72
1
1
\W1.037;{\W0.747;. }　{\W0.747;.}　{\W0.747; }
7
STANDARD
11
1.00000
21
0.00000
31
0.0
0
MTEXT
5
901
100
AcDbEntity
8
F-F
62
3
370
-3
100
AcDbMText
10
367.012
20
138.191
30
0.0
40
4.649
41
0.000
71
7
72
1
1
\W1.037;{\W0.747;. }　{\W0.747;.}　{\W0.747; }
7
STANDARD
11
1.00000
21
0.00000
31
0.0
0
MTEXT
5
902
100
AcDbEntity
8
F-F
62
3
370
-3
100
AcDbMText
10
367.012
20
128.314
30
0.0
40
4.649
41
0.000
71
7
72
1
1
\W1.037;{\W0.747;. }　{\W0.747;.}　{\W0.747; }
7
STANDARD
11
1.00000
21
0.00000
31
0.0
0
TEXT
5
903
100
AcDbEntity
8
F-F
62
3
370
-3
100
AcDbText
10
1014.383
20
162.373
30
0.0
40
6.564
1
　　　　　　　　　　
41
0.921
50
0.000
100
AcDbText
0
TEXT
5
904
100
AcDbEntity
8
F-F
62
3
370
-3
100
AcDbText
10
1014.383
20
132.743
30
0.0
40
6.564
1
　　　　　　　　　　
41
0.921
50
0.000
100
AcDbText
0
TEXT
5
905
100
AcDbEntity
8
F-F
62
3
370
-3
100
AcDbText
10
1297.846
20
163.920
30
0.0
40
6.564
1
　　　　　　　　　　　　　
41
0.921
50
0.000
100
AcDbText
0
TEXT
5
906
100
AcDbEntity
8
F-F
62
3
370
-3
100
AcDbText
10
358.040
20
175.687
30
0.0
40
4.923
1
年　月　日
41
0.914
50
0.000
100
AcDbText
0
TEXT
5
907
100
AcDbEntity
8
F-F
62
3
370
-3
100
AcDbText
10
852.996
20
174.368
30
0.0
40
4.923
1
年　　月　　日
41
0.914
50
0.000
100
AcDbText
0
MTEXT
5
908
100
AcDbEntity
8
F-F
62
3
370
-3
100
AcDbMText
10
865.548
20
163.398
30
0.0
40
4.649
41
0.000
71
7
72
1
1
\W1.037;{\W0.747;.}　{\W0.747; }　{\W0.747;.}
7
STANDARD
11
1.00000
21
0.00000
31
0.0
0
TEXT
5
909
100
AcDbEntity
8
F-F
62
3
370
-3
100
AcDbText
10
795.825
20
145.323
30
0.0
40
4.923
1
受領　　日附
41
0.914
50
0.000
100
AcDbText
0
TEXT
5
90a
100
AcDbEntity
8
F-F
62
3
370
-3
100
AcDbText
10
852.996
20
144.738
30
0.0
40
4.923
1
年　　月　　日
41
0.914
50
0.000
100
AcDbText
0
MTEXT
5
90b
100
AcDbEntity
8
F-F
62
3
370
-3
100
AcDbMText
10
865.548
20
133.769
30
0.0
40
4.649
41
0.000
71
7
72
1
1
\W1.037;{\W0.747;.}　{\W0.747; }　{\W0.747;.}
7
STANDARD
11
1.00000
21
0.00000
31
0.0
0
MTEXT
5
90c
100
AcDbEntity
8
F-F
62
3
370
-3
100
AcDbMText
10
1228.433
20
161.685
30
0.0
40
4.649
41
0.000
71
7
72
1
1
\W1.037;{\W0.747;.}　　{\W0.747;.}　
7
STANDARD
11
1.00000
21
0.00000
31
0.0
0
TEXT
5
90d
100
AcDbEntity
8
F-F
62
3
370
-3
100
AcDbText
10
1523.695
20
145.508
30
0.0
40
4.923
1
縮　尺
41
0.914
50
0.000
100
AcDbText
0
TEXT
5
90e
100
AcDbEntity
8
0-1
62
3
370
-3
100
AcDbText
10
217.080
20
584.311
30
0.0
40
13.127
41
0.542
50
90.000
1
26
72
1
11
218.539
21
593.086
31
0.0
100
AcDbText
73
1
0
TEXT
5
90f
100
AcDbEntity
8
0-1
62
3
370
-3
100
AcDbText
10
217.080
20
496.811
30
0.0
40
13.127
41
0.736
50
90.000
1
140
72
1
11
218.539
21
509.973
31
0.0
100
AcDbText
73
1
0
TEXT
5
910
100
AcDbEntity
8
0-1
62
3
370
-3
100
AcDbText
10
425.209
20
534.525
30
0.0
40
11.486
1
吊子
41
0.918
50
0.000
100
AcDbText
0
TEXT
5
911
100
AcDbEntity
8
0-1
62
3
370
-3
100
AcDbText
10
233.618
20
516.740
30
0.0
40
11.486
1
タイトフレーム
41
0.918
50
0.000
100
AcDbText
0
TEXT
5
912
100
AcDbEntity
8
0-2
62
3
370
-3
100
AcDbText
10
708.096
20
615.813
30
0.0
40
11.486
1
吊子
41
0.918
50
0.000
100
AcDbText
0
TEXT
5
913
100
AcDbEntity
8
F-F
62
3
370
-3
100
AcDbText
10
1547.012
20
141.647
30
0.0
40
6.564
1
Ａ１－１／２　
41
0.921
50
0.000
100
AcDbText
0
TEXT
5
914
100
AcDbEntity
8
F-F
62
3
370
-3
100
AcDbText
10
1547.012
20
126.832
30
0.0
40
6.564
1
Ａ３－１／４　
41
0.921
50
0.000
100
AcDbText
0
TEXT
5
915
100
AcDbEntity
8
F-F
62
3
370
-3
100
AcDbText
10
146.668
20
128.767
30
0.0
40
6.564
1
電話（０５４）２６３－２２８０（代表）
41
0.921
50
0.000
100
AcDbText
0
TEXT
5
916
100
AcDbEntity
8
F-F
62
3
370
-3
100
AcDbText
10
102.770
20
161.158
30
0.0
40
13.127
1
小　池　弥　太　郎　商　店
41
0.963
50
0.000
100
AcDbText
0
TEXT
5
917
100
AcDbEntity
8
F-F
62
3
370
-3
100
AcDbText
10
146.664
20
143.600
30
0.0
40
6.564
1
静岡県静岡市葵区流通センター１６番
41
0.921
50
0.000
100
AcDbText
0
TEXT
5
918
100
AcDbEntity
8
F-F
62
3
370
-3
100
AcDbText
10
80.135
20
168.249
30
0.0
40
4.923
1
株
41
0.914
50
0.000
100
AcDbText
0
TEXT
5
919
100
AcDbEntity
8
F-F
62
3
370
-3
100
AcDbText
10
87.285
20
160.999
30
0.0
40
4.923
1
社
41
0.914
50
0.000
100
AcDbText
0
TEXT
5
91a
100
AcDbEntity
8
F-F
62
3
370
-3
100
AcDbText
10
80.085
20
160.999
30
0.0
40
4.923
1
会
41
0.914
50
0.000
100
AcDbText
0
TEXT
5
91b
100
AcDbEntity
8
F-F
62
3
370
-3
100
AcDbText
10
86.885
20
168.049
30
0.0
40
4.923
1
式
41
0.914
50
0.000
100
AcDbText
0
TEXT
5
91c
100
AcDbEntity
8
0-1
62
3
370
-3
100
AcDbText
10
350.099
20
635.031
30
0.0
40
13.127
41
0.685
50
0.000
1
120
72
1
11
363.261
21
633.572
31
0.0
100
AcDbText
73
1
0
TEXT
5
91d
100
AcDbEntity
8
0-2
62
3
370
-3
100
AcDbText
10
1062.668
20
436.109
30
0.0
40
13.127
41
0.716
50
90.000
1
16
72
1
11
1064.127
21
444.884
31
0.0
100
AcDbText
73
1
0
TEXT
5
91e
100
AcDbEntity
8
0-1
62
3
370
-3
100
AcDbText
10
217.080
20
421.060
30
0.0
40
13.127
41
0.716
50
90.000
1
16
72
1
11
218.539
21
429.835
31
0.0
100
AcDbText
73
1
0
TEXT
5
91f
100
AcDbEntity
8
0-1
62
3
370
-3
100
AcDbText
10
354.599
20
459.255
30
0.0
40
13.127
41
0.597
50
0.000
1
39
72
1
11
363.374
21
457.797
31
0.0
100
AcDbText
73
1
0
TEXT
5
920
100
AcDbEntity
8
0-2
62
3
370
-3
100
AcDbText
10
753.925
20
557.074
30
0.0
40
11.486
1
ＫＲ１４０ハゼ
41
0.918
50
0.000
100
AcDbText
0
TEXT
5
921
100
AcDbEntity
8
F-F
62
3
370
-3
100
AcDbText
10
1202.716
20
131.565
30
0.0
40
4.923
1
MA 2015-05-26
41
0.591
50
0.000
100
AcDbText
0
TEXT
5
922
100
AcDbEntity
8
F-F
62
3
370
-3
100
AcDbText
10
1538.835
20
161.186
30
0.0
40
8.205
1
KR140 - 01
41
0.698
50
0.000
100
AcDbText
0
TEXT
5
923
100
AcDbEntity
8
F-F
62
3
370
-3
100
AcDbText
10
1297.846
20
134.290
30
0.0
40
6.564
1
コイケルーフ丸ハゼ折板　ＫＲ１４０ハゼ　断面図
41
0.921
50
0.000
100
AcDbText
0
POLYLINE
5
924
100
AcDbEntity
  8
0-0
6
CONTINUOUS
62
3
100
AcDb2dPolyline
66
1
10
0
20
0
70
1
40
0.800
41
0.800
0
VERTEX
5
925
100
AcDbEntity
  8
0-0
6
CONTINUOUS
62
3
100
AcDbVertex
100
AcDb2dVertex
10
669.114
20
1032.651
30
0.0
42
1.000
0
VERTEX
5
926
100
AcDbEntity
  8
0-0
6
CONTINUOUS
62
3
100
AcDbVertex
100
AcDb2dVertex
10
669.914
20
1032.651
30
0.0
42
1.000
0
SEQEND
5
927
100
AcDbEntity
  8
0-0
0
POLYLINE
5
928
100
AcDbEntity
  8
0-0
6
CONTINUOUS
62
3
100
AcDb2dPolyline
66
1
10
0
20
0
70
1
40
0.800
41
0.800
0
VERTEX
5
929
100
AcDbEntity
  8
0-0
6
CONTINUOUS
62
3
100
AcDbVertex
100
AcDb2dVertex
10
669.114
20
1002.651
30
0.0
42
1.000
0
VERTEX
5
92a
100
AcDbEntity
  8
0-0
6
CONTINUOUS
62
3
100
AcDbVertex
100
AcDb2dVertex
10
669.914
20
1002.651
30
0.0
42
1.000
0
SEQEND
5
92b
100
AcDbEntity
  8
0-0
0
POLYLINE
5
92c
100
AcDbEntity
  8
0-0
6
CONTINUOUS
62
3
100
AcDb2dPolyline
66
1
10
0
20
0
70
1
40
0.800
41
0.800
0
VERTEX
5
92d
100
AcDbEntity
  8
0-0
6
CONTINUOUS
62
3
100
AcDbVertex
100
AcDb2dVertex
10
709.114
20
1002.651
30
0.0
42
1.000
0
VERTEX
5
92e
100
AcDbEntity
  8
0-0
6
CONTINUOUS
62
3
100
AcDbVertex
100
AcDb2dVertex
10
709.914
20
1002.651
30
0.0
42
1.000
0
SEQEND
5
92f
100
AcDbEntity
  8
0-0
0
POLYLINE
5
930
100
AcDbEntity
  8
0-0
6
CONTINUOUS
62
3
100
AcDb2dPolyline
66
1
10
0
20
0
70
1
40
0.800
41
0.800
0
VERTEX
5
931
100
AcDbEntity
  8
0-0
6
CONTINUOUS
62
3
100
AcDbVertex
100
AcDb2dVertex
10
1179.114
20
1002.651
30
0.0
42
1.000
0
VERTEX
5
932
100
AcDbEntity
  8
0-0
6
CONTINUOUS
62
3
100
AcDbVertex
100
AcDb2dVertex
10
1179.914
20
1002.651
30
0.0
42
1.000
0
SEQEND
5
933
100
AcDbEntity
  8
0-0
0
POLYLINE
5
934
100
AcDbEntity
  8
0-0
6
CONTINUOUS
62
3
100
AcDb2dPolyline
66
1
10
0
20
0
70
1
40
0.800
41
0.800
0
VERTEX
5
935
100
AcDbEntity
  8
0-0
6
CONTINUOUS
62
3
100
AcDbVertex
100
AcDb2dVertex
10
1219.114
20
1002.651
30
0.0
42
1.000
0
VERTEX
5
936
100
AcDbEntity
  8
0-0
6
CONTINUOUS
62
3
100
AcDbVertex
100
AcDb2dVertex
10
1219.914
20
1002.651
30
0.0
42
1.000
0
SEQEND
5
937
100
AcDbEntity
  8
0-0
0
POLYLINE
5
938
100
AcDbEntity
  8
0-0
6
CONTINUOUS
62
3
100
AcDb2dPolyline
66
1
10
0
20
0
70
1
40
0.800
41
0.800
0
VERTEX
5
939
100
AcDbEntity
  8
0-0
6
CONTINUOUS
62
3
100
AcDbVertex
100
AcDb2dVertex
10
1219.114
20
1032.651
30
0.0
42
1.000
0
VERTEX
5
93a
100
AcDbEntity
  8
0-0
6
CONTINUOUS
62
3
100
AcDbVertex
100
AcDb2dVertex
10
1219.914
20
1032.651
30
0.0
42
1.000
0
SEQEND
5
93b
100
AcDbEntity
  8
0-0
0
POLYLINE
5
93c
100
AcDbEntity
  8
0-0
6
CONTINUOUS
62
3
100
AcDb2dPolyline
66
1
10
0
20
0
70
1
40
0.800
41
0.800
0
VERTEX
5
93d
100
AcDbEntity
  8
0-0
6
CONTINUOUS
62
3
100
AcDbVertex
100
AcDb2dVertex
10
864.114
20
761.231
30
0.0
42
1.000
0
VERTEX
5
93e
100
AcDbEntity
  8
0-0
6
CONTINUOUS
62
3
100
AcDbVertex
100
AcDb2dVertex
10
864.914
20
761.231
30
0.0
42
1.000
0
SEQEND
5
93f
100
AcDbEntity
  8
0-0
0
POLYLINE
5
940
100
AcDbEntity
  8
0-0
6
CONTINUOUS
62
3
100
AcDb2dPolyline
66
1
10
0
20
0
70
1
40
0.800
41
0.800
0
VERTEX
5
941
100
AcDbEntity
  8
0-0
6
CONTINUOUS
62
3
100
AcDbVertex
100
AcDb2dVertex
10
1024.114
20
761.231
30
0.0
42
1.000
0
VERTEX
5
942
100
AcDbEntity
  8
0-0
6
CONTINUOUS
62
3
100
AcDbVertex
100
AcDb2dVertex
10
1024.914
20
761.231
30
0.0
42
1.000
0
SEQEND
5
943
100
AcDbEntity
  8
0-0
0
POLYLINE
5
944
100
AcDbEntity
  8
0-0
6
CONTINUOUS
62
3
100
AcDb2dPolyline
66
1
10
0
20
0
70
1
40
0.800
41
0.800
0
VERTEX
5
945
100
AcDbEntity
  8
0-0
6
CONTINUOUS
62
3
100
AcDbVertex
100
AcDb2dVertex
10
1002.776
20
801.231
30
0.0
42
1.000
0
VERTEX
5
946
100
AcDbEntity
  8
0-0
6
CONTINUOUS
62
3
100
AcDbVertex
100
AcDb2dVertex
10
1003.576
20
801.231
30
0.0
42
1.000
0
SEQEND
5
947
100
AcDbEntity
  8
0-0
0
POLYLINE
5
948
100
AcDbEntity
  8
0-0
6
CONTINUOUS
62
3
100
AcDb2dPolyline
66
1
10
0
20
0
70
1
40
0.800
41
0.800
0
VERTEX
5
949
100
AcDbEntity
  8
0-0
6
CONTINUOUS
62
3
100
AcDbVertex
100
AcDb2dVertex
10
1002.776
20
941.231
30
0.0
42
1.000
0
VERTEX
5
94a
100
AcDbEntity
  8
0-0
6
CONTINUOUS
62
3
100
AcDbVertex
100
AcDb2dVertex
10
1003.576
20
941.231
30
0.0
42
1.000
0
SEQEND
5
94b
100
AcDbEntity
  8
0-0
0
POLYLINE
5
94c
100
AcDbEntity
  8
0-2
6
CONTINUOUS
62
3
100
AcDb2dPolyline
66
1
10
0
20
0
70
1
40
0.800
41
0.800
0
VERTEX
5
94d
100
AcDbEntity
  8
0-2
6
CONTINUOUS
62
3
100
AcDbVertex
100
AcDb2dVertex
10
669.114
20
654.721
30
0.0
42
1.000
0
VERTEX
5
94e
100
AcDbEntity
  8
0-2
6
CONTINUOUS
62
3
100
AcDbVertex
100
AcDb2dVertex
10
669.914
20
654.721
30
0.0
42
1.000
0
SEQEND
5
94f
100
AcDbEntity
  8
0-2
0
POLYLINE
5
950
100
AcDbEntity
  8
0-2
6
CONTINUOUS
62
3
100
AcDb2dPolyline
66
1
10
0
20
0
70
1
40
0.800
41
0.800
0
VERTEX
5
951
100
AcDbEntity
  8
0-2
6
CONTINUOUS
62
3
100
AcDbVertex
100
AcDb2dVertex
10
1219.114
20
654.721
30
0.0
42
1.000
0
VERTEX
5
952
100
AcDbEntity
  8
0-2
6
CONTINUOUS
62
3
100
AcDbVertex
100
AcDb2dVertex
10
1219.914
20
654.721
30
0.0
42
1.000
0
SEQEND
5
953
100
AcDbEntity
  8
0-2
0
POLYLINE
5
954
100
AcDbEntity
  8
0-2
6
CONTINUOUS
62
3
100
AcDb2dPolyline
66
1
10
0
20
0
70
1
40
0.800
41
0.800
0
VERTEX
5
955
100
AcDbEntity
  8
0-2
6
CONTINUOUS
62
3
100
AcDbVertex
100
AcDb2dVertex
10
1000.119
20
578.636
30
0.0
42
1.000
0
VERTEX
5
956
100
AcDbEntity
  8
0-2
6
CONTINUOUS
62
3
100
AcDbVertex
100
AcDb2dVertex
10
1000.919
20
578.636
30
0.0
42
1.000
0
SEQEND
5
957
100
AcDbEntity
  8
0-2
0
POLYLINE
5
958
100
AcDbEntity
  8
0-2
6
CONTINUOUS
62
3
100
AcDb2dPolyline
66
1
10
0
20
0
70
1
40
0.800
41
0.800
0
VERTEX
5
959
100
AcDbEntity
  8
0-2
6
CONTINUOUS
62
3
100
AcDbVertex
100
AcDb2dVertex
10
1000.119
20
438.636
30
0.0
42
1.000
0
VERTEX
5
95a
100
AcDbEntity
  8
0-2
6
CONTINUOUS
62
3
100
AcDbVertex
100
AcDb2dVertex
10
1000.919
20
438.636
30
0.0
42
1.000
0
SEQEND
5
95b
100
AcDbEntity
  8
0-2
0
POLYLINE
5
95c
100
AcDbEntity
  8
0-2
6
CONTINUOUS
62
3
100
AcDb2dPolyline
66
1
10
0
20
0
70
1
40
0.800
41
0.800
0
VERTEX
5
95d
100
AcDbEntity
  8
0-2
6
CONTINUOUS
62
3
100
AcDbVertex
100
AcDb2dVertex
10
1050.119
20
420.936
30
0.0
42
1.000
0
VERTEX
5
95e
100
AcDbEntity
  8
0-2
6
CONTINUOUS
62
3
100
AcDbVertex
100
AcDb2dVertex
10
1050.919
20
420.936
30
0.0
42
1.000
0
SEQEND
5
95f
100
AcDbEntity
  8
0-2
0
POLYLINE
5
960
100
AcDbEntity
  8
0-2
6
CONTINUOUS
62
3
100
AcDb2dPolyline
66
1
10
0
20
0
70
1
40
0.800
41
0.800
0
VERTEX
5
961
100
AcDbEntity
  8
0-2
6
CONTINUOUS
62
3
100
AcDbVertex
100
AcDb2dVertex
10
1050.119
20
435.936
30
0.0
42
1.000
0
VERTEX
5
962
100
AcDbEntity
  8
0-2
6
CONTINUOUS
62
3
100
AcDbVertex
100
AcDb2dVertex
10
1050.919
20
435.936
30
0.0
42
1.000
0
SEQEND
5
963
100
AcDbEntity
  8
0-2
0
POLYLINE
5
964
100
AcDbEntity
  8
0-2
6
CONTINUOUS
62
3
100
AcDb2dPolyline
66
1
10
0
20
0
70
1
40
0.800
41
0.800
0
VERTEX
5
965
100
AcDbEntity
  8
0-2
6
CONTINUOUS
62
3
100
AcDbVertex
100
AcDb2dVertex
10
1000.119
20
604.636
30
0.0
42
1.000
0
VERTEX
5
966
100
AcDbEntity
  8
0-2
6
CONTINUOUS
62
3
100
AcDbVertex
100
AcDb2dVertex
10
1000.919
20
604.636
30
0.0
42
1.000
0
SEQEND
5
967
100
AcDbEntity
  8
0-2
0
POLYLINE
5
968
100
AcDbEntity
  8
0-1
6
CONTINUOUS
62
3
100
AcDb2dPolyline
66
1
10
0
20
0
70
1
40
0.800
41
0.800
0
VERTEX
5
969
100
AcDbEntity
  8
0-1
6
CONTINUOUS
62
3
100
AcDbVertex
100
AcDb2dVertex
10
222.075
20
604.636
30
0.0
42
1.000
0
VERTEX
5
96a
100
AcDbEntity
  8
0-1
6
CONTINUOUS
62
3
100
AcDbVertex
100
AcDb2dVertex
10
222.875
20
604.636
30
0.0
42
1.000
0
SEQEND
5
96b
100
AcDbEntity
  8
0-1
0
POLYLINE
5
96c
100
AcDbEntity
  8
0-1
6
CONTINUOUS
62
3
100
AcDb2dPolyline
66
1
10
0
20
0
70
1
40
0.800
41
0.800
0
VERTEX
5
96d
100
AcDbEntity
  8
0-1
6
CONTINUOUS
62
3
100
AcDbVertex
100
AcDb2dVertex
10
222.075
20
579.738
30
0.0
42
1.000
0
VERTEX
5
96e
100
AcDbEntity
  8
0-1
6
CONTINUOUS
62
3
100
AcDbVertex
100
AcDb2dVertex
10
222.875
20
579.738
30
0.0
42
1.000
0
SEQEND
5
96f
100
AcDbEntity
  8
0-1
0
POLYLINE
5
970
100
AcDbEntity
  8
0-1
6
CONTINUOUS
62
3
100
AcDb2dPolyline
66
1
10
0
20
0
70
1
40
0.800
41
0.800
0
VERTEX
5
971
100
AcDbEntity
  8
0-1
6
CONTINUOUS
62
3
100
AcDbVertex
100
AcDb2dVertex
10
222.075
20
438.636
30
0.0
42
1.000
0
VERTEX
5
972
100
AcDbEntity
  8
0-1
6
CONTINUOUS
62
3
100
AcDbVertex
100
AcDb2dVertex
10
222.875
20
438.636
30
0.0
42
1.000
0
SEQEND
5
973
100
AcDbEntity
  8
0-1
0
POLYLINE
5
974
100
AcDbEntity
  8
0-1
6
CONTINUOUS
62
3
100
AcDb2dPolyline
66
1
10
0
20
0
70
1
40
0.800
41
0.800
0
VERTEX
5
975
100
AcDbEntity
  8
0-1
6
CONTINUOUS
62
3
100
AcDbVertex
100
AcDb2dVertex
10
222.075
20
420.936
30
0.0
42
1.000
0
VERTEX
5
976
100
AcDbEntity
  8
0-1
6
CONTINUOUS
62
3
100
AcDbVertex
100
AcDb2dVertex
10
222.875
20
420.936
30
0.0
42
1.000
0
SEQEND
5
977
100
AcDbEntity
  8
0-1
0
POLYLINE
5
978
100
AcDbEntity
  8
0-1
6
CONTINUOUS
62
3
100
AcDb2dPolyline
66
1
10
0
20
0
70
1
40
0.800
41
0.800
0
VERTEX
5
979
100
AcDbEntity
  8
0-1
6
CONTINUOUS
62
3
100
AcDbVertex
100
AcDb2dVertex
10
342.575
20
453.861
30
0.0
42
1.000
0
VERTEX
5
97a
100
AcDbEntity
  8
0-1
6
CONTINUOUS
62
3
100
AcDbVertex
100
AcDb2dVertex
10
343.375
20
453.861
30
0.0
42
1.000
0
SEQEND
5
97b
100
AcDbEntity
  8
0-1
0
POLYLINE
5
97c
100
AcDbEntity
  8
0-1
6
CONTINUOUS
62
3
100
AcDb2dPolyline
66
1
10
0
20
0
70
1
40
0.800
41
0.800
0
VERTEX
5
97d
100
AcDbEntity
  8
0-1
6
CONTINUOUS
62
3
100
AcDbVertex
100
AcDb2dVertex
10
381.575
20
453.861
30
0.0
42
1.000
0
VERTEX
5
97e
100
AcDbEntity
  8
0-1
6
CONTINUOUS
62
3
100
AcDbVertex
100
AcDb2dVertex
10
382.375
20
453.861
30
0.0
42
1.000
0
SEQEND
5
97f
100
AcDbEntity
  8
0-1
0
POLYLINE
5
980
100
AcDbEntity
  8
0-1
6
CONTINUOUS
62
3
100
AcDb2dPolyline
66
1
10
0
20
0
70
1
40
0.800
41
0.800
0
VERTEX
5
981
100
AcDbEntity
  8
0-1
6
CONTINUOUS
62
3
100
AcDbVertex
100
AcDb2dVertex
10
302.075
20
629.636
30
0.0
42
1.000
0
VERTEX
5
982
100
AcDbEntity
  8
0-1
6
CONTINUOUS
62
3
100
AcDbVertex
100
AcDb2dVertex
10
302.875
20
629.636
30
0.0
42
1.000
0
SEQEND
5
983
100
AcDbEntity
  8
0-1
0
POLYLINE
5
984
100
AcDbEntity
  8
0-1
6
CONTINUOUS
62
3
100
AcDb2dPolyline
66
1
10
0
20
0
70
1
40
0.800
41
0.800
0
VERTEX
5
985
100
AcDbEntity
  8
0-1
6
CONTINUOUS
62
3
100
AcDbVertex
100
AcDb2dVertex
10
422.075
20
629.636
30
0.0
42
1.000
0
VERTEX
5
986
100
AcDbEntity
  8
0-1
6
CONTINUOUS
62
3
100
AcDbVertex
100
AcDb2dVertex
10
422.875
20
629.636
30
0.0
42
1.000
0
SEQEND
5
987
100
AcDbEntity
  8
0-1
0
POLYLINE
5
988
100
AcDbEntity
  8
0-1
6
CONTINUOUS
62
3
100
AcDb2dPolyline
66
1
10
0
20
0
70
1
40
0.800
41
0.800
0
VERTEX
5
989
100
AcDbEntity
  8
0-1
6
CONTINUOUS
62
3
100
AcDbVertex
100
AcDb2dVertex
10
362.075
20
555.136
30
0.0
42
1.000
0
VERTEX
5
98a
100
AcDbEntity
  8
0-1
6
CONTINUOUS
62
3
100
AcDbVertex
100
AcDb2dVertex
10
362.875
20
555.136
30
0.0
42
1.000
0
SEQEND
5
98b
100
AcDbEntity
  8
0-1
0
ENDSEC
 0
SECTION
  2
OBJECTS
 0
DICTIONARY
  5
C
100
AcDbDictionary
  3
ACAD_GROUP
350
D
  3
ACAD_MLINESTYLE
350
E
 0
DICTIONARY
  5
D
102
{ACAD_REACTORS
102
}
100
AcDbDictionary
 0
DICTIONARY
  5
E
102
{ACAD_REACTORS
102
}
100
AcDbDictionary
  3
STANDARD
350
13
0
MLINESTYLE
  5
13
102
{ACAD_REACTORS
102
}
100
AcDbMlineStyle
  2
STANDARD
 70
    0
3

62
256
51
90.0
52
90.0
71
0
0
ACDBPLACEHOLDER
  5
14
102
{ACAD_REACTORS
102
}
0
ENDSEC
0
EOF
