0
SECTION
2
HEADER
9
$ACADVER
1
AC1015
9
$ACADMAINTVER
 70
6
9
$DWGCODEPAGE
3
ANSI_932
9
$EXTMIN
10
0.000
20
0.000
30
0.0
9
$EXTMAX
10
841.000
20
594.000
30
0.0
9
$LIMMIN
10
0.000
20
0.000
9
$LIMMAX
10
841.000
20
594.000
9
$DIMSCALE
40
1.000000
9
$LTSCALE
40
2.000
9
$PDMODE
70
0
9
$PDSIZE
40
40.0
9
$HANDSEED
5
61e27
9
$UNITMODE
70
0
9
$VISRETAIN
70
0
9
$PLINEGEN
70
0
9
$PSLTSCALE
70
1
9
$TREEDEPTH
70
3020
9
$CMLSTYLE
2
STANDARD
9
$CMLJUST
70
0
9
$CMLSCALE
40
1.0
9
$PROXYGRAPHICS
70
1
9
$MEASUREMENT
70
0
9
$CELWEIGHT
370
-1
9
$ENDCAPS
280
0
9
$JOINSTYLE
280
0
9
$LWDISPLAY
290
0
9
$INSUNITS
70
0
9
$HYPERLINKBASE
1

9
$STYLESHEET
1

9
$XEDIT
290
1
9
$CEPSNTYPE
380
0
9
$PSTYLEMODE
290
1
9
$FINGERPRINTGUID
2
{5F082321-0195-11D3-BDFB-0060B0CD5109}
9
$VERSIONGUID
2
{12943756-294D-11D3-98C2-0060B087942D}
9
$EXTNAMES
290
1
9
$PSVPSCALE
40
0.0
9
$OLESTARTUP
290
0
0
ENDSEC
0
SECTION
  2
CLASSES
0
ENDSEC
0
SECTION
2
TABLES
0
TABLE
2
VPORT
5
190
100
AcDbSymbolTable
70
2
0
VPORT
5
191
100
AcDbSymbolTableRecord
100
AcDbViewportTableRecord
2
*ACTIVE
70
0
10
0.0
20
0.0
11
1.0
21
1.0
12
420.500
22
297.000
13
0.0
23
0.0
14
1.0
24
1.0
15
0.0
25
0.0
16
0.0
26
0.0
36
1.0
17
0.0
27
0.0
37
0.0
40
609.420
41
2.0
42
50.0
43
0.0
44
0.0
50
0.0
51
0.0
71
0
72
1000
73
1
74
1
75
0
76
0
77
0
78
0
0
ENDTAB
0
TABLE
2
LTYPE
5
1f4
100
AcDbSymbolTable
70
9
0
LTYPE
5
1f5
100
AcDbSymbolTableRecord
100
AcDbLinetypeTableRecord
2
BYBLOCK
70
 64
3

72
 65
73
  0
40
0.0
0
LTYPE
5
1f6
100
AcDbSymbolTableRecord
100
AcDbLinetypeTableRecord
2
BYLAYER
70
 64
3

72
 65
73
  0
40
0.0
0
LTYPE
5
1f7
100
AcDbSymbolTableRecord
100
AcDbLinetypeTableRecord
2
CONTINUOUS
70
64
3
SolidLine
72
65
73
0
40
0.0
0
LTYPE
5
1f8
100
AcDbSymbolTableRecord
100
AcDbLinetypeTableRecord
2
DOT
70
64
3
--  --  --  --  --  --  --  --     
72
65
73
2
40
3.000
49
1.000
74
0
49
-2.000
74
0
0
LTYPE
5
1f9
100
AcDbSymbolTableRecord
100
AcDbLinetypeTableRecord
2
DASHED
70
64
3
----    ----    ----    ----    
72
65
73
2
40
5.000
49
2.000
74
0
49
-3.000
74
0
0
LTYPE
5
1fa
100
AcDbSymbolTableRecord
100
AcDbLinetypeTableRecord
2
DASHED2
70
64
3
------  ------  ------  ------ 
72
65
73
2
40
10.000
49
4.000
74
0
49
-6.000
74
0
0
LTYPE
5
1fb
100
AcDbSymbolTableRecord
100
AcDbLinetypeTableRecord
2
CENTER
70
64
3
----- - ----- - ----- - ----- - 
72
65
73
4
40
10.000
49
6.000
74
0
49
-3.000
74
0
49
1.000
74
0
49
-3.000
74
0
0
LTYPE
5
1fc
100
AcDbSymbolTableRecord
100
AcDbLinetypeTableRecord
2
CENTER2
70
64
3
----------  --  ----------  -- 
72
65
73
4
40
17.000
49
12.000
74
0
49
-5.000
74
0
49
2.000
74
0
49
-5.000
74
0
0
LTYPE
5
1fd
100
AcDbSymbolTableRecord
100
AcDbLinetypeTableRecord
2
PHANTOM
70
64
3
--- - - --- - - --- - - --- - -
72
65
73
6
40
13.000
49
5.000
74
0
49
-3.000
74
0
49
1.000
74
0
49
-3.000
74
0
49
1.000
74
0
49
-3.000
74
0
0
LTYPE
5
1fe
100
AcDbSymbolTableRecord
100
AcDbLinetypeTableRecord
2
PHANTOM2
70
64
3
--------  -  -  --------  -  -
72
65
73
6
40
20.000
49
6.000
74
0
49
-5.000
74
0
49
2.000
74
0
49
-5.000
74
0
49
2.000
74
0
49
-5.000
74
0
0
LTYPE
5
1ff
100
AcDbSymbolTableRecord
100
AcDbLinetypeTableRecord
2
HIDDEN
70
64
3
-   -   -   -   -   -   -   -   
72
65
73
2
40
3.000
49
0.500
74
0
49
-2.500
74
0
0
ENDTAB
0
TABLE
2
STYLE
5
200
100
AcDbSymbolTable
70
1
0
STYLE
5
201
100
AcDbSymbolTableRecord
100
AcDbTextStyleTableRecord
2
STANDARD
70
0
40
0.0
41
1.0
50
0.0
71
0
42
0.0
3
txt.shx
4
extfont.shx
0
STYLE
5
202
100
AcDbSymbolTableRecord
100
AcDbTextStyleTableRecord
2
TATEGAKI
70
4
40
0.0
41
1.0
50
0.0
71
0
42
0.0
3
txt.shx
4
extfont.shx
0
STYLE
5
203
100
AcDbSymbolTableRecord
100
AcDbTextStyleTableRecord
2
DIM
70
0
40
0.0
41
0.75
50
0.0
71
0
42
0.0
3
txt.shx
4
extfont.shx
0
STYLE
5
204
100
AcDbSymbolTableRecord
100
AcDbTextStyleTableRecord
2
_Gothic_
70
0
40
1.0
41
1.0
50
0.0
71
0
42
10.0
3

4

1001
ACAD
1000
MS Gothic
1071
32817
0
STYLE
5
205
100
AcDbSymbolTableRecord
100
AcDbTextStyleTableRecord
2
_TateGothic_
70
4
40
0.0
41
1.0
50
0.0
71
0
42
0.0
3
@MS Gothic
4

0
ENDTAB
0
TABLE
2
VIEW
5
206
100
AcDbSymbolTable
70
0
0
ENDTAB
0
TABLE
2
UCS
5
207
100
AcDbSymbolTable
70
0
0
ENDTAB
0
TABLE
2
APPID
5
208
100
AcDbSymbolTable
70
1
0
APPID
5
209
100
AcDbSymbolTableRecord
100
AcDbRegAppTableRecord
2
ACAD
70
0
0
ENDTAB
0
TABLE
2
DIMSTYLE
5
403
330
0
100
AcDbSymbolTable
70
1
100
AcDbDimStyleTable
71
0
0
DIMSTYLE
105
404
330
402
100
AcDbSymbolTableRecord
100
AcDbDimStyleTableRecord
2
JAC_DIM
70
0
41
2.000
42
0.000
44
0.0
73
0
74
0
77
1
78
8
79
2
140
0.000
170
0
171
2
172
0
173
0
174
0
175
0
176
0
177
0
178
0
270
2
271
0
272
0
273
2
274
2
340
201
275
0
280
0
281
0
282
0
283
0
284
0
285
0
286
0
287
3
288
0
0
ENDTAB
0
TABLE
2
BLOCK_RECORD
5
405
100
AcDbSymbolTable
70
0
0
BLOCK_RECORD
5
406
100
AcDbSymbolTableRecord
100
AcDbBlockTableRecord
2
*MODEL_SPACE
0
BLOCK_RECORD
5
407
100
AcDbSymbolTableRecord
100
AcDbBlockTableRecord
2
*PAPER_SPACE
0
BLOCK_RECORD
5
408
100
AcDbSymbolTableRecord
100
AcDbBlockTableRecord
2
_JACCONVERT_
0
ENDTAB
0
TABLE
2
LAYER
5
409
100
AcDbSymbolTable
70
10
0
LAYER
5
40a
100
AcDbSymbolTableRecord
100
AcDbLayerTableRecord
2
0
70
0
62
7
6
CONTINUOUS
370
-3
390
14
0
LAYER
5
40b
100
AcDbSymbolTableRecord
100
AcDbLayerTableRecord
2
0-0
70
0
62
7
6
CONTINUOUS
370
-3
390
14
0
LAYER
5
40c
100
AcDbSymbolTableRecord
100
AcDbLayerTableRecord
2
0-1
70
0
62
7
6
CONTINUOUS
370
-3
390
14
0
LAYER
5
40d
100
AcDbSymbolTableRecord
100
AcDbLayerTableRecord
2
0-2
70
0
62
7
6
CONTINUOUS
370
-3
390
14
0
LAYER
5
40e
100
AcDbSymbolTableRecord
100
AcDbLayerTableRecord
2
F-E_J_ADD
70
0
62
-7
6
CONTINUOUS
290
0
370
-3
390
14
0
LAYER
5
40f
100
AcDbSymbolTableRecord
100
AcDbLayerTableRecord
2
F-F
70
0
62
7
6
CONTINUOUS
370
-3
390
14
0
ENDTAB
0
ENDSEC
0
SECTION
2
BLOCKS
0
BLOCK
5
410
100
AcDbEntity
67
1
8
0
100
AcDbBlockBegin
2
*MODEL_SPACE
70
0
10
0.0
20
0.0
30
0.0
3
*MODEL_SPACE
1

0
ENDBLK
5
411
100
AcDbEntity
8
0
100
AcDbBlockEnd
0
BLOCK
5
412
100
AcDbEntity
67
1
8
0
100
AcDbBlockBegin
2
*PAPER_SPACE
70
0
10
0.0
20
0.0
30
0.0
3
*PAPER_SPACE
1

0
ENDBLK
5
413
100
AcDbEntity
67
1
8
0
100
AcDbBlockEnd
0
BLOCK
5
414
100
AcDbEntity
8
0
100
AcDbBlockBegin
2
_JACCONVERT_
70
2
10
0.0
20
0.0
30
0.0
3
_JACCONVERT_
1
_JACCONVERT_
0
ATTDEF
5
415
100
AcDbEntity
8
0
62
0
100
AcDbText
10
0.0
20
0.0
30
0.0
40
1.0
1
User:460950EB0890EC0964308A
100
AcDbAttributeDefinition
3

2
USER
70
8
0
ATTDEF
5
416
100
AcDbEntity
8
0
62
0
100
AcDbText
10
0.0
20
2.0
30
0.0
40
1.0
1
Date:15/05/26 15:42
100
AcDbAttributeDefinition
3

2
REVDATE
70
8
0
ATTDEF
5
417
100
AcDbEntity
8
0
62
0
100
AcDbText
10
0.0
20
4.0
30
0.0
40
1.0
1
File:KR300　断面図.dxf
100
AcDbAttributeDefinition
3

2
FNAME
70
8
0
ATTDEF
5
418
100
AcDbEntity
8
0
62
0
100
AcDbText
10
0.0
20
6.0
30
0.0
40
1.0
1
JacConvert Version3.09 copyright (c) 2001-2013 K.Nakahara
100
AcDbAttributeDefinition
3

2
VER
70
8
0
ENDBLK
5
419
100
AcDbEntity
67
1
8
0
100
AcDbBlockEnd
0
ENDSEC
0
SECTION
2
ENTITIES
0
LINE
5
41a
100
AcDbEntity
8
F-F
6
CONTINUOUS
62
2
100
AcDbLine
10
27.380000000000
20
11.820000000000
30
0.0
11
27.380000000000
21
571.820000000000
31
0.0
0
LINE
5
41b
100
AcDbEntity
8
F-F
6
CONTINUOUS
62
2
100
AcDbLine
10
642.380000000000
20
41.450000000000
30
0.0
11
642.380000000000
21
11.820000000000
31
0.0
0
LINE
5
41c
100
AcDbEntity
8
F-F
6
CONTINUOUS
62
2
100
AcDbLine
10
607.270000000000
20
41.450000000000
30
0.0
11
607.270000000000
21
11.820000000000
31
0.0
0
LINE
5
41d
100
AcDbEntity
8
F-F
6
CONTINUOUS
62
2
100
AcDbLine
10
768.560000000000
20
11.820000000000
30
0.0
11
768.560000000000
21
41.450000000000
31
0.0
0
LINE
5
41e
100
AcDbEntity
8
F-F
6
CONTINUOUS
62
2
100
AcDbLine
10
403.450000000000
20
41.450000000000
30
0.0
11
403.450000000000
21
11.820000000000
31
0.0
0
LINE
5
41f
100
AcDbEntity
8
F-F
6
CONTINUOUS
62
2
100
AcDbLine
10
504.870000000000
20
41.450000000000
30
0.0
11
504.870000000000
21
11.820000000000
31
0.0
0
LINE
5
420
100
AcDbEntity
8
F-F
6
CONTINUOUS
62
2
100
AcDbLine
10
403.450000000000
20
31.570000000000
30
0.0
11
184.880000000000
21
31.570000000000
31
0.0
0
LINE
5
421
100
AcDbEntity
8
F-F
6
CONTINUOUS
62
2
100
AcDbLine
10
403.450000000000
20
21.690000000000
30
0.0
11
184.880000000000
21
21.690000000000
31
0.0
0
LINE
5
422
100
AcDbEntity
8
F-F
6
CONTINUOUS
62
2
100
AcDbLine
10
403.450000000000
20
16.760000000000
30
0.0
11
184.880000000000
21
16.760000000000
31
0.0
0
LINE
5
423
100
AcDbEntity
8
F-F
6
CONTINUOUS
62
2
100
AcDbLine
10
403.450000000000
20
36.510000000000
30
0.0
11
184.880000000000
21
36.510000000000
31
0.0
0
LINE
5
424
100
AcDbEntity
8
F-F
6
CONTINUOUS
62
2
100
AcDbLine
10
211.210000000000
20
41.450000000000
30
0.0
11
211.210000000000
21
11.820000000000
31
0.0
0
LINE
5
425
100
AcDbEntity
8
F-F
6
CONTINUOUS
62
2
100
AcDbLine
10
184.880000000000
20
41.450000000000
30
0.0
11
184.880000000000
21
11.820000000000
31
0.0
0
LINE
5
426
100
AcDbEntity
8
F-F
6
CONTINUOUS
62
2
100
AcDbLine
10
815.820000000000
20
11.820000000000
30
0.0
11
815.820000000000
21
571.820000000000
31
0.0
0
LINE
5
427
100
AcDbEntity
8
F-F
6
CONTINUOUS
62
2
100
AcDbLine
10
27.380000000000
20
571.820000000000
30
0.0
11
815.820000000000
21
571.820000000000
31
0.0
0
LINE
5
428
100
AcDbEntity
8
F-F
6
CONTINUOUS
62
2
100
AcDbLine
10
27.380000000000
20
11.820000000000
30
0.0
11
815.820000000000
21
11.820000000000
31
0.0
0
LINE
5
429
100
AcDbEntity
8
F-F
6
CONTINUOUS
62
2
100
AcDbLine
10
815.820000000000
20
41.450000000000
30
0.0
11
27.380000000000
21
41.450000000000
31
0.0
0
LINE
5
42a
100
AcDbEntity
8
F-F
6
CONTINUOUS
62
2
100
AcDbLine
10
184.880000000000
20
26.630000000000
30
0.0
11
815.820000000000
21
26.630000000000
31
0.0
0
POLYLINE
5
42b
100
AcDbEntity
8
F-F
6
CONTINUOUS
62
  3
100
AcDb2dPolyline
66
1
10
0.0
20
0.0
30
0.0
70
0
0
VERTEX
5
42c
100
AcDbEntity
8
F-F
6
CONTINUOUS
62
  3
100
AcDbVertex
100
AcDb2dVertex
10
35.860000000000
20
29.550000000000
30
0.0
0
VERTEX
5
42d
100
AcDbEntity
8
F-F
6
CONTINUOUS
62
  3
100
AcDbVertex
100
AcDb2dVertex
10
35.860000000000
20
37.550000000000
30
0.0
0
VERTEX
5
42e
100
AcDbEntity
8
F-F
6
CONTINUOUS
62
  3
100
AcDbVertex
100
AcDb2dVertex
10
43.860000000000
20
37.550000000000
30
0.0
0
VERTEX
5
42f
100
AcDbEntity
8
F-F
6
CONTINUOUS
62
  3
100
AcDbVertex
100
AcDb2dVertex
10
43.860000000000
20
29.550000000000
30
0.0
0
VERTEX
5
430
100
AcDbEntity
8
F-F
6
CONTINUOUS
62
  3
100
AcDbVertex
100
AcDb2dVertex
10
35.860000000000
20
29.550000000000
30
0.0
0
SEQEND
5
431
100
AcDbEntity
8
F-F
0
LINE
5
432
100
AcDbEntity
8
F-F
6
CONTINUOUS
62
3
100
AcDbLine
10
36.660000000000
20
30.630000000000
30
0.0
11
36.660000000000
21
36.750000000000
31
0.0
0
LINE
5
433
100
AcDbEntity
8
F-F
6
CONTINUOUS
62
3
100
AcDbLine
10
43.060000000000
20
30.350000000000
30
0.0
11
36.940000000000
21
30.350000000000
31
0.0
0
POLYLINE
5
434
100
AcDbEntity
8
F-F
6
CONTINUOUS
62
  3
100
AcDb2dPolyline
66
1
10
0.0
20
0.0
30
0.0
70
0
0
VERTEX
5
435
100
AcDbEntity
8
F-F
6
CONTINUOUS
62
  3
100
AcDbVertex
100
AcDb2dVertex
10
36.660000000000
20
36.750000000000
30
0.0
0
VERTEX
5
436
100
AcDbEntity
8
F-F
6
CONTINUOUS
62
  3
100
AcDbVertex
100
AcDb2dVertex
10
42.770000000000
20
36.750000000000
30
0.0
0
VERTEX
5
437
100
AcDbEntity
8
F-F
6
CONTINUOUS
62
  3
100
AcDbVertex
100
AcDb2dVertex
10
36.660000000000
20
30.630000000000
30
0.0
0
SEQEND
5
438
100
AcDbEntity
8
F-F
0
LINE
5
439
100
AcDbEntity
8
F-F
6
CONTINUOUS
62
3
100
AcDbLine
10
43.060000000000
20
36.470000000000
30
0.0
11
36.940000000000
21
30.350000000000
31
0.0
0
LINE
5
43a
100
AcDbEntity
8
F-F
6
CONTINUOUS
62
3
100
AcDbLine
10
43.060000000000
20
36.470000000000
30
0.0
11
43.060000000000
21
30.350000000000
31
0.0
0
LINE
5
43b
100
AcDbEntity
8
F-F
6
CONTINUOUS
62
4
100
AcDbLine
10
35.860000000000
20
37.470000000000
30
0.0
11
43.860000000000
21
37.470000000000
31
0.0
0
LINE
5
43c
100
AcDbEntity
8
F-F
6
CONTINUOUS
62
4
100
AcDbLine
10
35.860000000000
20
37.310000000000
30
0.0
11
43.860000000000
21
37.310000000000
31
0.0
0
LINE
5
43d
100
AcDbEntity
8
F-F
6
CONTINUOUS
62
4
100
AcDbLine
10
35.860000000000
20
37.150000000000
30
0.0
11
43.860000000000
21
37.150000000000
31
0.0
0
LINE
5
43e
100
AcDbEntity
8
F-F
6
CONTINUOUS
62
4
100
AcDbLine
10
35.860000000000
20
36.990000000000
30
0.0
11
43.860000000000
21
36.990000000000
31
0.0
0
LINE
5
43f
100
AcDbEntity
8
F-F
6
CONTINUOUS
62
4
100
AcDbLine
10
35.860000000000
20
36.830000000000
30
0.0
11
43.860000000000
21
36.830000000000
31
0.0
0
LINE
5
440
100
AcDbEntity
8
F-F
6
CONTINUOUS
62
4
100
AcDbLine
10
35.860000000000
20
30.270000000000
30
0.0
11
43.860000000000
21
30.270000000000
31
0.0
0
LINE
5
441
100
AcDbEntity
8
F-F
6
CONTINUOUS
62
4
100
AcDbLine
10
35.860000000000
20
30.110000000000
30
0.0
11
43.860000000000
21
30.110000000000
31
0.0
0
LINE
5
442
100
AcDbEntity
8
F-F
6
CONTINUOUS
62
4
100
AcDbLine
10
35.860000000000
20
29.950000000000
30
0.0
11
43.860000000000
21
29.950000000000
31
0.0
0
LINE
5
443
100
AcDbEntity
8
F-F
6
CONTINUOUS
62
4
100
AcDbLine
10
35.860000000000
20
29.790000000000
30
0.0
11
43.860000000000
21
29.790000000000
31
0.0
0
LINE
5
444
100
AcDbEntity
8
F-F
6
CONTINUOUS
62
4
100
AcDbLine
10
35.860000000000
20
29.630000000000
30
0.0
11
43.860000000000
21
29.630000000000
31
0.0
0
LINE
5
445
100
AcDbEntity
8
F-F
6
CONTINUOUS
62
4
100
AcDbLine
10
35.860000000000
20
30.750000000000
30
0.0
11
36.660000000000
21
30.750000000000
31
0.0
0
LINE
5
446
100
AcDbEntity
8
F-F
6
CONTINUOUS
62
4
100
AcDbLine
10
35.860000000000
20
30.910000000000
30
0.0
11
36.660000000000
21
30.910000000000
31
0.0
0
LINE
5
447
100
AcDbEntity
8
F-F
6
CONTINUOUS
62
4
100
AcDbLine
10
35.860000000000
20
31.070000000000
30
0.0
11
36.660000000000
21
31.070000000000
31
0.0
0
LINE
5
448
100
AcDbEntity
8
F-F
6
CONTINUOUS
62
4
100
AcDbLine
10
35.860000000000
20
31.230000000000
30
0.0
11
36.660000000000
21
31.230000000000
31
0.0
0
LINE
5
449
100
AcDbEntity
8
F-F
6
CONTINUOUS
62
4
100
AcDbLine
10
35.860000000000
20
31.390000000000
30
0.0
11
36.660000000000
21
31.390000000000
31
0.0
0
LINE
5
44a
100
AcDbEntity
8
F-F
6
CONTINUOUS
62
4
100
AcDbLine
10
35.860000000000
20
31.550000000000
30
0.0
11
36.660000000000
21
31.550000000000
31
0.0
0
LINE
5
44b
100
AcDbEntity
8
F-F
6
CONTINUOUS
62
4
100
AcDbLine
10
35.860000000000
20
31.710000000000
30
0.0
11
36.660000000000
21
31.710000000000
31
0.0
0
LINE
5
44c
100
AcDbEntity
8
F-F
6
CONTINUOUS
62
4
100
AcDbLine
10
35.860000000000
20
31.870000000000
30
0.0
11
36.660000000000
21
31.870000000000
31
0.0
0
LINE
5
44d
100
AcDbEntity
8
F-F
6
CONTINUOUS
62
4
100
AcDbLine
10
35.860000000000
20
32.030000000000
30
0.0
11
36.660000000000
21
32.030000000000
31
0.0
0
LINE
5
44e
100
AcDbEntity
8
F-F
6
CONTINUOUS
62
4
100
AcDbLine
10
35.860000000000
20
32.190000000000
30
0.0
11
36.660000000000
21
32.190000000000
31
0.0
0
LINE
5
44f
100
AcDbEntity
8
F-F
6
CONTINUOUS
62
4
100
AcDbLine
10
35.860000000000
20
32.350000000000
30
0.0
11
36.660000000000
21
32.350000000000
31
0.0
0
LINE
5
450
100
AcDbEntity
8
F-F
6
CONTINUOUS
62
4
100
AcDbLine
10
35.860000000000
20
32.510000000000
30
0.0
11
36.660000000000
21
32.510000000000
31
0.0
0
LINE
5
451
100
AcDbEntity
8
F-F
6
CONTINUOUS
62
4
100
AcDbLine
10
35.860000000000
20
32.670000000000
30
0.0
11
36.660000000000
21
32.670000000000
31
0.0
0
LINE
5
452
100
AcDbEntity
8
F-F
6
CONTINUOUS
62
4
100
AcDbLine
10
35.860000000000
20
32.830000000000
30
0.0
11
36.660000000000
21
32.830000000000
31
0.0
0
LINE
5
453
100
AcDbEntity
8
F-F
6
CONTINUOUS
62
4
100
AcDbLine
10
35.860000000000
20
32.990000000000
30
0.0
11
36.660000000000
21
32.990000000000
31
0.0
0
LINE
5
454
100
AcDbEntity
8
F-F
6
CONTINUOUS
62
4
100
AcDbLine
10
35.860000000000
20
33.150000000000
30
0.0
11
36.660000000000
21
33.150000000000
31
0.0
0
LINE
5
455
100
AcDbEntity
8
F-F
6
CONTINUOUS
62
4
100
AcDbLine
10
35.860000000000
20
33.310000000000
30
0.0
11
36.660000000000
21
33.310000000000
31
0.0
0
LINE
5
456
100
AcDbEntity
8
F-F
6
CONTINUOUS
62
4
100
AcDbLine
10
35.860000000000
20
33.470000000000
30
0.0
11
36.660000000000
21
33.470000000000
31
0.0
0
LINE
5
457
100
AcDbEntity
8
F-F
6
CONTINUOUS
62
4
100
AcDbLine
10
35.860000000000
20
33.630000000000
30
0.0
11
36.660000000000
21
33.630000000000
31
0.0
0
LINE
5
458
100
AcDbEntity
8
F-F
6
CONTINUOUS
62
4
100
AcDbLine
10
35.860000000000
20
33.790000000000
30
0.0
11
36.660000000000
21
33.790000000000
31
0.0
0
LINE
5
459
100
AcDbEntity
8
F-F
6
CONTINUOUS
62
4
100
AcDbLine
10
35.860000000000
20
33.950000000000
30
0.0
11
36.660000000000
21
33.950000000000
31
0.0
0
LINE
5
45a
100
AcDbEntity
8
F-F
6
CONTINUOUS
62
4
100
AcDbLine
10
35.860000000000
20
34.110000000000
30
0.0
11
36.660000000000
21
34.110000000000
31
0.0
0
LINE
5
45b
100
AcDbEntity
8
F-F
6
CONTINUOUS
62
4
100
AcDbLine
10
35.860000000000
20
34.270000000000
30
0.0
11
36.660000000000
21
34.270000000000
31
0.0
0
LINE
5
45c
100
AcDbEntity
8
F-F
6
CONTINUOUS
62
4
100
AcDbLine
10
35.860000000000
20
34.430000000000
30
0.0
11
36.660000000000
21
34.430000000000
31
0.0
0
LINE
5
45d
100
AcDbEntity
8
F-F
6
CONTINUOUS
62
4
100
AcDbLine
10
35.860000000000
20
34.910000000000
30
0.0
11
36.660000000000
21
34.910000000000
31
0.0
0
LINE
5
45e
100
AcDbEntity
8
F-F
6
CONTINUOUS
62
4
100
AcDbLine
10
35.860000000000
20
35.390000000000
30
0.0
11
36.660000000000
21
35.390000000000
31
0.0
0
LINE
5
45f
100
AcDbEntity
8
F-F
6
CONTINUOUS
62
4
100
AcDbLine
10
35.860000000000
20
35.550000000000
30
0.0
11
36.660000000000
21
35.550000000000
31
0.0
0
LINE
5
460
100
AcDbEntity
8
F-F
6
CONTINUOUS
62
4
100
AcDbLine
10
35.860000000000
20
35.710000000000
30
0.0
11
36.660000000000
21
35.710000000000
31
0.0
0
LINE
5
461
100
AcDbEntity
8
F-F
6
CONTINUOUS
62
4
100
AcDbLine
10
35.860000000000
20
35.870000000000
30
0.0
11
36.660000000000
21
35.870000000000
31
0.0
0
LINE
5
462
100
AcDbEntity
8
F-F
6
CONTINUOUS
62
4
100
AcDbLine
10
35.860000000000
20
36.670000000000
30
0.0
11
36.660000000000
21
36.670000000000
31
0.0
0
LINE
5
463
100
AcDbEntity
8
F-F
6
CONTINUOUS
62
4
100
AcDbLine
10
35.860000000000
20
36.510000000000
30
0.0
11
36.660000000000
21
36.510000000000
31
0.0
0
LINE
5
464
100
AcDbEntity
8
F-F
6
CONTINUOUS
62
4
100
AcDbLine
10
35.860000000000
20
36.350000000000
30
0.0
11
36.660000000000
21
36.350000000000
31
0.0
0
LINE
5
465
100
AcDbEntity
8
F-F
6
CONTINUOUS
62
4
100
AcDbLine
10
35.860000000000
20
36.190000000000
30
0.0
11
36.660000000000
21
36.190000000000
31
0.0
0
LINE
5
466
100
AcDbEntity
8
F-F
6
CONTINUOUS
62
4
100
AcDbLine
10
35.860000000000
20
36.030000000000
30
0.0
11
36.660000000000
21
36.030000000000
31
0.0
0
LINE
5
467
100
AcDbEntity
8
F-F
6
CONTINUOUS
62
4
100
AcDbLine
10
35.860000000000
20
35.070000000000
30
0.0
11
36.660000000000
21
35.070000000000
31
0.0
0
LINE
5
468
100
AcDbEntity
8
F-F
6
CONTINUOUS
62
4
100
AcDbLine
10
35.860000000000
20
35.230000000000
30
0.0
11
36.660000000000
21
35.230000000000
31
0.0
0
LINE
5
469
100
AcDbEntity
8
F-F
6
CONTINUOUS
62
4
100
AcDbLine
10
35.860000000000
20
34.750000000000
30
0.0
11
36.660000000000
21
34.750000000000
31
0.0
0
LINE
5
46a
100
AcDbEntity
8
F-F
6
CONTINUOUS
62
4
100
AcDbLine
10
35.860000000000
20
34.590000000000
30
0.0
11
36.660000000000
21
34.590000000000
31
0.0
0
LINE
5
46b
100
AcDbEntity
8
F-F
6
CONTINUOUS
62
4
100
AcDbLine
10
36.930000000000
20
30.910000000000
30
0.0
11
37.500000000000
21
30.910000000000
31
0.0
0
LINE
5
46c
100
AcDbEntity
8
F-F
6
CONTINUOUS
62
4
100
AcDbLine
10
36.770000000000
20
30.750000000000
30
0.0
11
37.340000000000
21
30.750000000000
31
0.0
0
LINE
5
46d
100
AcDbEntity
8
F-F
6
CONTINUOUS
62
4
100
AcDbLine
10
35.860000000000
20
30.590000000000
30
0.0
11
37.180000000000
21
30.590000000000
31
0.0
0
LINE
5
46e
100
AcDbEntity
8
F-F
6
CONTINUOUS
62
4
100
AcDbLine
10
35.860000000000
20
30.430000000000
30
0.0
11
37.020000000000
21
30.430000000000
31
0.0
0
LINE
5
46f
100
AcDbEntity
8
F-F
6
CONTINUOUS
62
4
100
AcDbLine
10
37.890000000000
20
31.870000000000
30
0.0
11
38.460000000000
21
31.870000000000
31
0.0
0
LINE
5
470
100
AcDbEntity
8
F-F
6
CONTINUOUS
62
4
100
AcDbLine
10
37.730000000000
20
31.710000000000
30
0.0
11
38.300000000000
21
31.710000000000
31
0.0
0
LINE
5
471
100
AcDbEntity
8
F-F
6
CONTINUOUS
62
4
100
AcDbLine
10
37.570000000000
20
31.550000000000
30
0.0
11
38.140000000000
21
31.550000000000
31
0.0
0
LINE
5
472
100
AcDbEntity
8
F-F
6
CONTINUOUS
62
4
100
AcDbLine
10
37.420000000000
20
31.390000000000
30
0.0
11
37.980000000000
21
31.390000000000
31
0.0
0
LINE
5
473
100
AcDbEntity
8
F-F
6
CONTINUOUS
62
4
100
AcDbLine
10
37.250000000000
20
31.230000000000
30
0.0
11
37.820000000000
21
31.230000000000
31
0.0
0
LINE
5
474
100
AcDbEntity
8
F-F
6
CONTINUOUS
62
4
100
AcDbLine
10
37.090000000000
20
31.070000000000
30
0.0
11
37.660000000000
21
31.070000000000
31
0.0
0
LINE
5
475
100
AcDbEntity
8
F-F
6
CONTINUOUS
62
4
100
AcDbLine
10
36.660000000000
20
36.750000000000
30
0.0
11
36.660000000000
21
36.910000000000
31
0.0
0
LINE
5
476
100
AcDbEntity
8
F-F
6
CONTINUOUS
62
4
100
AcDbLine
10
43.060000000000
20
30.750000000000
30
0.0
11
43.860000000000
21
30.750000000000
31
0.0
0
LINE
5
477
100
AcDbEntity
8
F-F
6
CONTINUOUS
62
4
100
AcDbLine
10
43.060000000000
20
30.910000000000
30
0.0
11
43.860000000000
21
30.910000000000
31
0.0
0
LINE
5
478
100
AcDbEntity
8
F-F
6
CONTINUOUS
62
4
100
AcDbLine
10
43.060000000000
20
31.070000000000
30
0.0
11
43.860000000000
21
31.070000000000
31
0.0
0
LINE
5
479
100
AcDbEntity
8
F-F
6
CONTINUOUS
62
4
100
AcDbLine
10
43.060000000000
20
31.230000000000
30
0.0
11
43.860000000000
21
31.230000000000
31
0.0
0
LINE
5
47a
100
AcDbEntity
8
F-F
6
CONTINUOUS
62
4
100
AcDbLine
10
43.060000000000
20
31.390000000000
30
0.0
11
43.860000000000
21
31.390000000000
31
0.0
0
LINE
5
47b
100
AcDbEntity
8
F-F
6
CONTINUOUS
62
4
100
AcDbLine
10
43.060000000000
20
31.550000000000
30
0.0
11
43.860000000000
21
31.550000000000
31
0.0
0
LINE
5
47c
100
AcDbEntity
8
F-F
6
CONTINUOUS
62
4
100
AcDbLine
10
43.060000000000
20
31.710000000000
30
0.0
11
43.860000000000
21
31.710000000000
31
0.0
0
LINE
5
47d
100
AcDbEntity
8
F-F
6
CONTINUOUS
62
4
100
AcDbLine
10
43.060000000000
20
31.870000000000
30
0.0
11
43.860000000000
21
31.870000000000
31
0.0
0
LINE
5
47e
100
AcDbEntity
8
F-F
6
CONTINUOUS
62
4
100
AcDbLine
10
43.060000000000
20
32.030000000000
30
0.0
11
43.860000000000
21
32.030000000000
31
0.0
0
LINE
5
47f
100
AcDbEntity
8
F-F
6
CONTINUOUS
62
4
100
AcDbLine
10
43.060000000000
20
32.190000000000
30
0.0
11
43.860000000000
21
32.190000000000
31
0.0
0
LINE
5
480
100
AcDbEntity
8
F-F
6
CONTINUOUS
62
4
100
AcDbLine
10
43.060000000000
20
32.350000000000
30
0.0
11
43.860000000000
21
32.350000000000
31
0.0
0
LINE
5
481
100
AcDbEntity
8
F-F
6
CONTINUOUS
62
4
100
AcDbLine
10
43.060000000000
20
32.510000000000
30
0.0
11
43.860000000000
21
32.510000000000
31
0.0
0
LINE
5
482
100
AcDbEntity
8
F-F
6
CONTINUOUS
62
4
100
AcDbLine
10
43.060000000000
20
32.670000000000
30
0.0
11
43.860000000000
21
32.670000000000
31
0.0
0
LINE
5
483
100
AcDbEntity
8
F-F
6
CONTINUOUS
62
4
100
AcDbLine
10
43.060000000000
20
32.990000000000
30
0.0
11
43.860000000000
21
32.990000000000
31
0.0
0
LINE
5
484
100
AcDbEntity
8
F-F
6
CONTINUOUS
62
4
100
AcDbLine
10
43.060000000000
20
33.150000000000
30
0.0
11
43.860000000000
21
33.150000000000
31
0.0
0
LINE
5
485
100
AcDbEntity
8
F-F
6
CONTINUOUS
62
4
100
AcDbLine
10
43.060000000000
20
33.310000000000
30
0.0
11
43.860000000000
21
33.310000000000
31
0.0
0
LINE
5
486
100
AcDbEntity
8
F-F
6
CONTINUOUS
62
4
100
AcDbLine
10
43.060000000000
20
33.470000000000
30
0.0
11
43.860000000000
21
33.470000000000
31
0.0
0
LINE
5
487
100
AcDbEntity
8
F-F
6
CONTINUOUS
62
4
100
AcDbLine
10
43.060000000000
20
33.630000000000
30
0.0
11
43.860000000000
21
33.630000000000
31
0.0
0
LINE
5
488
100
AcDbEntity
8
F-F
6
CONTINUOUS
62
4
100
AcDbLine
10
43.060000000000
20
33.790000000000
30
0.0
11
43.860000000000
21
33.790000000000
31
0.0
0
LINE
5
489
100
AcDbEntity
8
F-F
6
CONTINUOUS
62
4
100
AcDbLine
10
43.060000000000
20
33.950000000000
30
0.0
11
43.860000000000
21
33.950000000000
31
0.0
0
LINE
5
48a
100
AcDbEntity
8
F-F
6
CONTINUOUS
62
4
100
AcDbLine
10
43.060000000000
20
34.110000000000
30
0.0
11
43.860000000000
21
34.110000000000
31
0.0
0
LINE
5
48b
100
AcDbEntity
8
F-F
6
CONTINUOUS
62
4
100
AcDbLine
10
43.060000000000
20
34.270000000000
30
0.0
11
43.860000000000
21
34.270000000000
31
0.0
0
LINE
5
48c
100
AcDbEntity
8
F-F
6
CONTINUOUS
62
4
100
AcDbLine
10
43.060000000000
20
34.430000000000
30
0.0
11
43.860000000000
21
34.430000000000
31
0.0
0
LINE
5
48d
100
AcDbEntity
8
F-F
6
CONTINUOUS
62
4
100
AcDbLine
10
43.060000000000
20
34.910000000000
30
0.0
11
43.860000000000
21
34.910000000000
31
0.0
0
LINE
5
48e
100
AcDbEntity
8
F-F
6
CONTINUOUS
62
4
100
AcDbLine
10
43.060000000000
20
35.390000000000
30
0.0
11
43.860000000000
21
35.390000000000
31
0.0
0
LINE
5
48f
100
AcDbEntity
8
F-F
6
CONTINUOUS
62
4
100
AcDbLine
10
43.060000000000
20
35.550000000000
30
0.0
11
43.860000000000
21
35.550000000000
31
0.0
0
LINE
5
490
100
AcDbEntity
8
F-F
6
CONTINUOUS
62
4
100
AcDbLine
10
43.060000000000
20
35.710000000000
30
0.0
11
43.860000000000
21
35.710000000000
31
0.0
0
LINE
5
491
100
AcDbEntity
8
F-F
6
CONTINUOUS
62
4
100
AcDbLine
10
43.060000000000
20
35.870000000000
30
0.0
11
43.860000000000
21
35.870000000000
31
0.0
0
LINE
5
492
100
AcDbEntity
8
F-F
6
CONTINUOUS
62
4
100
AcDbLine
10
43.060000000000
20
36.350000000000
30
0.0
11
43.860000000000
21
36.350000000000
31
0.0
0
LINE
5
493
100
AcDbEntity
8
F-F
6
CONTINUOUS
62
4
100
AcDbLine
10
43.060000000000
20
36.190000000000
30
0.0
11
43.860000000000
21
36.190000000000
31
0.0
0
LINE
5
494
100
AcDbEntity
8
F-F
6
CONTINUOUS
62
4
100
AcDbLine
10
43.060000000000
20
36.030000000000
30
0.0
11
43.860000000000
21
36.030000000000
31
0.0
0
LINE
5
495
100
AcDbEntity
8
F-F
6
CONTINUOUS
62
4
100
AcDbLine
10
43.060000000000
20
35.070000000000
30
0.0
11
43.860000000000
21
35.070000000000
31
0.0
0
LINE
5
496
100
AcDbEntity
8
F-F
6
CONTINUOUS
62
4
100
AcDbLine
10
43.060000000000
20
35.230000000000
30
0.0
11
43.860000000000
21
35.230000000000
31
0.0
0
LINE
5
497
100
AcDbEntity
8
F-F
6
CONTINUOUS
62
4
100
AcDbLine
10
43.060000000000
20
34.750000000000
30
0.0
11
43.860000000000
21
34.750000000000
31
0.0
0
LINE
5
498
100
AcDbEntity
8
F-F
6
CONTINUOUS
62
4
100
AcDbLine
10
43.060000000000
20
34.590000000000
30
0.0
11
43.860000000000
21
34.590000000000
31
0.0
0
LINE
5
499
100
AcDbEntity
8
F-F
6
CONTINUOUS
62
4
100
AcDbLine
10
43.060000000000
20
30.430000000000
30
0.0
11
43.860000000000
21
30.430000000000
31
0.0
0
LINE
5
49a
100
AcDbEntity
8
F-F
6
CONTINUOUS
62
4
100
AcDbLine
10
43.060000000000
20
30.590000000000
30
0.0
11
43.860000000000
21
30.590000000000
31
0.0
0
LINE
5
49b
100
AcDbEntity
8
F-F
6
CONTINUOUS
62
4
100
AcDbLine
10
42.690000000000
20
36.670000000000
30
0.0
11
43.860000000000
21
36.670000000000
31
0.0
0
LINE
5
49c
100
AcDbEntity
8
F-F
6
CONTINUOUS
62
4
100
AcDbLine
10
42.530000000000
20
36.510000000000
30
0.0
11
43.860000000000
21
36.510000000000
31
0.0
0
LINE
5
49d
100
AcDbEntity
8
F-F
6
CONTINUOUS
62
4
100
AcDbLine
10
38.530000000000
20
32.510000000000
30
0.0
11
39.100000000000
21
32.510000000000
31
0.0
0
LINE
5
49e
100
AcDbEntity
8
F-F
6
CONTINUOUS
62
4
100
AcDbLine
10
38.370000000000
20
32.350000000000
30
0.0
11
38.940000000000
21
32.350000000000
31
0.0
0
LINE
5
49f
100
AcDbEntity
8
F-F
6
CONTINUOUS
62
4
100
AcDbLine
10
38.210000000000
20
32.190000000000
30
0.0
11
38.780000000000
21
32.190000000000
31
0.0
0
LINE
5
4a0
100
AcDbEntity
8
F-F
6
CONTINUOUS
62
4
100
AcDbLine
10
38.060000000000
20
32.030000000000
30
0.0
11
38.620000000000
21
32.030000000000
31
0.0
0
LINE
5
4a1
100
AcDbEntity
8
F-F
6
CONTINUOUS
62
4
100
AcDbLine
10
39.170000000000
20
33.150000000000
30
0.0
11
39.740000000000
21
33.150000000000
31
0.0
0
LINE
5
4a2
100
AcDbEntity
8
F-F
6
CONTINUOUS
62
4
100
AcDbLine
10
39.010000000000
20
32.990000000000
30
0.0
11
39.580000000000
21
32.990000000000
31
0.0
0
LINE
5
4a3
100
AcDbEntity
8
F-F
6
CONTINUOUS
62
4
100
AcDbLine
10
38.850000000000
20
32.830000000000
30
0.0
11
39.420000000000
21
32.830000000000
31
0.0
0
LINE
5
4a4
100
AcDbEntity
8
F-F
6
CONTINUOUS
62
4
100
AcDbLine
10
38.690000000000
20
32.670000000000
30
0.0
11
39.260000000000
21
32.670000000000
31
0.0
0
LINE
5
4a5
100
AcDbEntity
8
F-F
6
CONTINUOUS
62
4
100
AcDbLine
10
39.810000000000
20
33.790000000000
30
0.0
11
40.380000000000
21
33.790000000000
31
0.0
0
LINE
5
4a6
100
AcDbEntity
8
F-F
6
CONTINUOUS
62
4
100
AcDbLine
10
39.650000000000
20
33.630000000000
30
0.0
11
40.220000000000
21
33.630000000000
31
0.0
0
LINE
5
4a7
100
AcDbEntity
8
F-F
6
CONTINUOUS
62
4
100
AcDbLine
10
39.490000000000
20
33.470000000000
30
0.0
11
40.060000000000
21
33.470000000000
31
0.0
0
LINE
5
4a8
100
AcDbEntity
8
F-F
6
CONTINUOUS
62
4
100
AcDbLine
10
39.330000000000
20
33.310000000000
30
0.0
11
39.900000000000
21
33.310000000000
31
0.0
0
LINE
5
4a9
100
AcDbEntity
8
F-F
6
CONTINUOUS
62
4
100
AcDbLine
10
40.450000000000
20
34.430000000000
30
0.0
11
41.020000000000
21
34.430000000000
31
0.0
0
LINE
5
4aa
100
AcDbEntity
8
F-F
6
CONTINUOUS
62
4
100
AcDbLine
10
40.290000000000
20
34.270000000000
30
0.0
11
40.860000000000
21
34.270000000000
31
0.0
0
LINE
5
4ab
100
AcDbEntity
8
F-F
6
CONTINUOUS
62
4
100
AcDbLine
10
40.130000000000
20
34.110000000000
30
0.0
11
40.700000000000
21
34.110000000000
31
0.0
0
LINE
5
4ac
100
AcDbEntity
8
F-F
6
CONTINUOUS
62
4
100
AcDbLine
10
39.970000000000
20
33.950000000000
30
0.0
11
40.540000000000
21
33.950000000000
31
0.0
0
LINE
5
4ad
100
AcDbEntity
8
F-F
6
CONTINUOUS
62
4
100
AcDbLine
10
41.100000000000
20
35.070000000000
30
0.0
11
41.660000000000
21
35.070000000000
31
0.0
0
LINE
5
4ae
100
AcDbEntity
8
F-F
6
CONTINUOUS
62
4
100
AcDbLine
10
40.930000000000
20
34.910000000000
30
0.0
11
41.500000000000
21
34.910000000000
31
0.0
0
LINE
5
4af
100
AcDbEntity
8
F-F
6
CONTINUOUS
62
4
100
AcDbLine
10
40.770000000000
20
34.750000000000
30
0.0
11
41.340000000000
21
34.750000000000
31
0.0
0
LINE
5
4b0
100
AcDbEntity
8
F-F
6
CONTINUOUS
62
4
100
AcDbLine
10
40.610000000000
20
34.590000000000
30
0.0
11
41.180000000000
21
34.590000000000
31
0.0
0
LINE
5
4b1
100
AcDbEntity
8
F-F
6
CONTINUOUS
62
4
100
AcDbLine
10
41.730000000000
20
35.710000000000
30
0.0
11
42.300000000000
21
35.710000000000
31
0.0
0
LINE
5
4b2
100
AcDbEntity
8
F-F
6
CONTINUOUS
62
4
100
AcDbLine
10
41.570000000000
20
35.550000000000
30
0.0
11
42.140000000000
21
35.550000000000
31
0.0
0
LINE
5
4b3
100
AcDbEntity
8
F-F
6
CONTINUOUS
62
4
100
AcDbLine
10
41.410000000000
20
35.390000000000
30
0.0
11
41.980000000000
21
35.390000000000
31
0.0
0
LINE
5
4b4
100
AcDbEntity
8
F-F
6
CONTINUOUS
62
4
100
AcDbLine
10
41.250000000000
20
35.230000000000
30
0.0
11
41.820000000000
21
35.230000000000
31
0.0
0
LINE
5
4b5
100
AcDbEntity
8
F-F
6
CONTINUOUS
62
4
100
AcDbLine
10
42.370000000000
20
36.350000000000
30
0.0
11
42.940000000000
21
36.350000000000
31
0.0
0
LINE
5
4b6
100
AcDbEntity
8
F-F
6
CONTINUOUS
62
4
100
AcDbLine
10
42.210000000000
20
36.190000000000
30
0.0
11
42.780000000000
21
36.190000000000
31
0.0
0
LINE
5
4b7
100
AcDbEntity
8
F-F
6
CONTINUOUS
62
4
100
AcDbLine
10
42.050000000000
20
36.030000000000
30
0.0
11
42.620000000000
21
36.030000000000
31
0.0
0
LINE
5
4b8
100
AcDbEntity
8
F-F
6
CONTINUOUS
62
4
100
AcDbLine
10
41.890000000000
20
35.870000000000
30
0.0
11
42.460000000000
21
35.870000000000
31
0.0
0
LINE
5
4b9
100
AcDbEntity
8
F-F
6
CONTINUOUS
62
4
100
AcDbLine
10
43.060000000000
20
32.830000000000
30
0.0
11
43.860000000000
21
32.830000000000
31
0.0
0
LINE
5
4ba
100
AcDbEntity
8
0-2
6
CONTINUOUS
62
4
100
AcDbLine
10
409.140000000000
20
262.690000000000
30
0.0
11
409.140000000000
21
223.090000000000
31
0.0
0
POLYLINE
5
4bb
100
AcDbEntity
8
0-2
6
CONTINUOUS
62
  4
100
AcDb2dPolyline
66
1
10
0.0
20
0.0
30
0.0
70
0
0
VERTEX
5
4bc
100
AcDbEntity
8
0-2
6
CONTINUOUS
62
  4
100
AcDbVertex
100
AcDb2dVertex
10
450.100000000000
20
211.460000000000
30
0.0
0
VERTEX
5
4bd
100
AcDbEntity
8
0-2
6
CONTINUOUS
62
  4
100
AcDbVertex
100
AcDb2dVertex
10
450.870000000000
20
212.380000000000
30
0.0
0
VERTEX
5
4be
100
AcDbEntity
8
0-2
6
CONTINUOUS
62
  4
100
AcDbVertex
100
AcDb2dVertex
10
443.210000000000
20
218.810000000000
30
0.0
0
SEQEND
5
4bf
100
AcDbEntity
8
0-2
0
LINE
5
4c0
100
AcDbEntity
8
0-2
6
CONTINUOUS
62
4
100
AcDbLine
10
413.140000000000
20
219.090000000000
30
0.0
11
442.440000000000
21
219.090000000000
31
0.0
0
LINE
5
4c1
100
AcDbEntity
8
0-2
6
CONTINUOUS
62
4
100
AcDbLine
10
395.340000000000
20
263.890000000000
30
0.0
11
407.940000000000
21
263.890000000000
31
0.0
0
LINE
5
4c2
100
AcDbEntity
8
0-2
6
CONTINUOUS
62
4
100
AcDbLine
10
434.940000000000
20
219.090000000000
30
0.0
11
432.370000000000
21
220.910000000000
31
0.0
0
LINE
5
4c3
100
AcDbEntity
8
0-2
6
CONTINUOUS
62
4
100
AcDbLine
10
413.360000000000
20
221.690000000000
30
0.0
11
429.940000000000
21
221.690000000000
31
0.0
0
LINE
5
4c4
100
AcDbEntity
8
0-2
6
CONTINUOUS
62
4
100
AcDbLine
10
409.140000000000
20
233.890000000000
30
0.0
11
411.400000000000
21
223.270000000000
31
0.0
0
LINE
5
4c5
100
AcDbEntity
8
0-2
6
CONTINUOUS
62
4
100
AcDbLine
10
709.140000000000
20
262.690000000000
30
0.0
11
709.140000000000
21
223.090000000000
31
0.0
0
POLYLINE
5
4c6
100
AcDbEntity
8
0-2
6
CONTINUOUS
62
  4
100
AcDb2dPolyline
66
1
10
0.0
20
0.0
30
0.0
70
0
0
VERTEX
5
4c7
100
AcDbEntity
8
0-2
6
CONTINUOUS
62
  4
100
AcDbVertex
100
AcDb2dVertex
10
750.100000000000
20
211.460000000000
30
0.0
0
VERTEX
5
4c8
100
AcDbEntity
8
0-2
6
CONTINUOUS
62
  4
100
AcDbVertex
100
AcDb2dVertex
10
750.870000000000
20
212.380000000000
30
0.0
0
VERTEX
5
4c9
100
AcDbEntity
8
0-2
6
CONTINUOUS
62
  4
100
AcDbVertex
100
AcDb2dVertex
10
743.210000000000
20
218.810000000000
30
0.0
0
SEQEND
5
4ca
100
AcDbEntity
8
0-2
0
LINE
5
4cb
100
AcDbEntity
8
0-2
6
CONTINUOUS
62
4
100
AcDbLine
10
707.940000000000
20
262.690000000000
30
0.0
11
707.940000000000
21
237.860000000000
31
0.0
0
LINE
5
4cc
100
AcDbEntity
8
0-2
6
CONTINUOUS
62
4
100
AcDbLine
10
709.140000000000
20
233.890000000000
30
0.0
11
711.400000000000
21
223.270000000000
31
0.0
0
LINE
5
4cd
100
AcDbEntity
8
0-2
6
CONTINUOUS
62
4
100
AcDbLine
10
713.360000000000
20
221.690000000000
30
0.0
11
729.940000000000
21
221.690000000000
31
0.0
0
LINE
5
4ce
100
AcDbEntity
8
0-2
6
CONTINUOUS
62
4
100
AcDbLine
10
734.940000000000
20
219.090000000000
30
0.0
11
732.370000000000
21
220.910000000000
31
0.0
0
LINE
5
4cf
100
AcDbEntity
8
0-2
6
CONTINUOUS
62
3
100
AcDbLine
10
432.040000000000
20
221.390000000000
30
0.0
11
432.040000000000
21
228.490000000000
31
0.0
0
LINE
5
4d0
100
AcDbEntity
8
0-2
6
CONTINUOUS
62
3
100
AcDbLine
10
422.230000000000
20
221.690000000000
30
0.0
11
422.230000000000
21
228.490000000000
31
0.0
0
LINE
5
4d1
100
AcDbEntity
8
0-2
6
CONTINUOUS
62
3
100
AcDbLine
10
383.890000000000
20
241.030000000000
30
0.0
11
403.520000000000
21
242.060000000000
31
0.0
0
LINE
5
4d2
100
AcDbEntity
8
0-2
6
CONTINUOUS
62
4
100
AcDbLine
10
407.940000000000
20
262.690000000000
30
0.0
11
407.940000000000
21
237.860000000000
31
0.0
0
LINE
5
4d3
100
AcDbEntity
8
0-2
6
CONTINUOUS
62
3
100
AcDbLine
10
405.140000000000
20
232.870000000000
30
0.0
11
405.140000000000
21
216.780000000000
31
0.0
0
LINE
5
4d4
100
AcDbEntity
8
0-2
6
CONTINUOUS
62
3
100
AcDbLine
10
409.340000000000
20
217.890000000000
30
0.0
11
442.440000000000
21
217.890000000000
31
0.0
0
LINE
5
4d5
100
AcDbEntity
8
0-2
6
CONTINUOUS
62
3
100
AcDbLine
10
435.390000000000
20
229.390000000000
30
0.0
11
418.890000000000
21
229.390000000000
31
0.0
0
LINE
5
4d6
100
AcDbEntity
8
0-2
6
CONTINUOUS
62
3
100
AcDbLine
10
615.950000000000
20
145.490000000000
30
0.0
11
499.920000000000
21
145.490000000000
31
0.0
0
LINE
5
4d7
100
AcDbEntity
8
0-2
6
CONTINUOUS
62
3
100
AcDbLine
10
417.320000000000
20
221.690000000000
30
0.0
11
417.320000000000
21
228.490000000000
31
0.0
0
LINE
5
4d8
100
AcDbEntity
8
0-2
6
CONTINUOUS
62
3
100
AcDbLine
10
610.300000000000
20
146.890000000000
30
0.0
11
505.580000000000
21
146.890000000000
31
0.0
0
LINE
5
4d9
100
AcDbEntity
8
0-2
6
CONTINUOUS
62
3
100
AcDbLine
10
505.520000000000
20
146.050000000000
30
0.0
11
467.510000000000
21
196.420000000000
31
0.0
0
LINE
5
4da
100
AcDbEntity
8
0-2
6
CONTINUOUS
62
3
100
AcDbLine
10
765.520000000000
20
198.520000000000
30
0.0
11
742.440000000000
21
217.890000000000
31
0.0
0
LINE
5
4db
100
AcDbEntity
8
0-2
6
CONTINUOUS
62
3
100
AcDbLine
10
498.800000000000
20
146.050000000000
30
0.0
11
456.280000000000
21
202.410000000000
31
0.0
0
LINE
5
4dc
100
AcDbEntity
8
0-2
6
CONTINUOUS
62
3
100
AcDbLine
10
615.480000000000
20
142.690000000000
30
0.0
11
500.390000000000
21
142.690000000000
31
0.0
0
LINE
5
4dd
100
AcDbEntity
8
0-2
6
CONTINUOUS
62
3
100
AcDbLine
10
497.040000000000
20
144.360000000000
30
0.0
11
454.320000000000
21
200.980000000000
31
0.0
0
LINE
5
4de
100
AcDbEntity
8
0-2
6
CONTINUOUS
62
3
100
AcDbLine
10
465.520000000000
20
198.520000000000
30
0.0
11
442.440000000000
21
217.890000000000
31
0.0
0
LINE
5
4df
100
AcDbEntity
8
0-2
6
CONTINUOUS
62
3
100
AcDbLine
10
454.320000000000
20
200.980000000000
30
0.0
11
440.890000000000
21
212.250000000000
31
0.0
0
LINE
5
4e0
100
AcDbEntity
8
0-2
6
CONTINUOUS
62
3
100
AcDbLine
10
455.850000000000
20
202.870000000000
30
0.0
11
442.560000000000
21
214.020000000000
31
0.0
0
LINE
5
4e1
100
AcDbEntity
8
0-2
6
CONTINUOUS
62
3
100
AcDbLine
10
436.950000000000
20
221.390000000000
30
0.0
11
436.950000000000
21
228.490000000000
31
0.0
0
LINE
5
4e2
100
AcDbEntity
8
0-2
6
CONTINUOUS
62
3
100
AcDbLine
10
403.660000000000
20
234.270000000000
30
0.0
11
386.620000000000
21
233.380000000000
31
0.0
0
LINE
5
4e3
100
AcDbEntity
8
0-2
6
CONTINUOUS
62
3
100
AcDbLine
10
403.520000000000
20
236.690000000000
30
0.0
11
386.670000000000
21
235.810000000000
31
0.0
0
LINE
5
4e4
100
AcDbEntity
8
0-2
6
CONTINUOUS
62
3
100
AcDbLine
10
409.340000000000
20
215.000000000000
30
0.0
11
439.860000000000
21
215.000000000000
31
0.0
0
LINE
5
4e5
100
AcDbEntity
8
0-2
6
CONTINUOUS
62
3
100
AcDbLine
10
409.340000000000
20
212.580000000000
30
0.0
11
439.990000000000
21
212.580000000000
31
0.0
0
LINE
5
4e6
100
AcDbEntity
8
0-2
6
CONTINUOUS
62
3
100
AcDbLine
10
683.890000000000
20
241.030000000000
30
0.0
11
703.520000000000
21
242.060000000000
31
0.0
0
LINE
5
4e7
100
AcDbEntity
8
0-2
6
CONTINUOUS
62
3
100
AcDbLine
10
610.360000000000
20
146.050000000000
30
0.0
11
680.760000000000
21
239.360000000000
31
0.0
0
LINE
5
4e8
100
AcDbEntity
8
0-2
6
CONTINUOUS
62
3
100
AcDbLine
10
705.140000000000
20
232.870000000000
30
0.0
11
705.140000000000
21
216.780000000000
31
0.0
0
LINE
5
4e9
100
AcDbEntity
8
0-2
6
CONTINUOUS
62
3
100
AcDbLine
10
709.340000000000
20
217.890000000000
30
0.0
11
742.440000000000
21
217.890000000000
31
0.0
0
LINE
5
4ea
100
AcDbEntity
8
0-2
6
CONTINUOUS
62
3
100
AcDbLine
10
417.320000000000
20
228.490000000000
30
0.0
11
418.890000000000
21
229.390000000000
31
0.0
0
LINE
5
4eb
100
AcDbEntity
8
0-2
6
CONTINUOUS
62
3
100
AcDbLine
10
618.840000000000
20
144.360000000000
30
0.0
11
685.570000000000
21
232.820000000000
31
0.0
0
LINE
5
4ec
100
AcDbEntity
8
0-2
6
CONTINUOUS
62
3
100
AcDbLine
10
617.070000000000
20
146.050000000000
30
0.0
11
683.530000000000
21
234.140000000000
31
0.0
0
LINE
5
4ed
100
AcDbEntity
8
0-2
6
CONTINUOUS
62
3
100
AcDbLine
10
437.460000000000
20
219.100000000000
30
0.0
11
437.640000000000
21
220.890000000000
31
0.0
0
LINE
5
4ee
100
AcDbEntity
8
0-2
6
CONTINUOUS
62
3
100
AcDbLine
10
754.320000000000
20
200.980000000000
30
0.0
11
740.890000000000
21
212.250000000000
31
0.0
0
LINE
5
4ef
100
AcDbEntity
8
0-2
6
CONTINUOUS
62
3
100
AcDbLine
10
755.850000000000
20
202.870000000000
30
0.0
11
742.560000000000
21
214.020000000000
31
0.0
0
LINE
5
4f0
100
AcDbEntity
8
0-2
6
CONTINUOUS
62
3
100
AcDbLine
10
436.950000000000
20
221.390000000000
30
0.0
11
431.500000000000
21
221.390000000000
31
0.0
0
LINE
5
4f1
100
AcDbEntity
8
0-2
6
CONTINUOUS
62
3
100
AcDbLine
10
703.660000000000
20
234.270000000000
30
0.0
11
686.620000000000
21
233.380000000000
31
0.0
0
LINE
5
4f2
100
AcDbEntity
8
0-2
6
CONTINUOUS
62
3
100
AcDbLine
10
703.520000000000
20
236.690000000000
30
0.0
11
686.670000000000
21
235.810000000000
31
0.0
0
LINE
5
4f3
100
AcDbEntity
8
0-2
6
CONTINUOUS
62
3
100
AcDbLine
10
709.340000000000
20
215.000000000000
30
0.0
11
739.860000000000
21
215.000000000000
31
0.0
0
LINE
5
4f4
100
AcDbEntity
8
0-2
6
CONTINUOUS
62
3
100
AcDbLine
10
709.340000000000
20
212.580000000000
30
0.0
11
739.990000000000
21
212.580000000000
31
0.0
0
LINE
5
4f5
100
AcDbEntity
8
0-2
6
CONTINUOUS
62
3
100
AcDbLine
10
432.140000000000
20
234.340000000000
30
0.0
11
432.140000000000
21
229.390000000000
31
0.0
0
LINE
5
4f6
100
AcDbEntity
8
0-2
6
CONTINUOUS
62
3
100
AcDbLine
10
717.320000000000
20
228.490000000000
30
0.0
11
718.890000000000
21
229.390000000000
31
0.0
0
LINE
5
4f7
100
AcDbEntity
8
0-2
6
CONTINUOUS
62
3
100
AcDbLine
10
431.390000000000
20
235.090000000000
30
0.0
11
431.390000000000
21
229.390000000000
31
0.0
0
LINE
5
4f8
100
AcDbEntity
8
0-2
6
CONTINUOUS
62
3
100
AcDbLine
10
736.950000000000
20
221.390000000000
30
0.0
11
736.950000000000
21
228.490000000000
31
0.0
0
LINE
5
4f9
100
AcDbEntity
8
0-2
6
CONTINUOUS
62
3
100
AcDbLine
10
735.390000000000
20
229.390000000000
30
0.0
11
718.890000000000
21
229.390000000000
31
0.0
0
LINE
5
4fa
100
AcDbEntity
8
0-2
6
CONTINUOUS
62
3
100
AcDbLine
10
431.390000000000
20
235.090000000000
30
0.0
11
432.140000000000
21
234.340000000000
31
0.0
0
LINE
5
4fb
100
AcDbEntity
8
0-2
6
CONTINUOUS
62
3
100
AcDbLine
10
422.890000000000
20
235.090000000000
30
0.0
11
422.890000000000
21
229.390000000000
31
0.0
0
LINE
5
4fc
100
AcDbEntity
8
0-2
6
CONTINUOUS
62
3
100
AcDbLine
10
422.140000000000
20
234.340000000000
30
0.0
11
422.890000000000
21
235.090000000000
31
0.0
0
LINE
5
4fd
100
AcDbEntity
8
0-2
6
CONTINUOUS
62
3
100
AcDbLine
10
722.230000000000
20
221.690000000000
30
0.0
11
722.230000000000
21
228.490000000000
31
0.0
0
LINE
5
4fe
100
AcDbEntity
8
0-2
6
CONTINUOUS
62
3
100
AcDbLine
10
422.140000000000
20
234.340000000000
30
0.0
11
432.140000000000
21
234.340000000000
31
0.0
0
LINE
5
4ff
100
AcDbEntity
8
0-2
6
CONTINUOUS
62
3
100
AcDbLine
10
437.640000000000
20
220.890000000000
30
0.0
11
432.560000000000
21
221.380000000000
31
0.0
0
LINE
5
500
100
AcDbEntity
8
0-2
6
CONTINUOUS
62
3
100
AcDbLine
10
436.950000000000
20
228.490000000000
30
0.0
11
435.390000000000
21
229.390000000000
31
0.0
0
LINE
5
501
100
AcDbEntity
8
0-2
6
CONTINUOUS
62
3
100
AcDbLine
10
737.460000000000
20
219.100000000000
30
0.0
11
737.640000000000
21
220.890000000000
31
0.0
0
LINE
5
502
100
AcDbEntity
8
0-2
6
CONTINUOUS
62
3
100
AcDbLine
10
418.140000000000
20
211.590000000000
30
0.0
11
436.140000000000
21
211.590000000000
31
0.0
0
LINE
5
503
100
AcDbEntity
8
0-2
6
CONTINUOUS
62
3
100
AcDbLine
10
717.320000000000
20
221.690000000000
30
0.0
11
717.320000000000
21
228.490000000000
31
0.0
0
LINE
5
504
100
AcDbEntity
8
0-2
6
CONTINUOUS
62
3
100
AcDbLine
10
422.140000000000
20
234.340000000000
30
0.0
11
422.140000000000
21
229.390000000000
31
0.0
0
LINE
5
505
100
AcDbEntity
8
0-2
6
CONTINUOUS
62
3
100
AcDbLine
10
422.890000000000
20
235.090000000000
30
0.0
11
431.390000000000
21
235.090000000000
31
0.0
0
LINE
5
506
100
AcDbEntity
8
0-2
6
CONTINUOUS
62
3
100
AcDbLine
10
732.040000000000
20
221.390000000000
30
0.0
11
732.040000000000
21
228.490000000000
31
0.0
0
LINE
5
507
100
AcDbEntity
8
0-2
6
CONTINUOUS
62
3
100
AcDbLine
10
736.950000000000
20
221.390000000000
30
0.0
11
731.500000000000
21
221.390000000000
31
0.0
0
LINE
5
508
100
AcDbEntity
8
0-2
6
CONTINUOUS
62
3
100
AcDbLine
10
732.140000000000
20
234.340000000000
30
0.0
11
732.140000000000
21
229.390000000000
31
0.0
0
LINE
5
509
100
AcDbEntity
8
0-2
6
CONTINUOUS
62
3
100
AcDbLine
10
731.390000000000
20
235.090000000000
30
0.0
11
731.390000000000
21
229.390000000000
31
0.0
0
LINE
5
50a
100
AcDbEntity
8
0-2
6
CONTINUOUS
62
3
100
AcDbLine
10
731.390000000000
20
235.090000000000
30
0.0
11
732.140000000000
21
234.340000000000
31
0.0
0
LINE
5
50b
100
AcDbEntity
8
0-2
6
CONTINUOUS
62
3
100
AcDbLine
10
722.890000000000
20
235.090000000000
30
0.0
11
722.890000000000
21
229.390000000000
31
0.0
0
LINE
5
50c
100
AcDbEntity
8
0-2
6
CONTINUOUS
62
3
100
AcDbLine
10
722.140000000000
20
234.340000000000
30
0.0
11
722.890000000000
21
235.090000000000
31
0.0
0
LINE
5
50d
100
AcDbEntity
8
0-2
6
CONTINUOUS
62
3
100
AcDbLine
10
722.140000000000
20
234.340000000000
30
0.0
11
732.140000000000
21
234.340000000000
31
0.0
0
LINE
5
50e
100
AcDbEntity
8
0-2
6
CONTINUOUS
62
3
100
AcDbLine
10
737.640000000000
20
220.890000000000
30
0.0
11
732.560000000000
21
221.380000000000
31
0.0
0
LINE
5
50f
100
AcDbEntity
8
0-2
6
CONTINUOUS
62
3
100
AcDbLine
10
736.950000000000
20
228.490000000000
30
0.0
11
735.390000000000
21
229.390000000000
31
0.0
0
LINE
5
510
100
AcDbEntity
8
0-2
6
CONTINUOUS
62
3
100
AcDbLine
10
718.140000000000
20
211.590000000000
30
0.0
11
736.140000000000
21
211.590000000000
31
0.0
0
LINE
5
511
100
AcDbEntity
8
0-2
6
CONTINUOUS
62
3
100
AcDbLine
10
722.140000000000
20
234.340000000000
30
0.0
11
722.140000000000
21
229.390000000000
31
0.0
0
LINE
5
512
100
AcDbEntity
8
0-2
6
CONTINUOUS
62
3
100
AcDbLine
10
722.890000000000
20
235.090000000000
30
0.0
11
731.390000000000
21
235.090000000000
31
0.0
0
LINE
5
513
100
AcDbEntity
8
0-2
6
CONTINUOUS
62
4
100
AcDbLine
10
713.140000000000
20
219.090000000000
30
0.0
11
742.440000000000
21
219.090000000000
31
0.0
0
LINE
5
514
100
AcDbEntity
8
0-2
6
CONTINUOUS
62
3
100
AcDbLine
10
707.940000000000
20
237.860000000000
30
0.0
11
707.940000000000
21
216.400000000000
31
0.0
0
LINE
5
515
100
AcDbEntity
8
0-2
6
CONTINUOUS
62
3
100
AcDbLine
10
407.940000000000
20
237.860000000000
30
0.0
11
407.940000000000
21
216.400000000000
31
0.0
0
POLYLINE
5
516
100
AcDbEntity
8
0-2
6
CONTINUOUS
62
  4
100
AcDb2dPolyline
66
1
10
0.0
20
0.0
30
0.0
70
0
0
VERTEX
5
517
100
AcDbEntity
8
0-2
6
CONTINUOUS
62
  4
100
AcDbVertex
100
AcDb2dVertex
10
402.350000000000
20
258.020000000000
30
0.0
0
VERTEX
5
518
100
AcDbEntity
8
0-2
6
CONTINUOUS
62
  4
100
AcDbVertex
100
AcDb2dVertex
10
401.670000000000
20
257.030000000000
30
0.0
0
VERTEX
5
519
100
AcDbEntity
8
0-2
6
CONTINUOUS
62
  4
100
AcDbVertex
100
AcDb2dVertex
10
394.370000000000
20
261.910000000000
30
0.0
0
SEQEND
5
51a
100
AcDbEntity
8
0-2
0
LINE
5
51b
100
AcDbEntity
8
0-2
6
CONTINUOUS
62
7
100
AcDbLine
10
410.440000000000
20
245.520000000000
30
0.0
11
410.440000000000
21
263.590000000000
31
0.0
0
LINE
5
51c
100
AcDbEntity
8
0-2
6
CONTINUOUS
62
7
100
AcDbLine
10
409.440000000000
20
263.590000000000
30
0.0
11
409.440000000000
21
245.520000000000
31
0.0
0
LINE
5
51d
100
AcDbEntity
8
0-2
6
CONTINUOUS
62
7
100
AcDbLine
10
508.360000000000
20
153.690000000000
30
0.0
11
557.940000000000
21
153.690000000000
31
0.0
0
LINE
5
51e
100
AcDbEntity
8
0-2
6
CONTINUOUS
62
7
100
AcDbLine
10
508.360000000000
20
152.690000000000
30
0.0
11
557.940000000000
21
152.690000000000
31
0.0
0
LINE
5
51f
100
AcDbEntity
8
0-2
6
CONTINUOUS
62
7
100
AcDbLine
10
439.460000000000
20
241.650000000000
30
0.0
11
411.300000000000
21
243.530000000000
31
0.0
0
LINE
5
520
100
AcDbEntity
8
0-2
6
CONTINUOUS
62
7
100
AcDbLine
10
440.190000000000
20
241.260000000000
30
0.0
11
506.760000000000
21
153.480000000000
31
0.0
0
LINE
5
521
100
AcDbEntity
8
0-2
6
CONTINUOUS
62
7
100
AcDbLine
10
411.370000000000
20
244.530000000000
30
0.0
11
439.530000000000
21
242.650000000000
31
0.0
0
LINE
5
522
100
AcDbEntity
8
0-2
6
CONTINUOUS
62
7
100
AcDbLine
10
507.560000000000
20
154.080000000000
30
0.0
11
440.990000000000
21
241.860000000000
31
0.0
0
LINE
5
523
100
AcDbEntity
8
0-2
6
CONTINUOUS
62
7
100
AcDbLine
10
396.910000000000
20
262.680000000000
30
0.0
11
396.880000000000
21
261.680000000000
31
0.0
0
LINE
5
524
100
AcDbEntity
8
0-2
6
CONTINUOUS
62
7
100
AcDbLine
10
406.440000000000
20
245.520000000000
30
0.0
11
406.440000000000
21
260.390000000000
31
0.0
0
LINE
5
525
100
AcDbEntity
8
0-2
6
CONTINUOUS
62
7
100
AcDbLine
10
407.440000000000
20
260.390000000000
30
0.0
11
407.440000000000
21
245.520000000000
31
0.0
0
LINE
5
526
100
AcDbEntity
8
0-2
6
CONTINUOUS
62
7
100
AcDbLine
10
380.380000000000
20
241.850000000000
30
0.0
11
405.570000000000
21
243.530000000000
31
0.0
0
LINE
5
527
100
AcDbEntity
8
0-2
6
CONTINUOUS
62
7
100
AcDbLine
10
405.500000000000
20
244.530000000000
30
0.0
11
380.310000000000
21
242.850000000000
31
0.0
0
LINE
5
528
100
AcDbEntity
8
0-2
6
CONTINUOUS
62
7
100
AcDbLine
10
710.440000000000
20
245.520000000000
30
0.0
11
710.440000000000
21
263.590000000000
31
0.0
0
LINE
5
529
100
AcDbEntity
8
0-2
6
CONTINUOUS
62
7
100
AcDbLine
10
709.440000000000
20
263.590000000000
30
0.0
11
709.440000000000
21
245.520000000000
31
0.0
0
LINE
5
52a
100
AcDbEntity
8
0-2
6
CONTINUOUS
62
7
100
AcDbLine
10
739.460000000000
20
241.650000000000
30
0.0
11
711.300000000000
21
243.530000000000
31
0.0
0
LINE
5
52b
100
AcDbEntity
8
0-2
6
CONTINUOUS
62
7
100
AcDbLine
10
711.370000000000
20
244.530000000000
30
0.0
11
739.530000000000
21
242.650000000000
31
0.0
0
LINE
5
52c
100
AcDbEntity
8
0-2
6
CONTINUOUS
62
7
100
AcDbLine
10
706.440000000000
20
245.520000000000
30
0.0
11
706.440000000000
21
260.390000000000
31
0.0
0
LINE
5
52d
100
AcDbEntity
8
0-2
6
CONTINUOUS
62
7
100
AcDbLine
10
707.440000000000
20
260.390000000000
30
0.0
11
707.440000000000
21
245.520000000000
31
0.0
0
LINE
5
52e
100
AcDbEntity
8
0-2
6
CONTINUOUS
62
7
100
AcDbLine
10
607.520000000000
20
152.690000000000
30
0.0
11
557.940000000000
21
152.690000000000
31
0.0
0
LINE
5
52f
100
AcDbEntity
8
0-2
6
CONTINUOUS
62
7
100
AcDbLine
10
607.460000000000
20
153.690000000000
30
0.0
11
557.940000000000
21
153.690000000000
31
0.0
0
LINE
5
530
100
AcDbEntity
8
0-2
6
CONTINUOUS
62
7
100
AcDbLine
10
680.380000000000
20
241.850000000000
30
0.0
11
705.570000000000
21
243.530000000000
31
0.0
0
LINE
5
531
100
AcDbEntity
8
0-2
6
CONTINUOUS
62
7
100
AcDbLine
10
679.670000000000
20
241.480000000000
30
0.0
11
609.020000000000
21
153.440000000000
31
0.0
0
LINE
5
532
100
AcDbEntity
8
0-2
6
CONTINUOUS
62
7
100
AcDbLine
10
705.500000000000
20
244.530000000000
30
0.0
11
680.310000000000
21
242.850000000000
31
0.0
0
LINE
5
533
100
AcDbEntity
8
0-2
6
CONTINUOUS
62
7
100
AcDbLine
10
608.240000000000
20
154.060000000000
30
0.0
11
678.890000000000
21
242.100000000000
31
0.0
0
LINE
5
534
100
AcDbEntity
8
0-2
6
CONTINUOUS
62
4
100
AcDbLine
10
643.870000000000
20
142.690000000000
30
0.0
11
643.870000000000
21
152.690000000000
31
0.0
0
LINE
5
535
100
AcDbEntity
8
0-2
6
CONTINUOUS
62
4
100
AcDbLine
10
631.830000000000
20
152.690000000000
30
0.0
11
643.870000000000
21
152.690000000000
31
0.0
0
POLYLINE
5
536
100
AcDbEntity
8
0-2
6
CONTINUOUS
62
  4
100
AcDb2dPolyline
66
1
10
0.0
20
0.0
30
0.0
70
0
0
VERTEX
5
537
100
AcDbEntity
8
0-2
6
CONTINUOUS
62
  4
100
AcDbVertex
100
AcDb2dVertex
10
540.220000000000
20
152.690000000000
30
0.0
0
VERTEX
5
538
100
AcDbEntity
8
0-2
6
CONTINUOUS
62
  4
100
AcDbVertex
100
AcDb2dVertex
10
540.220000000000
20
242.590000000000
30
0.0
0
VERTEX
5
539
100
AcDbEntity
8
0-2
6
CONTINUOUS
62
  4
100
AcDbVertex
100
AcDb2dVertex
10
540.220000000000
20
265.590000000000
30
0.0
0
SEQEND
5
53a
100
AcDbEntity
8
0-2
0
LINE
5
53b
100
AcDbEntity
8
0-2
6
CONTINUOUS
62
4
100
AcDbLine
10
515.220000000000
20
265.590000000000
30
0.0
11
540.220000000000
21
265.590000000000
31
0.0
0
LINE
5
53c
100
AcDbEntity
8
0-2
6
CONTINUOUS
62
4
100
AcDbLine
10
515.220000000000
20
242.590000000000
30
0.0
11
540.220000000000
21
242.590000000000
31
0.0
0
LINE
5
53d
100
AcDbEntity
8
0-2
6
CONTINUOUS
62
4
100
AcDbLine
10
607.520000000000
20
148.690000000000
30
0.0
11
557.940000000000
21
148.690000000000
31
0.0
0
LINE
5
53e
100
AcDbEntity
8
0-2
6
CONTINUOUS
62
4
100
AcDbLine
10
644.000000000000
20
190.640000000000
30
0.0
11
612.140000000000
21
150.930000000000
31
0.0
0
LINE
5
53f
100
AcDbEntity
8
0-2
6
CONTINUOUS
62
4
100
AcDbLine
10
763.460000000000
20
203.960000000000
30
0.0
11
766.310000000000
21
206.820000000000
31
0.0
0
LINE
5
540
100
AcDbEntity
8
0-2
6
CONTINUOUS
62
4
100
AcDbLine
10
760.410000000000
20
207.990000000000
30
0.0
11
763.260000000000
21
210.840000000000
31
0.0
0
LINE
5
541
100
AcDbEntity
8
0-2
6
CONTINUOUS
62
4
100
AcDbLine
10
757.360000000000
20
212.010000000000
30
0.0
11
760.210000000000
21
214.860000000000
31
0.0
0
LINE
5
542
100
AcDbEntity
8
0-2
6
CONTINUOUS
62
4
100
AcDbLine
10
754.310000000000
20
216.030000000000
30
0.0
11
757.160000000000
21
218.880000000000
31
0.0
0
LINE
5
543
100
AcDbEntity
8
0-2
6
CONTINUOUS
62
4
100
AcDbLine
10
751.260000000000
20
220.050000000000
30
0.0
11
754.110000000000
21
222.900000000000
31
0.0
0
LINE
5
544
100
AcDbEntity
8
0-2
6
CONTINUOUS
62
4
100
AcDbLine
10
748.210000000000
20
224.070000000000
30
0.0
11
751.060000000000
21
226.930000000000
31
0.0
0
LINE
5
545
100
AcDbEntity
8
0-2
6
CONTINUOUS
62
4
100
AcDbLine
10
745.160000000000
20
228.090000000000
30
0.0
11
748.010000000000
21
230.950000000000
31
0.0
0
LINE
5
546
100
AcDbEntity
8
0-2
6
CONTINUOUS
62
4
100
AcDbLine
10
742.110000000000
20
232.110000000000
30
0.0
11
744.960000000000
21
234.970000000000
31
0.0
0
LINE
5
547
100
AcDbEntity
8
0-2
6
CONTINUOUS
62
4
100
AcDbLine
10
739.060000000000
20
236.130000000000
30
0.0
11
741.910000000000
21
238.990000000000
31
0.0
0
LINE
5
548
100
AcDbEntity
8
0-2
6
CONTINUOUS
62
4
100
AcDbLine
10
733.870000000000
20
238.020000000000
30
0.0
11
737.630000000000
21
241.770000000000
31
0.0
0
LINE
5
549
100
AcDbEntity
8
0-2
6
CONTINUOUS
62
4
100
AcDbLine
10
727.240000000000
20
238.460000000000
30
0.0
11
731.000000000000
21
242.220000000000
31
0.0
0
LINE
5
54a
100
AcDbEntity
8
0-2
6
CONTINUOUS
62
4
100
AcDbLine
10
720.610000000000
20
238.900000000000
30
0.0
11
724.370000000000
21
242.660000000000
31
0.0
0
LINE
5
54b
100
AcDbEntity
8
0-2
6
CONTINUOUS
62
4
100
AcDbLine
10
713.980000000000
20
239.340000000000
30
0.0
11
717.740000000000
21
243.100000000000
31
0.0
0
LINE
5
54c
100
AcDbEntity
8
0-2
6
CONTINUOUS
62
4
100
AcDbLine
10
716.460000000000
20
243.180000000000
30
0.0
11
720.760000000000
21
238.890000000000
31
0.0
0
LINE
5
54d
100
AcDbEntity
8
0-2
6
CONTINUOUS
62
4
100
AcDbLine
10
724.040000000000
20
242.680000000000
30
0.0
11
728.330000000000
21
238.380000000000
31
0.0
0
LINE
5
54e
100
AcDbEntity
8
0-2
6
CONTINUOUS
62
4
100
AcDbLine
10
731.610000000000
20
242.170000000000
30
0.0
11
735.910000000000
21
237.880000000000
31
0.0
0
LINE
5
54f
100
AcDbEntity
8
0-2
6
CONTINUOUS
62
4
100
AcDbLine
10
743.460000000000
20
230.330000000000
30
0.0
11
764.240000000000
21
209.550000000000
31
0.0
0
LINE
5
550
100
AcDbEntity
8
0-2
6
CONTINUOUS
62
4
100
AcDbLine
10
739.190000000000
20
241.670000000000
30
0.0
11
742.040000000000
21
238.820000000000
31
0.0
0
LINE
5
551
100
AcDbEntity
8
0-2
6
CONTINUOUS
62
4
100
AcDbLine
10
508.360000000000
20
148.690000000000
30
0.0
11
557.940000000000
21
148.690000000000
31
0.0
0
LINE
5
552
100
AcDbEntity
8
0-2
6
CONTINUOUS
62
4
100
AcDbLine
10
437.830000000000
20
237.750000000000
30
0.0
11
503.580000000000
21
151.060000000000
31
0.0
0
LINE
5
553
100
AcDbEntity
8
0-2
6
CONTINUOUS
62
4
100
AcDbLine
10
405.570000000000
20
243.530000000000
30
0.0
11
405.700000000000
21
241.580000000000
31
0.0
0
LINE
5
554
100
AcDbEntity
8
0-2
6
CONTINUOUS
62
4
100
AcDbLine
10
549.600000000000
20
148.690000000000
30
0.0
11
553.600000000000
21
152.690000000000
31
0.0
0
LINE
5
555
100
AcDbEntity
8
0-2
6
CONTINUOUS
62
4
100
AcDbLine
10
542.530000000000
20
148.690000000000
30
0.0
11
546.530000000000
21
152.690000000000
31
0.0
0
LINE
5
556
100
AcDbEntity
8
0-2
6
CONTINUOUS
62
4
100
AcDbLine
10
535.460000000000
20
148.690000000000
30
0.0
11
539.460000000000
21
152.690000000000
31
0.0
0
LINE
5
557
100
AcDbEntity
8
0-2
6
CONTINUOUS
62
4
100
AcDbLine
10
528.390000000000
20
148.690000000000
30
0.0
11
532.390000000000
21
152.690000000000
31
0.0
0
LINE
5
558
100
AcDbEntity
8
0-2
6
CONTINUOUS
62
4
100
AcDbLine
10
521.320000000000
20
148.690000000000
30
0.0
11
525.320000000000
21
152.690000000000
31
0.0
0
LINE
5
559
100
AcDbEntity
8
0-2
6
CONTINUOUS
62
4
100
AcDbLine
10
514.250000000000
20
148.690000000000
30
0.0
11
518.250000000000
21
152.690000000000
31
0.0
0
LINE
5
55a
100
AcDbEntity
8
0-2
6
CONTINUOUS
62
4
100
AcDbLine
10
507.270000000000
20
148.790000000000
30
0.0
11
511.180000000000
21
152.690000000000
31
0.0
0
LINE
5
55b
100
AcDbEntity
8
0-2
6
CONTINUOUS
62
4
100
AcDbLine
10
503.100000000000
20
151.690000000000
30
0.0
11
505.960000000000
21
154.540000000000
31
0.0
0
LINE
5
55c
100
AcDbEntity
8
0-2
6
CONTINUOUS
62
4
100
AcDbLine
10
500.050000000000
20
155.710000000000
30
0.0
11
502.910000000000
21
158.560000000000
31
0.0
0
LINE
5
55d
100
AcDbEntity
8
0-2
6
CONTINUOUS
62
4
100
AcDbLine
10
497.000000000000
20
159.730000000000
30
0.0
11
499.860000000000
21
162.590000000000
31
0.0
0
LINE
5
55e
100
AcDbEntity
8
0-2
6
CONTINUOUS
62
4
100
AcDbLine
10
493.950000000000
20
163.750000000000
30
0.0
11
496.810000000000
21
166.610000000000
31
0.0
0
LINE
5
55f
100
AcDbEntity
8
0-2
6
CONTINUOUS
62
4
100
AcDbLine
10
490.900000000000
20
167.770000000000
30
0.0
11
493.760000000000
21
170.630000000000
31
0.0
0
LINE
5
560
100
AcDbEntity
8
0-2
6
CONTINUOUS
62
4
100
AcDbLine
10
487.850000000000
20
171.790000000000
30
0.0
11
490.710000000000
21
174.650000000000
31
0.0
0
LINE
5
561
100
AcDbEntity
8
0-2
6
CONTINUOUS
62
4
100
AcDbLine
10
484.800000000000
20
175.820000000000
30
0.0
11
487.660000000000
21
178.670000000000
31
0.0
0
LINE
5
562
100
AcDbEntity
8
0-2
6
CONTINUOUS
62
4
100
AcDbLine
10
481.750000000000
20
179.840000000000
30
0.0
11
484.610000000000
21
182.690000000000
31
0.0
0
LINE
5
563
100
AcDbEntity
8
0-2
6
CONTINUOUS
62
4
100
AcDbLine
10
478.710000000000
20
183.860000000000
30
0.0
11
481.560000000000
21
186.710000000000
31
0.0
0
LINE
5
564
100
AcDbEntity
8
0-2
6
CONTINUOUS
62
4
100
AcDbLine
10
475.660000000000
20
187.880000000000
30
0.0
11
478.510000000000
21
190.730000000000
31
0.0
0
LINE
5
565
100
AcDbEntity
8
0-2
6
CONTINUOUS
62
4
100
AcDbLine
10
472.610000000000
20
191.900000000000
30
0.0
11
475.460000000000
21
194.760000000000
31
0.0
0
LINE
5
566
100
AcDbEntity
8
0-2
6
CONTINUOUS
62
4
100
AcDbLine
10
469.560000000000
20
195.920000000000
30
0.0
11
472.410000000000
21
198.780000000000
31
0.0
0
LINE
5
567
100
AcDbEntity
8
0-2
6
CONTINUOUS
62
4
100
AcDbLine
10
466.510000000000
20
199.940000000000
30
0.0
11
469.360000000000
21
202.800000000000
31
0.0
0
LINE
5
568
100
AcDbEntity
8
0-2
6
CONTINUOUS
62
4
100
AcDbLine
10
463.460000000000
20
203.960000000000
30
0.0
11
466.310000000000
21
206.820000000000
31
0.0
0
LINE
5
569
100
AcDbEntity
8
0-2
6
CONTINUOUS
62
4
100
AcDbLine
10
460.410000000000
20
207.990000000000
30
0.0
11
463.260000000000
21
210.840000000000
31
0.0
0
LINE
5
56a
100
AcDbEntity
8
0-2
6
CONTINUOUS
62
4
100
AcDbLine
10
457.360000000000
20
212.010000000000
30
0.0
11
460.210000000000
21
214.860000000000
31
0.0
0
LINE
5
56b
100
AcDbEntity
8
0-2
6
CONTINUOUS
62
4
100
AcDbLine
10
454.310000000000
20
216.030000000000
30
0.0
11
457.160000000000
21
218.880000000000
31
0.0
0
LINE
5
56c
100
AcDbEntity
8
0-2
6
CONTINUOUS
62
4
100
AcDbLine
10
451.260000000000
20
220.050000000000
30
0.0
11
454.110000000000
21
222.900000000000
31
0.0
0
LINE
5
56d
100
AcDbEntity
8
0-2
6
CONTINUOUS
62
4
100
AcDbLine
10
448.210000000000
20
224.070000000000
30
0.0
11
451.060000000000
21
226.930000000000
31
0.0
0
LINE
5
56e
100
AcDbEntity
8
0-2
6
CONTINUOUS
62
4
100
AcDbLine
10
445.160000000000
20
228.090000000000
30
0.0
11
448.010000000000
21
230.950000000000
31
0.0
0
LINE
5
56f
100
AcDbEntity
8
0-2
6
CONTINUOUS
62
4
100
AcDbLine
10
442.110000000000
20
232.110000000000
30
0.0
11
444.960000000000
21
234.970000000000
31
0.0
0
LINE
5
570
100
AcDbEntity
8
0-2
6
CONTINUOUS
62
4
100
AcDbLine
10
439.060000000000
20
236.130000000000
30
0.0
11
441.910000000000
21
238.990000000000
31
0.0
0
LINE
5
571
100
AcDbEntity
8
0-2
6
CONTINUOUS
62
4
100
AcDbLine
10
433.870000000000
20
238.020000000000
30
0.0
11
437.630000000000
21
241.770000000000
31
0.0
0
LINE
5
572
100
AcDbEntity
8
0-2
6
CONTINUOUS
62
4
100
AcDbLine
10
427.240000000000
20
238.460000000000
30
0.0
11
431.000000000000
21
242.220000000000
31
0.0
0
LINE
5
573
100
AcDbEntity
8
0-2
6
CONTINUOUS
62
4
100
AcDbLine
10
420.610000000000
20
238.900000000000
30
0.0
11
424.370000000000
21
242.660000000000
31
0.0
0
LINE
5
574
100
AcDbEntity
8
0-2
6
CONTINUOUS
62
4
100
AcDbLine
10
413.980000000000
20
239.340000000000
30
0.0
11
417.740000000000
21
243.100000000000
31
0.0
0
LINE
5
575
100
AcDbEntity
8
0-2
6
CONTINUOUS
62
4
100
AcDbLine
10
416.460000000000
20
243.180000000000
30
0.0
11
420.760000000000
21
238.890000000000
31
0.0
0
LINE
5
576
100
AcDbEntity
8
0-2
6
CONTINUOUS
62
4
100
AcDbLine
10
487.860000000000
20
171.790000000000
30
0.0
11
510.960000000000
21
148.690000000000
31
0.0
0
LINE
5
577
100
AcDbEntity
8
0-2
6
CONTINUOUS
62
4
100
AcDbLine
10
424.040000000000
20
242.680000000000
30
0.0
11
428.330000000000
21
238.380000000000
31
0.0
0
LINE
5
578
100
AcDbEntity
8
0-2
6
CONTINUOUS
62
4
100
AcDbLine
10
465.660000000000
20
201.060000000000
30
0.0
11
486.440000000000
21
180.280000000000
31
0.0
0
LINE
5
579
100
AcDbEntity
8
0-2
6
CONTINUOUS
62
4
100
AcDbLine
10
514.030000000000
20
152.690000000000
30
0.0
11
518.030000000000
21
148.690000000000
31
0.0
0
LINE
5
57a
100
AcDbEntity
8
0-2
6
CONTINUOUS
62
4
100
AcDbLine
10
431.610000000000
20
242.170000000000
30
0.0
11
435.910000000000
21
237.880000000000
31
0.0
0
LINE
5
57b
100
AcDbEntity
8
0-2
6
CONTINUOUS
62
4
100
AcDbLine
10
443.460000000000
20
230.330000000000
30
0.0
11
464.240000000000
21
209.550000000000
31
0.0
0
LINE
5
57c
100
AcDbEntity
8
0-2
6
CONTINUOUS
62
4
100
AcDbLine
10
521.100000000000
20
152.690000000000
30
0.0
11
525.100000000000
21
148.690000000000
31
0.0
0
LINE
5
57d
100
AcDbEntity
8
0-2
6
CONTINUOUS
62
4
100
AcDbLine
10
439.190000000000
20
241.670000000000
30
0.0
11
442.040000000000
21
238.820000000000
31
0.0
0
LINE
5
57e
100
AcDbEntity
8
0-2
6
CONTINUOUS
62
4
100
AcDbLine
10
528.170000000000
20
152.690000000000
30
0.0
11
532.170000000000
21
148.690000000000
31
0.0
0
LINE
5
57f
100
AcDbEntity
8
0-2
6
CONTINUOUS
62
4
100
AcDbLine
10
535.240000000000
20
152.690000000000
30
0.0
11
539.240000000000
21
148.690000000000
31
0.0
0
LINE
5
580
100
AcDbEntity
8
0-2
6
CONTINUOUS
62
4
100
AcDbLine
10
542.310000000000
20
152.690000000000
30
0.0
11
546.310000000000
21
148.690000000000
31
0.0
0
LINE
5
581
100
AcDbEntity
8
0-2
6
CONTINUOUS
62
4
100
AcDbLine
10
549.380000000000
20
152.690000000000
30
0.0
11
553.380000000000
21
148.690000000000
31
0.0
0
LINE
5
582
100
AcDbEntity
8
0-2
6
CONTINUOUS
62
4
100
AcDbLine
10
559.470000000000
20
152.690000000000
30
0.0
11
563.470000000000
21
148.690000000000
31
0.0
0
LINE
5
583
100
AcDbEntity
8
0-2
6
CONTINUOUS
62
4
100
AcDbLine
10
566.540000000000
20
152.690000000000
30
0.0
11
570.540000000000
21
148.690000000000
31
0.0
0
LINE
5
584
100
AcDbEntity
8
0-2
6
CONTINUOUS
62
4
100
AcDbLine
10
573.610000000000
20
152.690000000000
30
0.0
11
577.610000000000
21
148.690000000000
31
0.0
0
LINE
5
585
100
AcDbEntity
8
0-2
6
CONTINUOUS
62
4
100
AcDbLine
10
580.680000000000
20
152.690000000000
30
0.0
11
584.680000000000
21
148.690000000000
31
0.0
0
LINE
5
586
100
AcDbEntity
8
0-2
6
CONTINUOUS
62
4
100
AcDbLine
10
587.760000000000
20
152.690000000000
30
0.0
11
591.760000000000
21
148.690000000000
31
0.0
0
LINE
5
587
100
AcDbEntity
8
0-2
6
CONTINUOUS
62
4
100
AcDbLine
10
594.830000000000
20
152.690000000000
30
0.0
11
598.830000000000
21
148.690000000000
31
0.0
0
LINE
5
588
100
AcDbEntity
8
0-2
6
CONTINUOUS
62
4
100
AcDbLine
10
601.900000000000
20
152.690000000000
30
0.0
11
605.900000000000
21
148.690000000000
31
0.0
0
LINE
5
589
100
AcDbEntity
8
0-2
6
CONTINUOUS
62
4
100
AcDbLine
10
608.610000000000
20
153.050000000000
30
0.0
11
611.450000000000
21
150.210000000000
31
0.0
0
LINE
5
58a
100
AcDbEntity
8
0-2
6
CONTINUOUS
62
4
100
AcDbLine
10
611.810000000000
20
156.920000000000
30
0.0
11
614.660000000000
21
154.070000000000
31
0.0
0
LINE
5
58b
100
AcDbEntity
8
0-2
6
CONTINUOUS
62
4
100
AcDbLine
10
614.960000000000
20
160.840000000000
30
0.0
11
617.800000000000
21
158.000000000000
31
0.0
0
LINE
5
58c
100
AcDbEntity
8
0-2
6
CONTINUOUS
62
4
100
AcDbLine
10
618.110000000000
20
164.760000000000
30
0.0
11
620.950000000000
21
161.920000000000
31
0.0
0
LINE
5
58d
100
AcDbEntity
8
0-2
6
CONTINUOUS
62
4
100
AcDbLine
10
621.250000000000
20
168.690000000000
30
0.0
11
624.100000000000
21
165.840000000000
31
0.0
0
LINE
5
58e
100
AcDbEntity
8
0-2
6
CONTINUOUS
62
4
100
AcDbLine
10
624.400000000000
20
172.610000000000
30
0.0
11
627.250000000000
21
169.760000000000
31
0.0
0
LINE
5
58f
100
AcDbEntity
8
0-2
6
CONTINUOUS
62
4
100
AcDbLine
10
627.550000000000
20
176.530000000000
30
0.0
11
630.400000000000
21
173.690000000000
31
0.0
0
LINE
5
590
100
AcDbEntity
8
0-2
6
CONTINUOUS
62
4
100
AcDbLine
10
630.700000000000
20
180.460000000000
30
0.0
11
633.540000000000
21
177.610000000000
31
0.0
0
LINE
5
591
100
AcDbEntity
8
0-2
6
CONTINUOUS
62
4
100
AcDbLine
10
633.850000000000
20
184.380000000000
30
0.0
11
636.690000000000
21
181.530000000000
31
0.0
0
LINE
5
592
100
AcDbEntity
8
0-2
6
CONTINUOUS
62
4
100
AcDbLine
10
637.000000000000
20
188.300000000000
30
0.0
11
639.840000000000
21
185.460000000000
31
0.0
0
LINE
5
593
100
AcDbEntity
8
0-2
6
CONTINUOUS
62
4
100
AcDbLine
10
640.140000000000
20
192.220000000000
30
0.0
11
642.990000000000
21
189.380000000000
31
0.0
0
LINE
5
594
100
AcDbEntity
8
0-2
6
CONTINUOUS
62
4
100
AcDbLine
10
643.290000000000
20
196.150000000000
30
0.0
11
646.060000000000
21
193.380000000000
31
0.0
0
LINE
5
595
100
AcDbEntity
8
0-2
6
CONTINUOUS
62
4
100
AcDbLine
10
646.440000000000
20
200.070000000000
30
0.0
11
649.100000000000
21
197.410000000000
31
0.0
0
LINE
5
596
100
AcDbEntity
8
0-2
6
CONTINUOUS
62
4
100
AcDbLine
10
649.590000000000
20
203.990000000000
30
0.0
11
652.150000000000
21
201.440000000000
31
0.0
0
LINE
5
597
100
AcDbEntity
8
0-2
6
CONTINUOUS
62
4
100
AcDbLine
10
652.740000000000
20
207.920000000000
30
0.0
11
655.190000000000
21
205.470000000000
31
0.0
0
LINE
5
598
100
AcDbEntity
8
0-2
6
CONTINUOUS
62
4
100
AcDbLine
10
655.880000000000
20
211.840000000000
30
0.0
11
658.230000000000
21
209.500000000000
31
0.0
0
LINE
5
599
100
AcDbEntity
8
0-2
6
CONTINUOUS
62
4
100
AcDbLine
10
659.030000000000
20
215.760000000000
30
0.0
11
661.270000000000
21
213.530000000000
31
0.0
0
LINE
5
59a
100
AcDbEntity
8
0-2
6
CONTINUOUS
62
4
100
AcDbLine
10
662.180000000000
20
219.690000000000
30
0.0
11
664.310000000000
21
217.560000000000
31
0.0
0
LINE
5
59b
100
AcDbEntity
8
0-2
6
CONTINUOUS
62
4
100
AcDbLine
10
665.330000000000
20
223.610000000000
30
0.0
11
667.350000000000
21
221.590000000000
31
0.0
0
LINE
5
59c
100
AcDbEntity
8
0-2
6
CONTINUOUS
62
4
100
AcDbLine
10
668.480000000000
20
227.530000000000
30
0.0
11
670.390000000000
21
225.620000000000
31
0.0
0
LINE
5
59d
100
AcDbEntity
8
0-2
6
CONTINUOUS
62
4
100
AcDbLine
10
671.620000000000
20
231.450000000000
30
0.0
11
673.430000000000
21
229.650000000000
31
0.0
0
LINE
5
59e
100
AcDbEntity
8
0-2
6
CONTINUOUS
62
4
100
AcDbLine
10
674.770000000000
20
235.380000000000
30
0.0
11
676.470000000000
21
233.680000000000
31
0.0
0
LINE
5
59f
100
AcDbEntity
8
0-2
6
CONTINUOUS
62
4
100
AcDbLine
10
677.920000000000
20
239.300000000000
30
0.0
11
679.510000000000
21
237.710000000000
31
0.0
0
LINE
5
5a0
100
AcDbEntity
8
0-2
6
CONTINUOUS
62
4
100
AcDbLine
10
682.310000000000
20
241.980000000000
30
0.0
11
683.330000000000
21
240.960000000000
31
0.0
0
LINE
5
5a1
100
AcDbEntity
8
0-2
6
CONTINUOUS
62
4
100
AcDbLine
10
688.940000000000
20
242.420000000000
30
0.0
11
690.010000000000
21
241.350000000000
31
0.0
0
LINE
5
5a2
100
AcDbEntity
8
0-2
6
CONTINUOUS
62
4
100
AcDbLine
10
695.570000000000
20
242.860000000000
30
0.0
11
696.730000000000
21
241.700000000000
31
0.0
0
LINE
5
5a3
100
AcDbEntity
8
0-2
6
CONTINUOUS
62
4
100
AcDbLine
10
702.200000000000
20
243.300000000000
30
0.0
11
703.450000000000
21
242.050000000000
31
0.0
0
LINE
5
5a4
100
AcDbEntity
8
0-2
6
CONTINUOUS
62
4
100
AcDbLine
10
609.570000000000
20
149.070000000000
30
0.0
11
615.010000000000
21
154.510000000000
31
0.0
0
LINE
5
5a5
100
AcDbEntity
8
0-2
6
CONTINUOUS
62
4
100
AcDbLine
10
702.500000000000
20
242.000000000000
30
0.0
11
703.920000000000
21
243.420000000000
31
0.0
0
LINE
5
5a6
100
AcDbEntity
8
0-2
6
CONTINUOUS
62
4
100
AcDbLine
10
602.110000000000
20
148.690000000000
30
0.0
11
606.110000000000
21
152.690000000000
31
0.0
0
LINE
5
5a7
100
AcDbEntity
8
0-2
6
CONTINUOUS
62
4
100
AcDbLine
10
617.770000000000
20
164.340000000000
30
0.0
11
643.730000000000
21
190.310000000000
31
0.0
0
LINE
5
5a8
100
AcDbEntity
8
0-2
6
CONTINUOUS
62
4
100
AcDbLine
10
695.040000000000
20
241.610000000000
30
0.0
11
696.340000000000
21
242.910000000000
31
0.0
0
LINE
5
5a9
100
AcDbEntity
8
0-2
6
CONTINUOUS
62
4
100
AcDbLine
10
595.040000000000
20
148.690000000000
30
0.0
11
599.040000000000
21
152.690000000000
31
0.0
0
LINE
5
5aa
100
AcDbEntity
8
0-2
6
CONTINUOUS
62
4
100
AcDbLine
10
646.500000000000
20
200.140000000000
30
0.0
11
665.520000000000
21
219.170000000000
31
0.0
0
LINE
5
5ab
100
AcDbEntity
8
0-2
6
CONTINUOUS
62
4
100
AcDbLine
10
687.580000000000
20
241.220000000000
30
0.0
11
688.760000000000
21
242.410000000000
31
0.0
0
LINE
5
5ac
100
AcDbEntity
8
0-2
6
CONTINUOUS
62
4
100
AcDbLine
10
587.970000000000
20
148.690000000000
30
0.0
11
591.970000000000
21
152.690000000000
31
0.0
0
LINE
5
5ad
100
AcDbEntity
8
0-2
6
CONTINUOUS
62
4
100
AcDbLine
10
675.220000000000
20
235.940000000000
30
0.0
11
681.190000000000
21
241.900000000000
31
0.0
0
LINE
5
5ae
100
AcDbEntity
8
0-2
6
CONTINUOUS
62
4
100
AcDbLine
10
580.900000000000
20
148.690000000000
30
0.0
11
584.900000000000
21
152.690000000000
31
0.0
0
LINE
5
5af
100
AcDbEntity
8
0-2
6
CONTINUOUS
62
4
100
AcDbLine
10
573.830000000000
20
148.690000000000
30
0.0
11
577.830000000000
21
152.690000000000
31
0.0
0
LINE
5
5b0
100
AcDbEntity
8
0-2
6
CONTINUOUS
62
4
100
AcDbLine
10
566.760000000000
20
148.690000000000
30
0.0
11
570.760000000000
21
152.690000000000
31
0.0
0
LINE
5
5b1
100
AcDbEntity
8
0-2
6
CONTINUOUS
62
4
100
AcDbLine
10
559.690000000000
20
148.690000000000
30
0.0
11
563.690000000000
21
152.690000000000
31
0.0
0
LINE
5
5b2
100
AcDbEntity
8
0-2
6
CONTINUOUS
62
4
100
AcDbLine
10
349.590000000000
20
203.990000000000
30
0.0
11
352.150000000000
21
201.440000000000
31
0.0
0
LINE
5
5b3
100
AcDbEntity
8
0-2
6
CONTINUOUS
62
4
100
AcDbLine
10
352.740000000000
20
207.920000000000
30
0.0
11
355.190000000000
21
205.470000000000
31
0.0
0
LINE
5
5b4
100
AcDbEntity
8
0-2
6
CONTINUOUS
62
4
100
AcDbLine
10
355.880000000000
20
211.840000000000
30
0.0
11
358.230000000000
21
209.500000000000
31
0.0
0
LINE
5
5b5
100
AcDbEntity
8
0-2
6
CONTINUOUS
62
4
100
AcDbLine
10
359.030000000000
20
215.760000000000
30
0.0
11
361.270000000000
21
213.530000000000
31
0.0
0
LINE
5
5b6
100
AcDbEntity
8
0-2
6
CONTINUOUS
62
4
100
AcDbLine
10
362.180000000000
20
219.690000000000
30
0.0
11
364.310000000000
21
217.560000000000
31
0.0
0
LINE
5
5b7
100
AcDbEntity
8
0-2
6
CONTINUOUS
62
4
100
AcDbLine
10
365.330000000000
20
223.610000000000
30
0.0
11
367.350000000000
21
221.590000000000
31
0.0
0
LINE
5
5b8
100
AcDbEntity
8
0-2
6
CONTINUOUS
62
4
100
AcDbLine
10
368.480000000000
20
227.530000000000
30
0.0
11
370.390000000000
21
225.620000000000
31
0.0
0
LINE
5
5b9
100
AcDbEntity
8
0-2
6
CONTINUOUS
62
4
100
AcDbLine
10
371.620000000000
20
231.450000000000
30
0.0
11
373.430000000000
21
229.650000000000
31
0.0
0
LINE
5
5ba
100
AcDbEntity
8
0-2
6
CONTINUOUS
62
4
100
AcDbLine
10
374.770000000000
20
235.380000000000
30
0.0
11
376.470000000000
21
233.680000000000
31
0.0
0
LINE
5
5bb
100
AcDbEntity
8
0-2
6
CONTINUOUS
62
4
100
AcDbLine
10
377.920000000000
20
239.300000000000
30
0.0
11
379.510000000000
21
237.710000000000
31
0.0
0
LINE
5
5bc
100
AcDbEntity
8
0-2
6
CONTINUOUS
62
4
100
AcDbLine
10
382.310000000000
20
241.980000000000
30
0.0
11
383.330000000000
21
240.960000000000
31
0.0
0
LINE
5
5bd
100
AcDbEntity
8
0-2
6
CONTINUOUS
62
4
100
AcDbLine
10
388.940000000000
20
242.420000000000
30
0.0
11
390.010000000000
21
241.350000000000
31
0.0
0
LINE
5
5be
100
AcDbEntity
8
0-2
6
CONTINUOUS
62
4
100
AcDbLine
10
395.570000000000
20
242.860000000000
30
0.0
11
396.730000000000
21
241.700000000000
31
0.0
0
LINE
5
5bf
100
AcDbEntity
8
0-2
6
CONTINUOUS
62
4
100
AcDbLine
10
402.200000000000
20
243.300000000000
30
0.0
11
403.450000000000
21
242.050000000000
31
0.0
0
LINE
5
5c0
100
AcDbEntity
8
0-2
6
CONTINUOUS
62
4
100
AcDbLine
10
402.500000000000
20
242.000000000000
30
0.0
11
403.920000000000
21
243.420000000000
31
0.0
0
LINE
5
5c1
100
AcDbEntity
8
0-2
6
CONTINUOUS
62
4
100
AcDbLine
10
395.040000000000
20
241.610000000000
30
0.0
11
396.340000000000
21
242.910000000000
31
0.0
0
LINE
5
5c2
100
AcDbEntity
8
0-2
6
CONTINUOUS
62
4
100
AcDbLine
10
387.580000000000
20
241.220000000000
30
0.0
11
388.760000000000
21
242.410000000000
31
0.0
0
LINE
5
5c3
100
AcDbEntity
8
0-2
6
CONTINUOUS
62
4
100
AcDbLine
10
375.220000000000
20
235.940000000000
30
0.0
11
381.190000000000
21
241.900000000000
31
0.0
0
LINE
5
5c4
100
AcDbEntity
8
0-2
6
CONTINUOUS
62
4
100
AcDbLine
10
437.830000000000
20
237.750000000000
30
0.0
11
409.140000000000
21
239.660000000000
31
0.0
0
LINE
5
5c5
100
AcDbEntity
8
0-2
6
CONTINUOUS
62
4
100
AcDbLine
10
409.140000000000
20
243.440000000000
30
0.0
11
413.180000000000
21
239.390000000000
31
0.0
0
LINE
5
5c6
100
AcDbEntity
8
0-2
6
CONTINUOUS
62
4
100
AcDbLine
10
737.830000000000
20
237.750000000000
30
0.0
11
709.140000000000
21
239.660000000000
31
0.0
0
LINE
5
5c7
100
AcDbEntity
8
0-2
6
CONTINUOUS
62
4
100
AcDbLine
10
709.140000000000
20
243.440000000000
30
0.0
11
713.180000000000
21
239.390000000000
31
0.0
0
LINE
5
5c8
100
AcDbEntity
8
0-1
6
CONTINUOUS
62
3
100
AcDbLine
10
133.670000000000
20
142.690000000000
30
0.0
11
133.670000000000
21
211.990000000000
31
0.0
0
LINE
5
5c9
100
AcDbEntity
8
0-1
6
CONTINUOUS
62
3
100
AcDbLine
10
149.420000000000
20
235.090000000000
30
0.0
11
149.420000000000
21
229.390000000000
31
0.0
0
LINE
5
5ca
100
AcDbEntity
8
0-1
6
CONTINUOUS
62
3
100
AcDbLine
10
139.670000000000
20
145.490000000000
30
0.0
11
133.670000000000
21
145.490000000000
31
0.0
0
LINE
5
5cb
100
AcDbEntity
8
0-1
6
CONTINUOUS
62
3
100
AcDbLine
10
173.670000000000
20
142.690000000000
30
0.0
11
173.670000000000
21
211.990000000000
31
0.0
0
LINE
5
5cc
100
AcDbEntity
8
0-1
6
CONTINUOUS
62
3
100
AcDbLine
10
164.670000000000
20
146.890000000000
30
0.0
11
142.670000000000
21
146.890000000000
31
0.0
0
LINE
5
5cd
100
AcDbEntity
8
0-1
6
CONTINUOUS
62
3
100
AcDbLine
10
164.670000000000
20
144.090000000000
30
0.0
11
142.670000000000
21
144.090000000000
31
0.0
0
LINE
5
5ce
100
AcDbEntity
8
0-1
6
CONTINUOUS
62
3
100
AcDbLine
10
139.670000000000
20
142.690000000000
30
0.0
11
133.670000000000
21
142.690000000000
31
0.0
0
LINE
5
5cf
100
AcDbEntity
8
0-1
6
CONTINUOUS
62
3
100
AcDbLine
10
167.670000000000
20
145.490000000000
30
0.0
11
173.670000000000
21
145.490000000000
31
0.0
0
LINE
5
5d0
100
AcDbEntity
8
0-1
6
CONTINUOUS
62
3
100
AcDbLine
10
141.190000000000
20
143.130000000000
30
0.0
11
142.670000000000
21
144.090000000000
31
0.0
0
LINE
5
5d1
100
AcDbEntity
8
0-1
6
CONTINUOUS
62
3
100
AcDbLine
10
166.160000000000
20
143.130000000000
30
0.0
11
164.670000000000
21
144.090000000000
31
0.0
0
LINE
5
5d2
100
AcDbEntity
8
0-1
6
CONTINUOUS
62
3
100
AcDbLine
10
139.670000000000
20
145.490000000000
30
0.0
11
141.160000000000
21
146.440000000000
31
0.0
0
LINE
5
5d3
100
AcDbEntity
8
0-1
6
CONTINUOUS
62
3
100
AcDbLine
10
167.670000000000
20
145.490000000000
30
0.0
11
166.190000000000
21
146.440000000000
31
0.0
0
LINE
5
5d4
100
AcDbEntity
8
0-1
6
CONTINUOUS
62
3
100
AcDbLine
10
149.420000000000
20
235.090000000000
30
0.0
11
157.920000000000
21
235.090000000000
31
0.0
0
LINE
5
5d5
100
AcDbEntity
8
0-1
6
CONTINUOUS
62
3
100
AcDbLine
10
148.670000000000
20
234.340000000000
30
0.0
11
148.670000000000
21
229.390000000000
31
0.0
0
LINE
5
5d6
100
AcDbEntity
8
0-1
6
CONTINUOUS
62
3
100
AcDbLine
10
167.670000000000
20
142.690000000000
30
0.0
11
173.670000000000
21
142.690000000000
31
0.0
0
LINE
5
5d7
100
AcDbEntity
8
0-1
6
CONTINUOUS
62
3
100
AcDbLine
10
153.670000000000
20
221.390000000000
30
0.0
11
153.670000000000
21
228.490000000000
31
0.0
0
LINE
5
5d8
100
AcDbEntity
8
0-1
6
CONTINUOUS
62
3
100
AcDbLine
10
161.920000000000
20
229.390000000000
30
0.0
11
145.420000000000
21
229.390000000000
31
0.0
0
LINE
5
5d9
100
AcDbEntity
8
0-1
6
CONTINUOUS
62
3
100
AcDbLine
10
158.670000000000
20
234.340000000000
30
0.0
11
158.670000000000
21
229.390000000000
31
0.0
0
LINE
5
5da
100
AcDbEntity
8
0-1
6
CONTINUOUS
62
3
100
AcDbLine
10
162.170000000000
20
229.240000000000
30
0.0
11
161.920000000000
21
229.390000000000
31
0.0
0
LINE
5
5db
100
AcDbEntity
8
0-1
6
CONTINUOUS
62
3
100
AcDbLine
10
145.170000000000
20
229.240000000000
30
0.0
11
145.420000000000
21
229.390000000000
31
0.0
0
LINE
5
5dc
100
AcDbEntity
8
0-1
6
CONTINUOUS
62
3
100
AcDbLine
10
162.170000000000
20
221.390000000000
30
0.0
11
162.170000000000
21
229.240000000000
31
0.0
0
LINE
5
5dd
100
AcDbEntity
8
0-1
6
CONTINUOUS
62
3
100
AcDbLine
10
145.170000000000
20
221.390000000000
30
0.0
11
145.170000000000
21
229.240000000000
31
0.0
0
LINE
5
5de
100
AcDbEntity
8
0-1
6
CONTINUOUS
62
3
100
AcDbLine
10
162.170000000000
20
221.390000000000
30
0.0
11
145.170000000000
21
221.390000000000
31
0.0
0
LINE
5
5df
100
AcDbEntity
8
0-1
6
CONTINUOUS
62
3
100
AcDbLine
10
157.920000000000
20
235.090000000000
30
0.0
11
157.920000000000
21
229.390000000000
31
0.0
0
LINE
5
5e0
100
AcDbEntity
8
0-1
6
CONTINUOUS
62
3
100
AcDbLine
10
157.920000000000
20
235.090000000000
30
0.0
11
158.670000000000
21
234.340000000000
31
0.0
0
LINE
5
5e1
100
AcDbEntity
8
0-1
6
CONTINUOUS
62
3
100
AcDbLine
10
138.670000000000
20
200.360000000000
30
0.0
11
138.670000000000
21
211.460000000000
31
0.0
0
LINE
5
5e2
100
AcDbEntity
8
0-1
6
CONTINUOUS
62
3
100
AcDbLine
10
168.670000000000
20
200.360000000000
30
0.0
11
168.670000000000
21
211.460000000000
31
0.0
0
LINE
5
5e3
100
AcDbEntity
8
0-1
6
CONTINUOUS
62
4
100
AcDbLine
10
121.780000000000
20
217.890000000000
30
0.0
11
78.670000000000
21
261.680000000000
31
0.0
0
LINE
5
5e4
100
AcDbEntity
8
0-1
6
CONTINUOUS
62
4
100
AcDbLine
10
185.330000000000
20
262.890000000000
30
0.0
11
78.670000000000
21
262.890000000000
31
0.0
0
LINE
5
5e5
100
AcDbEntity
8
0-1
6
CONTINUOUS
62
4
100
AcDbLine
10
165.170000000000
20
219.090000000000
30
0.0
11
167.770000000000
21
230.760000000000
31
0.0
0
LINE
5
5e6
100
AcDbEntity
8
0-1
6
CONTINUOUS
62
4
100
AcDbLine
10
142.170000000000
20
219.090000000000
30
0.0
11
139.580000000000
21
230.760000000000
31
0.0
0
LINE
5
5e7
100
AcDbEntity
8
0-1
6
CONTINUOUS
62
4
100
AcDbLine
10
86.140000000000
20
254.090000000000
30
0.0
11
81.670000000000
21
254.090000000000
31
0.0
0
LINE
5
5e8
100
AcDbEntity
8
0-1
6
CONTINUOUS
62
4
100
AcDbLine
10
129.170000000000
20
219.090000000000
30
0.0
11
131.770000000000
21
230.760000000000
31
0.0
0
LINE
5
5e9
100
AcDbEntity
8
0-1
6
CONTINUOUS
62
4
100
AcDbLine
10
178.170000000000
20
219.090000000000
30
0.0
11
175.580000000000
21
230.760000000000
31
0.0
0
LINE
5
5ea
100
AcDbEntity
8
0-1
6
CONTINUOUS
62
4
100
AcDbLine
10
178.670000000000
20
217.890000000000
30
0.0
11
185.570000000000
21
217.890000000000
31
0.0
0
LINE
5
5eb
100
AcDbEntity
8
0-1
6
CONTINUOUS
62
4
100
AcDbLine
10
78.670000000000
20
256.430000000000
30
0.0
11
78.670000000000
21
262.890000000000
31
0.0
0
LINE
5
5ec
100
AcDbEntity
8
0-1
6
CONTINUOUS
62
4
100
AcDbLine
10
128.670000000000
20
217.890000000000
30
0.0
11
121.780000000000
21
217.890000000000
31
0.0
0
LINE
5
5ed
100
AcDbEntity
8
0-1
6
CONTINUOUS
62
4
100
AcDbLine
10
178.670000000000
20
216.600000000000
30
0.0
11
178.670000000000
21
219.090000000000
31
0.0
0
LINE
5
5ee
100
AcDbEntity
8
0-1
6
CONTINUOUS
62
4
100
AcDbLine
10
170.670000000000
20
212.380000000000
30
0.0
11
136.670000000000
21
212.380000000000
31
0.0
0
LINE
5
5ef
100
AcDbEntity
8
0-1
6
CONTINUOUS
62
4
100
AcDbLine
10
170.670000000000
20
211.460000000000
30
0.0
11
136.670000000000
21
211.460000000000
31
0.0
0
LINE
5
5f0
100
AcDbEntity
8
0-1
6
CONTINUOUS
62
4
100
AcDbLine
10
128.670000000000
20
216.600000000000
30
0.0
11
128.670000000000
21
219.090000000000
31
0.0
0
LINE
5
5f1
100
AcDbEntity
8
0-1
6
CONTINUOUS
62
4
100
AcDbLine
10
186.750000000000
20
219.090000000000
30
0.0
11
120.600000000000
21
219.090000000000
31
0.0
0
LINE
5
5f2
100
AcDbEntity
8
0-1
6
CONTINUOUS
62
4
100
AcDbLine
10
85.400000000000
20
254.850000000000
30
0.0
11
81.670000000000
21
254.850000000000
31
0.0
0
LINE
5
5f3
100
AcDbEntity
8
0-1
6
CONTINUOUS
62
3
100
AcDbLine
10
143.170000000000
20
220.890000000000
30
0.0
11
148.250000000000
21
221.380000000000
31
0.0
0
LINE
5
5f4
100
AcDbEntity
8
0-1
6
CONTINUOUS
62
3
100
AcDbLine
10
143.350000000000
20
219.100000000000
30
0.0
11
143.170000000000
21
220.890000000000
31
0.0
0
LINE
5
5f5
100
AcDbEntity
8
0-1
6
CONTINUOUS
62
3
100
AcDbLine
10
164.000000000000
20
219.100000000000
30
0.0
11
164.170000000000
21
220.890000000000
31
0.0
0
LINE
5
5f6
100
AcDbEntity
8
0-1
6
CONTINUOUS
62
3
100
AcDbLine
10
148.670000000000
20
234.340000000000
30
0.0
11
149.420000000000
21
235.090000000000
31
0.0
0
LINE
5
5f7
100
AcDbEntity
8
0-1
6
CONTINUOUS
62
3
100
AcDbLine
10
164.170000000000
20
220.890000000000
30
0.0
11
159.100000000000
21
221.380000000000
31
0.0
0
LINE
5
5f8
100
AcDbEntity
8
0-1
6
CONTINUOUS
62
3
100
AcDbLine
10
148.670000000000
20
234.340000000000
30
0.0
11
158.670000000000
21
234.340000000000
31
0.0
0
LINE
5
5f9
100
AcDbEntity
8
0-1
6
CONTINUOUS
62
4
100
AcDbLine
10
185.570000000000
20
217.890000000000
30
0.0
11
228.670000000000
21
261.680000000000
31
0.0
0
LINE
5
5fa
100
AcDbEntity
8
0-1
6
CONTINUOUS
62
4
100
AcDbLine
10
122.020000000000
20
262.890000000000
30
0.0
11
228.670000000000
21
262.890000000000
31
0.0
0
LINE
5
5fb
100
AcDbEntity
8
0-1
6
CONTINUOUS
62
4
100
AcDbLine
10
221.210000000000
20
254.090000000000
30
0.0
11
225.670000000000
21
254.090000000000
31
0.0
0
LINE
5
5fc
100
AcDbEntity
8
0-1
6
CONTINUOUS
62
4
100
AcDbLine
10
228.670000000000
20
256.430000000000
30
0.0
11
228.670000000000
21
262.890000000000
31
0.0
0
LINE
5
5fd
100
AcDbEntity
8
0-1
6
CONTINUOUS
62
4
100
AcDbLine
10
221.950000000000
20
254.850000000000
30
0.0
11
225.670000000000
21
254.850000000000
31
0.0
0
POLYLINE
5
5fe
100
AcDbEntity
8
0-1
6
CONTINUOUS
62
  4
100
AcDb2dPolyline
66
1
10
0.0
20
0.0
30
0.0
70
0
0
VERTEX
5
5ff
100
AcDbEntity
8
0-1
6
CONTINUOUS
62
  4
100
AcDbVertex
100
AcDb2dVertex
10
78.670000000000
20
256.430000000000
30
0.0
0
VERTEX
5
600
100
AcDbEntity
8
0-1
6
CONTINUOUS
62
  4
100
AcDbVertex
100
AcDb2dVertex
10
78.690000000000
20
256.200000000000
30
0.0
0
VERTEX
5
601
100
AcDbEntity
8
0-1
6
CONTINUOUS
62
  4
100
AcDbVertex
100
AcDb2dVertex
10
78.730000000000
20
255.970000000000
30
0.0
0
VERTEX
5
602
100
AcDbEntity
8
0-1
6
CONTINUOUS
62
  4
100
AcDbVertex
100
AcDb2dVertex
10
78.800000000000
20
255.750000000000
30
0.0
0
VERTEX
5
603
100
AcDbEntity
8
0-1
6
CONTINUOUS
62
  4
100
AcDbVertex
100
AcDb2dVertex
10
78.900000000000
20
255.530000000000
30
0.0
0
VERTEX
5
604
100
AcDbEntity
8
0-1
6
CONTINUOUS
62
  4
100
AcDbVertex
100
AcDb2dVertex
10
79.030000000000
20
255.330000000000
30
0.0
0
VERTEX
5
605
100
AcDbEntity
8
0-1
6
CONTINUOUS
62
  4
100
AcDbVertex
100
AcDb2dVertex
10
79.180000000000
20
255.130000000000
30
0.0
0
VERTEX
5
606
100
AcDbEntity
8
0-1
6
CONTINUOUS
62
  4
100
AcDbVertex
100
AcDb2dVertex
10
79.360000000000
20
254.950000000000
30
0.0
0
VERTEX
5
607
100
AcDbEntity
8
0-1
6
CONTINUOUS
62
  4
100
AcDbVertex
100
AcDb2dVertex
10
79.550000000000
20
254.780000000000
30
0.0
0
VERTEX
5
608
100
AcDbEntity
8
0-1
6
CONTINUOUS
62
  4
100
AcDbVertex
100
AcDb2dVertex
10
79.770000000000
20
254.620000000000
30
0.0
0
VERTEX
5
609
100
AcDbEntity
8
0-1
6
CONTINUOUS
62
  4
100
AcDbVertex
100
AcDb2dVertex
10
80.010000000000
20
254.490000000000
30
0.0
0
VERTEX
5
60a
100
AcDbEntity
8
0-1
6
CONTINUOUS
62
  4
100
AcDbVertex
100
AcDb2dVertex
10
80.260000000000
20
254.370000000000
30
0.0
0
VERTEX
5
60b
100
AcDbEntity
8
0-1
6
CONTINUOUS
62
  4
100
AcDbVertex
100
AcDb2dVertex
10
80.530000000000
20
254.270000000000
30
0.0
0
VERTEX
5
60c
100
AcDbEntity
8
0-1
6
CONTINUOUS
62
  4
100
AcDbVertex
100
AcDb2dVertex
10
80.800000000000
20
254.200000000000
30
0.0
0
VERTEX
5
60d
100
AcDbEntity
8
0-1
6
CONTINUOUS
62
  4
100
AcDbVertex
100
AcDb2dVertex
10
81.090000000000
20
254.140000000000
30
0.0
0
VERTEX
5
60e
100
AcDbEntity
8
0-1
6
CONTINUOUS
62
  4
100
AcDbVertex
100
AcDb2dVertex
10
81.380000000000
20
254.110000000000
30
0.0
0
VERTEX
5
60f
100
AcDbEntity
8
0-1
6
CONTINUOUS
62
  4
100
AcDbVertex
100
AcDb2dVertex
10
81.670000000000
20
254.090000000000
30
0.0
0
SEQEND
5
610
100
AcDbEntity
8
0-1
0
POLYLINE
5
611
100
AcDbEntity
8
0-1
6
CONTINUOUS
62
  4
100
AcDb2dPolyline
66
1
10
0.0
20
0.0
30
0.0
70
0
0
VERTEX
5
612
100
AcDbEntity
8
0-1
6
CONTINUOUS
62
  4
100
AcDbVertex
100
AcDb2dVertex
10
78.670000000000
20
257.180000000000
30
0.0
0
VERTEX
5
613
100
AcDbEntity
8
0-1
6
CONTINUOUS
62
  4
100
AcDbVertex
100
AcDb2dVertex
10
78.690000000000
20
256.950000000000
30
0.0
0
VERTEX
5
614
100
AcDbEntity
8
0-1
6
CONTINUOUS
62
  4
100
AcDbVertex
100
AcDb2dVertex
10
78.730000000000
20
256.730000000000
30
0.0
0
VERTEX
5
615
100
AcDbEntity
8
0-1
6
CONTINUOUS
62
  4
100
AcDbVertex
100
AcDb2dVertex
10
78.800000000000
20
256.500000000000
30
0.0
0
VERTEX
5
616
100
AcDbEntity
8
0-1
6
CONTINUOUS
62
  4
100
AcDbVertex
100
AcDb2dVertex
10
78.900000000000
20
256.290000000000
30
0.0
0
VERTEX
5
617
100
AcDbEntity
8
0-1
6
CONTINUOUS
62
  4
100
AcDbVertex
100
AcDb2dVertex
10
79.030000000000
20
256.080000000000
30
0.0
0
VERTEX
5
618
100
AcDbEntity
8
0-1
6
CONTINUOUS
62
  4
100
AcDbVertex
100
AcDb2dVertex
10
79.180000000000
20
255.890000000000
30
0.0
0
VERTEX
5
619
100
AcDbEntity
8
0-1
6
CONTINUOUS
62
  4
100
AcDbVertex
100
AcDb2dVertex
10
79.360000000000
20
255.700000000000
30
0.0
0
VERTEX
5
61a
100
AcDbEntity
8
0-1
6
CONTINUOUS
62
  4
100
AcDbVertex
100
AcDb2dVertex
10
79.550000000000
20
255.530000000000
30
0.0
0
VERTEX
5
61b
100
AcDbEntity
8
0-1
6
CONTINUOUS
62
  4
100
AcDbVertex
100
AcDb2dVertex
10
79.770000000000
20
255.380000000000
30
0.0
0
VERTEX
5
61c
100
AcDbEntity
8
0-1
6
CONTINUOUS
62
  4
100
AcDbVertex
100
AcDb2dVertex
10
80.010000000000
20
255.240000000000
30
0.0
0
VERTEX
5
61d
100
AcDbEntity
8
0-1
6
CONTINUOUS
62
  4
100
AcDbVertex
100
AcDb2dVertex
10
80.260000000000
20
255.130000000000
30
0.0
0
VERTEX
5
61e
100
AcDbEntity
8
0-1
6
CONTINUOUS
62
  4
100
AcDbVertex
100
AcDb2dVertex
10
80.530000000000
20
255.030000000000
30
0.0
0
VERTEX
5
61f
100
AcDbEntity
8
0-1
6
CONTINUOUS
62
  4
100
AcDbVertex
100
AcDb2dVertex
10
80.800000000000
20
254.950000000000
30
0.0
0
VERTEX
5
620
100
AcDbEntity
8
0-1
6
CONTINUOUS
62
  4
100
AcDbVertex
100
AcDb2dVertex
10
81.090000000000
20
254.890000000000
30
0.0
0
VERTEX
5
621
100
AcDbEntity
8
0-1
6
CONTINUOUS
62
  4
100
AcDbVertex
100
AcDb2dVertex
10
81.380000000000
20
254.860000000000
30
0.0
0
VERTEX
5
622
100
AcDbEntity
8
0-1
6
CONTINUOUS
62
  4
100
AcDbVertex
100
AcDb2dVertex
10
81.670000000000
20
254.850000000000
30
0.0
0
SEQEND
5
623
100
AcDbEntity
8
0-1
0
POLYLINE
5
624
100
AcDbEntity
8
0-1
6
CONTINUOUS
62
  4
100
AcDb2dPolyline
66
1
10
0.0
20
0.0
30
0.0
70
0
0
VERTEX
5
625
100
AcDbEntity
8
0-1
6
CONTINUOUS
62
  4
100
AcDbVertex
100
AcDb2dVertex
10
225.670000000000
20
254.090000000000
30
0.0
0
VERTEX
5
626
100
AcDbEntity
8
0-1
6
CONTINUOUS
62
  4
100
AcDbVertex
100
AcDb2dVertex
10
225.970000000000
20
254.110000000000
30
0.0
0
VERTEX
5
627
100
AcDbEntity
8
0-1
6
CONTINUOUS
62
  4
100
AcDbVertex
100
AcDb2dVertex
10
226.260000000000
20
254.140000000000
30
0.0
0
VERTEX
5
628
100
AcDbEntity
8
0-1
6
CONTINUOUS
62
  4
100
AcDbVertex
100
AcDb2dVertex
10
226.550000000000
20
254.200000000000
30
0.0
0
VERTEX
5
629
100
AcDbEntity
8
0-1
6
CONTINUOUS
62
  4
100
AcDbVertex
100
AcDb2dVertex
10
226.820000000000
20
254.270000000000
30
0.0
0
VERTEX
5
62a
100
AcDbEntity
8
0-1
6
CONTINUOUS
62
  4
100
AcDbVertex
100
AcDb2dVertex
10
227.090000000000
20
254.370000000000
30
0.0
0
VERTEX
5
62b
100
AcDbEntity
8
0-1
6
CONTINUOUS
62
  4
100
AcDbVertex
100
AcDb2dVertex
10
227.340000000000
20
254.490000000000
30
0.0
0
VERTEX
5
62c
100
AcDbEntity
8
0-1
6
CONTINUOUS
62
  4
100
AcDbVertex
100
AcDb2dVertex
10
227.580000000000
20
254.620000000000
30
0.0
0
VERTEX
5
62d
100
AcDbEntity
8
0-1
6
CONTINUOUS
62
  4
100
AcDbVertex
100
AcDb2dVertex
10
227.800000000000
20
254.780000000000
30
0.0
0
VERTEX
5
62e
100
AcDbEntity
8
0-1
6
CONTINUOUS
62
  4
100
AcDbVertex
100
AcDb2dVertex
10
227.990000000000
20
254.950000000000
30
0.0
0
VERTEX
5
62f
100
AcDbEntity
8
0-1
6
CONTINUOUS
62
  4
100
AcDbVertex
100
AcDb2dVertex
10
228.170000000000
20
255.130000000000
30
0.0
0
VERTEX
5
630
100
AcDbEntity
8
0-1
6
CONTINUOUS
62
  4
100
AcDbVertex
100
AcDb2dVertex
10
228.320000000000
20
255.330000000000
30
0.0
0
VERTEX
5
631
100
AcDbEntity
8
0-1
6
CONTINUOUS
62
  4
100
AcDbVertex
100
AcDb2dVertex
10
228.450000000000
20
255.530000000000
30
0.0
0
VERTEX
5
632
100
AcDbEntity
8
0-1
6
CONTINUOUS
62
  4
100
AcDbVertex
100
AcDb2dVertex
10
228.550000000000
20
255.750000000000
30
0.0
0
VERTEX
5
633
100
AcDbEntity
8
0-1
6
CONTINUOUS
62
  4
100
AcDbVertex
100
AcDb2dVertex
10
228.620000000000
20
255.970000000000
30
0.0
0
VERTEX
5
634
100
AcDbEntity
8
0-1
6
CONTINUOUS
62
  4
100
AcDbVertex
100
AcDb2dVertex
10
228.660000000000
20
256.200000000000
30
0.0
0
VERTEX
5
635
100
AcDbEntity
8
0-1
6
CONTINUOUS
62
  4
100
AcDbVertex
100
AcDb2dVertex
10
228.670000000000
20
256.430000000000
30
0.0
0
SEQEND
5
636
100
AcDbEntity
8
0-1
0
POLYLINE
5
637
100
AcDbEntity
8
0-1
6
CONTINUOUS
62
  4
100
AcDb2dPolyline
66
1
10
0.0
20
0.0
30
0.0
70
0
0
VERTEX
5
638
100
AcDbEntity
8
0-1
6
CONTINUOUS
62
  4
100
AcDbVertex
100
AcDb2dVertex
10
225.670000000000
20
254.850000000000
30
0.0
0
VERTEX
5
639
100
AcDbEntity
8
0-1
6
CONTINUOUS
62
  4
100
AcDbVertex
100
AcDb2dVertex
10
225.970000000000
20
254.860000000000
30
0.0
0
VERTEX
5
63a
100
AcDbEntity
8
0-1
6
CONTINUOUS
62
  4
100
AcDbVertex
100
AcDb2dVertex
10
226.260000000000
20
254.890000000000
30
0.0
0
VERTEX
5
63b
100
AcDbEntity
8
0-1
6
CONTINUOUS
62
  4
100
AcDbVertex
100
AcDb2dVertex
10
226.550000000000
20
254.950000000000
30
0.0
0
VERTEX
5
63c
100
AcDbEntity
8
0-1
6
CONTINUOUS
62
  4
100
AcDbVertex
100
AcDb2dVertex
10
226.820000000000
20
255.030000000000
30
0.0
0
VERTEX
5
63d
100
AcDbEntity
8
0-1
6
CONTINUOUS
62
  4
100
AcDbVertex
100
AcDb2dVertex
10
227.090000000000
20
255.130000000000
30
0.0
0
VERTEX
5
63e
100
AcDbEntity
8
0-1
6
CONTINUOUS
62
  4
100
AcDbVertex
100
AcDb2dVertex
10
227.340000000000
20
255.240000000000
30
0.0
0
VERTEX
5
63f
100
AcDbEntity
8
0-1
6
CONTINUOUS
62
  4
100
AcDbVertex
100
AcDb2dVertex
10
227.580000000000
20
255.380000000000
30
0.0
0
VERTEX
5
640
100
AcDbEntity
8
0-1
6
CONTINUOUS
62
  4
100
AcDbVertex
100
AcDb2dVertex
10
227.800000000000
20
255.530000000000
30
0.0
0
VERTEX
5
641
100
AcDbEntity
8
0-1
6
CONTINUOUS
62
  4
100
AcDbVertex
100
AcDb2dVertex
10
227.990000000000
20
255.700000000000
30
0.0
0
VERTEX
5
642
100
AcDbEntity
8
0-1
6
CONTINUOUS
62
  4
100
AcDbVertex
100
AcDb2dVertex
10
228.170000000000
20
255.890000000000
30
0.0
0
VERTEX
5
643
100
AcDbEntity
8
0-1
6
CONTINUOUS
62
  4
100
AcDbVertex
100
AcDb2dVertex
10
228.320000000000
20
256.080000000000
30
0.0
0
VERTEX
5
644
100
AcDbEntity
8
0-1
6
CONTINUOUS
62
  4
100
AcDbVertex
100
AcDb2dVertex
10
228.450000000000
20
256.290000000000
30
0.0
0
VERTEX
5
645
100
AcDbEntity
8
0-1
6
CONTINUOUS
62
  4
100
AcDbVertex
100
AcDb2dVertex
10
228.550000000000
20
256.500000000000
30
0.0
0
VERTEX
5
646
100
AcDbEntity
8
0-1
6
CONTINUOUS
62
  4
100
AcDbVertex
100
AcDb2dVertex
10
228.620000000000
20
256.730000000000
30
0.0
0
VERTEX
5
647
100
AcDbEntity
8
0-1
6
CONTINUOUS
62
  4
100
AcDbVertex
100
AcDb2dVertex
10
228.660000000000
20
256.950000000000
30
0.0
0
VERTEX
5
648
100
AcDbEntity
8
0-1
6
CONTINUOUS
62
  4
100
AcDbVertex
100
AcDb2dVertex
10
228.670000000000
20
257.180000000000
30
0.0
0
SEQEND
5
649
100
AcDbEntity
8
0-1
0
LINE
5
64a
100
AcDbEntity
8
0-0
6
CONTINUOUS
62
7
100
AcDbLine
10
696.440000000000
20
481.010000000000
30
0.0
11
696.440000000000
21
480.010000000000
31
0.0
0
LINE
5
64b
100
AcDbEntity
8
0-0
6
CONTINUOUS
62
7
100
AcDbLine
10
705.440000000000
20
481.010000000000
30
0.0
11
696.440000000000
21
481.010000000000
31
0.0
0
LINE
5
64c
100
AcDbEntity
8
0-0
6
CONTINUOUS
62
7
100
AcDbLine
10
705.440000000000
20
480.010000000000
30
0.0
11
696.440000000000
21
480.010000000000
31
0.0
0
LINE
5
64d
100
AcDbEntity
8
0-0
6
CONTINUOUS
62
7
100
AcDbLine
10
410.440000000000
20
464.150000000000
30
0.0
11
410.440000000000
21
482.210000000000
31
0.0
0
LINE
5
64e
100
AcDbEntity
8
0-0
6
CONTINUOUS
62
7
100
AcDbLine
10
409.440000000000
20
482.210000000000
30
0.0
11
409.440000000000
21
464.150000000000
31
0.0
0
LINE
5
64f
100
AcDbEntity
8
0-0
6
CONTINUOUS
62
7
100
AcDbLine
10
706.440000000000
20
464.150000000000
30
0.0
11
706.440000000000
21
479.010000000000
31
0.0
0
LINE
5
650
100
AcDbEntity
8
0-0
6
CONTINUOUS
62
7
100
AcDbLine
10
707.440000000000
20
479.010000000000
30
0.0
11
707.440000000000
21
464.150000000000
31
0.0
0
LINE
5
651
100
AcDbEntity
8
0-0
6
CONTINUOUS
62
7
100
AcDbLine
10
508.360000000000
20
372.310000000000
30
0.0
11
557.940000000000
21
372.310000000000
31
0.0
0
LINE
5
652
100
AcDbEntity
8
0-0
6
CONTINUOUS
62
7
100
AcDbLine
10
508.360000000000
20
371.310000000000
30
0.0
11
557.940000000000
21
371.310000000000
31
0.0
0
LINE
5
653
100
AcDbEntity
8
0-0
6
CONTINUOUS
62
7
100
AcDbLine
10
439.460000000000
20
460.280000000000
30
0.0
11
411.300000000000
21
462.150000000000
31
0.0
0
LINE
5
654
100
AcDbEntity
8
0-0
6
CONTINUOUS
62
7
100
AcDbLine
10
440.190000000000
20
459.880000000000
30
0.0
11
506.760000000000
21
372.110000000000
31
0.0
0
LINE
5
655
100
AcDbEntity
8
0-0
6
CONTINUOUS
62
7
100
AcDbLine
10
411.370000000000
20
463.150000000000
30
0.0
11
439.530000000000
21
461.280000000000
31
0.0
0
LINE
5
656
100
AcDbEntity
8
0-0
6
CONTINUOUS
62
7
100
AcDbLine
10
507.560000000000
20
372.710000000000
30
0.0
11
440.990000000000
21
460.490000000000
31
0.0
0
LINE
5
657
100
AcDbEntity
8
0-0
6
CONTINUOUS
62
4
100
AcDbLine
10
387.910000000000
20
466.690000000000
30
0.0
11
380.370000000000
21
466.690000000000
31
0.0
0
LINE
5
658
100
AcDbEntity
8
0-0
6
CONTINUOUS
62
4
100
AcDbLine
10
387.910000000000
20
484.210000000000
30
0.0
11
380.370000000000
21
484.210000000000
31
0.0
0
LINE
5
659
100
AcDbEntity
8
0-0
6
CONTINUOUS
62
4
100
AcDbLine
10
459.570000000000
20
461.210000000000
30
0.0
11
459.570000000000
21
463.210000000000
31
0.0
0
LINE
5
65a
100
AcDbEntity
8
0-0
6
CONTINUOUS
62
4
100
AcDbLine
10
448.710000000000
20
461.210000000000
30
0.0
11
459.570000000000
21
461.210000000000
31
0.0
0
POLYLINE
5
65b
100
AcDbEntity
8
0-0
6
CONTINUOUS
62
  4
100
AcDb2dPolyline
66
1
10
0.0
20
0.0
30
0.0
70
0
0
VERTEX
5
65c
100
AcDbEntity
8
0-0
6
CONTINUOUS
62
  4
100
AcDbVertex
100
AcDb2dVertex
10
448.710000000000
20
463.210000000000
30
0.0
0
VERTEX
5
65d
100
AcDbEntity
8
0-0
6
CONTINUOUS
62
  4
100
AcDbVertex
100
AcDb2dVertex
10
459.570000000000
20
463.210000000000
30
0.0
0
VERTEX
5
65e
100
AcDbEntity
8
0-0
6
CONTINUOUS
62
  4
100
AcDbVertex
100
AcDb2dVertex
10
459.570000000000
20
484.210000000000
30
0.0
0
SEQEND
5
65f
100
AcDbEntity
8
0-0
0
LINE
5
660
100
AcDbEntity
8
0-0
6
CONTINUOUS
62
4
100
AcDbLine
10
448.710000000000
20
484.210000000000
30
0.0
11
459.570000000000
21
484.210000000000
31
0.0
0
LINE
5
661
100
AcDbEntity
8
0-0
6
CONTINUOUS
62
4
100
AcDbLine
10
410.440000000000
20
498.750000000000
30
0.0
11
440.440000000000
21
498.750000000000
31
0.0
0
LINE
5
662
100
AcDbEntity
8
0-0
6
CONTINUOUS
62
4
100
AcDbLine
10
707.440000000000
20
452.300000000000
30
0.0
11
707.440000000000
21
442.750000000000
31
0.0
0
LINE
5
663
100
AcDbEntity
8
0-0
6
CONTINUOUS
62
4
100
AcDbLine
10
696.440000000000
20
498.750000000000
30
0.0
11
707.440000000000
21
498.750000000000
31
0.0
0
LINE
5
664
100
AcDbEntity
8
0-0
6
CONTINUOUS
62
4
100
AcDbLine
10
721.510000000000
20
481.010000000000
30
0.0
11
721.510000000000
21
463.150000000000
31
0.0
0
LINE
5
665
100
AcDbEntity
8
0-0
6
CONTINUOUS
62
4
100
AcDbLine
10
713.960000000000
20
481.010000000000
30
0.0
11
721.510000000000
21
481.010000000000
31
0.0
0
LINE
5
666
100
AcDbEntity
8
0-0
6
CONTINUOUS
62
4
100
AcDbLine
10
713.960000000000
20
463.150000000000
30
0.0
11
721.510000000000
21
463.150000000000
31
0.0
0
LINE
5
667
100
AcDbEntity
8
0-0
6
CONTINUOUS
62
4
100
AcDbLine
10
440.440000000000
20
489.250000000000
30
0.0
11
440.440000000000
21
498.750000000000
31
0.0
0
LINE
5
668
100
AcDbEntity
8
0-0
6
CONTINUOUS
62
4
100
AcDbLine
10
410.440000000000
20
489.250000000000
30
0.0
11
410.440000000000
21
498.750000000000
31
0.0
0
LINE
5
669
100
AcDbEntity
8
0-0
6
CONTINUOUS
62
4
100
AcDbLine
10
696.440000000000
20
489.250000000000
30
0.0
11
696.440000000000
21
498.750000000000
31
0.0
0
LINE
5
66a
100
AcDbEntity
8
0-0
6
CONTINUOUS
62
4
100
AcDbLine
10
707.440000000000
20
489.250000000000
30
0.0
11
707.440000000000
21
498.750000000000
31
0.0
0
LINE
5
66b
100
AcDbEntity
8
0-2
6
CONTINUOUS
62
4
100
AcDbLine
10
407.940000000000
20
299.080000000000
30
0.0
11
707.940000000000
21
299.080000000000
31
0.0
0
LINE
5
66c
100
AcDbEntity
8
0-0
6
CONTINUOUS
62
4
100
AcDbLine
10
507.940000000000
20
352.930000000000
30
0.0
11
607.940000000000
21
352.930000000000
31
0.0
0
LINE
5
66d
100
AcDbEntity
8
0-0
6
CONTINUOUS
62
4
100
AcDbLine
10
507.940000000000
20
362.430000000000
30
0.0
11
507.940000000000
21
352.930000000000
31
0.0
0
LINE
5
66e
100
AcDbEntity
8
0-0
6
CONTINUOUS
62
4
100
AcDbLine
10
607.940000000000
20
362.430000000000
30
0.0
11
607.940000000000
21
352.930000000000
31
0.0
0
LINE
5
66f
100
AcDbEntity
8
0-2
6
CONTINUOUS
62
4
100
AcDbLine
10
707.940000000000
20
277.960000000000
30
0.0
11
707.940000000000
21
299.080000000000
31
0.0
0
LINE
5
670
100
AcDbEntity
8
0-2
6
CONTINUOUS
62
4
100
AcDbLine
10
407.940000000000
20
277.960000000000
30
0.0
11
407.940000000000
21
299.080000000000
31
0.0
0
LINE
5
671
100
AcDbEntity
8
0-2
6
CONTINUOUS
62
7
100
AcDbLine
10
347.940000000000
20
203.530000000000
30
0.0
11
378.890000000000
21
242.100000000000
31
0.0
0
LINE
5
672
100
AcDbEntity
8
0-2
6
CONTINUOUS
62
7
100
AcDbLine
10
379.670000000000
20
241.480000000000
30
0.0
11
347.940000000000
21
201.940000000000
31
0.0
0
LINE
5
673
100
AcDbEntity
8
0-2
6
CONTINUOUS
62
4
100
AcDbLine
10
347.940000000000
20
201.580000000000
30
0.0
11
365.520000000000
21
219.170000000000
31
0.0
0
LINE
5
674
100
AcDbEntity
8
0-2
6
CONTINUOUS
62
3
100
AcDbLine
10
347.940000000000
20
195.860000000000
30
0.0
11
380.760000000000
21
239.360000000000
31
0.0
0
LINE
5
675
100
AcDbEntity
8
0-2
6
CONTINUOUS
62
4
100
AcDbLine
10
347.940000000000
20
198.570000000000
30
0.0
11
349.100000000000
21
197.410000000000
31
0.0
0
LINE
5
676
100
AcDbEntity
8
0-2
6
CONTINUOUS
62
3
100
AcDbLine
10
347.940000000000
20
186.960000000000
30
0.0
11
383.530000000000
21
234.140000000000
31
0.0
0
LINE
5
677
100
AcDbEntity
8
0-2
6
CONTINUOUS
62
3
100
AcDbLine
10
347.940000000000
20
182.930000000000
30
0.0
11
385.570000000000
21
232.820000000000
31
0.0
0
LINE
5
678
100
AcDbEntity
8
0-2
6
CONTINUOUS
62
7
100
AcDbLine
10
767.940000000000
20
206.330000000000
30
0.0
11
740.990000000000
21
241.860000000000
31
0.0
0
LINE
5
679
100
AcDbEntity
8
0-2
6
CONTINUOUS
62
7
100
AcDbLine
10
740.190000000000
20
241.260000000000
30
0.0
11
767.940000000000
21
204.670000000000
31
0.0
0
LINE
5
67a
100
AcDbEntity
8
0-2
6
CONTINUOUS
62
4
100
AcDbLine
10
766.510000000000
20
199.940000000000
30
0.0
11
767.940000000000
21
201.370000000000
31
0.0
0
LINE
5
67b
100
AcDbEntity
8
0-2
6
CONTINUOUS
62
4
100
AcDbLine
10
765.660000000000
20
201.060000000000
30
0.0
11
767.940000000000
21
198.780000000000
31
0.0
0
LINE
5
67c
100
AcDbEntity
8
0-2
6
CONTINUOUS
62
4
100
AcDbLine
10
737.830000000000
20
237.750000000000
30
0.0
11
767.940000000000
21
198.060000000000
31
0.0
0
LINE
5
67d
100
AcDbEntity
8
0-2
6
CONTINUOUS
62
3
100
AcDbLine
10
767.940000000000
20
195.860000000000
30
0.0
11
767.510000000000
21
196.420000000000
31
0.0
0
LINE
5
67e
100
AcDbEntity
8
0-2
6
CONTINUOUS
62
3
100
AcDbLine
10
767.940000000000
20
186.960000000000
30
0.0
11
756.280000000000
21
202.410000000000
31
0.0
0
LINE
5
67f
100
AcDbEntity
8
0-2
6
CONTINUOUS
62
3
100
AcDbLine
10
767.940000000000
20
182.930000000000
30
0.0
11
754.320000000000
21
200.980000000000
31
0.0
0
POLYLINE
5
680
100
AcDbEntity
8
0-1
6
CONTINUOUS
62
  3
100
AcDb2dPolyline
66
1
10
0.0
20
0.0
30
0.0
70
0
0
VERTEX
5
681
100
AcDbEntity
8
0-1
6
CONTINUOUS
62
  3
100
AcDbVertex
100
AcDb2dVertex
10
108.670000000000
20
142.690000000000
30
0.0
0
VERTEX
5
682
100
AcDbEntity
8
0-1
6
CONTINUOUS
62
  3
100
AcDbVertex
100
AcDb2dVertex
10
108.680000000000
20
134.690000000000
30
0.0
0
VERTEX
5
683
100
AcDbEntity
8
0-1
6
CONTINUOUS
62
  3
100
AcDbVertex
100
AcDb2dVertex
10
142.930000000000
20
134.690000000000
30
0.0
0
SEQEND
5
684
100
AcDbEntity
8
0-1
0
LINE
5
685
100
AcDbEntity
8
0-1
6
CONTINUOUS
62
3
100
AcDbLine
10
150.920000000000
20
55.190000000000
30
0.0
11
150.930000000000
21
126.690000000000
31
0.0
0
POLYLINE
5
686
100
AcDbEntity
8
0-1
6
CONTINUOUS
62
  3
100
AcDb2dPolyline
66
1
10
0.0
20
0.0
30
0.0
70
0
0
VERTEX
5
687
100
AcDbEntity
8
0-1
6
CONTINUOUS
62
  3
100
AcDbVertex
100
AcDb2dVertex
10
198.670000000000
20
142.690000000000
30
0.0
0
VERTEX
5
688
100
AcDbEntity
8
0-1
6
CONTINUOUS
62
  3
100
AcDbVertex
100
AcDb2dVertex
10
198.670000000000
20
134.690000000000
30
0.0
0
VERTEX
5
689
100
AcDbEntity
8
0-1
6
CONTINUOUS
62
  3
100
AcDbVertex
100
AcDb2dVertex
10
164.420000000000
20
134.690000000000
30
0.0
0
SEQEND
5
68a
100
AcDbEntity
8
0-1
0
LINE
5
68b
100
AcDbEntity
8
0-1
6
CONTINUOUS
62
3
100
AcDbLine
10
198.670000000000
20
142.690000000000
30
0.0
11
110.970000000000
21
142.690000000000
31
0.0
0
LINE
5
68c
100
AcDbEntity
8
0-1
6
CONTINUOUS
62
3
100
AcDbLine
10
156.420000000000
20
55.190000000000
30
0.0
11
156.420000000000
21
126.690000000000
31
0.0
0
LINE
5
68d
100
AcDbEntity
8
F-E_J_ADD
6
HIDDEN
62
3
100
AcDbLine
10
110.970000000000
20
142.690000000000
30
0.0
11
106.570000000000
21
142.690000000000
31
0.0
0
LINE
5
68e
100
AcDbEntity
8
0-0
6
CONTINUOUS
62
4
100
AcDbLine
10
486.610000000000
20
463.210000000000
30
0.0
11
532.940000000000
21
463.210000000000
31
0.0
0
LINE
5
68f
100
AcDbEntity
8
0-1
6
CONTINUOUS
62
7
100
AcDbLine
10
253.670000000000
20
152.590000000000
30
0.0
11
53.670000000000
21
152.590000000000
31
0.0
0
LINE
5
690
100
AcDbEntity
8
0-1
6
CONTINUOUS
62
7
100
AcDbLine
10
253.670000000000
20
242.590000000000
30
0.0
11
53.670000000000
21
242.590000000000
31
0.0
0
LINE
5
691
100
AcDbEntity
8
0-1
6
CONTINUOUS
62
7
100
AcDbLine
10
253.670000000000
20
265.590000000000
30
0.0
11
53.670000000000
21
265.590000000000
31
0.0
0
LINE
5
692
100
AcDbEntity
8
0-1
6
DOT
62
7
100
AcDbLine
10
253.670000000000
20
262.390000000000
30
0.0
11
53.670000000000
21
262.390000000000
31
0.0
0
POLYLINE
5
693
100
AcDbEntity
8
0-2
6
CONTINUOUS
62
  4
100
AcDb2dPolyline
66
1
10
0.0
20
0.0
30
0.0
70
0
0
VERTEX
5
694
100
AcDbEntity
8
0-2
6
CONTINUOUS
62
  4
100
AcDbVertex
100
AcDb2dVertex
10
707.940000000000
20
299.080000000000
30
0.0
0
VERTEX
5
695
100
AcDbEntity
8
0-2
6
CONTINUOUS
62
  4
100
AcDbVertex
100
AcDb2dVertex
10
787.940000000000
20
299.080000000000
30
0.0
0
VERTEX
5
696
100
AcDbEntity
8
0-2
6
CONTINUOUS
62
  4
100
AcDbVertex
100
AcDb2dVertex
10
785.040000000000
20
298.300000000000
30
0.0
0
SEQEND
5
697
100
AcDbEntity
8
0-2
0
POLYLINE
5
698
100
AcDbEntity
8
0-2
6
CONTINUOUS
62
  4
100
AcDb2dPolyline
66
1
10
0.0
20
0.0
30
0.0
70
0
0
VERTEX
5
699
100
AcDbEntity
8
0-2
6
CONTINUOUS
62
  4
100
AcDbVertex
100
AcDb2dVertex
10
787.940000000000
20
299.080000000000
30
0.0
0
VERTEX
5
69a
100
AcDbEntity
8
0-2
6
CONTINUOUS
62
  4
100
AcDbVertex
100
AcDb2dVertex
10
785.040000000000
20
299.850000000000
30
0.0
0
VERTEX
5
69b
100
AcDbEntity
8
0-2
6
CONTINUOUS
62
  4
100
AcDbVertex
100
AcDb2dVertex
10
782.140000000000
20
300.630000000000
30
0.0
0
SEQEND
5
69c
100
AcDbEntity
8
0-2
0
LINE
5
69d
100
AcDbEntity
8
0-2
6
CONTINUOUS
62
4
100
AcDbLine
10
785.040000000000
20
298.300000000000
30
0.0
11
782.140000000000
21
297.520000000000
31
0.0
0
LINE
5
69e
100
AcDbEntity
8
0-2
6
CONTINUOUS
62
4
100
AcDbLine
10
327.940000000000
20
299.080000000000
30
0.0
11
330.840000000000
21
298.300000000000
31
0.0
0
POLYLINE
5
69f
100
AcDbEntity
8
0-2
6
CONTINUOUS
62
  4
100
AcDb2dPolyline
66
1
10
0.0
20
0.0
30
0.0
70
0
0
VERTEX
5
6a0
100
AcDbEntity
8
0-2
6
CONTINUOUS
62
  4
100
AcDbVertex
100
AcDb2dVertex
10
327.940000000000
20
299.080000000000
30
0.0
0
VERTEX
5
6a1
100
AcDbEntity
8
0-2
6
CONTINUOUS
62
  4
100
AcDbVertex
100
AcDb2dVertex
10
330.840000000000
20
299.850000000000
30
0.0
0
VERTEX
5
6a2
100
AcDbEntity
8
0-2
6
CONTINUOUS
62
  4
100
AcDbVertex
100
AcDb2dVertex
10
333.730000000000
20
300.630000000000
30
0.0
0
SEQEND
5
6a3
100
AcDbEntity
8
0-2
0
LINE
5
6a4
100
AcDbEntity
8
0-2
6
CONTINUOUS
62
4
100
AcDbLine
10
330.840000000000
20
298.300000000000
30
0.0
11
333.730000000000
21
297.520000000000
31
0.0
0
LINE
5
6a5
100
AcDbEntity
8
0-2
6
CONTINUOUS
62
4
100
AcDbLine
10
407.940000000000
20
299.080000000000
30
0.0
11
327.940000000000
21
299.080000000000
31
0.0
0
LINE
5
6a6
100
AcDbEntity
8
0-1
6
CONTINUOUS
62
4
100
AcDbLine
10
78.670000000000
20
299.080000000000
30
0.0
11
228.670000000000
21
299.080000000000
31
0.0
0
LINE
5
6a7
100
AcDbEntity
8
0-1
6
CONTINUOUS
62
4
100
AcDbLine
10
228.670000000000
20
277.960000000000
30
0.0
11
228.670000000000
21
299.080000000000
31
0.0
0
LINE
5
6a8
100
AcDbEntity
8
0-1
6
CONTINUOUS
62
4
100
AcDbLine
10
78.670000000000
20
277.960000000000
30
0.0
11
78.670000000000
21
299.080000000000
31
0.0
0
LINE
5
6a9
100
AcDbEntity
8
0-1
6
CONTINUOUS
62
4
100
AcDbLine
10
133.670000000000
20
173.400000000000
30
0.0
11
173.670000000000
21
173.400000000000
31
0.0
0
LINE
5
6aa
100
AcDbEntity
8
0-1
6
CENTER2
62
7
100
AcDbLine
10
153.670000000000
20
55.190000000000
30
0.0
11
153.670000000000
21
168.960000000000
31
0.0
0
LINE
5
6ab
100
AcDbEntity
8
0-1
6
CENTER2
62
7
100
AcDbLine
10
153.670000000000
20
183.070000000000
30
0.0
11
153.670000000000
21
238.860000000000
31
0.0
0
POLYLINE
5
6ac
100
AcDbEntity
8
0-1
6
CONTINUOUS
62
  4
100
AcDb2dPolyline
66
1
10
0.0
20
0.0
30
0.0
70
0
0
VERTEX
5
6ad
100
AcDbEntity
8
0-1
6
CONTINUOUS
62
  4
100
AcDbVertex
100
AcDb2dVertex
10
278.290000000000
20
142.690000000000
30
0.0
0
VERTEX
5
6ae
100
AcDbEntity
8
0-1
6
CONTINUOUS
62
  4
100
AcDbVertex
100
AcDb2dVertex
10
278.290000000000
20
152.590000000000
30
0.0
0
VERTEX
5
6af
100
AcDbEntity
8
0-1
6
CONTINUOUS
62
  4
100
AcDbVertex
100
AcDb2dVertex
10
278.290000000000
20
242.590000000000
30
0.0
0
VERTEX
5
6b0
100
AcDbEntity
8
0-1
6
CONTINUOUS
62
  4
100
AcDbVertex
100
AcDb2dVertex
10
278.290000000000
20
265.590000000000
30
0.0
0
SEQEND
5
6b1
100
AcDbEntity
8
0-1
0
LINE
5
6b2
100
AcDbEntity
8
0-1
6
CONTINUOUS
62
4
100
AcDbLine
10
263.290000000000
20
242.590000000000
30
0.0
11
278.290000000000
21
242.590000000000
31
0.0
0
LINE
5
6b3
100
AcDbEntity
8
0-1
6
CONTINUOUS
62
4
100
AcDbLine
10
263.290000000000
20
265.590000000000
30
0.0
11
278.290000000000
21
265.590000000000
31
0.0
0
LINE
5
6b4
100
AcDbEntity
8
0-1
6
CONTINUOUS
62
4
100
AcDbLine
10
263.290000000000
20
152.590000000000
30
0.0
11
278.290000000000
21
152.590000000000
31
0.0
0
LINE
5
6b5
100
AcDbEntity
8
0-1
6
CONTINUOUS
62
4
100
AcDbLine
10
263.290000000000
20
142.690000000000
30
0.0
11
278.290000000000
21
142.690000000000
31
0.0
0
LINE
5
6b6
100
AcDbEntity
8
0-1
6
CONTINUOUS
62
4
100
AcDbLine
10
293.290000000000
20
142.690000000000
30
0.0
11
293.290000000000
21
265.590000000000
31
0.0
0
LINE
5
6b7
100
AcDbEntity
8
0-1
6
CONTINUOUS
62
4
100
AcDbLine
10
278.290000000000
20
142.690000000000
30
0.0
11
293.290000000000
21
142.690000000000
31
0.0
0
LINE
5
6b8
100
AcDbEntity
8
0-1
6
CONTINUOUS
62
4
100
AcDbLine
10
278.290000000000
20
265.590000000000
30
0.0
11
293.290000000000
21
265.590000000000
31
0.0
0
LINE
5
6b9
100
AcDbEntity
8
0-1
6
CONTINUOUS
62
7
100
AcDbLine
10
198.490000000000
20
231.020000000000
30
0.0
11
204.990000000000
21
219.770000000000
31
0.0
0
LINE
5
6ba
100
AcDbEntity
8
0-1
6
CONTINUOUS
62
7
100
AcDbLine
10
133.670000000000
20
178.890000000000
30
0.0
11
127.180000000000
21
190.140000000000
31
0.0
0
LINE
5
6bb
100
AcDbEntity
8
0-2
6
CONTINUOUS
62
7
100
AcDbLine
10
471.170000000000
20
178.650000000000
30
0.0
11
464.670000000000
21
167.400000000000
31
0.0
0
LINE
5
6bc
100
AcDbEntity
8
0-2
6
CONTINUOUS
62
7
100
AcDbLine
10
660.870000000000
20
219.650000000000
30
0.0
11
646.960000000000
21
243.730000000000
31
0.0
0
LINE
5
6bd
100
AcDbEntity
8
0-2
6
CONTINUOUS
62
7
100
AcDbLine
10
431.450000000000
20
257.680000000000
30
0.0
11
422.880000000000
21
257.680000000000
31
0.0
0
LINE
5
6be
100
AcDbEntity
8
0-2
6
CONTINUOUS
62
3
100
AcDbLine
10
347.940000000000
20
134.690000000000
30
0.0
11
767.940000000000
21
134.690000000000
31
0.0
0
LINE
5
6bf
100
AcDbEntity
8
0-2
6
CONTINUOUS
62
3
100
AcDbLine
10
347.940000000000
20
142.690000000000
30
0.0
11
767.940000000000
21
142.690000000000
31
0.0
0
LINE
5
6c0
100
AcDbEntity
8
0-0
6
CONTINUOUS
62
7
100
AcDbLine
10
391.970000000000
20
466.690000000000
30
0.0
11
392.870000000000
21
466.250000000000
31
0.0
0
LINE
5
6c1
100
AcDbEntity
8
0-0
6
CONTINUOUS
62
7
100
AcDbLine
10
394.440000000000
20
471.710000000000
30
0.0
11
391.970000000000
21
466.690000000000
31
0.0
0
LINE
5
6c2
100
AcDbEntity
8
0-0
6
CONTINUOUS
62
7
100
AcDbLine
10
394.440000000000
20
471.710000000000
30
0.0
11
394.440000000000
21
482.210000000000
31
0.0
0
LINE
5
6c3
100
AcDbEntity
8
0-0
6
CONTINUOUS
62
7
100
AcDbLine
10
395.440000000000
20
471.480000000000
30
0.0
11
392.870000000000
21
466.250000000000
31
0.0
0
LINE
5
6c4
100
AcDbEntity
8
0-0
6
CONTINUOUS
62
7
100
AcDbLine
10
395.440000000000
20
482.210000000000
30
0.0
11
395.440000000000
21
471.480000000000
31
0.0
0
LINE
5
6c5
100
AcDbEntity
8
0-0
6
CONTINUOUS
62
4
100
AcDbLine
10
532.940000000000
20
371.310000000000
30
0.0
11
532.940000000000
21
463.210000000000
31
0.0
0
POLYLINE
5
6c6
100
AcDbEntity
8
0-0
6
CONTINUOUS
62
  4
100
AcDb2dPolyline
66
1
10
0.0
20
0.0
30
0.0
70
0
0
VERTEX
5
6c7
100
AcDbEntity
8
0-0
6
CONTINUOUS
62
  4
100
AcDbVertex
100
AcDb2dVertex
10
677.440000000000
20
452.300000000000
30
0.0
0
VERTEX
5
6c8
100
AcDbEntity
8
0-0
6
CONTINUOUS
62
  4
100
AcDbVertex
100
AcDb2dVertex
10
677.440000000000
20
442.750000000000
30
0.0
0
VERTEX
5
6c9
100
AcDbEntity
8
0-0
6
CONTINUOUS
62
  4
100
AcDbVertex
100
AcDb2dVertex
10
707.440000000000
20
442.750000000000
30
0.0
0
SEQEND
5
6ca
100
AcDbEntity
8
0-0
0
LINE
5
6cb
100
AcDbEntity
8
0-0
6
CONTINUOUS
62
7
100
AcDbLine
10
677.410000000000
20
460.280000000000
30
0.0
11
705.570000000000
21
462.150000000000
31
0.0
0
LINE
5
6cc
100
AcDbEntity
8
0-0
6
CONTINUOUS
62
7
100
AcDbLine
10
705.500000000000
20
463.150000000000
30
0.0
11
677.350000000000
21
461.280000000000
31
0.0
0
LINE
5
6cd
100
AcDbEntity
8
0-0
6
CONTINUOUS
62
7
100
AcDbLine
10
607.520000000000
20
372.310000000000
30
0.0
11
557.940000000000
21
372.310000000000
31
0.0
0
LINE
5
6ce
100
AcDbEntity
8
0-0
6
CONTINUOUS
62
7
100
AcDbLine
10
607.520000000000
20
371.310000000000
30
0.0
11
557.940000000000
21
371.310000000000
31
0.0
0
LINE
5
6cf
100
AcDbEntity
8
0-0
6
CONTINUOUS
62
7
100
AcDbLine
10
676.680000000000
20
459.880000000000
30
0.0
11
609.100000000000
21
372.090000000000
31
0.0
0
LINE
5
6d0
100
AcDbEntity
8
0-0
6
CONTINUOUS
62
7
100
AcDbLine
10
675.890000000000
20
460.490000000000
30
0.0
11
608.310000000000
21
372.700000000000
31
0.0
0
LINE
5
6d1
100
AcDbEntity
8
0-0
6
CONTINUOUS
62
4
100
AcDbLine
10
380.370000000000
20
466.690000000000
30
0.0
11
380.370000000000
21
484.210000000000
31
0.0
0
POLYLINE
5
6d2
100
AcDbEntity
8
0-0
6
CONTINUOUS
62
  4
100
AcDb2dPolyline
66
1
10
0.0
20
0.0
30
0.0
70
0
0
VERTEX
5
6d3
100
AcDbEntity
8
0-0
6
CONTINUOUS
62
  4
100
AcDbVertex
100
AcDb2dVertex
10
677.440000000000
20
489.250000000000
30
0.0
0
VERTEX
5
6d4
100
AcDbEntity
8
0-0
6
CONTINUOUS
62
  4
100
AcDbVertex
100
AcDb2dVertex
10
677.440000000000
20
498.750000000000
30
0.0
0
VERTEX
5
6d5
100
AcDbEntity
8
0-0
6
CONTINUOUS
62
  4
100
AcDbVertex
100
AcDb2dVertex
10
696.440000000000
20
498.750000000000
30
0.0
0
SEQEND
5
6d6
100
AcDbEntity
8
0-0
0
LINE
5
6d7
100
AcDbEntity
8
0-2
6
CONTINUOUS
62
7
100
AcDbLine
10
408.440000000000
20
265.590000000000
30
0.0
11
395.740000000000
21
265.590000000000
31
0.0
0
LINE
5
6d8
100
AcDbEntity
8
0-2
6
CONTINUOUS
62
7
100
AcDbLine
10
408.440000000000
20
264.590000000000
30
0.0
11
395.740000000000
21
264.590000000000
31
0.0
0
LINE
5
6d9
100
AcDbEntity
8
0-2
6
CONTINUOUS
62
7
100
AcDbLine
10
405.520000000000
20
249.460000000000
30
0.0
11
406.460000000000
21
249.810000000000
31
0.0
0
POLYLINE
5
6da
100
AcDbEntity
8
0-2
6
CONTINUOUS
62
  7
100
AcDb2dPolyline
66
1
10
0.0
20
0.0
30
0.0
70
0
0
VERTEX
5
6db
100
AcDbEntity
8
0-2
6
CONTINUOUS
62
  7
100
AcDbVertex
100
AcDb2dVertex
10
393.770000000000
20
260.800000000000
30
0.0
0
VERTEX
5
6dc
100
AcDbEntity
8
0-2
6
CONTINUOUS
62
  7
100
AcDbVertex
100
AcDb2dVertex
10
403.740000000000
20
254.130000000000
30
0.0
0
VERTEX
5
6dd
100
AcDbEntity
8
0-2
6
CONTINUOUS
62
  7
100
AcDbVertex
100
AcDb2dVertex
10
405.520000000000
20
249.460000000000
30
0.0
0
SEQEND
5
6de
100
AcDbEntity
8
0-2
0
POLYLINE
5
6df
100
AcDbEntity
8
0-2
6
CONTINUOUS
62
  7
100
AcDb2dPolyline
66
1
10
0.0
20
0.0
30
0.0
70
0
0
VERTEX
5
6e0
100
AcDbEntity
8
0-2
6
CONTINUOUS
62
  7
100
AcDbVertex
100
AcDb2dVertex
10
394.390000000000
20
261.590000000000
30
0.0
0
VERTEX
5
6e1
100
AcDbEntity
8
0-2
6
CONTINUOUS
62
  7
100
AcDbVertex
100
AcDb2dVertex
10
404.560000000000
20
254.780000000000
30
0.0
0
VERTEX
5
6e2
100
AcDbEntity
8
0-2
6
CONTINUOUS
62
  7
100
AcDbVertex
100
AcDb2dVertex
10
406.460000000000
20
249.810000000000
30
0.0
0
SEQEND
5
6e3
100
AcDbEntity
8
0-2
0
LINE
5
6e4
100
AcDbEntity
8
0-2
6
CONTINUOUS
62
4
100
AcDbLine
10
395.370000000000
20
262.690000000000
30
0.0
11
407.940000000000
21
262.690000000000
31
0.0
0
LINE
5
6e5
100
AcDbEntity
8
0-2
6
CONTINUOUS
62
4
100
AcDbLine
10
402.350000000000
20
258.020000000000
30
0.0
11
395.370000000000
21
262.690000000000
31
0.0
0
LINE
5
6e6
100
AcDbEntity
8
0-0
6
CONTINUOUS
62
4
100
AcDbLine
10
394.440000000000
20
498.750000000000
30
0.0
11
410.440000000000
21
498.750000000000
31
0.0
0
LINE
5
6e7
100
AcDbEntity
8
0-0
6
CONTINUOUS
62
7
100
AcDbLine
10
408.440000000000
20
484.210000000000
30
0.0
11
396.440000000000
21
484.210000000000
31
0.0
0
LINE
5
6e8
100
AcDbEntity
8
0-0
6
CONTINUOUS
62
7
100
AcDbLine
10
396.440000000000
20
483.210000000000
30
0.0
11
408.440000000000
21
483.210000000000
31
0.0
0
LINE
5
6e9
100
AcDbEntity
8
0-0
6
CONTINUOUS
62
4
100
AcDbLine
10
394.440000000000
20
489.250000000000
30
0.0
11
394.440000000000
21
498.750000000000
31
0.0
0
LINE
5
6ea
100
AcDbEntity
8
0-2
6
CONTINUOUS
62
7
100
AcDbLine
10
405.520000000000
20
261.390000000000
30
0.0
11
396.880000000000
21
261.680000000000
31
0.0
0
LINE
5
6eb
100
AcDbEntity
8
0-2
6
CONTINUOUS
62
7
100
AcDbLine
10
405.570000000000
20
262.380000000000
30
0.0
11
396.910000000000
21
262.680000000000
31
0.0
0
LINE
5
6ec
100
AcDbEntity
8
0-2
6
CONTINUOUS
62
4
100
AcDbLine
10
695.340000000000
20
263.890000000000
30
0.0
11
707.940000000000
21
263.890000000000
31
0.0
0
POLYLINE
5
6ed
100
AcDbEntity
8
0-2
6
CONTINUOUS
62
  4
100
AcDb2dPolyline
66
1
10
0.0
20
0.0
30
0.0
70
0
0
VERTEX
5
6ee
100
AcDbEntity
8
0-2
6
CONTINUOUS
62
  4
100
AcDbVertex
100
AcDb2dVertex
10
702.350000000000
20
258.020000000000
30
0.0
0
VERTEX
5
6ef
100
AcDbEntity
8
0-2
6
CONTINUOUS
62
  4
100
AcDbVertex
100
AcDb2dVertex
10
701.670000000000
20
257.030000000000
30
0.0
0
VERTEX
5
6f0
100
AcDbEntity
8
0-2
6
CONTINUOUS
62
  4
100
AcDbVertex
100
AcDb2dVertex
10
694.370000000000
20
261.910000000000
30
0.0
0
SEQEND
5
6f1
100
AcDbEntity
8
0-2
0
LINE
5
6f2
100
AcDbEntity
8
0-2
6
CONTINUOUS
62
7
100
AcDbLine
10
696.910000000000
20
262.680000000000
30
0.0
11
696.880000000000
21
261.680000000000
31
0.0
0
LINE
5
6f3
100
AcDbEntity
8
0-2
6
CONTINUOUS
62
7
100
AcDbLine
10
708.440000000000
20
265.590000000000
30
0.0
11
695.740000000000
21
265.590000000000
31
0.0
0
LINE
5
6f4
100
AcDbEntity
8
0-2
6
CONTINUOUS
62
7
100
AcDbLine
10
708.440000000000
20
264.590000000000
30
0.0
11
695.740000000000
21
264.590000000000
31
0.0
0
LINE
5
6f5
100
AcDbEntity
8
0-2
6
CONTINUOUS
62
7
100
AcDbLine
10
705.520000000000
20
249.460000000000
30
0.0
11
706.460000000000
21
249.810000000000
31
0.0
0
POLYLINE
5
6f6
100
AcDbEntity
8
0-2
6
CONTINUOUS
62
  7
100
AcDb2dPolyline
66
1
10
0.0
20
0.0
30
0.0
70
0
0
VERTEX
5
6f7
100
AcDbEntity
8
0-2
6
CONTINUOUS
62
  7
100
AcDbVertex
100
AcDb2dVertex
10
693.770000000000
20
260.800000000000
30
0.0
0
VERTEX
5
6f8
100
AcDbEntity
8
0-2
6
CONTINUOUS
62
  7
100
AcDbVertex
100
AcDb2dVertex
10
703.740000000000
20
254.130000000000
30
0.0
0
VERTEX
5
6f9
100
AcDbEntity
8
0-2
6
CONTINUOUS
62
  7
100
AcDbVertex
100
AcDb2dVertex
10
705.520000000000
20
249.460000000000
30
0.0
0
SEQEND
5
6fa
100
AcDbEntity
8
0-2
0
POLYLINE
5
6fb
100
AcDbEntity
8
0-2
6
CONTINUOUS
62
  7
100
AcDb2dPolyline
66
1
10
0.0
20
0.0
30
0.0
70
0
0
VERTEX
5
6fc
100
AcDbEntity
8
0-2
6
CONTINUOUS
62
  7
100
AcDbVertex
100
AcDb2dVertex
10
694.390000000000
20
261.590000000000
30
0.0
0
VERTEX
5
6fd
100
AcDbEntity
8
0-2
6
CONTINUOUS
62
  7
100
AcDbVertex
100
AcDb2dVertex
10
704.560000000000
20
254.780000000000
30
0.0
0
VERTEX
5
6fe
100
AcDbEntity
8
0-2
6
CONTINUOUS
62
  7
100
AcDbVertex
100
AcDb2dVertex
10
706.460000000000
20
249.810000000000
30
0.0
0
SEQEND
5
6ff
100
AcDbEntity
8
0-2
0
LINE
5
700
100
AcDbEntity
8
0-2
6
CONTINUOUS
62
4
100
AcDbLine
10
695.370000000000
20
262.690000000000
30
0.0
11
707.940000000000
21
262.690000000000
31
0.0
0
LINE
5
701
100
AcDbEntity
8
0-2
6
CONTINUOUS
62
4
100
AcDbLine
10
702.350000000000
20
258.020000000000
30
0.0
11
695.370000000000
21
262.690000000000
31
0.0
0
LINE
5
702
100
AcDbEntity
8
0-2
6
CONTINUOUS
62
7
100
AcDbLine
10
705.520000000000
20
261.390000000000
30
0.0
11
696.880000000000
21
261.680000000000
31
0.0
0
LINE
5
703
100
AcDbEntity
8
0-2
6
CONTINUOUS
62
7
100
AcDbLine
10
705.570000000000
20
262.380000000000
30
0.0
11
696.910000000000
21
262.680000000000
31
0.0
0
LINE
5
704
100
AcDbEntity
8
0-0
6
CONTINUOUS
62
4
100
AcDbLine
10
707.440000000000
20
498.750000000000
30
0.0
11
707.440000000000
21
508.250000000000
31
0.0
0
POLYLINE
5
705
100
AcDbEntity
8
0-0
6
CONTINUOUS
62
  4
100
AcDb2dPolyline
66
1
10
0.0
20
0.0
30
0.0
70
0
0
VERTEX
5
706
100
AcDbEntity
8
0-0
6
CONTINUOUS
62
  4
100
AcDbVertex
100
AcDb2dVertex
10
410.440000000000
20
498.750000000000
30
0.0
0
VERTEX
5
707
100
AcDbEntity
8
0-0
6
CONTINUOUS
62
  4
100
AcDbVertex
100
AcDb2dVertex
10
410.440000000000
20
508.250000000000
30
0.0
0
VERTEX
5
708
100
AcDbEntity
8
0-0
6
CONTINUOUS
62
  4
100
AcDbVertex
100
AcDb2dVertex
10
410.440000000000
20
517.750000000000
30
0.0
0
VERTEX
5
709
100
AcDbEntity
8
0-0
6
CONTINUOUS
62
  4
100
AcDbVertex
100
AcDb2dVertex
10
707.440000000000
20
517.750000000000
30
0.0
0
SEQEND
5
70a
100
AcDbEntity
8
0-0
0
LINE
5
70b
100
AcDbEntity
8
0-0
6
CONTINUOUS
62
4
100
AcDbLine
10
707.440000000000
20
508.250000000000
30
0.0
11
707.440000000000
21
517.750000000000
31
0.0
0
LINE
5
70c
100
AcDbEntity
8
0-2
6
CONTINUOUS
62
7
100
AcDbLine
10
408.540000000000
20
232.850000000000
30
0.0
11
422.880000000000
21
257.680000000000
31
0.0
0
CIRCLE
5
70d
100
AcDbEntity
8
F-F
6
CONTINUOUS
62
3
100
AcDbCircle
10
39.860000000000
20
33.550000000000
30
0.0
40
5.656854879605
0
CIRCLE
5
70e
100
AcDbEntity
8
F-F
6
CONTINUOUS
62
3
100
AcDbCircle
10
39.860000000000
20
33.550000000000
30
0.0
40
6.456854635214
0
CIRCLE
5
70f
100
AcDbEntity
8
F-F
6
CONTINUOUS
62
4
100
AcDbCircle
10
39.860000000000
20
33.550000000000
30
0.0
40
5.736855280960
0
CIRCLE
5
710
100
AcDbEntity
8
F-F
6
CONTINUOUS
62
4
100
AcDbCircle
10
39.860000000000
20
33.550000000000
30
0.0
40
5.896853761158
0
CIRCLE
5
711
100
AcDbEntity
8
F-F
6
CONTINUOUS
62
4
100
AcDbCircle
10
39.860000000000
20
33.550000000000
30
0.0
40
6.056854563867
0
CIRCLE
5
712
100
AcDbEntity
8
F-F
6
CONTINUOUS
62
4
100
AcDbCircle
10
39.860000000000
20
33.550000000000
30
0.0
40
6.216853431151
0
CIRCLE
5
713
100
AcDbEntity
8
F-F
6
CONTINUOUS
62
4
100
AcDbCircle
10
39.860000000000
20
33.550000000000
30
0.0
40
6.376853072605
0
ARC
5
714
100
AcDbEntity
8
0-2
6
CONTINUOUS
62
4
100
AcDbCircle
10
413.140000000000
20
223.090000000000
30
0.0
40
5.199999766255
100
AcDbArc
50
180.000000000000
51
270.000000000000
0
ARC
5
715
100
AcDbEntity
8
0-2
6
CONTINUOUS
62
4
100
AcDbCircle
10
413.140000000000
20
223.090000000000
30
0.0
40
3.999999939299
100
AcDbArc
50
180.000000000000
51
270.000000000000
0
ARC
5
716
100
AcDbEntity
8
0-2
6
CONTINUOUS
62
4
100
AcDbCircle
10
442.440000000000
20
217.890000000000
30
0.0
40
1.200000020498
100
AcDbArc
50
49.999984741211
51
90.000000000000
0
ARC
5
717
100
AcDbEntity
8
0-2
6
CONTINUOUS
62
4
100
AcDbCircle
10
407.940000000000
20
262.690000000000
30
0.0
40
1.200000020498
100
AcDbArc
50
360.000000000000
51
450.000000000000
0
ARC
5
718
100
AcDbEntity
8
0-2
6
CONTINUOUS
62
4
100
AcDbCircle
10
429.940000000000
20
217.490000000000
30
0.0
40
4.199999781430
100
AcDbArc
50
54.611099243164
51
90.000000000000
0
ARC
5
719
100
AcDbEntity
8
0-2
6
CONTINUOUS
62
4
100
AcDbCircle
10
413.360000000000
20
223.690000000000
30
0.0
40
1.999999969650
100
AcDbArc
50
192.030593872070
51
270.000000000000
0
ARC
5
71a
100
AcDbEntity
8
0-2
6
CONTINUOUS
62
4
100
AcDbCircle
10
713.140000000000
20
223.090000000000
30
0.0
40
5.199999766255
100
AcDbArc
50
180.000000000000
51
270.000000000000
0
ARC
5
71b
100
AcDbEntity
8
0-2
6
CONTINUOUS
62
4
100
AcDbCircle
10
713.140000000000
20
223.090000000000
30
0.0
40
3.999999939299
100
AcDbArc
50
180.000000000000
51
270.000000000000
0
ARC
5
71c
100
AcDbEntity
8
0-2
6
CONTINUOUS
62
4
100
AcDbCircle
10
742.440000000000
20
217.890000000000
30
0.0
40
1.200000020498
100
AcDbArc
50
50.000000000000
51
90.000000000000
0
ARC
5
71d
100
AcDbEntity
8
0-2
6
CONTINUOUS
62
4
100
AcDbCircle
10
713.360000000000
20
223.690000000000
30
0.0
40
1.999999969650
100
AcDbArc
50
192.030593872070
51
270.000000000000
0
ARC
5
71e
100
AcDbEntity
8
0-2
6
CONTINUOUS
62
4
100
AcDbCircle
10
729.940000000000
20
217.490000000000
30
0.0
40
4.199999781430
100
AcDbArc
50
54.611099243164
51
90.000000000000
0
ARC
5
71f
100
AcDbEntity
8
0-2
6
CONTINUOUS
62
3
100
AcDbCircle
10
615.950000000000
20
146.890000000000
30
0.0
40
1.399999959401
100
AcDbArc
50
270.000000000000
51
322.968307495117
0
ARC
5
720
100
AcDbEntity
8
0-2
6
CONTINUOUS
62
3
100
AcDbCircle
10
506.640000000000
20
146.890000000000
30
0.0
40
1.399999959401
100
AcDbArc
50
217.031677246094
51
270.000000000000
0
ARC
5
721
100
AcDbEntity
8
0-2
6
CONTINUOUS
62
3
100
AcDbCircle
10
505.580000000000
20
148.290000000000
30
0.0
40
1.399999959401
100
AcDbArc
50
217.031677246094
51
270.000000000000
0
ARC
5
722
100
AcDbEntity
8
0-2
6
CONTINUOUS
62
3
100
AcDbCircle
10
500.390000000000
20
146.890000000000
30
0.0
40
4.199999781430
100
AcDbArc
50
217.031677246094
51
270.000000000000
0
ARC
5
723
100
AcDbEntity
8
0-2
6
CONTINUOUS
62
3
100
AcDbCircle
10
409.340000000000
20
216.400000000000
30
0.0
40
1.399999959401
100
AcDbArc
50
180.000000000000
51
270.000000000000
0
ARC
5
724
100
AcDbEntity
8
0-2
6
CONTINUOUS
62
3
100
AcDbCircle
10
384.110000000000
20
236.830000000000
30
0.0
40
4.199999781430
100
AcDbArc
50
93.000000000000
51
142.968307495117
0
ARC
5
725
100
AcDbEntity
8
0-2
6
CONTINUOUS
62
3
100
AcDbCircle
10
454.050000000000
20
200.720000000000
30
0.0
40
2.799999918801
100
AcDbArc
50
37.031677246094
51
50.000000000000
0
ARC
5
726
100
AcDbEntity
8
0-2
6
CONTINUOUS
62
3
100
AcDbCircle
10
403.740000000000
20
237.860000000000
30
0.0
40
4.199999781430
100
AcDbArc
50
360.000000000000
51
453.000000000000
0
ARC
5
727
100
AcDbEntity
8
0-2
6
CONTINUOUS
62
3
100
AcDbCircle
10
403.740000000000
20
232.870000000000
30
0.0
40
1.399999959401
100
AcDbArc
50
360.000000000000
51
453.000000000000
0
ARC
5
728
100
AcDbEntity
8
0-2
6
CONTINUOUS
62
3
100
AcDbCircle
10
386.690000000000
20
231.980000000000
30
0.0
40
1.399999959401
100
AcDbArc
50
93.000000000000
51
142.968307495117
0
ARC
5
729
100
AcDbEntity
8
0-2
6
CONTINUOUS
62
3
100
AcDbCircle
10
439.990000000000
20
211.180000000000
30
0.0
40
1.399999959401
100
AcDbArc
50
49.999984741211
51
90.000000000000
0
ARC
5
72a
100
AcDbEntity
8
0-2
6
CONTINUOUS
62
3
100
AcDbCircle
10
457.290000000000
20
188.710000000000
30
0.0
40
12.799999960592
100
AcDbArc
50
37.031677246094
51
49.999984741211
0
ARC
5
72b
100
AcDbEntity
8
0-2
6
CONTINUOUS
62
3
100
AcDbCircle
10
386.890000000000
20
231.610000000000
30
0.0
40
4.199999781430
100
AcDbArc
50
93.000000000000
51
142.968307495117
0
ARC
5
72c
100
AcDbEntity
8
0-2
6
CONTINUOUS
62
3
100
AcDbCircle
10
439.860000000000
20
210.800000000000
30
0.0
40
4.199999781430
100
AcDbArc
50
49.999984741211
51
90.000000000000
0
ARC
5
72d
100
AcDbEntity
8
0-2
6
CONTINUOUS
62
3
100
AcDbCircle
10
440.910000000000
20
213.690000000000
30
0.0
40
4.199999781430
100
AcDbArc
50
49.999984741211
51
90.000000000000
0
ARC
5
72e
100
AcDbEntity
8
0-2
6
CONTINUOUS
62
3
100
AcDbCircle
10
403.740000000000
20
232.500000000000
30
0.0
40
4.199999781430
100
AcDbArc
50
360.000000000000
51
453.000000000000
0
ARC
5
72f
100
AcDbEntity
8
0-2
6
CONTINUOUS
62
3
100
AcDbCircle
10
409.340000000000
20
219.290000000000
30
0.0
40
1.399999959401
100
AcDbArc
50
180.000000000000
51
270.000000000000
0
ARC
5
730
100
AcDbEntity
8
0-2
6
CONTINUOUS
62
3
100
AcDbCircle
10
409.340000000000
20
216.780000000000
30
0.0
40
4.199999781430
100
AcDbArc
50
180.000000000000
51
270.000000000000
0
ARC
5
731
100
AcDbEntity
8
0-2
6
CONTINUOUS
62
3
100
AcDbCircle
10
419.780000000000
20
224.240000000000
30
0.0
40
4.907479646146
100
AcDbArc
50
59.999984741211
51
119.999984741211
0
ARC
5
732
100
AcDbEntity
8
0-2
6
CONTINUOUS
62
3
100
AcDbCircle
10
719.780000000000
20
224.240000000000
30
0.0
40
4.907479646146
100
AcDbArc
50
59.999984741211
51
119.999984741211
0
ARC
5
733
100
AcDbEntity
8
0-2
6
CONTINUOUS
62
3
100
AcDbCircle
10
615.480000000000
20
146.890000000000
30
0.0
40
4.199999781430
100
AcDbArc
50
270.000000000000
51
322.968307495117
0
ARC
5
734
100
AcDbEntity
8
0-2
6
CONTINUOUS
62
3
100
AcDbCircle
10
709.340000000000
20
216.400000000000
30
0.0
40
1.399999959401
100
AcDbArc
50
180.000000000000
51
270.000000000000
0
ARC
5
735
100
AcDbEntity
8
0-2
6
CONTINUOUS
62
3
100
AcDbCircle
10
684.110000000000
20
236.830000000000
30
0.0
40
4.199999781430
100
AcDbArc
50
93.000000000000
51
142.968307495117
0
ARC
5
736
100
AcDbEntity
8
0-2
6
CONTINUOUS
62
3
100
AcDbCircle
10
754.050000000000
20
200.720000000000
30
0.0
40
2.799999918801
100
AcDbArc
50
37.031677246094
51
50.000000000000
0
ARC
5
737
100
AcDbEntity
8
0-2
6
CONTINUOUS
62
3
100
AcDbCircle
10
703.740000000000
20
237.860000000000
30
0.0
40
4.199999781430
100
AcDbArc
50
360.000000000000
51
453.000000000000
0
ARC
5
738
100
AcDbEntity
8
0-2
6
CONTINUOUS
62
3
100
AcDbCircle
10
703.740000000000
20
232.870000000000
30
0.0
40
1.399999959401
100
AcDbArc
50
360.000000000000
51
453.000000000000
0
ARC
5
739
100
AcDbEntity
8
0-2
6
CONTINUOUS
62
3
100
AcDbCircle
10
434.500000000000
20
224.240000000000
30
0.0
40
4.907479646146
100
AcDbArc
50
59.999984741211
51
119.999984741211
0
ARC
5
73a
100
AcDbEntity
8
0-2
6
CONTINUOUS
62
3
100
AcDbCircle
10
686.690000000000
20
231.980000000000
30
0.0
40
1.399999959401
100
AcDbArc
50
93.000000000000
51
142.968307495117
0
ARC
5
73b
100
AcDbEntity
8
0-2
6
CONTINUOUS
62
3
100
AcDbCircle
10
739.990000000000
20
211.180000000000
30
0.0
40
1.399999959401
100
AcDbArc
50
49.999984741211
51
90.000000000000
0
ARC
5
73c
100
AcDbEntity
8
0-2
6
CONTINUOUS
62
3
100
AcDbCircle
10
757.290000000000
20
188.710000000000
30
0.0
40
12.799999960592
100
AcDbArc
50
37.031677246094
51
49.999984741211
0
ARC
5
73d
100
AcDbEntity
8
0-2
6
CONTINUOUS
62
3
100
AcDbCircle
10
427.140000000000
20
215.610000000000
30
0.0
40
13.779200321050
100
AcDbArc
50
69.135986328125
51
110.863998413086
0
ARC
5
73e
100
AcDbEntity
8
0-2
6
CONTINUOUS
62
3
100
AcDbCircle
10
686.890000000000
20
231.610000000000
30
0.0
40
4.199999781430
100
AcDbArc
50
93.000000000000
51
142.968307495117
0
ARC
5
73f
100
AcDbEntity
8
0-2
6
CONTINUOUS
62
3
100
AcDbCircle
10
739.860000000000
20
210.800000000000
30
0.0
40
4.199999781430
100
AcDbArc
50
49.999984741211
51
90.000000000000
0
ARC
5
740
100
AcDbEntity
8
0-2
6
CONTINUOUS
62
3
100
AcDbCircle
10
740.910000000000
20
213.690000000000
30
0.0
40
4.199999781430
100
AcDbArc
50
49.999984741211
51
90.000000000000
0
ARC
5
741
100
AcDbEntity
8
0-2
6
CONTINUOUS
62
3
100
AcDbCircle
10
703.740000000000
20
232.500000000000
30
0.0
40
4.199999781430
100
AcDbArc
50
360.000000000000
51
453.000000000000
0
ARC
5
742
100
AcDbEntity
8
0-2
6
CONTINUOUS
62
3
100
AcDbCircle
10
709.340000000000
20
219.290000000000
30
0.0
40
1.399999959401
100
AcDbArc
50
180.000000000000
51
270.000000000000
0
ARC
5
743
100
AcDbEntity
8
0-2
6
CONTINUOUS
62
3
100
AcDbCircle
10
709.340000000000
20
216.780000000000
30
0.0
40
4.199999781430
100
AcDbArc
50
180.000000000000
51
270.000000000000
0
ARC
5
744
100
AcDbEntity
8
0-2
6
CONTINUOUS
62
3
100
AcDbCircle
10
436.140000000000
20
213.590000000000
30
0.0
40
1.999999969650
100
AcDbArc
50
270.000000000000
51
329.614776611328
0
ARC
5
745
100
AcDbEntity
8
0-2
6
CONTINUOUS
62
3
100
AcDbCircle
10
418.140000000000
20
213.590000000000
30
0.0
40
1.999999969650
100
AcDbArc
50
210.385208129883
51
270.000000000000
0
ARC
5
746
100
AcDbEntity
8
0-2
6
CONTINUOUS
62
3
100
AcDbCircle
10
432.390000000000
20
219.590000000000
30
0.0
40
1.799999933976
100
AcDbArc
50
84.468597412109
51
90.000000000000
0
ARC
5
747
100
AcDbEntity
8
0-2
6
CONTINUOUS
62
3
100
AcDbCircle
10
610.300000000000
20
148.290000000000
30
0.0
40
1.399999959401
100
AcDbArc
50
270.000000000000
51
322.968307495117
0
ARC
5
748
100
AcDbEntity
8
0-2
6
CONTINUOUS
62
3
100
AcDbCircle
10
609.240000000000
20
146.890000000000
30
0.0
40
1.399999959401
100
AcDbArc
50
270.000000000000
51
322.968307495117
0
ARC
5
749
100
AcDbEntity
8
0-2
6
CONTINUOUS
62
3
100
AcDbCircle
10
499.920000000000
20
146.890000000000
30
0.0
40
1.399999959401
100
AcDbArc
50
217.031677246094
51
270.000000000000
0
ARC
5
74a
100
AcDbEntity
8
0-2
6
CONTINUOUS
62
3
100
AcDbCircle
10
734.500000000000
20
224.240000000000
30
0.0
40
4.907479646146
100
AcDbArc
50
59.999984741211
51
119.999984741211
0
ARC
5
74b
100
AcDbEntity
8
0-2
6
CONTINUOUS
62
3
100
AcDbCircle
10
727.140000000000
20
215.610000000000
30
0.0
40
13.779200321050
100
AcDbArc
50
69.135986328125
51
110.863998413086
0
ARC
5
74c
100
AcDbEntity
8
0-2
6
CONTINUOUS
62
3
100
AcDbCircle
10
736.140000000000
20
213.590000000000
30
0.0
40
1.999999969650
100
AcDbArc
50
270.000000000000
51
329.614776611328
0
ARC
5
74d
100
AcDbEntity
8
0-2
6
CONTINUOUS
62
3
100
AcDbCircle
10
718.140000000000
20
213.590000000000
30
0.0
40
1.999999969650
100
AcDbArc
50
210.385208129883
51
270.000000000000
0
ARC
5
74e
100
AcDbEntity
8
0-2
6
CONTINUOUS
62
3
100
AcDbCircle
10
732.390000000000
20
219.590000000000
30
0.0
40
1.799999933976
100
AcDbArc
50
84.468597412109
51
90.000000000000
0
ARC
5
74f
100
AcDbEntity
8
0-2
6
CONTINUOUS
62
4
100
AcDbCircle
10
395.340000000000
20
262.690000000000
30
0.0
40
1.200000020498
100
AcDbArc
50
90.000000000000
51
224.770797729492
0
ARC
5
750
100
AcDbEntity
8
0-2
6
CONTINUOUS
62
7
100
AcDbCircle
10
408.440000000000
20
263.590000000000
30
0.0
40
0.999999984825
100
AcDbArc
50
360.000000000000
51
450.000000000000
0
ARC
5
751
100
AcDbEntity
8
0-2
6
CONTINUOUS
62
7
100
AcDbCircle
10
408.440000000000
20
263.590000000000
30
0.0
40
1.999999969650
100
AcDbArc
50
360.000000000000
51
450.000000000000
0
ARC
5
752
100
AcDbEntity
8
0-2
6
CONTINUOUS
62
7
100
AcDbCircle
10
411.440000000000
20
245.520000000000
30
0.0
40
0.999999984825
100
AcDbArc
50
180.000000000000
51
266.186019897461
0
ARC
5
753
100
AcDbEntity
8
0-2
6
CONTINUOUS
62
7
100
AcDbCircle
10
411.440000000000
20
245.520000000000
30
0.0
40
1.999999969650
100
AcDbArc
50
180.000000000000
51
266.186019897461
0
ARC
5
754
100
AcDbEntity
8
0-2
6
CONTINUOUS
62
7
100
AcDbCircle
10
508.360000000000
20
154.690000000000
30
0.0
40
0.999999984825
100
AcDbArc
50
217.178192138672
51
270.000000000000
0
ARC
5
755
100
AcDbEntity
8
0-2
6
CONTINUOUS
62
7
100
AcDbCircle
10
508.360000000000
20
154.690000000000
30
0.0
40
1.999999969650
100
AcDbArc
50
217.178192138672
51
270.000000000000
0
ARC
5
756
100
AcDbEntity
8
0-2
6
CONTINUOUS
62
7
100
AcDbCircle
10
439.390000000000
20
240.650000000000
30
0.0
40
0.999999984825
100
AcDbArc
50
37.176208496094
51
86.186019897461
0
ARC
5
757
100
AcDbEntity
8
0-2
6
CONTINUOUS
62
7
100
AcDbCircle
10
439.390000000000
20
240.650000000000
30
0.0
40
1.999999969650
100
AcDbArc
50
37.176208496094
51
86.186019897461
0
ARC
5
758
100
AcDbEntity
8
0-2
6
CONTINUOUS
62
7
100
AcDbCircle
10
405.440000000000
20
260.390000000000
30
0.0
40
1.999999969650
100
AcDbArc
50
360.000000000000
51
408.300964355469
0
ARC
5
759
100
AcDbEntity
8
0-2
6
CONTINUOUS
62
7
100
AcDbCircle
10
405.440000000000
20
245.520000000000
30
0.0
40
1.999999969650
100
AcDbArc
50
273.813980102539
51
360.000000000000
0
ARC
5
75a
100
AcDbEntity
8
0-2
6
CONTINUOUS
62
7
100
AcDbCircle
10
405.440000000000
20
245.520000000000
30
0.0
40
0.999999984825
100
AcDbArc
50
273.813980102539
51
360.000000000000
0
ARC
5
75b
100
AcDbEntity
8
0-2
6
CONTINUOUS
62
7
100
AcDbCircle
10
380.450000000000
20
240.850000000000
30
0.0
40
0.999999984825
100
AcDbArc
50
93.813888549805
51
141.253295898438
0
ARC
5
75c
100
AcDbEntity
8
0-2
6
CONTINUOUS
62
7
100
AcDbCircle
10
380.450000000000
20
240.850000000000
30
0.0
40
1.999999969650
100
AcDbArc
50
93.813888549805
51
141.253295898438
0
ARC
5
75d
100
AcDbEntity
8
0-2
6
CONTINUOUS
62
7
100
AcDbCircle
10
711.440000000000
20
245.520000000000
30
0.0
40
0.999999984825
100
AcDbArc
50
180.000000000000
51
266.186019897461
0
ARC
5
75e
100
AcDbEntity
8
0-2
6
CONTINUOUS
62
7
100
AcDbCircle
10
711.440000000000
20
245.520000000000
30
0.0
40
1.999999969650
100
AcDbArc
50
180.000000000000
51
266.186019897461
0
ARC
5
75f
100
AcDbEntity
8
0-2
6
CONTINUOUS
62
7
100
AcDbCircle
10
739.390000000000
20
240.650000000000
30
0.0
40
0.999999984825
100
AcDbArc
50
37.176208496094
51
86.186019897461
0
ARC
5
760
100
AcDbEntity
8
0-2
6
CONTINUOUS
62
7
100
AcDbCircle
10
739.390000000000
20
240.650000000000
30
0.0
40
1.999999969650
100
AcDbArc
50
37.176208496094
51
86.186019897461
0
ARC
5
761
100
AcDbEntity
8
0-2
6
CONTINUOUS
62
7
100
AcDbCircle
10
705.440000000000
20
245.520000000000
30
0.0
40
1.999999969650
100
AcDbArc
50
273.813980102539
51
360.000000000000
0
ARC
5
762
100
AcDbEntity
8
0-2
6
CONTINUOUS
62
7
100
AcDbCircle
10
705.440000000000
20
245.520000000000
30
0.0
40
0.999999984825
100
AcDbArc
50
273.813980102539
51
360.000000000000
0
ARC
5
763
100
AcDbEntity
8
0-2
6
CONTINUOUS
62
7
100
AcDbCircle
10
607.460000000000
20
154.690000000000
30
0.0
40
0.999999984825
100
AcDbArc
50
270.000000000000
51
321.253295898438
0
ARC
5
764
100
AcDbEntity
8
0-2
6
CONTINUOUS
62
7
100
AcDbCircle
10
607.460000000000
20
154.690000000000
30
0.0
40
1.999999969650
100
AcDbArc
50
270.000000000000
51
321.253295898438
0
ARC
5
765
100
AcDbEntity
8
0-2
6
CONTINUOUS
62
7
100
AcDbCircle
10
680.450000000000
20
240.850000000000
30
0.0
40
0.999999984825
100
AcDbArc
50
93.813888549805
51
141.253295898438
0
ARC
5
766
100
AcDbEntity
8
0-2
6
CONTINUOUS
62
7
100
AcDbCircle
10
680.450000000000
20
240.850000000000
30
0.0
40
1.999999969650
100
AcDbArc
50
93.813888549805
51
141.253295898438
0
ARC
5
767
100
AcDbEntity
8
0-2
6
CONTINUOUS
62
4
100
AcDbCircle
10
607.460000000000
20
154.690000000000
30
0.0
40
5.999999908949
100
AcDbArc
50
270.000000000000
51
321.253295898438
0
ARC
5
768
100
AcDbEntity
8
0-2
6
CONTINUOUS
62
4
100
AcDbCircle
10
508.360000000000
20
154.690000000000
30
0.0
40
5.999999908949
100
AcDbArc
50
217.178192138672
51
270.000000000000
0
ARC
5
769
100
AcDbEntity
8
0-1
6
CONTINUOUS
62
3
100
AcDbCircle
10
164.670000000000
20
144.090000000000
30
0.0
40
2.799999918801
100
AcDbArc
50
57.262252807617
51
90.000000000000
0
ARC
5
76a
100
AcDbEntity
8
0-1
6
CONTINUOUS
62
3
100
AcDbCircle
10
139.670000000000
20
145.490000000000
30
0.0
40
2.799999918801
100
AcDbArc
50
270.000000000000
51
302.737731933594
0
ARC
5
76b
100
AcDbEntity
8
0-1
6
CONTINUOUS
62
3
100
AcDbCircle
10
167.670000000000
20
145.490000000000
30
0.0
40
2.799999918801
100
AcDbArc
50
237.262252807617
51
270.000000000000
0
ARC
5
76c
100
AcDbEntity
8
0-1
6
CONTINUOUS
62
3
100
AcDbCircle
10
142.670000000000
20
144.090000000000
30
0.0
40
2.799999918801
100
AcDbArc
50
90.000000000000
51
122.737731933594
0
ARC
5
76d
100
AcDbEntity
8
0-1
6
CONTINUOUS
62
3
100
AcDbCircle
10
153.670000000000
20
239.490000000000
30
0.0
40
41.904525626261
100
AcDbArc
50
241.492370605469
51
298.507583618164
0
ARC
5
76e
100
AcDbEntity
8
0-1
6
CONTINUOUS
62
3
100
AcDbCircle
10
157.920000000000
20
216.970000000000
30
0.0
40
12.275600453490
100
AcDbArc
50
69.744384765625
51
110.255996704102
0
ARC
5
76f
100
AcDbEntity
8
0-1
6
CONTINUOUS
62
3
100
AcDbCircle
10
149.420000000000
20
216.970000000000
30
0.0
40
12.275600453490
100
AcDbArc
50
69.744384765625
51
110.255996704102
0
ARC
5
770
100
AcDbEntity
8
0-1
6
CONTINUOUS
62
4
100
AcDbCircle
10
136.670000000000
20
220.250000000000
30
0.0
40
8.794045105946
100
AcDbArc
50
204.535171508789
51
269.999984741211
0
ARC
5
771
100
AcDbEntity
8
0-1
6
CONTINUOUS
62
4
100
AcDbCircle
10
136.670000000000
20
221.170000000000
30
0.0
40
8.794045105946
100
AcDbArc
50
204.535171508789
51
270.000000000000
0
ARC
5
772
100
AcDbEntity
8
0-1
6
CONTINUOUS
62
4
100
AcDbCircle
10
171.670000000000
20
229.890000000000
30
0.0
40
3.999999939299
100
AcDbArc
50
12.540145874023
51
167.459838867188
0
ARC
5
773
100
AcDbEntity
8
0-1
6
CONTINUOUS
62
4
100
AcDbCircle
10
135.670000000000
20
229.890000000000
30
0.0
40
3.999999939299
100
AcDbArc
50
12.540145874023
51
167.459838867188
0
ARC
5
774
100
AcDbEntity
8
0-1
6
CONTINUOUS
62
4
100
AcDbCircle
10
170.670000000000
20
220.250000000000
30
0.0
40
8.794045105946
100
AcDbArc
50
269.999984741211
51
335.464813232422
0
ARC
5
775
100
AcDbEntity
8
0-1
6
CONTINUOUS
62
4
100
AcDbCircle
10
170.670000000000
20
221.170000000000
30
0.0
40
8.794045105946
100
AcDbArc
50
270.000000000000
51
335.464813232422
0
ARC
5
776
100
AcDbEntity
8
0-1
6
CONTINUOUS
62
4
100
AcDbCircle
10
171.670000000000
20
213.550000000000
30
0.0
40
8.541666472531
100
AcDbArc
50
40.449707031250
51
139.550277709961
0
ARC
5
777
100
AcDbEntity
8
0-1
6
CONTINUOUS
62
4
100
AcDbCircle
10
135.670000000000
20
213.550000000000
30
0.0
40
8.541666472531
100
AcDbArc
50
40.449707031250
51
139.550277709961
0
ARC
5
778
100
AcDbEntity
8
0-1
6
CONTINUOUS
62
3
100
AcDbCircle
10
148.420000000000
20
219.590000000000
30
0.0
40
1.799999933976
100
AcDbArc
50
90.000000000000
51
95.531387329102
0
ARC
5
779
100
AcDbEntity
8
0-1
6
CONTINUOUS
62
3
100
AcDbCircle
10
158.920000000000
20
219.590000000000
30
0.0
40
1.799999933976
100
AcDbArc
50
84.468597412109
51
90.000000000000
0
ARC
5
77a
100
AcDbEntity
8
0-0
6
CONTINUOUS
62
7
100
AcDbCircle
10
705.440000000000
20
479.010000000000
30
0.0
40
0.999999984825
100
AcDbArc
50
360.000000000000
51
450.000000000000
0
ARC
5
77b
100
AcDbEntity
8
0-0
6
CONTINUOUS
62
7
100
AcDbCircle
10
408.440000000000
20
482.210000000000
30
0.0
40
0.999999984825
100
AcDbArc
50
360.000000000000
51
450.000000000000
0
ARC
5
77c
100
AcDbEntity
8
0-0
6
CONTINUOUS
62
7
100
AcDbCircle
10
408.440000000000
20
482.210000000000
30
0.0
40
1.999999969650
100
AcDbArc
50
360.000000000000
51
450.000000000000
0
ARC
5
77d
100
AcDbEntity
8
0-0
6
CONTINUOUS
62
7
100
AcDbCircle
10
705.440000000000
20
479.010000000000
30
0.0
40
1.999999969650
100
AcDbArc
50
48.300964355469
51
90.000000000000
0
ARC
5
77e
100
AcDbEntity
8
0-0
6
CONTINUOUS
62
7
100
AcDbCircle
10
705.440000000000
20
479.010000000000
30
0.0
40
1.999999969650
100
AcDbArc
50
360.000000000000
51
408.300964355469
0
ARC
5
77f
100
AcDbEntity
8
0-0
6
CONTINUOUS
62
7
100
AcDbCircle
10
411.440000000000
20
464.150000000000
30
0.0
40
0.999999984825
100
AcDbArc
50
180.000000000000
51
266.186019897461
0
ARC
5
780
100
AcDbEntity
8
0-0
6
CONTINUOUS
62
7
100
AcDbCircle
10
411.440000000000
20
464.150000000000
30
0.0
40
1.999999969650
100
AcDbArc
50
180.000000000000
51
266.186019897461
0
ARC
5
781
100
AcDbEntity
8
0-0
6
CONTINUOUS
62
7
100
AcDbCircle
10
508.360000000000
20
373.310000000000
30
0.0
40
0.999999984825
100
AcDbArc
50
217.178192138672
51
270.000000000000
0
ARC
5
782
100
AcDbEntity
8
0-0
6
CONTINUOUS
62
7
100
AcDbCircle
10
508.360000000000
20
373.310000000000
30
0.0
40
1.999999969650
100
AcDbArc
50
217.178192138672
51
270.000000000000
0
ARC
5
783
100
AcDbEntity
8
0-0
6
CONTINUOUS
62
7
100
AcDbCircle
10
439.390000000000
20
459.280000000000
30
0.0
40
0.999999984825
100
AcDbArc
50
37.176208496094
51
86.186019897461
0
ARC
5
784
100
AcDbEntity
8
0-0
6
CONTINUOUS
62
7
100
AcDbCircle
10
439.390000000000
20
459.280000000000
30
0.0
40
1.999999969650
100
AcDbArc
50
37.176208496094
51
86.186019897461
0
ARC
5
785
100
AcDbEntity
8
0-0
6
CONTINUOUS
62
7
100
AcDbCircle
10
396.440000000000
20
482.210000000000
30
0.0
40
0.999999984825
100
AcDbArc
50
90.000000000000
51
180.000000000000
0
ARC
5
786
100
AcDbEntity
8
0-0
6
CONTINUOUS
62
7
100
AcDbCircle
10
396.440000000000
20
482.210000000000
30
0.0
40
1.999999969650
100
AcDbArc
50
90.000000000000
51
180.000000000000
0
ARC
5
787
100
AcDbEntity
8
0-1
6
CONTINUOUS
62
3
100
AcDbCircle
10
142.930000000000
20
126.690000000000
30
0.0
40
7.999947235041
100
AcDbArc
50
359.999740600586
51
89.999740600586
0
ARC
5
788
100
AcDbEntity
8
0-1
6
CONTINUOUS
62
3
100
AcDbCircle
10
164.420000000000
20
126.690000000000
30
0.0
40
7.999947235041
100
AcDbArc
50
89.999740600586
51
179.999740600586
0
ARC
5
789
100
AcDbEntity
8
0-0
6
CONTINUOUS
62
7
100
AcDbCircle
10
705.440000000000
20
464.150000000000
30
0.0
40
0.999999984825
100
AcDbArc
50
273.813980102539
51
360.000000000000
0
ARC
5
78a
100
AcDbEntity
8
0-0
6
CONTINUOUS
62
7
100
AcDbCircle
10
705.440000000000
20
464.150000000000
30
0.0
40
1.999999969650
100
AcDbArc
50
273.813980102539
51
360.000000000000
0
ARC
5
78b
100
AcDbEntity
8
0-0
6
CONTINUOUS
62
7
100
AcDbCircle
10
677.480000000000
20
459.280000000000
30
0.0
40
0.999999984825
100
AcDbArc
50
93.813980102539
51
142.823791503906
0
ARC
5
78c
100
AcDbEntity
8
0-0
6
CONTINUOUS
62
7
100
AcDbCircle
10
677.480000000000
20
459.280000000000
30
0.0
40
1.999999969650
100
AcDbArc
50
93.813980102539
51
142.823791503906
0
ARC
5
78d
100
AcDbEntity
8
0-0
6
CONTINUOUS
62
7
100
AcDbCircle
10
607.520000000000
20
373.310000000000
30
0.0
40
1.999999969650
100
AcDbArc
50
270.000000000000
51
322.409851074219
0
ARC
5
78e
100
AcDbEntity
8
0-0
6
CONTINUOUS
62
7
100
AcDbCircle
10
607.520000000000
20
373.310000000000
30
0.0
40
0.999999984825
100
AcDbArc
50
270.000000000000
51
322.410110473633
0
ARC
5
78f
100
AcDbEntity
8
0-2
6
CONTINUOUS
62
7
100
AcDbCircle
10
395.740000000000
20
262.790000000000
30
0.0
40
1.800000127519
100
AcDbArc
50
90.000000000000
51
224.770797729492
0
ARC
5
790
100
AcDbEntity
8
0-2
6
CONTINUOUS
62
7
100
AcDbCircle
10
395.740000000000
20
262.790000000000
30
0.0
40
2.800000112344
100
AcDbArc
50
90.000000000000
51
224.770797729492
0
ARC
5
791
100
AcDbEntity
8
0-2
6
CONTINUOUS
62
7
100
AcDbCircle
10
405.440000000000
20
260.390000000000
30
0.0
40
0.999999984825
100
AcDbArc
50
360.000000000000
51
445.303543090820
0
ARC
5
792
100
AcDbEntity
8
0-2
6
CONTINUOUS
62
7
100
AcDbCircle
10
405.440000000000
20
260.390000000000
30
0.0
40
1.999999969650
100
AcDbArc
50
48.300964355469
51
86.074371337891
0
ARC
5
793
100
AcDbEntity
8
0-2
6
CONTINUOUS
62
4
100
AcDbCircle
10
707.940000000000
20
262.690000000000
30
0.0
40
1.200000020498
100
AcDbArc
50
360.000000000000
51
450.000000000000
0
ARC
5
794
100
AcDbEntity
8
0-2
6
CONTINUOUS
62
4
100
AcDbCircle
10
695.340000000000
20
262.690000000000
30
0.0
40
1.200000020498
100
AcDbArc
50
90.000000000000
51
224.770797729492
0
ARC
5
795
100
AcDbEntity
8
0-2
6
CONTINUOUS
62
7
100
AcDbCircle
10
708.440000000000
20
263.590000000000
30
0.0
40
0.999999984825
100
AcDbArc
50
360.000000000000
51
450.000000000000
0
ARC
5
796
100
AcDbEntity
8
0-2
6
CONTINUOUS
62
7
100
AcDbCircle
10
708.440000000000
20
263.590000000000
30
0.0
40
1.999999969650
100
AcDbArc
50
360.000000000000
51
450.000000000000
0
ARC
5
797
100
AcDbEntity
8
0-2
6
CONTINUOUS
62
7
100
AcDbCircle
10
705.440000000000
20
260.390000000000
30
0.0
40
1.999999969650
100
AcDbArc
50
360.000000000000
51
408.300964355469
0
ARC
5
798
100
AcDbEntity
8
0-2
6
CONTINUOUS
62
7
100
AcDbCircle
10
695.740000000000
20
262.790000000000
30
0.0
40
1.800000127519
100
AcDbArc
50
90.000000000000
51
224.770797729492
0
ARC
5
799
100
AcDbEntity
8
0-2
6
CONTINUOUS
62
7
100
AcDbCircle
10
695.740000000000
20
262.790000000000
30
0.0
40
2.800000112344
100
AcDbArc
50
90.000000000000
51
224.770797729492
0
ARC
5
79a
100
AcDbEntity
8
0-2
6
CONTINUOUS
62
7
100
AcDbCircle
10
705.440000000000
20
260.390000000000
30
0.0
40
0.999999984825
100
AcDbArc
50
360.000000000000
51
445.303543090820
0
ARC
5
79b
100
AcDbEntity
8
0-2
6
CONTINUOUS
62
7
100
AcDbCircle
10
705.440000000000
20
260.390000000000
30
0.0
40
1.999999969650
100
AcDbArc
50
48.300964355469
51
86.074371337891
0
TEXT
5
79c
100
AcDbEntity
8
F-F
62
7
370
-3
100
AcDbText
10
266.045
20
37.876
30
0.0
40
2.461
1
変　　　　　　更　　　　　　記　　　　　　事
41
0.999
50
0.000
100
AcDbText
0
TEXT
5
79d
100
AcDbEntity
8
F-F
62
7
370
-3
100
AcDbText
10
407.912
20
37.476
30
0.0
40
2.461
1
受領　　日附
41
0.999
50
0.000
100
AcDbText
0
TEXT
5
79e
100
AcDbEntity
8
F-F
62
7
370
-3
100
AcDbText
10
507.021
20
22.760
30
0.0
40
2.461
1
施工者
41
0.999
50
0.000
100
AcDbText
0
TEXT
5
79f
100
AcDbEntity
8
F-F
62
7
370
-3
100
AcDbText
10
507.021
20
37.575
30
0.0
40
2.461
1
設計者
41
0.999
50
0.000
100
AcDbText
0
TEXT
5
7a0
100
AcDbEntity
8
F-F
62
7
370
-3
100
AcDbText
10
609.763
20
22.489
30
0.0
40
2.461
1
作図
41
0.999
50
0.000
100
AcDbText
0
TEXT
5
7a1
100
AcDbEntity
8
F-F
62
7
370
-3
100
AcDbText
10
645.676
20
22.754
30
0.0
40
2.461
1
図面名
41
0.999
50
0.000
100
AcDbText
0
TEXT
5
7a2
100
AcDbEntity
8
F-F
62
7
370
-3
100
AcDbText
10
609.763
20
37.303
30
0.0
40
2.461
1
日附
41
0.999
50
0.000
100
AcDbText
0
TEXT
5
7a3
100
AcDbEntity
8
F-F
62
7
370
-3
100
AcDbText
10
645.676
20
37.569
30
0.0
40
2.461
1
工事件名
41
0.999
50
0.000
100
AcDbText
0
TEXT
5
7a4
100
AcDbEntity
8
F-F
62
7
370
-3
100
AcDbText
10
620.831
20
37.178
30
0.0
40
2.461
1
年　月　日
41
0.999
50
0.000
100
AcDbText
0
TEXT
5
7a5
100
AcDbEntity
8
F-F
62
7
370
-3
100
AcDbText
10
620.831
20
22.363
30
0.0
40
2.461
1
年　月　日
41
0.999
50
0.000
100
AcDbText
0
TEXT
5
7a6
100
AcDbEntity
8
F-F
62
7
370
-3
100
AcDbText
10
771.848
20
37.569
30
0.0
40
2.461
1
設計番号
41
0.999
50
0.000
100
AcDbText
0
MTEXT
5
7a7
100
AcDbEntity
8
F-F
62
7
370
-3
100
AcDbMText
10
193.506
20
33.911
30
0.0
40
2.325
41
0.000
71
7
72
1
1
\W1.134;{\W0.817;. }　{\W0.817;.}　{\W0.817; }
7
STANDARD
11
1.00000
21
0.00000
31
0.0
0
MTEXT
5
7a8
100
AcDbEntity
8
F-F
62
7
370
-3
100
AcDbMText
10
193.506
20
28.972
30
0.0
40
2.325
41
0.000
71
7
72
1
1
\W1.134;{\W0.817;. }　{\W0.817;.}　{\W0.817; }
7
STANDARD
11
1.00000
21
0.00000
31
0.0
0
MTEXT
5
7a9
100
AcDbEntity
8
F-F
62
7
370
-3
100
AcDbMText
10
193.506
20
24.034
30
0.0
40
2.325
41
0.000
71
7
72
1
1
\W1.134;{\W0.817;. }　{\W0.817;.}　{\W0.817; }
7
STANDARD
11
1.00000
21
0.00000
31
0.0
0
MTEXT
5
7aa
100
AcDbEntity
8
F-F
62
7
370
-3
100
AcDbMText
10
193.506
20
19.096
30
0.0
40
2.325
41
0.000
71
7
72
1
1
\W1.134;{\W0.817;. }　{\W0.817;.}　{\W0.817; }
7
STANDARD
11
1.00000
21
0.00000
31
0.0
0
MTEXT
5
7ab
100
AcDbEntity
8
F-F
62
7
370
-3
100
AcDbMText
10
193.506
20
14.157
30
0.0
40
2.325
41
0.000
71
7
72
1
1
\W1.134;{\W0.817;. }　{\W0.817;.}　{\W0.817; }
7
STANDARD
11
1.00000
21
0.00000
31
0.0
0
TEXT
5
7ac
100
AcDbEntity
8
F-F
62
7
370
-3
100
AcDbText
10
517.191
20
31.187
30
0.0
40
3.282
1
　　　　　　　　　　
41
0.963
50
0.000
100
AcDbText
0
TEXT
5
7ad
100
AcDbEntity
8
F-F
62
7
370
-3
100
AcDbText
10
517.191
20
16.372
30
0.0
40
3.282
1
　　　　　　　　　　
41
0.963
50
0.000
100
AcDbText
0
TEXT
5
7ae
100
AcDbEntity
8
F-F
62
7
370
-3
100
AcDbText
10
658.923
20
31.960
30
0.0
40
3.282
1
　　　　　　　　　　　　　
41
0.963
50
0.000
100
AcDbText
0
TEXT
5
7af
100
AcDbEntity
8
F-F
62
7
370
-3
100
AcDbText
10
189.020
20
37.844
30
0.0
40
2.461
1
年　月　日
41
0.999
50
0.000
100
AcDbText
0
TEXT
5
7b0
100
AcDbEntity
8
F-F
62
7
370
-3
100
AcDbText
10
436.498
20
37.184
30
0.0
40
2.461
1
年　　月　　日
41
0.999
50
0.000
100
AcDbText
0
MTEXT
5
7b1
100
AcDbEntity
8
F-F
62
7
370
-3
100
AcDbMText
10
442.774
20
31.699
30
0.0
40
2.325
41
0.000
71
7
72
1
1
\W1.134;{\W0.817;.}　{\W0.817; }　{\W0.817;.}
7
STANDARD
11
1.00000
21
0.00000
31
0.0
0
TEXT
5
7b2
100
AcDbEntity
8
F-F
62
7
370
-3
100
AcDbText
10
407.912
20
22.661
30
0.0
40
2.461
1
受領　　日附
41
0.999
50
0.000
100
AcDbText
0
TEXT
5
7b3
100
AcDbEntity
8
F-F
62
7
370
-3
100
AcDbText
10
436.498
20
22.369
30
0.0
40
2.461
1
年　　月　　日
41
0.999
50
0.000
100
AcDbText
0
MTEXT
5
7b4
100
AcDbEntity
8
F-F
62
7
370
-3
100
AcDbMText
10
442.774
20
16.884
30
0.0
40
2.325
41
0.000
71
7
72
1
1
\W1.134;{\W0.817;.}　{\W0.817; }　{\W0.817;.}
7
STANDARD
11
1.00000
21
0.00000
31
0.0
0
MTEXT
5
7b5
100
AcDbEntity
8
F-F
62
7
370
-3
100
AcDbMText
10
624.217
20
30.842
30
0.0
40
2.325
41
0.000
71
7
72
1
1
\W1.134;{\W0.817;.}　　{\W0.817;.}　
7
STANDARD
11
1.00000
21
0.00000
31
0.0
0
TEXT
5
7b6
100
AcDbEntity
8
F-F
62
7
370
-3
100
AcDbText
10
771.848
20
22.754
30
0.0
40
2.461
1
縮　尺
41
0.999
50
0.000
100
AcDbText
0
TEXT
5
7b7
100
AcDbEntity
8
F-F
62
7
370
-3
100
AcDbText
10
83.334
20
14.383
30
0.0
40
3.282
1
電話（０５４）２６３－２２８０（代表）
41
0.963
50
0.000
100
AcDbText
0
TEXT
5
7b8
100
AcDbEntity
8
F-F
62
2
370
-3
100
AcDbText
10
61.385
20
30.579
30
0.0
40
6.564
1
小　池　弥　太　郎　商　店
41
0.963
50
0.000
100
AcDbText
0
TEXT
5
7b9
100
AcDbEntity
8
F-F
62
7
370
-3
100
AcDbText
10
83.332
20
21.800
30
0.0
40
3.282
1
静岡県静岡市葵区流通センター１６番
41
0.963
50
0.000
100
AcDbText
0
TEXT
5
7ba
100
AcDbEntity
8
F-F
62
7
370
-3
100
AcDbText
10
50.067
20
34.125
30
0.0
40
2.461
1
株
41
0.999
50
0.000
100
AcDbText
0
TEXT
5
7bb
100
AcDbEntity
8
F-F
62
7
370
-3
100
AcDbText
10
53.642
20
30.500
30
0.0
40
2.461
1
社
41
0.999
50
0.000
100
AcDbText
0
TEXT
5
7bc
100
AcDbEntity
8
F-F
62
7
370
-3
100
AcDbText
10
50.042
20
30.500
30
0.0
40
2.461
1
会
41
0.999
50
0.000
100
AcDbText
0
TEXT
5
7bd
100
AcDbEntity
8
F-F
62
7
370
-3
100
AcDbText
10
53.442
20
34.025
30
0.0
40
2.461
1
式
41
0.999
50
0.000
100
AcDbText
0
TEXT
5
7be
100
AcDbEntity
8
0-2
62
2
370
-3
100
AcDbText
10
538.673
20
194.662
30
0.0
40
5.743
41
0.668
50
90.000
1
90
72
1
11
539.311
21
198.562
31
0.0
100
AcDbText
73
1
0
TEXT
5
7bf
100
AcDbEntity
8
0-2
62
2
370
-3
100
AcDbText
10
642.321
20
144.712
30
0.0
40
5.743
41
0.829
50
90.000
1
10
72
1
11
642.959
21
148.612
31
0.0
100
AcDbText
73
1
0
TEXT
5
7c0
100
AcDbEntity
8
0-2
62
2
370
-3
100
AcDbText
10
551.788
20
300.925
30
0.0
40
7.384
41
0.650
50
0.000
1
300
72
1
11
559.101
21
300.104
31
0.0
100
AcDbText
73
1
0
TEXT
5
7c1
100
AcDbEntity
8
0-2
62
2
370
-3
100
AcDbText
10
739.038
20
300.925
30
0.0
40
7.384
41
0.629
50
0.000
1
@300
72
1
11
748.788
21
300.104
31
0.0
100
AcDbText
73
1
0
TEXT
5
7c2
100
AcDbEntity
8
0-2
62
2
370
-3
100
AcDbText
10
360.038
20
300.925
30
0.0
40
7.384
41
0.629
50
0.000
1
@300
72
1
11
369.788
21
300.104
31
0.0
100
AcDbText
73
1
0
TEXT
5
7c3
100
AcDbEntity
8
0-0
62
2
370
-3
100
AcDbText
10
422.460
20
500.301
30
0.0
40
5.743
41
0.647
50
0.000
1
30
72
1
11
426.360
21
499.663
31
0.0
100
AcDbText
73
1
0
TEXT
5
7c4
100
AcDbEntity
8
0-0
62
2
370
-3
100
AcDbText
10
698.960
20
500.301
30
0.0
40
5.743
41
0.983
50
0.000
1
11
72
1
11
702.860
21
499.663
31
0.0
100
AcDbText
73
1
0
TEXT
5
7c5
100
AcDbEntity
8
0-0
62
2
370
-3
100
AcDbText
10
719.959
20
469.107
30
0.0
40
5.743
41
0.716
50
90.000
1
18
72
1
11
720.597
21
473.007
31
0.0
100
AcDbText
73
1
0
TEXT
5
7c6
100
AcDbEntity
8
0-0
62
2
370
-3
100
AcDbText
10
467.024
20
460.988
30
0.0
40
5.743
41
0.527
50
90.000
1
2
72
1
11
467.663
21
462.938
31
0.0
100
AcDbText
73
1
0
TEXT
5
7c7
100
AcDbEntity
8
0-0
62
2
370
-3
100
AcDbText
10
458.025
20
470.738
30
0.0
40
5.743
41
0.686
50
90.000
1
21
72
1
11
458.663
21
474.638
31
0.0
100
AcDbText
73
1
0
TEXT
5
7c8
100
AcDbEntity
8
0-0
62
2
370
-3
100
AcDbText
10
553.210
20
354.481
30
0.0
40
5.743
41
0.787
50
0.000
1
100
72
1
11
559.060
21
353.843
31
0.0
100
AcDbText
73
1
0
TEXT
5
7c9
100
AcDbEntity
8
0-1
62
2
370
-3
100
AcDbText
10
148.948
20
300.625
30
0.0
40
5.743
41
0.721
50
0.000
1
150
72
1
11
154.798
21
299.987
31
0.0
100
AcDbText
73
1
0
TEXT
5
7ca
100
AcDbEntity
8
0-1
62
2
370
-3
100
AcDbText
10
276.747
20
144.662
30
0.0
40
5.743
41
0.829
50
90.000
1
10
72
1
11
277.385
21
148.562
31
0.0
100
AcDbText
73
1
0
TEXT
5
7cb
100
AcDbEntity
8
0-1
62
2
370
-3
100
AcDbText
10
276.747
20
194.612
30
0.0
40
5.743
41
0.668
50
90.000
1
90
72
1
11
277.385
21
198.512
31
0.0
100
AcDbText
73
1
0
TEXT
5
7cc
100
AcDbEntity
8
0-1
62
2
370
-3
100
AcDbText
10
276.747
20
251.112
30
0.0
40
5.743
41
0.556
50
90.000
1
23
72
1
11
277.385
21
255.012
31
0.0
100
AcDbText
73
1
0
TEXT
5
7cd
100
AcDbEntity
8
0-1
62
2
370
-3
100
AcDbText
10
291.747
20
199.412
30
0.0
40
5.743
41
0.650
50
90.000
1
123
72
1
11
292.385
21
205.262
31
0.0
100
AcDbText
73
1
0
TEXT
5
7ce
100
AcDbEntity
8
0-1
62
2
370
-3
100
AcDbText
10
202.361
20
211.717
30
0.0
40
5.743
1
吊子
41
0.979
50
360.000
100
AcDbText
0
TEXT
5
7cf
100
AcDbEntity
8
0-1
62
2
370
-3
100
AcDbText
10
75.254
20
193.420
30
0.0
40
5.743
1
タイトフレーム
41
0.979
50
0.000
100
AcDbText
0
TEXT
5
7d0
100
AcDbEntity
8
0-2
62
2
370
-3
100
AcDbText
10
434.092
20
255.833
30
0.0
40
5.743
1
吊子
41
0.979
50
0.000
100
AcDbText
0
TEXT
5
7d1
100
AcDbEntity
8
0-2
62
2
370
-3
100
AcDbText
10
420.740
20
160.220
30
0.0
40
5.743
1
タイトフレーム
41
0.979
50
0.000
100
AcDbText
0
TEXT
5
7d2
100
AcDbEntity
8
F-F
62
7
370
-3
100
AcDbText
10
783.506
20
20.823
30
0.0
40
3.282
1
Ａ１－１／１　
41
0.963
50
0.000
100
AcDbText
0
TEXT
5
7d3
100
AcDbEntity
8
F-F
62
7
370
-3
100
AcDbText
10
783.506
20
13.416
30
0.0
40
3.282
1
Ａ３－１／２　
41
0.963
50
0.000
100
AcDbText
0
TEXT
5
7d4
100
AcDbEntity
8
0-0
62
2
370
-3
100
AcDbText
10
531.390
20
413.338
30
0.0
40
5.743
41
0.668
50
90.000
1
90
72
1
11
532.028
21
417.238
31
0.0
100
AcDbText
73
1
0
TEXT
5
7d5
100
AcDbEntity
8
0-2
62
2
370
-3
100
AcDbText
10
538.673
20
251.112
30
0.0
40
5.743
41
0.686
50
90.000
1
21
72
1
11
539.311
21
255.012
31
0.0
100
AcDbText
73
1
0
TEXT
5
7d6
100
AcDbEntity
8
0-0
62
2
370
-3
100
AcDbText
10
689.460
20
444.293
30
0.0
40
5.743
41
0.647
50
0.000
1
30
72
1
11
693.360
21
443.655
31
0.0
100
AcDbText
73
1
0
TEXT
5
7d7
100
AcDbEntity
8
0-0
62
2
370
-3
100
AcDbText
10
378.821
20
472.475
30
0.0
40
5.743
41
0.716
50
90.000
1
18
72
1
11
379.459
21
476.375
31
0.0
100
AcDbText
73
1
0
TEXT
5
7d8
100
AcDbEntity
8
0-0
62
2
370
-3
100
AcDbText
10
683.960
20
500.301
30
0.0
40
5.743
41
0.764
50
0.000
1
19
72
1
11
687.860
21
499.663
31
0.0
100
AcDbText
73
1
0
TEXT
5
7d9
100
AcDbEntity
8
0-0
62
2
370
-3
100
AcDbText
10
399.460
20
500.301
30
0.0
40
5.743
41
0.727
50
0.000
1
16
72
1
11
403.360
21
499.663
31
0.0
100
AcDbText
73
1
0
TEXT
5
7da
100
AcDbEntity
8
0-1
62
2
370
-3
100
AcDbText
10
150.198
20
174.950
30
0.0
40
5.743
41
0.668
50
0.000
1
40
72
1
11
154.098
21
174.311
31
0.0
100
AcDbText
73
1
0
TEXT
5
7db
100
AcDbEntity
8
0-0
62
2
370
-3
100
AcDbText
10
552.038
20
519.600
30
0.0
40
7.384
41
0.650
50
0.000
1
300
72
1
11
559.351
21
518.780
31
0.0
100
AcDbText
73
1
0
TEXT
5
7dc
100
AcDbEntity
8
0-2
62
2
370
-3
100
AcDbText
10
606.176
20
248.877
30
0.0
40
5.743
1
ＫＲ角ハゼ３００
41
0.979
50
0.000
100
AcDbText
0
TEXT
5
7dd
100
AcDbEntity
8
F-F
62
7
370
-3
100
AcDbText
10
611.358
20
15.783
30
0.0
40
2.461
1
MA 2015-05-26
41
0.647
50
0.000
100
AcDbText
0
TEXT
5
7de
100
AcDbEntity
8
F-F
62
7
370
-3
100
AcDbText
10
658.923
20
17.145
30
0.0
40
3.282
1
コイケルーフ角ハゼ折板　ＫＲ３００ハゼ　断面図
41
0.963
50
0.000
100
AcDbText
0
TEXT
5
7df
100
AcDbEntity
8
F-F
62
3
370
-3
100
AcDbText
10
779.417
20
30.593
30
0.0
40
4.102
1
KR300 - 01
41
0.687
50
0.000
100
AcDbText
0
POLYLINE
5
7e0
100
AcDbEntity
  8
F-F
6
CONTINUOUS
62
3
100
AcDb2dPolyline
66
1
10
0
20
0
70
1
40
0.400
41
0.400
0
VERTEX
5
7e1
100
AcDbEntity
  8
F-F
6
CONTINUOUS
62
3
100
AcDbVertex
100
AcDb2dVertex
10
27.179
20
571.820
30
0.0
42
1.000
0
VERTEX
5
7e2
100
AcDbEntity
  8
F-F
6
CONTINUOUS
62
3
100
AcDbVertex
100
AcDb2dVertex
10
27.579
20
571.820
30
0.0
42
1.000
0
SEQEND
5
7e3
100
AcDbEntity
  8
F-F
0
POLYLINE
5
7e4
100
AcDbEntity
  8
0-2
6
CONTINUOUS
62
4
100
AcDb2dPolyline
66
1
10
0
20
0
70
1
40
0.400
41
0.400
0
VERTEX
5
7e5
100
AcDbEntity
  8
0-2
6
CONTINUOUS
62
4
100
AcDbVertex
100
AcDb2dVertex
10
643.668
20
142.689
30
0.0
42
1.000
0
VERTEX
5
7e6
100
AcDbEntity
  8
0-2
6
CONTINUOUS
62
4
100
AcDbVertex
100
AcDb2dVertex
10
644.068
20
142.689
30
0.0
42
1.000
0
SEQEND
5
7e7
100
AcDbEntity
  8
0-2
0
POLYLINE
5
7e8
100
AcDbEntity
  8
0-2
6
CONTINUOUS
62
4
100
AcDb2dPolyline
66
1
10
0
20
0
70
1
40
0.400
41
0.400
0
VERTEX
5
7e9
100
AcDbEntity
  8
0-2
6
CONTINUOUS
62
4
100
AcDbVertex
100
AcDb2dVertex
10
643.668
20
152.689
30
0.0
42
1.000
0
VERTEX
5
7ea
100
AcDbEntity
  8
0-2
6
CONTINUOUS
62
4
100
AcDbVertex
100
AcDb2dVertex
10
644.068
20
152.689
30
0.0
42
1.000
0
SEQEND
5
7eb
100
AcDbEntity
  8
0-2
0
POLYLINE
5
7ec
100
AcDbEntity
  8
0-2
6
CONTINUOUS
62
4
100
AcDb2dPolyline
66
1
10
0
20
0
70
1
40
0.400
41
0.400
0
VERTEX
5
7ed
100
AcDbEntity
  8
0-2
6
CONTINUOUS
62
4
100
AcDbVertex
100
AcDb2dVertex
10
540.021
20
152.689
30
0.0
42
1.000
0
VERTEX
5
7ee
100
AcDbEntity
  8
0-2
6
CONTINUOUS
62
4
100
AcDbVertex
100
AcDb2dVertex
10
540.421
20
152.689
30
0.0
42
1.000
0
SEQEND
5
7ef
100
AcDbEntity
  8
0-2
0
POLYLINE
5
7f0
100
AcDbEntity
  8
0-2
6
CONTINUOUS
62
4
100
AcDb2dPolyline
66
1
10
0
20
0
70
1
40
0.400
41
0.400
0
VERTEX
5
7f1
100
AcDbEntity
  8
0-2
6
CONTINUOUS
62
4
100
AcDbVertex
100
AcDb2dVertex
10
540.021
20
242.589
30
0.0
42
1.000
0
VERTEX
5
7f2
100
AcDbEntity
  8
0-2
6
CONTINUOUS
62
4
100
AcDbVertex
100
AcDb2dVertex
10
540.421
20
242.589
30
0.0
42
1.000
0
SEQEND
5
7f3
100
AcDbEntity
  8
0-2
0
POLYLINE
5
7f4
100
AcDbEntity
  8
0-2
6
CONTINUOUS
62
4
100
AcDb2dPolyline
66
1
10
0
20
0
70
1
40
0.400
41
0.400
0
VERTEX
5
7f5
100
AcDbEntity
  8
0-2
6
CONTINUOUS
62
4
100
AcDbVertex
100
AcDb2dVertex
10
540.021
20
265.589
30
0.0
42
1.000
0
VERTEX
5
7f6
100
AcDbEntity
  8
0-2
6
CONTINUOUS
62
4
100
AcDbVertex
100
AcDb2dVertex
10
540.421
20
265.589
30
0.0
42
1.000
0
SEQEND
5
7f7
100
AcDbEntity
  8
0-2
0
POLYLINE
5
7f8
100
AcDbEntity
  8
0-0
6
CONTINUOUS
62
4
100
AcDb2dPolyline
66
1
10
0
20
0
70
1
40
0.400
41
0.400
0
VERTEX
5
7f9
100
AcDbEntity
  8
0-0
6
CONTINUOUS
62
4
100
AcDbVertex
100
AcDb2dVertex
10
380.168
20
466.689
30
0.0
42
1.000
0
VERTEX
5
7fa
100
AcDbEntity
  8
0-0
6
CONTINUOUS
62
4
100
AcDbVertex
100
AcDb2dVertex
10
380.568
20
466.689
30
0.0
42
1.000
0
SEQEND
5
7fb
100
AcDbEntity
  8
0-0
0
POLYLINE
5
7fc
100
AcDbEntity
  8
0-0
6
CONTINUOUS
62
4
100
AcDb2dPolyline
66
1
10
0
20
0
70
1
40
0.400
41
0.400
0
VERTEX
5
7fd
100
AcDbEntity
  8
0-0
6
CONTINUOUS
62
4
100
AcDbVertex
100
AcDb2dVertex
10
380.168
20
484.215
30
0.0
42
1.000
0
VERTEX
5
7fe
100
AcDbEntity
  8
0-0
6
CONTINUOUS
62
4
100
AcDbVertex
100
AcDb2dVertex
10
380.568
20
484.215
30
0.0
42
1.000
0
SEQEND
5
7ff
100
AcDbEntity
  8
0-0
0
POLYLINE
5
800
100
AcDbEntity
  8
0-0
6
CONTINUOUS
62
4
100
AcDb2dPolyline
66
1
10
0
20
0
70
1
40
0.400
41
0.400
0
VERTEX
5
801
100
AcDbEntity
  8
0-0
6
CONTINUOUS
62
4
100
AcDbVertex
100
AcDb2dVertex
10
459.372
20
461.215
30
0.0
42
1.000
0
VERTEX
5
802
100
AcDbEntity
  8
0-0
6
CONTINUOUS
62
4
100
AcDbVertex
100
AcDb2dVertex
10
459.772
20
461.215
30
0.0
42
1.000
0
SEQEND
5
803
100
AcDbEntity
  8
0-0
0
POLYLINE
5
804
100
AcDbEntity
  8
0-0
6
CONTINUOUS
62
4
100
AcDb2dPolyline
66
1
10
0
20
0
70
1
40
0.400
41
0.400
0
VERTEX
5
805
100
AcDbEntity
  8
0-0
6
CONTINUOUS
62
4
100
AcDbVertex
100
AcDb2dVertex
10
459.372
20
463.215
30
0.0
42
1.000
0
VERTEX
5
806
100
AcDbEntity
  8
0-0
6
CONTINUOUS
62
4
100
AcDbVertex
100
AcDb2dVertex
10
459.772
20
463.215
30
0.0
42
1.000
0
SEQEND
5
807
100
AcDbEntity
  8
0-0
0
POLYLINE
5
808
100
AcDbEntity
  8
0-0
6
CONTINUOUS
62
4
100
AcDb2dPolyline
66
1
10
0
20
0
70
1
40
0.400
41
0.400
0
VERTEX
5
809
100
AcDbEntity
  8
0-0
6
CONTINUOUS
62
4
100
AcDbVertex
100
AcDb2dVertex
10
459.372
20
484.215
30
0.0
42
1.000
0
VERTEX
5
80a
100
AcDbEntity
  8
0-0
6
CONTINUOUS
62
4
100
AcDbVertex
100
AcDb2dVertex
10
459.772
20
484.215
30
0.0
42
1.000
0
SEQEND
5
80b
100
AcDbEntity
  8
0-0
0
POLYLINE
5
80c
100
AcDbEntity
  8
0-0
6
CONTINUOUS
62
4
100
AcDb2dPolyline
66
1
10
0
20
0
70
1
40
0.400
41
0.400
0
VERTEX
5
80d
100
AcDbEntity
  8
0-0
6
CONTINUOUS
62
4
100
AcDbVertex
100
AcDb2dVertex
10
394.237
20
498.753
30
0.0
42
1.000
0
VERTEX
5
80e
100
AcDbEntity
  8
0-0
6
CONTINUOUS
62
4
100
AcDbVertex
100
AcDb2dVertex
10
394.637
20
498.753
30
0.0
42
1.000
0
SEQEND
5
80f
100
AcDbEntity
  8
0-0
0
POLYLINE
5
810
100
AcDbEntity
  8
0-0
6
CONTINUOUS
62
4
100
AcDb2dPolyline
66
1
10
0
20
0
70
1
40
0.400
41
0.400
0
VERTEX
5
811
100
AcDbEntity
  8
0-0
6
CONTINUOUS
62
4
100
AcDbVertex
100
AcDb2dVertex
10
410.237
20
498.753
30
0.0
42
1.000
0
VERTEX
5
812
100
AcDbEntity
  8
0-0
6
CONTINUOUS
62
4
100
AcDbVertex
100
AcDb2dVertex
10
410.637
20
498.753
30
0.0
42
1.000
0
SEQEND
5
813
100
AcDbEntity
  8
0-0
0
POLYLINE
5
814
100
AcDbEntity
  8
0-0
6
CONTINUOUS
62
4
100
AcDb2dPolyline
66
1
10
0
20
0
70
1
40
0.400
41
0.400
0
VERTEX
5
815
100
AcDbEntity
  8
0-0
6
CONTINUOUS
62
4
100
AcDbVertex
100
AcDb2dVertex
10
440.237
20
498.753
30
0.0
42
1.000
0
VERTEX
5
816
100
AcDbEntity
  8
0-0
6
CONTINUOUS
62
4
100
AcDbVertex
100
AcDb2dVertex
10
440.637
20
498.753
30
0.0
42
1.000
0
SEQEND
5
817
100
AcDbEntity
  8
0-0
0
POLYLINE
5
818
100
AcDbEntity
  8
0-0
6
CONTINUOUS
62
4
100
AcDb2dPolyline
66
1
10
0
20
0
70
1
40
0.400
41
0.400
0
VERTEX
5
819
100
AcDbEntity
  8
0-0
6
CONTINUOUS
62
4
100
AcDbVertex
100
AcDb2dVertex
10
677.237
20
498.753
30
0.0
42
1.000
0
VERTEX
5
81a
100
AcDbEntity
  8
0-0
6
CONTINUOUS
62
4
100
AcDbVertex
100
AcDb2dVertex
10
677.637
20
498.753
30
0.0
42
1.000
0
SEQEND
5
81b
100
AcDbEntity
  8
0-0
0
POLYLINE
5
81c
100
AcDbEntity
  8
0-0
6
CONTINUOUS
62
4
100
AcDb2dPolyline
66
1
10
0
20
0
70
1
40
0.400
41
0.400
0
VERTEX
5
81d
100
AcDbEntity
  8
0-0
6
CONTINUOUS
62
4
100
AcDbVertex
100
AcDb2dVertex
10
707.237
20
442.745
30
0.0
42
1.000
0
VERTEX
5
81e
100
AcDbEntity
  8
0-0
6
CONTINUOUS
62
4
100
AcDbVertex
100
AcDb2dVertex
10
707.637
20
442.745
30
0.0
42
1.000
0
SEQEND
5
81f
100
AcDbEntity
  8
0-0
0
POLYLINE
5
820
100
AcDbEntity
  8
0-0
6
CONTINUOUS
62
4
100
AcDb2dPolyline
66
1
10
0
20
0
70
1
40
0.400
41
0.400
0
VERTEX
5
821
100
AcDbEntity
  8
0-0
6
CONTINUOUS
62
4
100
AcDbVertex
100
AcDb2dVertex
10
677.237
20
442.745
30
0.0
42
1.000
0
VERTEX
5
822
100
AcDbEntity
  8
0-0
6
CONTINUOUS
62
4
100
AcDbVertex
100
AcDb2dVertex
10
677.637
20
442.745
30
0.0
42
1.000
0
SEQEND
5
823
100
AcDbEntity
  8
0-0
0
POLYLINE
5
824
100
AcDbEntity
  8
0-0
6
CONTINUOUS
62
4
100
AcDb2dPolyline
66
1
10
0
20
0
70
1
40
0.400
41
0.400
0
VERTEX
5
825
100
AcDbEntity
  8
0-0
6
CONTINUOUS
62
4
100
AcDbVertex
100
AcDb2dVertex
10
696.237
20
498.753
30
0.0
42
1.000
0
VERTEX
5
826
100
AcDbEntity
  8
0-0
6
CONTINUOUS
62
4
100
AcDbVertex
100
AcDb2dVertex
10
696.637
20
498.753
30
0.0
42
1.000
0
SEQEND
5
827
100
AcDbEntity
  8
0-0
0
POLYLINE
5
828
100
AcDbEntity
  8
0-0
6
CONTINUOUS
62
4
100
AcDb2dPolyline
66
1
10
0
20
0
70
1
40
0.400
41
0.400
0
VERTEX
5
829
100
AcDbEntity
  8
0-0
6
CONTINUOUS
62
4
100
AcDbVertex
100
AcDb2dVertex
10
707.237
20
498.753
30
0.0
42
1.000
0
VERTEX
5
82a
100
AcDbEntity
  8
0-0
6
CONTINUOUS
62
4
100
AcDbVertex
100
AcDb2dVertex
10
707.637
20
498.753
30
0.0
42
1.000
0
SEQEND
5
82b
100
AcDbEntity
  8
0-0
0
POLYLINE
5
82c
100
AcDbEntity
  8
0-0
6
CONTINUOUS
62
4
100
AcDb2dPolyline
66
1
10
0
20
0
70
1
40
0.400
41
0.400
0
VERTEX
5
82d
100
AcDbEntity
  8
0-0
6
CONTINUOUS
62
4
100
AcDbVertex
100
AcDb2dVertex
10
721.307
20
481.015
30
0.0
42
1.000
0
VERTEX
5
82e
100
AcDbEntity
  8
0-0
6
CONTINUOUS
62
4
100
AcDbVertex
100
AcDb2dVertex
10
721.707
20
481.015
30
0.0
42
1.000
0
SEQEND
5
82f
100
AcDbEntity
  8
0-0
0
POLYLINE
5
830
100
AcDbEntity
  8
0-0
6
CONTINUOUS
62
4
100
AcDb2dPolyline
66
1
10
0
20
0
70
1
40
0.400
41
0.400
0
VERTEX
5
831
100
AcDbEntity
  8
0-0
6
CONTINUOUS
62
4
100
AcDbVertex
100
AcDb2dVertex
10
721.307
20
463.152
30
0.0
42
1.000
0
VERTEX
5
832
100
AcDbEntity
  8
0-0
6
CONTINUOUS
62
4
100
AcDbVertex
100
AcDb2dVertex
10
721.707
20
463.152
30
0.0
42
1.000
0
SEQEND
5
833
100
AcDbEntity
  8
0-0
0
POLYLINE
5
834
100
AcDbEntity
  8
0-2
6
CONTINUOUS
62
4
100
AcDb2dPolyline
66
1
10
0
20
0
70
1
40
0.400
41
0.400
0
VERTEX
5
835
100
AcDbEntity
  8
0-2
6
CONTINUOUS
62
4
100
AcDbVertex
100
AcDb2dVertex
10
407.737
20
299.078
30
0.0
42
1.000
0
VERTEX
5
836
100
AcDbEntity
  8
0-2
6
CONTINUOUS
62
4
100
AcDbVertex
100
AcDb2dVertex
10
408.137
20
299.078
30
0.0
42
1.000
0
SEQEND
5
837
100
AcDbEntity
  8
0-2
0
POLYLINE
5
838
100
AcDbEntity
  8
0-2
6
CONTINUOUS
62
4
100
AcDb2dPolyline
66
1
10
0
20
0
70
1
40
0.400
41
0.400
0
VERTEX
5
839
100
AcDbEntity
  8
0-2
6
CONTINUOUS
62
4
100
AcDbVertex
100
AcDb2dVertex
10
707.737
20
299.078
30
0.0
42
1.000
0
VERTEX
5
83a
100
AcDbEntity
  8
0-2
6
CONTINUOUS
62
4
100
AcDbVertex
100
AcDb2dVertex
10
708.137
20
299.078
30
0.0
42
1.000
0
SEQEND
5
83b
100
AcDbEntity
  8
0-2
0
POLYLINE
5
83c
100
AcDbEntity
  8
0-0
6
CONTINUOUS
62
4
100
AcDb2dPolyline
66
1
10
0
20
0
70
1
40
0.400
41
0.400
0
VERTEX
5
83d
100
AcDbEntity
  8
0-0
6
CONTINUOUS
62
4
100
AcDbVertex
100
AcDb2dVertex
10
507.737
20
352.933
30
0.0
42
1.000
0
VERTEX
5
83e
100
AcDbEntity
  8
0-0
6
CONTINUOUS
62
4
100
AcDbVertex
100
AcDb2dVertex
10
508.137
20
352.933
30
0.0
42
1.000
0
SEQEND
5
83f
100
AcDbEntity
  8
0-0
0
POLYLINE
5
840
100
AcDbEntity
  8
0-0
6
CONTINUOUS
62
4
100
AcDb2dPolyline
66
1
10
0
20
0
70
1
40
0.400
41
0.400
0
VERTEX
5
841
100
AcDbEntity
  8
0-0
6
CONTINUOUS
62
4
100
AcDbVertex
100
AcDb2dVertex
10
607.737
20
352.933
30
0.0
42
1.000
0
VERTEX
5
842
100
AcDbEntity
  8
0-0
6
CONTINUOUS
62
4
100
AcDbVertex
100
AcDb2dVertex
10
608.137
20
352.933
30
0.0
42
1.000
0
SEQEND
5
843
100
AcDbEntity
  8
0-0
0
POLYLINE
5
844
100
AcDbEntity
  8
0-0
6
CONTINUOUS
62
4
100
AcDb2dPolyline
66
1
10
0
20
0
70
1
40
0.400
41
0.400
0
VERTEX
5
845
100
AcDbEntity
  8
0-0
6
CONTINUOUS
62
4
100
AcDbVertex
100
AcDb2dVertex
10
532.737
20
371.315
30
0.0
42
1.000
0
VERTEX
5
846
100
AcDbEntity
  8
0-0
6
CONTINUOUS
62
4
100
AcDbVertex
100
AcDb2dVertex
10
533.137
20
371.315
30
0.0
42
1.000
0
SEQEND
5
847
100
AcDbEntity
  8
0-0
0
POLYLINE
5
848
100
AcDbEntity
  8
0-0
6
CONTINUOUS
62
4
100
AcDb2dPolyline
66
1
10
0
20
0
70
1
40
0.400
41
0.400
0
VERTEX
5
849
100
AcDbEntity
  8
0-0
6
CONTINUOUS
62
4
100
AcDbVertex
100
AcDb2dVertex
10
532.737
20
463.215
30
0.0
42
1.000
0
VERTEX
5
84a
100
AcDbEntity
  8
0-0
6
CONTINUOUS
62
4
100
AcDbVertex
100
AcDb2dVertex
10
533.137
20
463.215
30
0.0
42
1.000
0
SEQEND
5
84b
100
AcDbEntity
  8
0-0
0
POLYLINE
5
84c
100
AcDbEntity
  8
0-1
6
CONTINUOUS
62
4
100
AcDb2dPolyline
66
1
10
0
20
0
70
1
40
0.400
41
0.400
0
VERTEX
5
84d
100
AcDbEntity
  8
0-1
6
CONTINUOUS
62
4
100
AcDbVertex
100
AcDb2dVertex
10
78.475
20
299.078
30
0.0
42
1.000
0
VERTEX
5
84e
100
AcDbEntity
  8
0-1
6
CONTINUOUS
62
4
100
AcDbVertex
100
AcDb2dVertex
10
78.875
20
299.078
30
0.0
42
1.000
0
SEQEND
5
84f
100
AcDbEntity
  8
0-1
0
POLYLINE
5
850
100
AcDbEntity
  8
0-1
6
CONTINUOUS
62
4
100
AcDb2dPolyline
66
1
10
0
20
0
70
1
40
0.400
41
0.400
0
VERTEX
5
851
100
AcDbEntity
  8
0-1
6
CONTINUOUS
62
4
100
AcDbVertex
100
AcDb2dVertex
10
228.475
20
299.078
30
0.0
42
1.000
0
VERTEX
5
852
100
AcDbEntity
  8
0-1
6
CONTINUOUS
62
4
100
AcDbVertex
100
AcDb2dVertex
10
228.875
20
299.078
30
0.0
42
1.000
0
SEQEND
5
853
100
AcDbEntity
  8
0-1
0
POLYLINE
5
854
100
AcDbEntity
  8
0-1
6
CONTINUOUS
62
4
100
AcDb2dPolyline
66
1
10
0
20
0
70
1
40
0.400
41
0.400
0
VERTEX
5
855
100
AcDbEntity
  8
0-1
6
CONTINUOUS
62
4
100
AcDbVertex
100
AcDb2dVertex
10
133.475
20
173.402
30
0.0
42
1.000
0
VERTEX
5
856
100
AcDbEntity
  8
0-1
6
CONTINUOUS
62
4
100
AcDbVertex
100
AcDb2dVertex
10
133.875
20
173.402
30
0.0
42
1.000
0
SEQEND
5
857
100
AcDbEntity
  8
0-1
0
POLYLINE
5
858
100
AcDbEntity
  8
0-1
6
CONTINUOUS
62
4
100
AcDb2dPolyline
66
1
10
0
20
0
70
1
40
0.400
41
0.400
0
VERTEX
5
859
100
AcDbEntity
  8
0-1
6
CONTINUOUS
62
4
100
AcDbVertex
100
AcDb2dVertex
10
173.475
20
173.402
30
0.0
42
1.000
0
VERTEX
5
85a
100
AcDbEntity
  8
0-1
6
CONTINUOUS
62
4
100
AcDbVertex
100
AcDb2dVertex
10
173.875
20
173.402
30
0.0
42
1.000
0
SEQEND
5
85b
100
AcDbEntity
  8
0-1
0
POLYLINE
5
85c
100
AcDbEntity
  8
0-1
6
CONTINUOUS
62
4
100
AcDb2dPolyline
66
1
10
0
20
0
70
1
40
0.400
41
0.400
0
VERTEX
5
85d
100
AcDbEntity
  8
0-1
6
CONTINUOUS
62
4
100
AcDbVertex
100
AcDb2dVertex
10
278.094
20
142.688
30
0.0
42
1.000
0
VERTEX
5
85e
100
AcDbEntity
  8
0-1
6
CONTINUOUS
62
4
100
AcDbVertex
100
AcDb2dVertex
10
278.494
20
142.688
30
0.0
42
1.000
0
SEQEND
5
85f
100
AcDbEntity
  8
0-1
0
POLYLINE
5
860
100
AcDbEntity
  8
0-1
6
CONTINUOUS
62
4
100
AcDb2dPolyline
66
1
10
0
20
0
70
1
40
0.400
41
0.400
0
VERTEX
5
861
100
AcDbEntity
  8
0-1
6
CONTINUOUS
62
4
100
AcDbVertex
100
AcDb2dVertex
10
278.094
20
152.589
30
0.0
42
1.000
0
VERTEX
5
862
100
AcDbEntity
  8
0-1
6
CONTINUOUS
62
4
100
AcDbVertex
100
AcDb2dVertex
10
278.494
20
152.589
30
0.0
42
1.000
0
SEQEND
5
863
100
AcDbEntity
  8
0-1
0
POLYLINE
5
864
100
AcDbEntity
  8
0-1
6
CONTINUOUS
62
4
100
AcDb2dPolyline
66
1
10
0
20
0
70
1
40
0.400
41
0.400
0
VERTEX
5
865
100
AcDbEntity
  8
0-1
6
CONTINUOUS
62
4
100
AcDbVertex
100
AcDb2dVertex
10
278.094
20
242.589
30
0.0
42
1.000
0
VERTEX
5
866
100
AcDbEntity
  8
0-1
6
CONTINUOUS
62
4
100
AcDbVertex
100
AcDb2dVertex
10
278.494
20
242.589
30
0.0
42
1.000
0
SEQEND
5
867
100
AcDbEntity
  8
0-1
0
POLYLINE
5
868
100
AcDbEntity
  8
0-1
6
CONTINUOUS
62
4
100
AcDb2dPolyline
66
1
10
0
20
0
70
1
40
0.400
41
0.400
0
VERTEX
5
869
100
AcDbEntity
  8
0-1
6
CONTINUOUS
62
4
100
AcDbVertex
100
AcDb2dVertex
10
278.094
20
265.589
30
0.0
42
1.000
0
VERTEX
5
86a
100
AcDbEntity
  8
0-1
6
CONTINUOUS
62
4
100
AcDbVertex
100
AcDb2dVertex
10
278.494
20
265.589
30
0.0
42
1.000
0
SEQEND
5
86b
100
AcDbEntity
  8
0-1
0
POLYLINE
5
86c
100
AcDbEntity
  8
0-1
6
CONTINUOUS
62
4
100
AcDb2dPolyline
66
1
10
0
20
0
70
1
40
0.400
41
0.400
0
VERTEX
5
86d
100
AcDbEntity
  8
0-1
6
CONTINUOUS
62
4
100
AcDbVertex
100
AcDb2dVertex
10
293.094
20
142.688
30
0.0
42
1.000
0
VERTEX
5
86e
100
AcDbEntity
  8
0-1
6
CONTINUOUS
62
4
100
AcDbVertex
100
AcDb2dVertex
10
293.494
20
142.688
30
0.0
42
1.000
0
SEQEND
5
86f
100
AcDbEntity
  8
0-1
0
POLYLINE
5
870
100
AcDbEntity
  8
0-1
6
CONTINUOUS
62
4
100
AcDb2dPolyline
66
1
10
0
20
0
70
1
40
0.400
41
0.400
0
VERTEX
5
871
100
AcDbEntity
  8
0-1
6
CONTINUOUS
62
4
100
AcDbVertex
100
AcDb2dVertex
10
293.094
20
265.589
30
0.0
42
1.000
0
VERTEX
5
872
100
AcDbEntity
  8
0-1
6
CONTINUOUS
62
4
100
AcDbVertex
100
AcDb2dVertex
10
293.494
20
265.589
30
0.0
42
1.000
0
SEQEND
5
873
100
AcDbEntity
  8
0-1
0
POLYLINE
5
874
100
AcDbEntity
  8
0-0
6
CONTINUOUS
62
4
100
AcDb2dPolyline
66
1
10
0
20
0
70
1
40
0.400
41
0.400
0
VERTEX
5
875
100
AcDbEntity
  8
0-0
6
CONTINUOUS
62
4
100
AcDbVertex
100
AcDb2dVertex
10
707.237
20
517.753
30
0.0
42
1.000
0
VERTEX
5
876
100
AcDbEntity
  8
0-0
6
CONTINUOUS
62
4
100
AcDbVertex
100
AcDb2dVertex
10
707.637
20
517.753
30
0.0
42
1.000
0
SEQEND
5
877
100
AcDbEntity
  8
0-0
0
POLYLINE
5
878
100
AcDbEntity
  8
0-0
6
CONTINUOUS
62
4
100
AcDb2dPolyline
66
1
10
0
20
0
70
1
40
0.400
41
0.400
0
VERTEX
5
879
100
AcDbEntity
  8
0-0
6
CONTINUOUS
62
4
100
AcDbVertex
100
AcDb2dVertex
10
410.237
20
517.753
30
0.0
42
1.000
0
VERTEX
5
87a
100
AcDbEntity
  8
0-0
6
CONTINUOUS
62
4
100
AcDbVertex
100
AcDb2dVertex
10
410.637
20
517.753
30
0.0
42
1.000
0
SEQEND
5
87b
100
AcDbEntity
  8
0-0
0
POLYLINE
5
87c
100
AcDbEntity
  8
0-1
6
CONTINUOUS
62
4
100
AcDb2dPolyline
66
1
10
0
20
0
70
1
40
0.400
41
0.400
0
VERTEX
5
87d
100
AcDbEntity
  8
0-1
6
CONTINUOUS
62
4
100
AcDbVertex
100
AcDb2dVertex
10
198.294
20
231.023
30
0.0
42
1.000
0
VERTEX
5
87e
100
AcDbEntity
  8
0-1
6
CONTINUOUS
62
4
100
AcDbVertex
100
AcDb2dVertex
10
198.694
20
231.023
30
0.0
42
1.000
0
SEQEND
5
87f
100
AcDbEntity
  8
0-1
0
POLYLINE
5
880
100
AcDbEntity
  8
0-1
6
CONTINUOUS
62
4
100
AcDb2dPolyline
66
1
10
0
20
0
70
1
40
0.400
41
0.400
0
VERTEX
5
881
100
AcDbEntity
  8
0-1
6
CONTINUOUS
62
4
100
AcDbVertex
100
AcDb2dVertex
10
133.475
20
178.893
30
0.0
42
1.000
0
VERTEX
5
882
100
AcDbEntity
  8
0-1
6
CONTINUOUS
62
4
100
AcDbVertex
100
AcDb2dVertex
10
133.875
20
178.893
30
0.0
42
1.000
0
SEQEND
5
883
100
AcDbEntity
  8
0-1
0
POLYLINE
5
884
100
AcDbEntity
  8
0-2
6
CONTINUOUS
62
4
100
AcDb2dPolyline
66
1
10
0
20
0
70
1
40
0.400
41
0.400
0
VERTEX
5
885
100
AcDbEntity
  8
0-2
6
CONTINUOUS
62
4
100
AcDbVertex
100
AcDb2dVertex
10
408.337
20
232.850
30
0.0
42
1.000
0
VERTEX
5
886
100
AcDbEntity
  8
0-2
6
CONTINUOUS
62
4
100
AcDbVertex
100
AcDb2dVertex
10
408.737
20
232.850
30
0.0
42
1.000
0
SEQEND
5
887
100
AcDbEntity
  8
0-2
0
POLYLINE
5
888
100
AcDbEntity
  8
0-2
6
CONTINUOUS
62
4
100
AcDb2dPolyline
66
1
10
0
20
0
70
1
40
0.400
41
0.400
0
VERTEX
5
889
100
AcDbEntity
  8
0-2
6
CONTINUOUS
62
4
100
AcDbVertex
100
AcDb2dVertex
10
470.968
20
178.652
30
0.0
42
1.000
0
VERTEX
5
88a
100
AcDbEntity
  8
0-2
6
CONTINUOUS
62
4
100
AcDbVertex
100
AcDb2dVertex
10
471.368
20
178.652
30
0.0
42
1.000
0
SEQEND
5
88b
100
AcDbEntity
  8
0-2
0
POLYLINE
5
88c
100
AcDbEntity
  8
0-2
6
CONTINUOUS
62
4
100
AcDb2dPolyline
66
1
10
0
20
0
70
1
40
0.400
41
0.400
0
VERTEX
5
88d
100
AcDbEntity
  8
0-2
6
CONTINUOUS
62
4
100
AcDbVertex
100
AcDb2dVertex
10
660.668
20
219.648
30
0.0
42
1.000
0
VERTEX
5
88e
100
AcDbEntity
  8
0-2
6
CONTINUOUS
62
4
100
AcDbVertex
100
AcDb2dVertex
10
661.068
20
219.648
30
0.0
42
1.000
0
SEQEND
5
88f
100
AcDbEntity
  8
0-2
0
ENDSEC
 0
SECTION
  2
OBJECTS
 0
DICTIONARY
  5
C
100
AcDbDictionary
  3
ACAD_GROUP
350
D
  3
ACAD_MLINESTYLE
350
E
 0
DICTIONARY
  5
D
102
{ACAD_REACTORS
102
}
100
AcDbDictionary
 0
DICTIONARY
  5
E
102
{ACAD_REACTORS
102
}
100
AcDbDictionary
  3
STANDARD
350
13
0
MLINESTYLE
  5
13
102
{ACAD_REACTORS
102
}
100
AcDbMlineStyle
  2
STANDARD
 70
    0
3

62
256
51
90.0
52
90.0
71
0
0
ACDBPLACEHOLDER
  5
14
102
{ACAD_REACTORS
102
}
0
ENDSEC
0
EOF
