0
SECTION
2
HEADER
9
$ACADVER
1
AC1009
9
$DWGCODEPAGE
3
ANSI_932
9
$EXTMIN
10
0.000
20
0.000
30
0.0
9
$EXTMAX
10
1189.000
20
841.000
30
0.0
9
$LTSCALE
40
2.000
9
$PDMODE
70
0
9
$PDSIZE
40
40.0
0
ENDSEC
0
SECTION
2
TABLES
0
TABLE
2
LTYPE
70
9
0
LTYPE
5
1f4
2
CONTINUOUS
70
64
3
SolidLine
72
65
73
0
40
0.0
0
LTYPE
5
1f5
2
DOT
70
64
3
--  --  --  --  --  --  --  --     
72
65
73
2
40
3.000
49
1.000
49
-2.000
0
LTYPE
5
1f6
2
DASHED
70
64
3
----    ----    ----    ----    
72
65
73
2
40
5.000
49
2.000
49
-3.000
0
LTYPE
5
1f7
2
DASHED2
70
64
3
------  ------  ------  ------ 
72
65
73
2
40
10.000
49
4.000
49
-6.000
0
LTYPE
5
1f8
2
CENTER
70
64
3
----- - ----- - ----- - ----- - 
72
65
73
4
40
10.000
49
6.000
49
-3.000
49
1.000
49
-3.000
0
LTYPE
5
1f9
2
CENTER2
70
64
3
----------  --  ----------  -- 
72
65
73
4
40
17.000
49
12.000
49
-5.000
49
2.000
49
-5.000
0
LTYPE
5
1fa
2
PHANTOM
70
64
3
--- - - --- - - --- - - --- - -
72
65
73
6
40
13.000
49
5.000
49
-3.000
49
1.000
49
-3.000
49
1.000
49
-3.000
0
LTYPE
5
1fb
2
PHANTOM2
70
64
3
--------  -  -  --------  -  -
72
65
73
6
40
20.000
49
6.000
49
-5.000
49
2.000
49
-5.000
49
2.000
49
-5.000
0
LTYPE
5
1fc
2
HIDDEN
70
64
3
-   -   -   -   -   -   -   -   
72
65
73
2
40
3.000
49
0.500
49
-2.500
0
ENDTAB
0
TABLE
2
STYLE
70
1
0
STYLE
5
1fd
100
AcDbSymbolTableRecord
100
AcDbTextStyleTableRecord
2
STANDARD
70
0
40
0.0
41
1.0
50
0.0
71
0
42
0.0
3
txt.shx
4
extfont.shx
0
STYLE
5
1fe
100
AcDbSymbolTableRecord
100
AcDbTextStyleTableRecord
2
TATEGAKI
70
4
40
0.0
41
1.0
50
0.0
71
0
42
0.0
3
txt.shx
4
extfont.shx
0
STYLE
5
1ff
100
AcDbSymbolTableRecord
100
AcDbTextStyleTableRecord
2
DIM
70
0
40
0.0
41
0.75
50
0.0
71
0
42
0.0
3
txt.shx
4
extfont.shx
0
STYLE
5
200
100
AcDbSymbolTableRecord
100
AcDbTextStyleTableRecord
2
_Gothic__
70
0
40
0.0
41
1.0
50
0.0
71
0
42
0.0
3
MS Gothic
4

0
STYLE
5
201
100
AcDbSymbolTableRecord
100
AcDbTextStyleTableRecord
2
_TateGothic_
70
4
40
0.0
41
1.0
50
0.0
71
0
42
0.0
3
@MS Gothic
4

0
ENDTAB
0
TABLE
2
LAYER
5
403
100
AcDbSymbolTable
70
10
0
LAYER
5
404
100
AcDbSymbolTableRecord
100
AcDbLayerTableRecord
2
0-0
70
0
62
7
6
CONTINUOUS
0
LAYER
5
405
100
AcDbSymbolTableRecord
100
AcDbLayerTableRecord
2
F-F_J_ADD
70
0
62
-7
6
CONTINUOUS
0
ENDTAB
0
ENDSEC
0
SECTION
2
ENTITIES
0
LINE
5
406
100
AcDbEntity
8
0-0
6
CONTINUOUS
62
2
100
AcDbLine
10
27.380000000000
20
11.820000000000
30
0.0
11
27.380000000000
21
571.820000000000
31
0.0
0
LINE
5
407
100
AcDbEntity
8
0-0
6
CONTINUOUS
62
2
100
AcDbLine
10
27.380000000000
20
11.820000000000
30
0.0
11
27.380000000000
21
11.820000000000
31
0.0
0
LINE
5
408
100
AcDbEntity
8
0-0
6
CONTINUOUS
62
2
100
AcDbLine
10
642.380000000000
20
41.450000000000
30
0.0
11
642.380000000000
21
11.820000000000
31
0.0
0
LINE
5
409
100
AcDbEntity
8
0-0
6
CONTINUOUS
62
2
100
AcDbLine
10
607.270000000000
20
41.450000000000
30
0.0
11
607.270000000000
21
11.820000000000
31
0.0
0
LINE
5
40a
100
AcDbEntity
8
0-0
6
CONTINUOUS
62
2
100
AcDbLine
10
768.560000000000
20
11.820000000000
30
0.0
11
768.560000000000
21
41.450000000000
31
0.0
0
LINE
5
40b
100
AcDbEntity
8
0-0
6
CONTINUOUS
62
2
100
AcDbLine
10
403.450000000000
20
41.450000000000
30
0.0
11
403.450000000000
21
11.820000000000
31
0.0
0
LINE
5
40c
100
AcDbEntity
8
0-0
6
CONTINUOUS
62
2
100
AcDbLine
10
504.870000000000
20
41.450000000000
30
0.0
11
504.870000000000
21
11.820000000000
31
0.0
0
LINE
5
40d
100
AcDbEntity
8
0-0
6
CONTINUOUS
62
2
100
AcDbLine
10
403.450000000000
20
31.570000000000
30
0.0
11
184.880000000000
21
31.570000000000
31
0.0
0
LINE
5
40e
100
AcDbEntity
8
0-0
6
CONTINUOUS
62
2
100
AcDbLine
10
403.450000000000
20
21.690000000000
30
0.0
11
184.880000000000
21
21.690000000000
31
0.0
0
LINE
5
40f
100
AcDbEntity
8
0-0
6
CONTINUOUS
62
2
100
AcDbLine
10
403.450000000000
20
16.760000000000
30
0.0
11
184.880000000000
21
16.760000000000
31
0.0
0
LINE
5
410
100
AcDbEntity
8
0-0
6
CONTINUOUS
62
2
100
AcDbLine
10
403.450000000000
20
36.510000000000
30
0.0
11
184.880000000000
21
36.510000000000
31
0.0
0
LINE
5
411
100
AcDbEntity
8
0-0
6
CONTINUOUS
62
2
100
AcDbLine
10
211.210000000000
20
41.450000000000
30
0.0
11
211.210000000000
21
11.820000000000
31
0.0
0
LINE
5
412
100
AcDbEntity
8
0-0
6
CONTINUOUS
62
2
100
AcDbLine
10
184.880000000000
20
41.450000000000
30
0.0
11
184.880000000000
21
11.820000000000
31
0.0
0
LINE
5
413
100
AcDbEntity
8
0-0
6
CONTINUOUS
62
2
100
AcDbLine
10
815.820000000000
20
11.820000000000
30
0.0
11
815.820000000000
21
571.820000000000
31
0.0
0
LINE
5
414
100
AcDbEntity
8
0-0
6
CONTINUOUS
62
2
100
AcDbLine
10
27.380000000000
20
571.820000000000
30
0.0
11
815.820000000000
21
571.820000000000
31
0.0
0
LINE
5
415
100
AcDbEntity
8
0-0
6
CONTINUOUS
62
2
100
AcDbLine
10
27.380000000000
20
11.820000000000
30
0.0
11
815.820000000000
21
11.820000000000
31
0.0
0
LINE
5
416
100
AcDbEntity
8
0-0
6
CONTINUOUS
62
2
100
AcDbLine
10
815.820000000000
20
41.450000000000
30
0.0
11
27.380000000000
21
41.450000000000
31
0.0
0
LINE
5
417
100
AcDbEntity
8
0-0
6
CONTINUOUS
62
2
100
AcDbLine
10
184.880000000000
20
26.630000000000
30
0.0
11
815.820000000000
21
26.630000000000
31
0.0
0
LINE
5
418
100
AcDbEntity
8
0-0
6
CONTINUOUS
62
2
100
AcDbLine
10
27.380000000000
20
306.630000000000
30
0.0
11
815.820000000000
21
306.630000000000
31
0.0
0
LINE
5
419
100
AcDbEntity
8
0-0
6
CONTINUOUS
62
3
100
AcDbLine
10
426.730000000000
20
480.780000000000
30
0.0
11
573.730000000000
21
480.780000000000
31
0.0
0
LINE
5
41a
100
AcDbEntity
8
0-0
6
CONTINUOUS
62
3
100
AcDbLine
10
573.730000000000
20
480.280000000000
30
0.0
11
426.730000000000
21
480.280000000000
31
0.0
0
LINE
5
41b
100
AcDbEntity
8
0-0
6
CONTINUOUS
62
3
100
AcDbLine
10
154.600000000000
20
480.780000000000
30
0.0
11
301.600000000000
21
480.780000000000
31
0.0
0
LINE
5
41c
100
AcDbEntity
8
0-0
6
CONTINUOUS
62
3
100
AcDbLine
10
301.600000000000
20
480.280000000000
30
0.0
11
154.600000000000
21
480.280000000000
31
0.0
0
LINE
5
41d
100
AcDbEntity
8
0-0
6
CONTINUOUS
62
4
100
AcDbLine
10
575.230000000000
20
490.780000000000
30
0.0
11
575.230000000000
21
500.780000000000
31
0.0
0
LINE
5
41e
100
AcDbEntity
8
0-0
6
CONTINUOUS
62
4
100
AcDbLine
10
586.230000000000
20
490.780000000000
30
0.0
11
586.230000000000
21
510.780000000000
31
0.0
0
LINE
5
41f
100
AcDbEntity
8
0-0
6
CONTINUOUS
62
4
100
AcDbLine
10
615.230000000000
20
500.780000000000
30
0.0
11
610.400000000000
21
499.490000000000
31
0.0
0
LINE
5
420
100
AcDbEntity
8
0-0
6
CONTINUOUS
62
4
100
AcDbLine
10
615.230000000000
20
500.780000000000
30
0.0
11
610.400000000000
21
502.080000000000
31
0.0
0
LINE
5
421
100
AcDbEntity
8
0-0
6
CONTINUOUS
62
4
100
AcDbLine
10
615.230000000000
20
510.780000000000
30
0.0
11
610.400000000000
21
509.490000000000
31
0.0
0
LINE
5
422
100
AcDbEntity
8
0-0
6
CONTINUOUS
62
4
100
AcDbLine
10
615.230000000000
20
510.780000000000
30
0.0
11
610.400000000000
21
512.080000000000
31
0.0
0
LINE
5
423
100
AcDbEntity
8
0-0
6
CONTINUOUS
62
4
100
AcDbLine
10
414.230000000000
20
490.780000000000
30
0.0
11
414.230000000000
21
500.780000000000
31
0.0
0
LINE
5
424
100
AcDbEntity
8
0-0
6
CONTINUOUS
62
4
100
AcDbLine
10
425.230000000000
20
490.780000000000
30
0.0
11
425.230000000000
21
510.780000000000
31
0.0
0
LINE
5
425
100
AcDbEntity
8
0-0
6
CONTINUOUS
62
4
100
AcDbLine
10
385.230000000000
20
500.780000000000
30
0.0
11
390.060000000000
21
499.490000000000
31
0.0
0
LINE
5
426
100
AcDbEntity
8
0-0
6
CONTINUOUS
62
4
100
AcDbLine
10
385.230000000000
20
500.780000000000
30
0.0
11
390.060000000000
21
502.080000000000
31
0.0
0
LINE
5
427
100
AcDbEntity
8
0-0
6
CONTINUOUS
62
4
100
AcDbLine
10
385.230000000000
20
510.780000000000
30
0.0
11
390.060000000000
21
509.490000000000
31
0.0
0
LINE
5
428
100
AcDbEntity
8
0-0
6
CONTINUOUS
62
4
100
AcDbLine
10
385.230000000000
20
510.780000000000
30
0.0
11
390.060000000000
21
512.080000000000
31
0.0
0
LINE
5
429
100
AcDbEntity
8
0-0
6
CONTINUOUS
62
4
100
AcDbLine
10
425.230000000000
20
510.780000000000
30
0.0
11
385.230000000000
21
510.780000000000
31
0.0
0
LINE
5
42a
100
AcDbEntity
8
0-0
6
CONTINUOUS
62
4
100
AcDbLine
10
425.230000000000
20
500.780000000000
30
0.0
11
575.230000000000
21
500.780000000000
31
0.0
0
LINE
5
42b
100
AcDbEntity
8
0-0
6
CONTINUOUS
62
4
100
AcDbLine
10
153.100000000000
20
500.780000000000
30
0.0
11
303.100000000000
21
500.780000000000
31
0.0
0
LINE
5
42c
100
AcDbEntity
8
0-0
6
CONTINUOUS
62
4
100
AcDbLine
10
153.100000000000
20
490.780000000000
30
0.0
11
153.100000000000
21
500.780000000000
31
0.0
0
LINE
5
42d
100
AcDbEntity
8
0-0
6
CONTINUOUS
62
4
100
AcDbLine
10
303.100000000000
20
490.780000000000
30
0.0
11
303.100000000000
21
500.780000000000
31
0.0
0
LINE
5
42e
100
AcDbEntity
8
0-0
6
CONTINUOUS
62
4
100
AcDbLine
10
615.230000000000
20
399.750000000000
30
0.0
11
610.400000000000
21
398.450000000000
31
0.0
0
LINE
5
42f
100
AcDbEntity
8
0-0
6
CONTINUOUS
62
4
100
AcDbLine
10
615.230000000000
20
399.750000000000
30
0.0
11
610.400000000000
21
401.040000000000
31
0.0
0
LINE
5
430
100
AcDbEntity
8
0-0
6
CONTINUOUS
62
4
100
AcDbLine
10
615.230000000000
20
409.750000000000
30
0.0
11
610.400000000000
21
408.450000000000
31
0.0
0
LINE
5
431
100
AcDbEntity
8
0-0
6
CONTINUOUS
62
4
100
AcDbLine
10
615.230000000000
20
409.750000000000
30
0.0
11
610.400000000000
21
411.040000000000
31
0.0
0
LINE
5
432
100
AcDbEntity
8
0-0
6
CONTINUOUS
62
4
100
AcDbLine
10
414.230000000000
20
399.750000000000
30
0.0
11
425.230000000000
21
399.750000000000
31
0.0
0
LINE
5
433
100
AcDbEntity
8
0-0
6
CONTINUOUS
62
4
100
AcDbLine
10
425.230000000000
20
389.750000000000
30
0.0
11
425.230000000000
21
409.750000000000
31
0.0
0
LINE
5
434
100
AcDbEntity
8
0-0
6
CONTINUOUS
62
4
100
AcDbLine
10
385.230000000000
20
399.750000000000
30
0.0
11
390.060000000000
21
398.450000000000
31
0.0
0
LINE
5
435
100
AcDbEntity
8
0-0
6
CONTINUOUS
62
4
100
AcDbLine
10
385.230000000000
20
399.750000000000
30
0.0
11
390.060000000000
21
401.040000000000
31
0.0
0
LINE
5
436
100
AcDbEntity
8
0-0
6
CONTINUOUS
62
4
100
AcDbLine
10
385.230000000000
20
409.750000000000
30
0.0
11
390.060000000000
21
408.450000000000
31
0.0
0
LINE
5
437
100
AcDbEntity
8
0-0
6
CONTINUOUS
62
4
100
AcDbLine
10
385.230000000000
20
409.750000000000
30
0.0
11
390.060000000000
21
411.040000000000
31
0.0
0
LINE
5
438
100
AcDbEntity
8
0-0
6
CONTINUOUS
62
4
100
AcDbLine
10
414.230000000000
20
399.750000000000
30
0.0
11
385.230000000000
21
399.750000000000
31
0.0
0
LINE
5
439
100
AcDbEntity
8
0-0
6
CONTINUOUS
62
4
100
AcDbLine
10
425.230000000000
20
409.750000000000
30
0.0
11
385.230000000000
21
409.750000000000
31
0.0
0
LINE
5
43a
100
AcDbEntity
8
0-0
6
CONTINUOUS
62
3
100
AcDbLine
10
524.520000000000
20
379.040000000000
30
0.0
11
524.790000000000
21
379.310000000000
31
0.0
0
LINE
5
43b
100
AcDbEntity
8
0-0
6
CONTINUOUS
62
3
100
AcDbLine
10
525.140000000000
20
378.950000000000
30
0.0
11
524.870000000000
21
378.690000000000
31
0.0
0
LINE
5
43c
100
AcDbEntity
8
0-0
6
CONTINUOUS
62
3
100
AcDbLine
10
523.810000000000
20
378.750000000000
30
0.0
11
500.230000000000
21
378.750000000000
31
0.0
0
LINE
5
43d
100
AcDbEntity
8
0-0
6
CONTINUOUS
62
3
100
AcDbLine
10
500.230000000000
20
378.250000000000
30
0.0
11
523.810000000000
21
378.250000000000
31
0.0
0
LINE
5
43e
100
AcDbEntity
8
0-0
6
CONTINUOUS
62
3
100
AcDbLine
10
475.930000000000
20
379.040000000000
30
0.0
11
475.670000000000
21
379.310000000000
31
0.0
0
LINE
5
43f
100
AcDbEntity
8
0-0
6
CONTINUOUS
62
3
100
AcDbLine
10
475.310000000000
20
378.950000000000
30
0.0
11
475.580000000000
21
378.690000000000
31
0.0
0
LINE
5
440
100
AcDbEntity
8
0-0
6
CONTINUOUS
62
3
100
AcDbLine
10
476.640000000000
20
378.750000000000
30
0.0
11
500.230000000000
21
378.750000000000
31
0.0
0
LINE
5
441
100
AcDbEntity
8
0-0
6
CONTINUOUS
62
3
100
AcDbLine
10
500.230000000000
20
378.250000000000
30
0.0
11
476.640000000000
21
378.250000000000
31
0.0
0
LINE
5
442
100
AcDbEntity
8
0-0
6
CONTINUOUS
62
3
100
AcDbLine
10
525.850000000000
20
379.750000000000
30
0.0
11
573.730000000000
21
379.750000000000
31
0.0
0
LINE
5
443
100
AcDbEntity
8
0-0
6
CONTINUOUS
62
3
100
AcDbLine
10
573.730000000000
20
379.250000000000
30
0.0
11
525.850000000000
21
379.250000000000
31
0.0
0
LINE
5
444
100
AcDbEntity
8
0-0
6
CONTINUOUS
62
3
100
AcDbLine
10
426.730000000000
20
379.750000000000
30
0.0
11
474.600000000000
21
379.750000000000
31
0.0
0
LINE
5
445
100
AcDbEntity
8
0-0
6
CONTINUOUS
62
3
100
AcDbLine
10
474.600000000000
20
379.250000000000
30
0.0
11
426.730000000000
21
379.250000000000
31
0.0
0
LINE
5
446
100
AcDbEntity
8
0-0
6
CONTINUOUS
62
4
100
AcDbLine
10
475.230000000000
20
355.750000000000
30
0.0
11
525.230000000000
21
355.750000000000
31
0.0
0
LINE
5
447
100
AcDbEntity
8
0-0
6
CONTINUOUS
62
4
100
AcDbLine
10
475.230000000000
20
365.750000000000
30
0.0
11
475.230000000000
21
355.750000000000
31
0.0
0
LINE
5
448
100
AcDbEntity
8
0-0
6
CONTINUOUS
62
4
100
AcDbLine
10
525.230000000000
20
365.750000000000
30
0.0
11
525.230000000000
21
355.750000000000
31
0.0
0
LINE
5
449
100
AcDbEntity
8
0-0
6
CONTINUOUS
62
3
100
AcDbLine
10
426.850000000000
20
215.600000000000
30
0.0
11
573.600000000000
21
215.600000000000
31
0.0
0
LINE
5
44a
100
AcDbEntity
8
0-0
6
CONTINUOUS
62
3
100
AcDbLine
10
573.600000000000
20
215.100000000000
30
0.0
11
426.850000000000
21
215.100000000000
31
0.0
0
LINE
5
44b
100
AcDbEntity
8
0-0
6
CONTINUOUS
62
3
100
AcDbLine
10
154.730000000000
20
215.600000000000
30
0.0
11
301.480000000000
21
215.600000000000
31
0.0
0
LINE
5
44c
100
AcDbEntity
8
0-0
6
CONTINUOUS
62
3
100
AcDbLine
10
301.480000000000
20
215.100000000000
30
0.0
11
154.730000000000
21
215.100000000000
31
0.0
0
LINE
5
44d
100
AcDbEntity
8
0-0
6
CONTINUOUS
62
3
100
AcDbLine
10
385.230000000000
20
215.600000000000
30
0.0
11
423.600000000000
21
215.600000000000
31
0.0
0
LINE
5
44e
100
AcDbEntity
8
0-0
6
CONTINUOUS
62
3
100
AcDbLine
10
423.600000000000
20
215.100000000000
30
0.0
11
385.230000000000
21
215.100000000000
31
0.0
0
LINE
5
44f
100
AcDbEntity
8
0-0
6
CONTINUOUS
62
3
100
AcDbLine
10
576.850000000000
20
215.600000000000
30
0.0
11
615.230000000000
21
215.600000000000
31
0.0
0
LINE
5
450
100
AcDbEntity
8
0-0
6
CONTINUOUS
62
3
100
AcDbLine
10
615.230000000000
20
215.100000000000
30
0.0
11
576.850000000000
21
215.100000000000
31
0.0
0
LINE
5
451
100
AcDbEntity
8
0-0
6
CONTINUOUS
62
4
100
AcDbLine
10
153.100000000000
20
235.600000000000
30
0.0
11
303.100000000000
21
235.600000000000
31
0.0
0
LINE
5
452
100
AcDbEntity
8
0-0
6
CONTINUOUS
62
4
100
AcDbLine
10
153.100000000000
20
225.600000000000
30
0.0
11
153.100000000000
21
235.600000000000
31
0.0
0
LINE
5
453
100
AcDbEntity
8
0-0
6
CONTINUOUS
62
4
100
AcDbLine
10
303.100000000000
20
225.600000000000
30
0.0
11
303.100000000000
21
235.600000000000
31
0.0
0
LINE
5
454
100
AcDbEntity
8
0-0
6
CONTINUOUS
62
4
100
AcDbLine
10
425.230000000000
20
235.600000000000
30
0.0
11
575.230000000000
21
235.600000000000
31
0.0
0
LINE
5
455
100
AcDbEntity
8
0-0
6
CONTINUOUS
62
4
100
AcDbLine
10
425.230000000000
20
225.600000000000
30
0.0
11
425.230000000000
21
235.600000000000
31
0.0
0
LINE
5
456
100
AcDbEntity
8
0-0
6
CONTINUOUS
62
4
100
AcDbLine
10
575.230000000000
20
225.600000000000
30
0.0
11
575.230000000000
21
235.600000000000
31
0.0
0
LINE
5
457
100
AcDbEntity
8
0-0
6
CONTINUOUS
62
4
100
AcDbLine
10
385.230000000000
20
235.600000000000
30
0.0
11
390.060000000000
21
234.300000000000
31
0.0
0
LINE
5
458
100
AcDbEntity
8
0-0
6
CONTINUOUS
62
4
100
AcDbLine
10
385.230000000000
20
235.600000000000
30
0.0
11
390.060000000000
21
236.890000000000
31
0.0
0
LINE
5
459
100
AcDbEntity
8
0-0
6
CONTINUOUS
62
4
100
AcDbLine
10
425.230000000000
20
235.600000000000
30
0.0
11
385.230000000000
21
235.600000000000
31
0.0
0
LINE
5
45a
100
AcDbEntity
8
0-0
6
CONTINUOUS
62
4
100
AcDbLine
10
615.230000000000
20
235.600000000000
30
0.0
11
610.400000000000
21
234.300000000000
31
0.0
0
LINE
5
45b
100
AcDbEntity
8
0-0
6
CONTINUOUS
62
4
100
AcDbLine
10
615.230000000000
20
235.600000000000
30
0.0
11
610.400000000000
21
236.890000000000
31
0.0
0
LINE
5
45c
100
AcDbEntity
8
0-0
6
CONTINUOUS
62
4
100
AcDbLine
10
575.230000000000
20
235.600000000000
30
0.0
11
615.230000000000
21
235.600000000000
31
0.0
0
LINE
5
45d
100
AcDbEntity
8
0-0
6
CONTINUOUS
62
3
100
AcDbLine
10
385.230000000000
20
114.560000000000
30
0.0
11
423.600000000000
21
114.560000000000
31
0.0
0
LINE
5
45e
100
AcDbEntity
8
0-0
6
CONTINUOUS
62
3
100
AcDbLine
10
423.600000000000
20
114.060000000000
30
0.0
11
385.230000000000
21
114.060000000000
31
0.0
0
LINE
5
45f
100
AcDbEntity
8
0-0
6
CONTINUOUS
62
4
100
AcDbLine
10
425.230000000000
20
134.560000000000
30
0.0
11
575.230000000000
21
134.560000000000
31
0.0
0
LINE
5
460
100
AcDbEntity
8
0-0
6
CONTINUOUS
62
4
100
AcDbLine
10
425.230000000000
20
124.560000000000
30
0.0
11
425.230000000000
21
134.560000000000
31
0.0
0
LINE
5
461
100
AcDbEntity
8
0-0
6
CONTINUOUS
62
4
100
AcDbLine
10
575.230000000000
20
124.560000000000
30
0.0
11
575.230000000000
21
134.560000000000
31
0.0
0
LINE
5
462
100
AcDbEntity
8
0-0
6
CONTINUOUS
62
4
100
AcDbLine
10
385.230000000000
20
134.560000000000
30
0.0
11
390.060000000000
21
133.270000000000
31
0.0
0
LINE
5
463
100
AcDbEntity
8
0-0
6
CONTINUOUS
62
4
100
AcDbLine
10
385.230000000000
20
134.560000000000
30
0.0
11
390.060000000000
21
135.850000000000
31
0.0
0
LINE
5
464
100
AcDbEntity
8
0-0
6
CONTINUOUS
62
4
100
AcDbLine
10
425.230000000000
20
134.560000000000
30
0.0
11
385.230000000000
21
134.560000000000
31
0.0
0
LINE
5
465
100
AcDbEntity
8
0-0
6
CONTINUOUS
62
4
100
AcDbLine
10
615.230000000000
20
134.560000000000
30
0.0
11
610.400000000000
21
133.270000000000
31
0.0
0
LINE
5
466
100
AcDbEntity
8
0-0
6
CONTINUOUS
62
4
100
AcDbLine
10
615.230000000000
20
134.560000000000
30
0.0
11
610.400000000000
21
135.850000000000
31
0.0
0
LINE
5
467
100
AcDbEntity
8
0-0
6
CONTINUOUS
62
4
100
AcDbLine
10
575.230000000000
20
134.560000000000
30
0.0
11
615.230000000000
21
134.560000000000
31
0.0
0
LINE
5
468
100
AcDbEntity
8
0-0
6
CONTINUOUS
62
3
100
AcDbLine
10
524.390000000000
20
113.850000000000
30
0.0
11
524.660000000000
21
114.120000000000
31
0.0
0
LINE
5
469
100
AcDbEntity
8
0-0
6
CONTINUOUS
62
3
100
AcDbLine
10
525.010000000000
20
113.770000000000
30
0.0
11
524.750000000000
21
113.500000000000
31
0.0
0
LINE
5
46a
100
AcDbEntity
8
0-0
6
CONTINUOUS
62
3
100
AcDbLine
10
523.690000000000
20
113.560000000000
30
0.0
11
500.100000000000
21
113.560000000000
31
0.0
0
LINE
5
46b
100
AcDbEntity
8
0-0
6
CONTINUOUS
62
3
100
AcDbLine
10
500.100000000000
20
113.060000000000
30
0.0
11
523.690000000000
21
113.060000000000
31
0.0
0
LINE
5
46c
100
AcDbEntity
8
0-0
6
CONTINUOUS
62
3
100
AcDbLine
10
475.810000000000
20
113.850000000000
30
0.0
11
475.540000000000
21
114.120000000000
31
0.0
0
LINE
5
46d
100
AcDbEntity
8
0-0
6
CONTINUOUS
62
3
100
AcDbLine
10
475.190000000000
20
113.770000000000
30
0.0
11
475.450000000000
21
113.500000000000
31
0.0
0
LINE
5
46e
100
AcDbEntity
8
0-0
6
CONTINUOUS
62
3
100
AcDbLine
10
476.510000000000
20
113.560000000000
30
0.0
11
500.100000000000
21
113.560000000000
31
0.0
0
LINE
5
46f
100
AcDbEntity
8
0-0
6
CONTINUOUS
62
3
100
AcDbLine
10
500.100000000000
20
113.060000000000
30
0.0
11
476.510000000000
21
113.060000000000
31
0.0
0
LINE
5
470
100
AcDbEntity
8
0-0
6
CONTINUOUS
62
3
100
AcDbLine
10
525.720000000000
20
114.560000000000
30
0.0
11
573.600000000000
21
114.560000000000
31
0.0
0
LINE
5
471
100
AcDbEntity
8
0-0
6
CONTINUOUS
62
3
100
AcDbLine
10
573.600000000000
20
114.060000000000
30
0.0
11
525.720000000000
21
114.060000000000
31
0.0
0
LINE
5
472
100
AcDbEntity
8
0-0
6
CONTINUOUS
62
4
100
AcDbLine
10
475.100000000000
20
90.560000000000
30
0.0
11
525.100000000000
21
90.560000000000
31
0.0
0
LINE
5
473
100
AcDbEntity
8
0-0
6
CONTINUOUS
62
4
100
AcDbLine
10
475.100000000000
20
100.560000000000
30
0.0
11
475.100000000000
21
90.560000000000
31
0.0
0
LINE
5
474
100
AcDbEntity
8
0-0
6
CONTINUOUS
62
4
100
AcDbLine
10
525.100000000000
20
100.560000000000
30
0.0
11
525.100000000000
21
90.560000000000
31
0.0
0
LINE
5
475
100
AcDbEntity
8
0-0
6
CONTINUOUS
62
3
100
AcDbLine
10
576.850000000000
20
114.560000000000
30
0.0
11
615.230000000000
21
114.560000000000
31
0.0
0
LINE
5
476
100
AcDbEntity
8
0-0
6
CONTINUOUS
62
3
100
AcDbLine
10
615.230000000000
20
114.060000000000
30
0.0
11
576.850000000000
21
114.060000000000
31
0.0
0
LINE
5
477
100
AcDbEntity
8
0-0
6
CONTINUOUS
62
3
100
AcDbLine
10
426.850000000000
20
114.560000000000
30
0.0
11
474.480000000000
21
114.560000000000
31
0.0
0
LINE
5
478
100
AcDbEntity
8
0-0
6
CONTINUOUS
62
3
100
AcDbLine
10
474.480000000000
20
114.060000000000
30
0.0
11
426.850000000000
21
114.060000000000
31
0.0
0
LINE
5
479
100
AcDbEntity
8
0-0
6
CONTINUOUS
62
3
100
AcDbLine
10
35.860000000000
20
29.550000000000
30
0.0
11
35.860000000000
21
37.550000000000
31
0.0
0
LINE
5
47a
100
AcDbEntity
8
0-0
6
CONTINUOUS
62
3
100
AcDbLine
10
35.860000000000
20
37.550000000000
30
0.0
11
43.860000000000
21
37.550000000000
31
0.0
0
LINE
5
47b
100
AcDbEntity
8
0-0
6
CONTINUOUS
62
3
100
AcDbLine
10
43.860000000000
20
37.550000000000
30
0.0
11
43.860000000000
21
29.550000000000
31
0.0
0
LINE
5
47c
100
AcDbEntity
8
0-0
6
CONTINUOUS
62
3
100
AcDbLine
10
43.860000000000
20
29.550000000000
30
0.0
11
35.860000000000
21
29.550000000000
31
0.0
0
LINE
5
47d
100
AcDbEntity
8
0-0
6
CONTINUOUS
62
3
100
AcDbLine
10
36.660000000000
20
30.630000000000
30
0.0
11
36.660000000000
21
36.750000000000
31
0.0
0
LINE
5
47e
100
AcDbEntity
8
0-0
6
CONTINUOUS
62
3
100
AcDbLine
10
43.060000000000
20
30.350000000000
30
0.0
11
36.940000000000
21
30.350000000000
31
0.0
0
LINE
5
47f
100
AcDbEntity
8
0-0
6
CONTINUOUS
62
3
100
AcDbLine
10
36.660000000000
20
36.750000000000
30
0.0
11
42.770000000000
21
36.750000000000
31
0.0
0
LINE
5
480
100
AcDbEntity
8
0-0
6
CONTINUOUS
62
3
100
AcDbLine
10
42.770000000000
20
36.750000000000
30
0.0
11
36.660000000000
21
30.630000000000
31
0.0
0
LINE
5
481
100
AcDbEntity
8
0-0
6
CONTINUOUS
62
3
100
AcDbLine
10
43.060000000000
20
36.470000000000
30
0.0
11
36.940000000000
21
30.350000000000
31
0.0
0
LINE
5
482
100
AcDbEntity
8
0-0
6
CONTINUOUS
62
3
100
AcDbLine
10
43.060000000000
20
36.470000000000
30
0.0
11
43.060000000000
21
30.350000000000
31
0.0
0
LINE
5
483
100
AcDbEntity
8
0-0
6
CONTINUOUS
62
4
100
AcDbLine
10
35.860000000000
20
37.470000000000
30
0.0
11
43.860000000000
21
37.470000000000
31
0.0
0
LINE
5
484
100
AcDbEntity
8
0-0
6
CONTINUOUS
62
4
100
AcDbLine
10
35.860000000000
20
37.310000000000
30
0.0
11
43.860000000000
21
37.310000000000
31
0.0
0
LINE
5
485
100
AcDbEntity
8
0-0
6
CONTINUOUS
62
4
100
AcDbLine
10
35.860000000000
20
37.150000000000
30
0.0
11
43.860000000000
21
37.150000000000
31
0.0
0
LINE
5
486
100
AcDbEntity
8
0-0
6
CONTINUOUS
62
4
100
AcDbLine
10
35.860000000000
20
36.990000000000
30
0.0
11
43.860000000000
21
36.990000000000
31
0.0
0
LINE
5
487
100
AcDbEntity
8
0-0
6
CONTINUOUS
62
4
100
AcDbLine
10
35.860000000000
20
36.830000000000
30
0.0
11
43.860000000000
21
36.830000000000
31
0.0
0
LINE
5
488
100
AcDbEntity
8
0-0
6
CONTINUOUS
62
4
100
AcDbLine
10
35.860000000000
20
30.270000000000
30
0.0
11
43.860000000000
21
30.270000000000
31
0.0
0
LINE
5
489
100
AcDbEntity
8
0-0
6
CONTINUOUS
62
4
100
AcDbLine
10
35.860000000000
20
30.110000000000
30
0.0
11
43.860000000000
21
30.110000000000
31
0.0
0
LINE
5
48a
100
AcDbEntity
8
0-0
6
CONTINUOUS
62
4
100
AcDbLine
10
35.860000000000
20
29.950000000000
30
0.0
11
43.860000000000
21
29.950000000000
31
0.0
0
LINE
5
48b
100
AcDbEntity
8
0-0
6
CONTINUOUS
62
4
100
AcDbLine
10
35.860000000000
20
29.790000000000
30
0.0
11
43.860000000000
21
29.790000000000
31
0.0
0
LINE
5
48c
100
AcDbEntity
8
0-0
6
CONTINUOUS
62
4
100
AcDbLine
10
35.860000000000
20
29.630000000000
30
0.0
11
43.860000000000
21
29.630000000000
31
0.0
0
LINE
5
48d
100
AcDbEntity
8
0-0
6
CONTINUOUS
62
4
100
AcDbLine
10
35.860000000000
20
30.750000000000
30
0.0
11
36.660000000000
21
30.750000000000
31
0.0
0
LINE
5
48e
100
AcDbEntity
8
0-0
6
CONTINUOUS
62
4
100
AcDbLine
10
35.860000000000
20
30.910000000000
30
0.0
11
36.660000000000
21
30.910000000000
31
0.0
0
LINE
5
48f
100
AcDbEntity
8
0-0
6
CONTINUOUS
62
4
100
AcDbLine
10
35.860000000000
20
31.070000000000
30
0.0
11
36.660000000000
21
31.070000000000
31
0.0
0
LINE
5
490
100
AcDbEntity
8
0-0
6
CONTINUOUS
62
4
100
AcDbLine
10
35.860000000000
20
31.230000000000
30
0.0
11
36.660000000000
21
31.230000000000
31
0.0
0
LINE
5
491
100
AcDbEntity
8
0-0
6
CONTINUOUS
62
4
100
AcDbLine
10
35.860000000000
20
31.390000000000
30
0.0
11
36.660000000000
21
31.390000000000
31
0.0
0
LINE
5
492
100
AcDbEntity
8
0-0
6
CONTINUOUS
62
4
100
AcDbLine
10
35.860000000000
20
31.550000000000
30
0.0
11
36.660000000000
21
31.550000000000
31
0.0
0
LINE
5
493
100
AcDbEntity
8
0-0
6
CONTINUOUS
62
4
100
AcDbLine
10
35.860000000000
20
31.710000000000
30
0.0
11
36.660000000000
21
31.710000000000
31
0.0
0
LINE
5
494
100
AcDbEntity
8
0-0
6
CONTINUOUS
62
4
100
AcDbLine
10
35.860000000000
20
31.870000000000
30
0.0
11
36.660000000000
21
31.870000000000
31
0.0
0
LINE
5
495
100
AcDbEntity
8
0-0
6
CONTINUOUS
62
4
100
AcDbLine
10
35.860000000000
20
32.030000000000
30
0.0
11
36.660000000000
21
32.030000000000
31
0.0
0
LINE
5
496
100
AcDbEntity
8
0-0
6
CONTINUOUS
62
4
100
AcDbLine
10
35.860000000000
20
32.190000000000
30
0.0
11
36.660000000000
21
32.190000000000
31
0.0
0
LINE
5
497
100
AcDbEntity
8
0-0
6
CONTINUOUS
62
4
100
AcDbLine
10
35.860000000000
20
32.350000000000
30
0.0
11
36.660000000000
21
32.350000000000
31
0.0
0
LINE
5
498
100
AcDbEntity
8
0-0
6
CONTINUOUS
62
4
100
AcDbLine
10
35.860000000000
20
32.510000000000
30
0.0
11
36.660000000000
21
32.510000000000
31
0.0
0
LINE
5
499
100
AcDbEntity
8
0-0
6
CONTINUOUS
62
4
100
AcDbLine
10
35.860000000000
20
32.670000000000
30
0.0
11
36.660000000000
21
32.670000000000
31
0.0
0
LINE
5
49a
100
AcDbEntity
8
0-0
6
CONTINUOUS
62
4
100
AcDbLine
10
35.860000000000
20
32.830000000000
30
0.0
11
36.660000000000
21
32.830000000000
31
0.0
0
LINE
5
49b
100
AcDbEntity
8
0-0
6
CONTINUOUS
62
4
100
AcDbLine
10
35.860000000000
20
32.990000000000
30
0.0
11
36.660000000000
21
32.990000000000
31
0.0
0
LINE
5
49c
100
AcDbEntity
8
0-0
6
CONTINUOUS
62
4
100
AcDbLine
10
35.860000000000
20
33.150000000000
30
0.0
11
36.660000000000
21
33.150000000000
31
0.0
0
LINE
5
49d
100
AcDbEntity
8
0-0
6
CONTINUOUS
62
4
100
AcDbLine
10
35.860000000000
20
33.310000000000
30
0.0
11
36.660000000000
21
33.310000000000
31
0.0
0
LINE
5
49e
100
AcDbEntity
8
0-0
6
CONTINUOUS
62
4
100
AcDbLine
10
35.860000000000
20
33.470000000000
30
0.0
11
36.660000000000
21
33.470000000000
31
0.0
0
LINE
5
49f
100
AcDbEntity
8
0-0
6
CONTINUOUS
62
4
100
AcDbLine
10
35.860000000000
20
33.630000000000
30
0.0
11
36.660000000000
21
33.630000000000
31
0.0
0
LINE
5
4a0
100
AcDbEntity
8
0-0
6
CONTINUOUS
62
4
100
AcDbLine
10
35.860000000000
20
33.790000000000
30
0.0
11
36.660000000000
21
33.790000000000
31
0.0
0
LINE
5
4a1
100
AcDbEntity
8
0-0
6
CONTINUOUS
62
4
100
AcDbLine
10
35.860000000000
20
33.950000000000
30
0.0
11
36.660000000000
21
33.950000000000
31
0.0
0
LINE
5
4a2
100
AcDbEntity
8
0-0
6
CONTINUOUS
62
4
100
AcDbLine
10
35.860000000000
20
34.110000000000
30
0.0
11
36.660000000000
21
34.110000000000
31
0.0
0
LINE
5
4a3
100
AcDbEntity
8
0-0
6
CONTINUOUS
62
4
100
AcDbLine
10
35.860000000000
20
34.270000000000
30
0.0
11
36.660000000000
21
34.270000000000
31
0.0
0
LINE
5
4a4
100
AcDbEntity
8
0-0
6
CONTINUOUS
62
4
100
AcDbLine
10
35.860000000000
20
34.430000000000
30
0.0
11
36.660000000000
21
34.430000000000
31
0.0
0
LINE
5
4a5
100
AcDbEntity
8
0-0
6
CONTINUOUS
62
4
100
AcDbLine
10
35.860000000000
20
34.910000000000
30
0.0
11
36.660000000000
21
34.910000000000
31
0.0
0
LINE
5
4a6
100
AcDbEntity
8
0-0
6
CONTINUOUS
62
4
100
AcDbLine
10
35.860000000000
20
35.390000000000
30
0.0
11
36.660000000000
21
35.390000000000
31
0.0
0
LINE
5
4a7
100
AcDbEntity
8
0-0
6
CONTINUOUS
62
4
100
AcDbLine
10
35.860000000000
20
35.550000000000
30
0.0
11
36.660000000000
21
35.550000000000
31
0.0
0
LINE
5
4a8
100
AcDbEntity
8
0-0
6
CONTINUOUS
62
4
100
AcDbLine
10
35.860000000000
20
35.710000000000
30
0.0
11
36.660000000000
21
35.710000000000
31
0.0
0
LINE
5
4a9
100
AcDbEntity
8
0-0
6
CONTINUOUS
62
4
100
AcDbLine
10
35.860000000000
20
35.870000000000
30
0.0
11
36.660000000000
21
35.870000000000
31
0.0
0
LINE
5
4aa
100
AcDbEntity
8
0-0
6
CONTINUOUS
62
4
100
AcDbLine
10
35.860000000000
20
36.670000000000
30
0.0
11
36.660000000000
21
36.670000000000
31
0.0
0
LINE
5
4ab
100
AcDbEntity
8
0-0
6
CONTINUOUS
62
4
100
AcDbLine
10
35.860000000000
20
36.510000000000
30
0.0
11
36.660000000000
21
36.510000000000
31
0.0
0
LINE
5
4ac
100
AcDbEntity
8
0-0
6
CONTINUOUS
62
4
100
AcDbLine
10
35.860000000000
20
36.350000000000
30
0.0
11
36.660000000000
21
36.350000000000
31
0.0
0
LINE
5
4ad
100
AcDbEntity
8
0-0
6
CONTINUOUS
62
4
100
AcDbLine
10
35.860000000000
20
36.190000000000
30
0.0
11
36.660000000000
21
36.190000000000
31
0.0
0
LINE
5
4ae
100
AcDbEntity
8
0-0
6
CONTINUOUS
62
4
100
AcDbLine
10
35.860000000000
20
36.030000000000
30
0.0
11
36.660000000000
21
36.030000000000
31
0.0
0
LINE
5
4af
100
AcDbEntity
8
0-0
6
CONTINUOUS
62
4
100
AcDbLine
10
35.860000000000
20
35.070000000000
30
0.0
11
36.660000000000
21
35.070000000000
31
0.0
0
LINE
5
4b0
100
AcDbEntity
8
0-0
6
CONTINUOUS
62
4
100
AcDbLine
10
35.860000000000
20
35.230000000000
30
0.0
11
36.660000000000
21
35.230000000000
31
0.0
0
LINE
5
4b1
100
AcDbEntity
8
0-0
6
CONTINUOUS
62
4
100
AcDbLine
10
35.860000000000
20
34.750000000000
30
0.0
11
36.660000000000
21
34.750000000000
31
0.0
0
LINE
5
4b2
100
AcDbEntity
8
0-0
6
CONTINUOUS
62
4
100
AcDbLine
10
35.860000000000
20
34.590000000000
30
0.0
11
36.660000000000
21
34.590000000000
31
0.0
0
LINE
5
4b3
100
AcDbEntity
8
0-0
6
CONTINUOUS
62
4
100
AcDbLine
10
36.930000000000
20
30.910000000000
30
0.0
11
37.500000000000
21
30.910000000000
31
0.0
0
LINE
5
4b4
100
AcDbEntity
8
0-0
6
CONTINUOUS
62
4
100
AcDbLine
10
36.770000000000
20
30.750000000000
30
0.0
11
37.340000000000
21
30.750000000000
31
0.0
0
LINE
5
4b5
100
AcDbEntity
8
0-0
6
CONTINUOUS
62
4
100
AcDbLine
10
35.860000000000
20
30.590000000000
30
0.0
11
37.180000000000
21
30.590000000000
31
0.0
0
LINE
5
4b6
100
AcDbEntity
8
0-0
6
CONTINUOUS
62
4
100
AcDbLine
10
35.860000000000
20
30.430000000000
30
0.0
11
37.020000000000
21
30.430000000000
31
0.0
0
LINE
5
4b7
100
AcDbEntity
8
0-0
6
CONTINUOUS
62
4
100
AcDbLine
10
37.890000000000
20
31.870000000000
30
0.0
11
38.460000000000
21
31.870000000000
31
0.0
0
LINE
5
4b8
100
AcDbEntity
8
0-0
6
CONTINUOUS
62
4
100
AcDbLine
10
37.730000000000
20
31.710000000000
30
0.0
11
38.300000000000
21
31.710000000000
31
0.0
0
LINE
5
4b9
100
AcDbEntity
8
0-0
6
CONTINUOUS
62
4
100
AcDbLine
10
37.580000000000
20
31.550000000000
30
0.0
11
38.140000000000
21
31.550000000000
31
0.0
0
LINE
5
4ba
100
AcDbEntity
8
0-0
6
CONTINUOUS
62
4
100
AcDbLine
10
37.410000000000
20
31.390000000000
30
0.0
11
37.980000000000
21
31.390000000000
31
0.0
0
LINE
5
4bb
100
AcDbEntity
8
0-0
6
CONTINUOUS
62
4
100
AcDbLine
10
37.260000000000
20
31.230000000000
30
0.0
11
37.820000000000
21
31.230000000000
31
0.0
0
LINE
5
4bc
100
AcDbEntity
8
0-0
6
CONTINUOUS
62
4
100
AcDbLine
10
37.100000000000
20
31.070000000000
30
0.0
11
37.660000000000
21
31.070000000000
31
0.0
0
LINE
5
4bd
100
AcDbEntity
8
0-0
6
CONTINUOUS
62
4
100
AcDbLine
10
36.660000000000
20
36.750000000000
30
0.0
11
36.660000000000
21
36.910000000000
31
0.0
0
LINE
5
4be
100
AcDbEntity
8
0-0
6
CONTINUOUS
62
4
100
AcDbLine
10
43.060000000000
20
30.750000000000
30
0.0
11
43.860000000000
21
30.750000000000
31
0.0
0
LINE
5
4bf
100
AcDbEntity
8
0-0
6
CONTINUOUS
62
4
100
AcDbLine
10
43.060000000000
20
30.910000000000
30
0.0
11
43.860000000000
21
30.910000000000
31
0.0
0
LINE
5
4c0
100
AcDbEntity
8
0-0
6
CONTINUOUS
62
4
100
AcDbLine
10
43.060000000000
20
31.070000000000
30
0.0
11
43.860000000000
21
31.070000000000
31
0.0
0
LINE
5
4c1
100
AcDbEntity
8
0-0
6
CONTINUOUS
62
4
100
AcDbLine
10
43.060000000000
20
31.230000000000
30
0.0
11
43.860000000000
21
31.230000000000
31
0.0
0
LINE
5
4c2
100
AcDbEntity
8
0-0
6
CONTINUOUS
62
4
100
AcDbLine
10
43.060000000000
20
31.390000000000
30
0.0
11
43.860000000000
21
31.390000000000
31
0.0
0
LINE
5
4c3
100
AcDbEntity
8
0-0
6
CONTINUOUS
62
4
100
AcDbLine
10
43.060000000000
20
31.550000000000
30
0.0
11
43.860000000000
21
31.550000000000
31
0.0
0
LINE
5
4c4
100
AcDbEntity
8
0-0
6
CONTINUOUS
62
4
100
AcDbLine
10
43.060000000000
20
31.710000000000
30
0.0
11
43.860000000000
21
31.710000000000
31
0.0
0
LINE
5
4c5
100
AcDbEntity
8
0-0
6
CONTINUOUS
62
4
100
AcDbLine
10
43.060000000000
20
31.870000000000
30
0.0
11
43.860000000000
21
31.870000000000
31
0.0
0
LINE
5
4c6
100
AcDbEntity
8
0-0
6
CONTINUOUS
62
4
100
AcDbLine
10
43.060000000000
20
32.030000000000
30
0.0
11
43.860000000000
21
32.030000000000
31
0.0
0
LINE
5
4c7
100
AcDbEntity
8
0-0
6
CONTINUOUS
62
4
100
AcDbLine
10
43.060000000000
20
32.190000000000
30
0.0
11
43.860000000000
21
32.190000000000
31
0.0
0
LINE
5
4c8
100
AcDbEntity
8
0-0
6
CONTINUOUS
62
4
100
AcDbLine
10
43.060000000000
20
32.350000000000
30
0.0
11
43.860000000000
21
32.350000000000
31
0.0
0
LINE
5
4c9
100
AcDbEntity
8
0-0
6
CONTINUOUS
62
4
100
AcDbLine
10
43.060000000000
20
32.510000000000
30
0.0
11
43.860000000000
21
32.510000000000
31
0.0
0
LINE
5
4ca
100
AcDbEntity
8
0-0
6
CONTINUOUS
62
4
100
AcDbLine
10
43.060000000000
20
32.670000000000
30
0.0
11
43.860000000000
21
32.670000000000
31
0.0
0
LINE
5
4cb
100
AcDbEntity
8
0-0
6
CONTINUOUS
62
4
100
AcDbLine
10
43.060000000000
20
32.990000000000
30
0.0
11
43.860000000000
21
32.990000000000
31
0.0
0
LINE
5
4cc
100
AcDbEntity
8
0-0
6
CONTINUOUS
62
4
100
AcDbLine
10
43.060000000000
20
33.150000000000
30
0.0
11
43.860000000000
21
33.150000000000
31
0.0
0
LINE
5
4cd
100
AcDbEntity
8
0-0
6
CONTINUOUS
62
4
100
AcDbLine
10
43.060000000000
20
33.310000000000
30
0.0
11
43.860000000000
21
33.310000000000
31
0.0
0
LINE
5
4ce
100
AcDbEntity
8
0-0
6
CONTINUOUS
62
4
100
AcDbLine
10
43.060000000000
20
33.470000000000
30
0.0
11
43.860000000000
21
33.470000000000
31
0.0
0
LINE
5
4cf
100
AcDbEntity
8
0-0
6
CONTINUOUS
62
4
100
AcDbLine
10
43.060000000000
20
33.630000000000
30
0.0
11
43.860000000000
21
33.630000000000
31
0.0
0
LINE
5
4d0
100
AcDbEntity
8
0-0
6
CONTINUOUS
62
4
100
AcDbLine
10
43.060000000000
20
33.790000000000
30
0.0
11
43.860000000000
21
33.790000000000
31
0.0
0
LINE
5
4d1
100
AcDbEntity
8
0-0
6
CONTINUOUS
62
4
100
AcDbLine
10
43.060000000000
20
33.950000000000
30
0.0
11
43.860000000000
21
33.950000000000
31
0.0
0
LINE
5
4d2
100
AcDbEntity
8
0-0
6
CONTINUOUS
62
4
100
AcDbLine
10
43.060000000000
20
34.110000000000
30
0.0
11
43.860000000000
21
34.110000000000
31
0.0
0
LINE
5
4d3
100
AcDbEntity
8
0-0
6
CONTINUOUS
62
4
100
AcDbLine
10
43.060000000000
20
34.270000000000
30
0.0
11
43.860000000000
21
34.270000000000
31
0.0
0
LINE
5
4d4
100
AcDbEntity
8
0-0
6
CONTINUOUS
62
4
100
AcDbLine
10
43.060000000000
20
34.430000000000
30
0.0
11
43.860000000000
21
34.430000000000
31
0.0
0
LINE
5
4d5
100
AcDbEntity
8
0-0
6
CONTINUOUS
62
4
100
AcDbLine
10
43.060000000000
20
34.910000000000
30
0.0
11
43.860000000000
21
34.910000000000
31
0.0
0
LINE
5
4d6
100
AcDbEntity
8
0-0
6
CONTINUOUS
62
4
100
AcDbLine
10
43.060000000000
20
35.390000000000
30
0.0
11
43.860000000000
21
35.390000000000
31
0.0
0
LINE
5
4d7
100
AcDbEntity
8
0-0
6
CONTINUOUS
62
4
100
AcDbLine
10
43.060000000000
20
35.550000000000
30
0.0
11
43.860000000000
21
35.550000000000
31
0.0
0
LINE
5
4d8
100
AcDbEntity
8
0-0
6
CONTINUOUS
62
4
100
AcDbLine
10
43.060000000000
20
35.710000000000
30
0.0
11
43.860000000000
21
35.710000000000
31
0.0
0
LINE
5
4d9
100
AcDbEntity
8
0-0
6
CONTINUOUS
62
4
100
AcDbLine
10
43.060000000000
20
35.870000000000
30
0.0
11
43.860000000000
21
35.870000000000
31
0.0
0
LINE
5
4da
100
AcDbEntity
8
0-0
6
CONTINUOUS
62
4
100
AcDbLine
10
43.060000000000
20
36.350000000000
30
0.0
11
43.860000000000
21
36.350000000000
31
0.0
0
LINE
5
4db
100
AcDbEntity
8
0-0
6
CONTINUOUS
62
4
100
AcDbLine
10
43.060000000000
20
36.190000000000
30
0.0
11
43.860000000000
21
36.190000000000
31
0.0
0
LINE
5
4dc
100
AcDbEntity
8
0-0
6
CONTINUOUS
62
4
100
AcDbLine
10
43.060000000000
20
36.030000000000
30
0.0
11
43.860000000000
21
36.030000000000
31
0.0
0
LINE
5
4dd
100
AcDbEntity
8
0-0
6
CONTINUOUS
62
4
100
AcDbLine
10
43.060000000000
20
35.070000000000
30
0.0
11
43.860000000000
21
35.070000000000
31
0.0
0
LINE
5
4de
100
AcDbEntity
8
0-0
6
CONTINUOUS
62
4
100
AcDbLine
10
43.060000000000
20
35.230000000000
30
0.0
11
43.860000000000
21
35.230000000000
31
0.0
0
LINE
5
4df
100
AcDbEntity
8
0-0
6
CONTINUOUS
62
4
100
AcDbLine
10
43.060000000000
20
34.750000000000
30
0.0
11
43.860000000000
21
34.750000000000
31
0.0
0
LINE
5
4e0
100
AcDbEntity
8
0-0
6
CONTINUOUS
62
4
100
AcDbLine
10
43.060000000000
20
34.590000000000
30
0.0
11
43.860000000000
21
34.590000000000
31
0.0
0
LINE
5
4e1
100
AcDbEntity
8
0-0
6
CONTINUOUS
62
4
100
AcDbLine
10
43.060000000000
20
30.430000000000
30
0.0
11
43.860000000000
21
30.430000000000
31
0.0
0
LINE
5
4e2
100
AcDbEntity
8
0-0
6
CONTINUOUS
62
4
100
AcDbLine
10
43.060000000000
20
30.590000000000
30
0.0
11
43.860000000000
21
30.590000000000
31
0.0
0
LINE
5
4e3
100
AcDbEntity
8
0-0
6
CONTINUOUS
62
4
100
AcDbLine
10
42.700000000000
20
36.670000000000
30
0.0
11
43.860000000000
21
36.670000000000
31
0.0
0
LINE
5
4e4
100
AcDbEntity
8
0-0
6
CONTINUOUS
62
4
100
AcDbLine
10
42.530000000000
20
36.510000000000
30
0.0
11
43.860000000000
21
36.510000000000
31
0.0
0
LINE
5
4e5
100
AcDbEntity
8
0-0
6
CONTINUOUS
62
4
100
AcDbLine
10
38.530000000000
20
32.510000000000
30
0.0
11
39.100000000000
21
32.510000000000
31
0.0
0
LINE
5
4e6
100
AcDbEntity
8
0-0
6
CONTINUOUS
62
4
100
AcDbLine
10
38.380000000000
20
32.350000000000
30
0.0
11
38.940000000000
21
32.350000000000
31
0.0
0
LINE
5
4e7
100
AcDbEntity
8
0-0
6
CONTINUOUS
62
4
100
AcDbLine
10
38.210000000000
20
32.190000000000
30
0.0
11
38.780000000000
21
32.190000000000
31
0.0
0
LINE
5
4e8
100
AcDbEntity
8
0-0
6
CONTINUOUS
62
4
100
AcDbLine
10
38.060000000000
20
32.030000000000
30
0.0
11
38.620000000000
21
32.030000000000
31
0.0
0
LINE
5
4e9
100
AcDbEntity
8
0-0
6
CONTINUOUS
62
4
100
AcDbLine
10
39.180000000000
20
33.150000000000
30
0.0
11
39.740000000000
21
33.150000000000
31
0.0
0
LINE
5
4ea
100
AcDbEntity
8
0-0
6
CONTINUOUS
62
4
100
AcDbLine
10
39.020000000000
20
32.990000000000
30
0.0
11
39.580000000000
21
32.990000000000
31
0.0
0
LINE
5
4eb
100
AcDbEntity
8
0-0
6
CONTINUOUS
62
4
100
AcDbLine
10
38.850000000000
20
32.830000000000
30
0.0
11
39.420000000000
21
32.830000000000
31
0.0
0
LINE
5
4ec
100
AcDbEntity
8
0-0
6
CONTINUOUS
62
4
100
AcDbLine
10
38.690000000000
20
32.670000000000
30
0.0
11
39.260000000000
21
32.670000000000
31
0.0
0
LINE
5
4ed
100
AcDbEntity
8
0-0
6
CONTINUOUS
62
4
100
AcDbLine
10
39.820000000000
20
33.790000000000
30
0.0
11
40.380000000000
21
33.790000000000
31
0.0
0
LINE
5
4ee
100
AcDbEntity
8
0-0
6
CONTINUOUS
62
4
100
AcDbLine
10
39.650000000000
20
33.630000000000
30
0.0
11
40.220000000000
21
33.630000000000
31
0.0
0
LINE
5
4ef
100
AcDbEntity
8
0-0
6
CONTINUOUS
62
4
100
AcDbLine
10
39.490000000000
20
33.470000000000
30
0.0
11
40.060000000000
21
33.470000000000
31
0.0
0
LINE
5
4f0
100
AcDbEntity
8
0-0
6
CONTINUOUS
62
4
100
AcDbLine
10
39.330000000000
20
33.310000000000
30
0.0
11
39.900000000000
21
33.310000000000
31
0.0
0
LINE
5
4f1
100
AcDbEntity
8
0-0
6
CONTINUOUS
62
4
100
AcDbLine
10
40.450000000000
20
34.430000000000
30
0.0
11
41.020000000000
21
34.430000000000
31
0.0
0
LINE
5
4f2
100
AcDbEntity
8
0-0
6
CONTINUOUS
62
4
100
AcDbLine
10
40.300000000000
20
34.270000000000
30
0.0
11
40.860000000000
21
34.270000000000
31
0.0
0
LINE
5
4f3
100
AcDbEntity
8
0-0
6
CONTINUOUS
62
4
100
AcDbLine
10
40.130000000000
20
34.110000000000
30
0.0
11
40.700000000000
21
34.110000000000
31
0.0
0
LINE
5
4f4
100
AcDbEntity
8
0-0
6
CONTINUOUS
62
4
100
AcDbLine
10
39.980000000000
20
33.950000000000
30
0.0
11
40.540000000000
21
33.950000000000
31
0.0
0
LINE
5
4f5
100
AcDbEntity
8
0-0
6
CONTINUOUS
62
4
100
AcDbLine
10
41.100000000000
20
35.070000000000
30
0.0
11
41.660000000000
21
35.070000000000
31
0.0
0
LINE
5
4f6
100
AcDbEntity
8
0-0
6
CONTINUOUS
62
4
100
AcDbLine
10
40.930000000000
20
34.910000000000
30
0.0
11
41.500000000000
21
34.910000000000
31
0.0
0
LINE
5
4f7
100
AcDbEntity
8
0-0
6
CONTINUOUS
62
4
100
AcDbLine
10
40.770000000000
20
34.750000000000
30
0.0
11
41.340000000000
21
34.750000000000
31
0.0
0
LINE
5
4f8
100
AcDbEntity
8
0-0
6
CONTINUOUS
62
4
100
AcDbLine
10
40.620000000000
20
34.590000000000
30
0.0
11
41.180000000000
21
34.590000000000
31
0.0
0
LINE
5
4f9
100
AcDbEntity
8
0-0
6
CONTINUOUS
62
4
100
AcDbLine
10
41.730000000000
20
35.710000000000
30
0.0
11
42.300000000000
21
35.710000000000
31
0.0
0
LINE
5
4fa
100
AcDbEntity
8
0-0
6
CONTINUOUS
62
4
100
AcDbLine
10
41.570000000000
20
35.550000000000
30
0.0
11
42.140000000000
21
35.550000000000
31
0.0
0
LINE
5
4fb
100
AcDbEntity
8
0-0
6
CONTINUOUS
62
4
100
AcDbLine
10
41.420000000000
20
35.390000000000
30
0.0
11
41.980000000000
21
35.390000000000
31
0.0
0
LINE
5
4fc
100
AcDbEntity
8
0-0
6
CONTINUOUS
62
4
100
AcDbLine
10
41.250000000000
20
35.230000000000
30
0.0
11
41.820000000000
21
35.230000000000
31
0.0
0
LINE
5
4fd
100
AcDbEntity
8
0-0
6
CONTINUOUS
62
4
100
AcDbLine
10
42.370000000000
20
36.350000000000
30
0.0
11
42.940000000000
21
36.350000000000
31
0.0
0
LINE
5
4fe
100
AcDbEntity
8
0-0
6
CONTINUOUS
62
4
100
AcDbLine
10
42.210000000000
20
36.190000000000
30
0.0
11
42.780000000000
21
36.190000000000
31
0.0
0
LINE
5
4ff
100
AcDbEntity
8
0-0
6
CONTINUOUS
62
4
100
AcDbLine
10
42.050000000000
20
36.030000000000
30
0.0
11
42.620000000000
21
36.030000000000
31
0.0
0
LINE
5
500
100
AcDbEntity
8
0-0
6
CONTINUOUS
62
4
100
AcDbLine
10
41.890000000000
20
35.870000000000
30
0.0
11
42.460000000000
21
35.870000000000
31
0.0
0
LINE
5
501
100
AcDbEntity
8
0-0
6
CONTINUOUS
62
4
100
AcDbLine
10
43.060000000000
20
32.830000000000
30
0.0
11
43.860000000000
21
32.830000000000
31
0.0
0
LINE
5
502
100
AcDbEntity
8
0-0
6
CONTINUOUS
62
4
100
AcDbLine
10
153.100000000000
20
399.750000000000
30
0.0
11
303.100000000000
21
399.750000000000
31
0.0
0
LINE
5
503
100
AcDbEntity
8
0-0
6
CONTINUOUS
62
4
100
AcDbLine
10
153.100000000000
20
389.750000000000
30
0.0
11
153.100000000000
21
399.750000000000
31
0.0
0
LINE
5
504
100
AcDbEntity
8
0-0
6
CONTINUOUS
62
4
100
AcDbLine
10
303.100000000000
20
389.750000000000
30
0.0
11
303.100000000000
21
399.750000000000
31
0.0
0
LINE
5
505
100
AcDbEntity
8
0-0
6
CONTINUOUS
62
3
100
AcDbLine
10
252.390000000000
20
379.040000000000
30
0.0
11
252.660000000000
21
379.310000000000
31
0.0
0
LINE
5
506
100
AcDbEntity
8
0-0
6
CONTINUOUS
62
3
100
AcDbLine
10
253.010000000000
20
378.950000000000
30
0.0
11
252.750000000000
21
378.690000000000
31
0.0
0
LINE
5
507
100
AcDbEntity
8
0-0
6
CONTINUOUS
62
3
100
AcDbLine
10
251.690000000000
20
378.750000000000
30
0.0
11
228.100000000000
21
378.750000000000
31
0.0
0
LINE
5
508
100
AcDbEntity
8
0-0
6
CONTINUOUS
62
3
100
AcDbLine
10
228.100000000000
20
378.250000000000
30
0.0
11
251.690000000000
21
378.250000000000
31
0.0
0
LINE
5
509
100
AcDbEntity
8
0-0
6
CONTINUOUS
62
3
100
AcDbLine
10
203.810000000000
20
379.040000000000
30
0.0
11
203.540000000000
21
379.310000000000
31
0.0
0
LINE
5
50a
100
AcDbEntity
8
0-0
6
CONTINUOUS
62
3
100
AcDbLine
10
203.190000000000
20
378.950000000000
30
0.0
11
203.450000000000
21
378.690000000000
31
0.0
0
LINE
5
50b
100
AcDbEntity
8
0-0
6
CONTINUOUS
62
3
100
AcDbLine
10
204.510000000000
20
378.750000000000
30
0.0
11
228.100000000000
21
378.750000000000
31
0.0
0
LINE
5
50c
100
AcDbEntity
8
0-0
6
CONTINUOUS
62
3
100
AcDbLine
10
228.100000000000
20
378.250000000000
30
0.0
11
204.510000000000
21
378.250000000000
31
0.0
0
LINE
5
50d
100
AcDbEntity
8
0-0
6
CONTINUOUS
62
3
100
AcDbLine
10
253.720000000000
20
379.750000000000
30
0.0
11
301.600000000000
21
379.750000000000
31
0.0
0
LINE
5
50e
100
AcDbEntity
8
0-0
6
CONTINUOUS
62
3
100
AcDbLine
10
301.600000000000
20
379.250000000000
30
0.0
11
253.720000000000
21
379.250000000000
31
0.0
0
LINE
5
50f
100
AcDbEntity
8
0-0
6
CONTINUOUS
62
3
100
AcDbLine
10
154.600000000000
20
379.750000000000
30
0.0
11
202.480000000000
21
379.750000000000
31
0.0
0
LINE
5
510
100
AcDbEntity
8
0-0
6
CONTINUOUS
62
3
100
AcDbLine
10
202.480000000000
20
379.250000000000
30
0.0
11
154.600000000000
21
379.250000000000
31
0.0
0
LINE
5
511
100
AcDbEntity
8
0-0
6
CONTINUOUS
62
4
100
AcDbLine
10
153.100000000000
20
134.560000000000
30
0.0
11
303.100000000000
21
134.560000000000
31
0.0
0
LINE
5
512
100
AcDbEntity
8
0-0
6
CONTINUOUS
62
4
100
AcDbLine
10
153.100000000000
20
124.560000000000
30
0.0
11
153.100000000000
21
134.560000000000
31
0.0
0
LINE
5
513
100
AcDbEntity
8
0-0
6
CONTINUOUS
62
4
100
AcDbLine
10
303.100000000000
20
124.560000000000
30
0.0
11
303.100000000000
21
134.560000000000
31
0.0
0
LINE
5
514
100
AcDbEntity
8
0-0
6
CONTINUOUS
62
3
100
AcDbLine
10
252.270000000000
20
113.850000000000
30
0.0
11
252.540000000000
21
114.120000000000
31
0.0
0
LINE
5
515
100
AcDbEntity
8
0-0
6
CONTINUOUS
62
3
100
AcDbLine
10
252.890000000000
20
113.770000000000
30
0.0
11
252.620000000000
21
113.500000000000
31
0.0
0
LINE
5
516
100
AcDbEntity
8
0-0
6
CONTINUOUS
62
3
100
AcDbLine
10
251.560000000000
20
113.560000000000
30
0.0
11
227.980000000000
21
113.560000000000
31
0.0
0
LINE
5
517
100
AcDbEntity
8
0-0
6
CONTINUOUS
62
3
100
AcDbLine
10
227.980000000000
20
113.060000000000
30
0.0
11
251.560000000000
21
113.060000000000
31
0.0
0
LINE
5
518
100
AcDbEntity
8
0-0
6
CONTINUOUS
62
3
100
AcDbLine
10
203.680000000000
20
113.850000000000
30
0.0
11
203.410000000000
21
114.120000000000
31
0.0
0
LINE
5
519
100
AcDbEntity
8
0-0
6
CONTINUOUS
62
3
100
AcDbLine
10
203.060000000000
20
113.770000000000
30
0.0
11
203.330000000000
21
113.500000000000
31
0.0
0
LINE
5
51a
100
AcDbEntity
8
0-0
6
CONTINUOUS
62
3
100
AcDbLine
10
204.390000000000
20
113.560000000000
30
0.0
11
227.980000000000
21
113.560000000000
31
0.0
0
LINE
5
51b
100
AcDbEntity
8
0-0
6
CONTINUOUS
62
3
100
AcDbLine
10
227.980000000000
20
113.060000000000
30
0.0
11
204.390000000000
21
113.060000000000
31
0.0
0
LINE
5
51c
100
AcDbEntity
8
0-0
6
CONTINUOUS
62
3
100
AcDbLine
10
253.600000000000
20
114.560000000000
30
0.0
11
301.480000000000
21
114.560000000000
31
0.0
0
LINE
5
51d
100
AcDbEntity
8
0-0
6
CONTINUOUS
62
3
100
AcDbLine
10
301.480000000000
20
114.060000000000
30
0.0
11
253.600000000000
21
114.060000000000
31
0.0
0
LINE
5
51e
100
AcDbEntity
8
0-0
6
CONTINUOUS
62
3
100
AcDbLine
10
154.730000000000
20
114.560000000000
30
0.0
11
202.350000000000
21
114.560000000000
31
0.0
0
LINE
5
51f
100
AcDbEntity
8
0-0
6
CONTINUOUS
62
3
100
AcDbLine
10
202.350000000000
20
114.060000000000
30
0.0
11
154.730000000000
21
114.060000000000
31
0.0
0
LINE
5
520
100
AcDbEntity
8
0-0
6
CONTINUOUS
62
2
100
AcDbLine
10
642.380000000000
20
631.080000000000
30
0.0
11
642.380000000000
21
601.450000000000
31
0.0
0
LINE
5
521
100
AcDbEntity
8
0-0
6
CONTINUOUS
62
2
100
AcDbLine
10
607.270000000000
20
631.080000000000
30
0.0
11
607.270000000000
21
601.450000000000
31
0.0
0
LINE
5
522
100
AcDbEntity
8
0-0
6
CONTINUOUS
62
2
100
AcDbLine
10
768.560000000000
20
601.450000000000
30
0.0
11
768.560000000000
21
631.080000000000
31
0.0
0
LINE
5
523
100
AcDbEntity
8
0-0
6
CONTINUOUS
62
2
100
AcDbLine
10
403.450000000000
20
631.080000000000
30
0.0
11
403.450000000000
21
601.450000000000
31
0.0
0
LINE
5
524
100
AcDbEntity
8
0-0
6
CONTINUOUS
62
2
100
AcDbLine
10
504.870000000000
20
631.080000000000
30
0.0
11
504.870000000000
21
601.450000000000
31
0.0
0
LINE
5
525
100
AcDbEntity
8
0-0
6
CONTINUOUS
62
2
100
AcDbLine
10
403.450000000000
20
621.200000000000
30
0.0
11
184.880000000000
21
621.200000000000
31
0.0
0
LINE
5
526
100
AcDbEntity
8
0-0
6
CONTINUOUS
62
2
100
AcDbLine
10
403.450000000000
20
611.330000000000
30
0.0
11
184.880000000000
21
611.330000000000
31
0.0
0
LINE
5
527
100
AcDbEntity
8
0-0
6
CONTINUOUS
62
2
100
AcDbLine
10
403.450000000000
20
606.390000000000
30
0.0
11
184.880000000000
21
606.390000000000
31
0.0
0
LINE
5
528
100
AcDbEntity
8
0-0
6
CONTINUOUS
62
2
100
AcDbLine
10
403.450000000000
20
626.140000000000
30
0.0
11
184.880000000000
21
626.140000000000
31
0.0
0
LINE
5
529
100
AcDbEntity
8
0-0
6
CONTINUOUS
62
2
100
AcDbLine
10
211.210000000000
20
631.080000000000
30
0.0
11
211.210000000000
21
601.450000000000
31
0.0
0
LINE
5
52a
100
AcDbEntity
8
0-0
6
CONTINUOUS
62
2
100
AcDbLine
10
184.880000000000
20
631.080000000000
30
0.0
11
184.880000000000
21
601.450000000000
31
0.0
0
LINE
5
52b
100
AcDbEntity
8
0-0
6
CONTINUOUS
62
2
100
AcDbLine
10
815.820000000000
20
601.450000000000
30
0.0
11
815.820000000000
21
1161.450000000000
31
0.0
0
LINE
5
52c
100
AcDbEntity
8
0-0
6
CONTINUOUS
62
2
100
AcDbLine
10
27.380000000000
20
601.450000000000
30
0.0
11
815.820000000000
21
601.450000000000
31
0.0
0
LINE
5
52d
100
AcDbEntity
8
0-0
6
CONTINUOUS
62
2
100
AcDbLine
10
815.820000000000
20
631.080000000000
30
0.0
11
27.380000000000
21
631.080000000000
31
0.0
0
LINE
5
52e
100
AcDbEntity
8
0-0
6
CONTINUOUS
62
2
100
AcDbLine
10
184.880000000000
20
616.270000000000
30
0.0
11
815.820000000000
21
616.270000000000
31
0.0
0
LINE
5
52f
100
AcDbEntity
8
0-0
6
CONTINUOUS
62
3
100
AcDbLine
10
35.860000000000
20
619.180000000000
30
0.0
11
35.860000000000
21
627.180000000000
31
0.0
0
LINE
5
530
100
AcDbEntity
8
0-0
6
CONTINUOUS
62
3
100
AcDbLine
10
35.860000000000
20
627.180000000000
30
0.0
11
43.860000000000
21
627.180000000000
31
0.0
0
LINE
5
531
100
AcDbEntity
8
0-0
6
CONTINUOUS
62
3
100
AcDbLine
10
43.860000000000
20
627.180000000000
30
0.0
11
43.860000000000
21
619.180000000000
31
0.0
0
LINE
5
532
100
AcDbEntity
8
0-0
6
CONTINUOUS
62
3
100
AcDbLine
10
43.860000000000
20
619.180000000000
30
0.0
11
35.860000000000
21
619.180000000000
31
0.0
0
LINE
5
533
100
AcDbEntity
8
0-0
6
CONTINUOUS
62
3
100
AcDbLine
10
36.660000000000
20
620.260000000000
30
0.0
11
36.660000000000
21
626.380000000000
31
0.0
0
LINE
5
534
100
AcDbEntity
8
0-0
6
CONTINUOUS
62
3
100
AcDbLine
10
43.060000000000
20
619.980000000000
30
0.0
11
36.940000000000
21
619.980000000000
31
0.0
0
LINE
5
535
100
AcDbEntity
8
0-0
6
CONTINUOUS
62
3
100
AcDbLine
10
36.660000000000
20
626.380000000000
30
0.0
11
42.770000000000
21
626.380000000000
31
0.0
0
LINE
5
536
100
AcDbEntity
8
0-0
6
CONTINUOUS
62
3
100
AcDbLine
10
42.770000000000
20
626.380000000000
30
0.0
11
36.660000000000
21
620.260000000000
31
0.0
0
LINE
5
537
100
AcDbEntity
8
0-0
6
CONTINUOUS
62
3
100
AcDbLine
10
43.060000000000
20
626.100000000000
30
0.0
11
36.940000000000
21
619.980000000000
31
0.0
0
LINE
5
538
100
AcDbEntity
8
0-0
6
CONTINUOUS
62
3
100
AcDbLine
10
43.060000000000
20
626.100000000000
30
0.0
11
43.060000000000
21
619.980000000000
31
0.0
0
LINE
5
539
100
AcDbEntity
8
0-0
6
CONTINUOUS
62
4
100
AcDbLine
10
35.860000000000
20
627.100000000000
30
0.0
11
43.860000000000
21
627.100000000000
31
0.0
0
LINE
5
53a
100
AcDbEntity
8
0-0
6
CONTINUOUS
62
4
100
AcDbLine
10
35.860000000000
20
626.940000000000
30
0.0
11
43.860000000000
21
626.940000000000
31
0.0
0
LINE
5
53b
100
AcDbEntity
8
0-0
6
CONTINUOUS
62
4
100
AcDbLine
10
35.860000000000
20
626.780000000000
30
0.0
11
43.860000000000
21
626.780000000000
31
0.0
0
LINE
5
53c
100
AcDbEntity
8
0-0
6
CONTINUOUS
62
4
100
AcDbLine
10
35.860000000000
20
626.620000000000
30
0.0
11
43.860000000000
21
626.620000000000
31
0.0
0
LINE
5
53d
100
AcDbEntity
8
0-0
6
CONTINUOUS
62
4
100
AcDbLine
10
35.860000000000
20
626.460000000000
30
0.0
11
43.860000000000
21
626.460000000000
31
0.0
0
LINE
5
53e
100
AcDbEntity
8
0-0
6
CONTINUOUS
62
4
100
AcDbLine
10
35.860000000000
20
619.900000000000
30
0.0
11
43.860000000000
21
619.900000000000
31
0.0
0
LINE
5
53f
100
AcDbEntity
8
0-0
6
CONTINUOUS
62
4
100
AcDbLine
10
35.860000000000
20
619.740000000000
30
0.0
11
43.860000000000
21
619.740000000000
31
0.0
0
LINE
5
540
100
AcDbEntity
8
0-0
6
CONTINUOUS
62
4
100
AcDbLine
10
35.860000000000
20
619.580000000000
30
0.0
11
43.860000000000
21
619.580000000000
31
0.0
0
LINE
5
541
100
AcDbEntity
8
0-0
6
CONTINUOUS
62
4
100
AcDbLine
10
35.860000000000
20
619.420000000000
30
0.0
11
43.860000000000
21
619.420000000000
31
0.0
0
LINE
5
542
100
AcDbEntity
8
0-0
6
CONTINUOUS
62
4
100
AcDbLine
10
35.860000000000
20
619.260000000000
30
0.0
11
43.860000000000
21
619.260000000000
31
0.0
0
LINE
5
543
100
AcDbEntity
8
0-0
6
CONTINUOUS
62
4
100
AcDbLine
10
35.860000000000
20
620.380000000000
30
0.0
11
36.660000000000
21
620.380000000000
31
0.0
0
LINE
5
544
100
AcDbEntity
8
0-0
6
CONTINUOUS
62
4
100
AcDbLine
10
35.860000000000
20
620.540000000000
30
0.0
11
36.660000000000
21
620.540000000000
31
0.0
0
LINE
5
545
100
AcDbEntity
8
0-0
6
CONTINUOUS
62
4
100
AcDbLine
10
35.860000000000
20
620.700000000000
30
0.0
11
36.660000000000
21
620.700000000000
31
0.0
0
LINE
5
546
100
AcDbEntity
8
0-0
6
CONTINUOUS
62
4
100
AcDbLine
10
35.860000000000
20
620.860000000000
30
0.0
11
36.660000000000
21
620.860000000000
31
0.0
0
LINE
5
547
100
AcDbEntity
8
0-0
6
CONTINUOUS
62
4
100
AcDbLine
10
35.860000000000
20
621.020000000000
30
0.0
11
36.660000000000
21
621.020000000000
31
0.0
0
LINE
5
548
100
AcDbEntity
8
0-0
6
CONTINUOUS
62
4
100
AcDbLine
10
35.860000000000
20
621.180000000000
30
0.0
11
36.660000000000
21
621.180000000000
31
0.0
0
LINE
5
549
100
AcDbEntity
8
0-0
6
CONTINUOUS
62
4
100
AcDbLine
10
35.860000000000
20
621.340000000000
30
0.0
11
36.660000000000
21
621.340000000000
31
0.0
0
LINE
5
54a
100
AcDbEntity
8
0-0
6
CONTINUOUS
62
4
100
AcDbLine
10
35.860000000000
20
621.500000000000
30
0.0
11
36.660000000000
21
621.500000000000
31
0.0
0
LINE
5
54b
100
AcDbEntity
8
0-0
6
CONTINUOUS
62
4
100
AcDbLine
10
35.860000000000
20
621.660000000000
30
0.0
11
36.660000000000
21
621.660000000000
31
0.0
0
LINE
5
54c
100
AcDbEntity
8
0-0
6
CONTINUOUS
62
4
100
AcDbLine
10
35.860000000000
20
621.820000000000
30
0.0
11
36.660000000000
21
621.820000000000
31
0.0
0
LINE
5
54d
100
AcDbEntity
8
0-0
6
CONTINUOUS
62
4
100
AcDbLine
10
35.860000000000
20
621.980000000000
30
0.0
11
36.660000000000
21
621.980000000000
31
0.0
0
LINE
5
54e
100
AcDbEntity
8
0-0
6
CONTINUOUS
62
4
100
AcDbLine
10
35.860000000000
20
622.140000000000
30
0.0
11
36.660000000000
21
622.140000000000
31
0.0
0
LINE
5
54f
100
AcDbEntity
8
0-0
6
CONTINUOUS
62
4
100
AcDbLine
10
35.860000000000
20
622.300000000000
30
0.0
11
36.660000000000
21
622.300000000000
31
0.0
0
LINE
5
550
100
AcDbEntity
8
0-0
6
CONTINUOUS
62
4
100
AcDbLine
10
35.860000000000
20
622.460000000000
30
0.0
11
36.660000000000
21
622.460000000000
31
0.0
0
LINE
5
551
100
AcDbEntity
8
0-0
6
CONTINUOUS
62
4
100
AcDbLine
10
35.860000000000
20
622.620000000000
30
0.0
11
36.660000000000
21
622.620000000000
31
0.0
0
LINE
5
552
100
AcDbEntity
8
0-0
6
CONTINUOUS
62
4
100
AcDbLine
10
35.860000000000
20
622.780000000000
30
0.0
11
36.660000000000
21
622.780000000000
31
0.0
0
LINE
5
553
100
AcDbEntity
8
0-0
6
CONTINUOUS
62
4
100
AcDbLine
10
35.860000000000
20
622.940000000000
30
0.0
11
36.660000000000
21
622.940000000000
31
0.0
0
LINE
5
554
100
AcDbEntity
8
0-0
6
CONTINUOUS
62
4
100
AcDbLine
10
35.860000000000
20
623.100000000000
30
0.0
11
36.660000000000
21
623.100000000000
31
0.0
0
LINE
5
555
100
AcDbEntity
8
0-0
6
CONTINUOUS
62
4
100
AcDbLine
10
35.860000000000
20
623.260000000000
30
0.0
11
36.660000000000
21
623.260000000000
31
0.0
0
LINE
5
556
100
AcDbEntity
8
0-0
6
CONTINUOUS
62
4
100
AcDbLine
10
35.860000000000
20
623.420000000000
30
0.0
11
36.660000000000
21
623.420000000000
31
0.0
0
LINE
5
557
100
AcDbEntity
8
0-0
6
CONTINUOUS
62
4
100
AcDbLine
10
35.860000000000
20
623.580000000000
30
0.0
11
36.660000000000
21
623.580000000000
31
0.0
0
LINE
5
558
100
AcDbEntity
8
0-0
6
CONTINUOUS
62
4
100
AcDbLine
10
35.860000000000
20
623.740000000000
30
0.0
11
36.660000000000
21
623.740000000000
31
0.0
0
LINE
5
559
100
AcDbEntity
8
0-0
6
CONTINUOUS
62
4
100
AcDbLine
10
35.860000000000
20
623.900000000000
30
0.0
11
36.660000000000
21
623.900000000000
31
0.0
0
LINE
5
55a
100
AcDbEntity
8
0-0
6
CONTINUOUS
62
4
100
AcDbLine
10
35.860000000000
20
624.060000000000
30
0.0
11
36.660000000000
21
624.060000000000
31
0.0
0
LINE
5
55b
100
AcDbEntity
8
0-0
6
CONTINUOUS
62
4
100
AcDbLine
10
35.860000000000
20
624.540000000000
30
0.0
11
36.660000000000
21
624.540000000000
31
0.0
0
LINE
5
55c
100
AcDbEntity
8
0-0
6
CONTINUOUS
62
4
100
AcDbLine
10
35.860000000000
20
625.020000000000
30
0.0
11
36.660000000000
21
625.020000000000
31
0.0
0
LINE
5
55d
100
AcDbEntity
8
0-0
6
CONTINUOUS
62
4
100
AcDbLine
10
35.860000000000
20
625.180000000000
30
0.0
11
36.660000000000
21
625.180000000000
31
0.0
0
LINE
5
55e
100
AcDbEntity
8
0-0
6
CONTINUOUS
62
4
100
AcDbLine
10
35.860000000000
20
625.340000000000
30
0.0
11
36.660000000000
21
625.340000000000
31
0.0
0
LINE
5
55f
100
AcDbEntity
8
0-0
6
CONTINUOUS
62
4
100
AcDbLine
10
35.860000000000
20
625.500000000000
30
0.0
11
36.660000000000
21
625.500000000000
31
0.0
0
LINE
5
560
100
AcDbEntity
8
0-0
6
CONTINUOUS
62
4
100
AcDbLine
10
35.860000000000
20
626.300000000000
30
0.0
11
36.660000000000
21
626.300000000000
31
0.0
0
LINE
5
561
100
AcDbEntity
8
0-0
6
CONTINUOUS
62
4
100
AcDbLine
10
35.860000000000
20
626.140000000000
30
0.0
11
36.660000000000
21
626.140000000000
31
0.0
0
LINE
5
562
100
AcDbEntity
8
0-0
6
CONTINUOUS
62
4
100
AcDbLine
10
35.860000000000
20
625.980000000000
30
0.0
11
36.660000000000
21
625.980000000000
31
0.0
0
LINE
5
563
100
AcDbEntity
8
0-0
6
CONTINUOUS
62
4
100
AcDbLine
10
35.860000000000
20
625.820000000000
30
0.0
11
36.660000000000
21
625.820000000000
31
0.0
0
LINE
5
564
100
AcDbEntity
8
0-0
6
CONTINUOUS
62
4
100
AcDbLine
10
35.860000000000
20
625.660000000000
30
0.0
11
36.660000000000
21
625.660000000000
31
0.0
0
LINE
5
565
100
AcDbEntity
8
0-0
6
CONTINUOUS
62
4
100
AcDbLine
10
35.860000000000
20
624.700000000000
30
0.0
11
36.660000000000
21
624.700000000000
31
0.0
0
LINE
5
566
100
AcDbEntity
8
0-0
6
CONTINUOUS
62
4
100
AcDbLine
10
35.860000000000
20
624.860000000000
30
0.0
11
36.660000000000
21
624.860000000000
31
0.0
0
LINE
5
567
100
AcDbEntity
8
0-0
6
CONTINUOUS
62
4
100
AcDbLine
10
35.860000000000
20
624.380000000000
30
0.0
11
36.660000000000
21
624.380000000000
31
0.0
0
LINE
5
568
100
AcDbEntity
8
0-0
6
CONTINUOUS
62
4
100
AcDbLine
10
35.860000000000
20
624.220000000000
30
0.0
11
36.660000000000
21
624.220000000000
31
0.0
0
LINE
5
569
100
AcDbEntity
8
0-0
6
CONTINUOUS
62
4
100
AcDbLine
10
36.930000000000
20
620.540000000000
30
0.0
11
37.500000000000
21
620.540000000000
31
0.0
0
LINE
5
56a
100
AcDbEntity
8
0-0
6
CONTINUOUS
62
4
100
AcDbLine
10
36.770000000000
20
620.380000000000
30
0.0
11
37.340000000000
21
620.380000000000
31
0.0
0
LINE
5
56b
100
AcDbEntity
8
0-0
6
CONTINUOUS
62
4
100
AcDbLine
10
35.860000000000
20
620.220000000000
30
0.0
11
37.180000000000
21
620.220000000000
31
0.0
0
LINE
5
56c
100
AcDbEntity
8
0-0
6
CONTINUOUS
62
4
100
AcDbLine
10
35.860000000000
20
620.060000000000
30
0.0
11
37.020000000000
21
620.060000000000
31
0.0
0
LINE
5
56d
100
AcDbEntity
8
0-0
6
CONTINUOUS
62
4
100
AcDbLine
10
37.890000000000
20
621.500000000000
30
0.0
11
38.460000000000
21
621.500000000000
31
0.0
0
LINE
5
56e
100
AcDbEntity
8
0-0
6
CONTINUOUS
62
4
100
AcDbLine
10
37.730000000000
20
621.340000000000
30
0.0
11
38.300000000000
21
621.340000000000
31
0.0
0
LINE
5
56f
100
AcDbEntity
8
0-0
6
CONTINUOUS
62
4
100
AcDbLine
10
37.580000000000
20
621.180000000000
30
0.0
11
38.140000000000
21
621.180000000000
31
0.0
0
LINE
5
570
100
AcDbEntity
8
0-0
6
CONTINUOUS
62
4
100
AcDbLine
10
37.410000000000
20
621.020000000000
30
0.0
11
37.980000000000
21
621.020000000000
31
0.0
0
LINE
5
571
100
AcDbEntity
8
0-0
6
CONTINUOUS
62
4
100
AcDbLine
10
37.260000000000
20
620.860000000000
30
0.0
11
37.820000000000
21
620.860000000000
31
0.0
0
LINE
5
572
100
AcDbEntity
8
0-0
6
CONTINUOUS
62
4
100
AcDbLine
10
37.100000000000
20
620.700000000000
30
0.0
11
37.660000000000
21
620.700000000000
31
0.0
0
LINE
5
573
100
AcDbEntity
8
0-0
6
CONTINUOUS
62
4
100
AcDbLine
10
36.660000000000
20
626.380000000000
30
0.0
11
36.660000000000
21
626.540000000000
31
0.0
0
LINE
5
574
100
AcDbEntity
8
0-0
6
CONTINUOUS
62
4
100
AcDbLine
10
43.060000000000
20
620.380000000000
30
0.0
11
43.860000000000
21
620.380000000000
31
0.0
0
LINE
5
575
100
AcDbEntity
8
0-0
6
CONTINUOUS
62
4
100
AcDbLine
10
43.060000000000
20
620.540000000000
30
0.0
11
43.860000000000
21
620.540000000000
31
0.0
0
LINE
5
576
100
AcDbEntity
8
0-0
6
CONTINUOUS
62
4
100
AcDbLine
10
43.060000000000
20
620.700000000000
30
0.0
11
43.860000000000
21
620.700000000000
31
0.0
0
LINE
5
577
100
AcDbEntity
8
0-0
6
CONTINUOUS
62
4
100
AcDbLine
10
43.060000000000
20
620.860000000000
30
0.0
11
43.860000000000
21
620.860000000000
31
0.0
0
LINE
5
578
100
AcDbEntity
8
0-0
6
CONTINUOUS
62
4
100
AcDbLine
10
43.060000000000
20
621.020000000000
30
0.0
11
43.860000000000
21
621.020000000000
31
0.0
0
LINE
5
579
100
AcDbEntity
8
0-0
6
CONTINUOUS
62
4
100
AcDbLine
10
43.060000000000
20
621.180000000000
30
0.0
11
43.860000000000
21
621.180000000000
31
0.0
0
LINE
5
57a
100
AcDbEntity
8
0-0
6
CONTINUOUS
62
4
100
AcDbLine
10
43.060000000000
20
621.340000000000
30
0.0
11
43.860000000000
21
621.340000000000
31
0.0
0
LINE
5
57b
100
AcDbEntity
8
0-0
6
CONTINUOUS
62
4
100
AcDbLine
10
43.060000000000
20
621.500000000000
30
0.0
11
43.860000000000
21
621.500000000000
31
0.0
0
LINE
5
57c
100
AcDbEntity
8
0-0
6
CONTINUOUS
62
4
100
AcDbLine
10
43.060000000000
20
621.660000000000
30
0.0
11
43.860000000000
21
621.660000000000
31
0.0
0
LINE
5
57d
100
AcDbEntity
8
0-0
6
CONTINUOUS
62
4
100
AcDbLine
10
43.060000000000
20
621.820000000000
30
0.0
11
43.860000000000
21
621.820000000000
31
0.0
0
LINE
5
57e
100
AcDbEntity
8
0-0
6
CONTINUOUS
62
4
100
AcDbLine
10
43.060000000000
20
621.980000000000
30
0.0
11
43.860000000000
21
621.980000000000
31
0.0
0
LINE
5
57f
100
AcDbEntity
8
0-0
6
CONTINUOUS
62
4
100
AcDbLine
10
43.060000000000
20
622.140000000000
30
0.0
11
43.860000000000
21
622.140000000000
31
0.0
0
LINE
5
580
100
AcDbEntity
8
0-0
6
CONTINUOUS
62
4
100
AcDbLine
10
43.060000000000
20
622.300000000000
30
0.0
11
43.860000000000
21
622.300000000000
31
0.0
0
LINE
5
581
100
AcDbEntity
8
0-0
6
CONTINUOUS
62
4
100
AcDbLine
10
43.060000000000
20
622.620000000000
30
0.0
11
43.860000000000
21
622.620000000000
31
0.0
0
LINE
5
582
100
AcDbEntity
8
0-0
6
CONTINUOUS
62
4
100
AcDbLine
10
43.060000000000
20
622.780000000000
30
0.0
11
43.860000000000
21
622.780000000000
31
0.0
0
LINE
5
583
100
AcDbEntity
8
0-0
6
CONTINUOUS
62
4
100
AcDbLine
10
43.060000000000
20
622.940000000000
30
0.0
11
43.860000000000
21
622.940000000000
31
0.0
0
LINE
5
584
100
AcDbEntity
8
0-0
6
CONTINUOUS
62
4
100
AcDbLine
10
43.060000000000
20
623.100000000000
30
0.0
11
43.860000000000
21
623.100000000000
31
0.0
0
LINE
5
585
100
AcDbEntity
8
0-0
6
CONTINUOUS
62
4
100
AcDbLine
10
43.060000000000
20
623.260000000000
30
0.0
11
43.860000000000
21
623.260000000000
31
0.0
0
LINE
5
586
100
AcDbEntity
8
0-0
6
CONTINUOUS
62
4
100
AcDbLine
10
43.060000000000
20
623.420000000000
30
0.0
11
43.860000000000
21
623.420000000000
31
0.0
0
LINE
5
587
100
AcDbEntity
8
0-0
6
CONTINUOUS
62
4
100
AcDbLine
10
43.060000000000
20
623.580000000000
30
0.0
11
43.860000000000
21
623.580000000000
31
0.0
0
LINE
5
588
100
AcDbEntity
8
0-0
6
CONTINUOUS
62
4
100
AcDbLine
10
43.060000000000
20
623.740000000000
30
0.0
11
43.860000000000
21
623.740000000000
31
0.0
0
LINE
5
589
100
AcDbEntity
8
0-0
6
CONTINUOUS
62
4
100
AcDbLine
10
43.060000000000
20
623.900000000000
30
0.0
11
43.860000000000
21
623.900000000000
31
0.0
0
LINE
5
58a
100
AcDbEntity
8
0-0
6
CONTINUOUS
62
4
100
AcDbLine
10
43.060000000000
20
624.060000000000
30
0.0
11
43.860000000000
21
624.060000000000
31
0.0
0
LINE
5
58b
100
AcDbEntity
8
0-0
6
CONTINUOUS
62
4
100
AcDbLine
10
43.060000000000
20
624.540000000000
30
0.0
11
43.860000000000
21
624.540000000000
31
0.0
0
LINE
5
58c
100
AcDbEntity
8
0-0
6
CONTINUOUS
62
4
100
AcDbLine
10
43.060000000000
20
625.020000000000
30
0.0
11
43.860000000000
21
625.020000000000
31
0.0
0
LINE
5
58d
100
AcDbEntity
8
0-0
6
CONTINUOUS
62
4
100
AcDbLine
10
43.060000000000
20
625.180000000000
30
0.0
11
43.860000000000
21
625.180000000000
31
0.0
0
LINE
5
58e
100
AcDbEntity
8
0-0
6
CONTINUOUS
62
4
100
AcDbLine
10
43.060000000000
20
625.340000000000
30
0.0
11
43.860000000000
21
625.340000000000
31
0.0
0
LINE
5
58f
100
AcDbEntity
8
0-0
6
CONTINUOUS
62
4
100
AcDbLine
10
43.060000000000
20
625.500000000000
30
0.0
11
43.860000000000
21
625.500000000000
31
0.0
0
LINE
5
590
100
AcDbEntity
8
0-0
6
CONTINUOUS
62
4
100
AcDbLine
10
43.060000000000
20
625.980000000000
30
0.0
11
43.860000000000
21
625.980000000000
31
0.0
0
LINE
5
591
100
AcDbEntity
8
0-0
6
CONTINUOUS
62
4
100
AcDbLine
10
43.060000000000
20
625.820000000000
30
0.0
11
43.860000000000
21
625.820000000000
31
0.0
0
LINE
5
592
100
AcDbEntity
8
0-0
6
CONTINUOUS
62
4
100
AcDbLine
10
43.060000000000
20
625.660000000000
30
0.0
11
43.860000000000
21
625.660000000000
31
0.0
0
LINE
5
593
100
AcDbEntity
8
0-0
6
CONTINUOUS
62
4
100
AcDbLine
10
43.060000000000
20
624.700000000000
30
0.0
11
43.860000000000
21
624.700000000000
31
0.0
0
LINE
5
594
100
AcDbEntity
8
0-0
6
CONTINUOUS
62
4
100
AcDbLine
10
43.060000000000
20
624.860000000000
30
0.0
11
43.860000000000
21
624.860000000000
31
0.0
0
LINE
5
595
100
AcDbEntity
8
0-0
6
CONTINUOUS
62
4
100
AcDbLine
10
43.060000000000
20
624.380000000000
30
0.0
11
43.860000000000
21
624.380000000000
31
0.0
0
LINE
5
596
100
AcDbEntity
8
0-0
6
CONTINUOUS
62
4
100
AcDbLine
10
43.060000000000
20
624.220000000000
30
0.0
11
43.860000000000
21
624.220000000000
31
0.0
0
LINE
5
597
100
AcDbEntity
8
0-0
6
CONTINUOUS
62
4
100
AcDbLine
10
43.060000000000
20
620.060000000000
30
0.0
11
43.860000000000
21
620.060000000000
31
0.0
0
LINE
5
598
100
AcDbEntity
8
0-0
6
CONTINUOUS
62
4
100
AcDbLine
10
43.060000000000
20
620.220000000000
30
0.0
11
43.860000000000
21
620.220000000000
31
0.0
0
LINE
5
599
100
AcDbEntity
8
0-0
6
CONTINUOUS
62
4
100
AcDbLine
10
42.700000000000
20
626.300000000000
30
0.0
11
43.860000000000
21
626.300000000000
31
0.0
0
LINE
5
59a
100
AcDbEntity
8
0-0
6
CONTINUOUS
62
4
100
AcDbLine
10
42.530000000000
20
626.140000000000
30
0.0
11
43.860000000000
21
626.140000000000
31
0.0
0
LINE
5
59b
100
AcDbEntity
8
0-0
6
CONTINUOUS
62
4
100
AcDbLine
10
38.530000000000
20
622.140000000000
30
0.0
11
39.100000000000
21
622.140000000000
31
0.0
0
LINE
5
59c
100
AcDbEntity
8
0-0
6
CONTINUOUS
62
4
100
AcDbLine
10
38.380000000000
20
621.980000000000
30
0.0
11
38.940000000000
21
621.980000000000
31
0.0
0
LINE
5
59d
100
AcDbEntity
8
0-0
6
CONTINUOUS
62
4
100
AcDbLine
10
38.210000000000
20
621.820000000000
30
0.0
11
38.780000000000
21
621.820000000000
31
0.0
0
LINE
5
59e
100
AcDbEntity
8
0-0
6
CONTINUOUS
62
4
100
AcDbLine
10
38.060000000000
20
621.660000000000
30
0.0
11
38.620000000000
21
621.660000000000
31
0.0
0
LINE
5
59f
100
AcDbEntity
8
0-0
6
CONTINUOUS
62
4
100
AcDbLine
10
39.180000000000
20
622.780000000000
30
0.0
11
39.740000000000
21
622.780000000000
31
0.0
0
LINE
5
5a0
100
AcDbEntity
8
0-0
6
CONTINUOUS
62
4
100
AcDbLine
10
39.020000000000
20
622.620000000000
30
0.0
11
39.580000000000
21
622.620000000000
31
0.0
0
LINE
5
5a1
100
AcDbEntity
8
0-0
6
CONTINUOUS
62
4
100
AcDbLine
10
38.850000000000
20
622.460000000000
30
0.0
11
39.420000000000
21
622.460000000000
31
0.0
0
LINE
5
5a2
100
AcDbEntity
8
0-0
6
CONTINUOUS
62
4
100
AcDbLine
10
38.690000000000
20
622.300000000000
30
0.0
11
39.260000000000
21
622.300000000000
31
0.0
0
LINE
5
5a3
100
AcDbEntity
8
0-0
6
CONTINUOUS
62
4
100
AcDbLine
10
39.820000000000
20
623.420000000000
30
0.0
11
40.380000000000
21
623.420000000000
31
0.0
0
LINE
5
5a4
100
AcDbEntity
8
0-0
6
CONTINUOUS
62
4
100
AcDbLine
10
39.650000000000
20
623.260000000000
30
0.0
11
40.220000000000
21
623.260000000000
31
0.0
0
LINE
5
5a5
100
AcDbEntity
8
0-0
6
CONTINUOUS
62
4
100
AcDbLine
10
39.500000000000
20
623.100000000000
30
0.0
11
40.060000000000
21
623.100000000000
31
0.0
0
LINE
5
5a6
100
AcDbEntity
8
0-0
6
CONTINUOUS
62
4
100
AcDbLine
10
39.330000000000
20
622.940000000000
30
0.0
11
39.900000000000
21
622.940000000000
31
0.0
0
LINE
5
5a7
100
AcDbEntity
8
0-0
6
CONTINUOUS
62
4
100
AcDbLine
10
40.450000000000
20
624.060000000000
30
0.0
11
41.020000000000
21
624.060000000000
31
0.0
0
LINE
5
5a8
100
AcDbEntity
8
0-0
6
CONTINUOUS
62
4
100
AcDbLine
10
40.300000000000
20
623.900000000000
30
0.0
11
40.860000000000
21
623.900000000000
31
0.0
0
LINE
5
5a9
100
AcDbEntity
8
0-0
6
CONTINUOUS
62
4
100
AcDbLine
10
40.130000000000
20
623.740000000000
30
0.0
11
40.700000000000
21
623.740000000000
31
0.0
0
LINE
5
5aa
100
AcDbEntity
8
0-0
6
CONTINUOUS
62
4
100
AcDbLine
10
39.980000000000
20
623.580000000000
30
0.0
11
40.540000000000
21
623.580000000000
31
0.0
0
LINE
5
5ab
100
AcDbEntity
8
0-0
6
CONTINUOUS
62
4
100
AcDbLine
10
41.100000000000
20
624.700000000000
30
0.0
11
41.660000000000
21
624.700000000000
31
0.0
0
LINE
5
5ac
100
AcDbEntity
8
0-0
6
CONTINUOUS
62
4
100
AcDbLine
10
40.930000000000
20
624.540000000000
30
0.0
11
41.500000000000
21
624.540000000000
31
0.0
0
LINE
5
5ad
100
AcDbEntity
8
0-0
6
CONTINUOUS
62
4
100
AcDbLine
10
40.780000000000
20
624.380000000000
30
0.0
11
41.340000000000
21
624.380000000000
31
0.0
0
LINE
5
5ae
100
AcDbEntity
8
0-0
6
CONTINUOUS
62
4
100
AcDbLine
10
40.620000000000
20
624.220000000000
30
0.0
11
41.180000000000
21
624.220000000000
31
0.0
0
LINE
5
5af
100
AcDbEntity
8
0-0
6
CONTINUOUS
62
4
100
AcDbLine
10
41.730000000000
20
625.340000000000
30
0.0
11
42.300000000000
21
625.340000000000
31
0.0
0
LINE
5
5b0
100
AcDbEntity
8
0-0
6
CONTINUOUS
62
4
100
AcDbLine
10
41.570000000000
20
625.180000000000
30
0.0
11
42.140000000000
21
625.180000000000
31
0.0
0
LINE
5
5b1
100
AcDbEntity
8
0-0
6
CONTINUOUS
62
4
100
AcDbLine
10
41.420000000000
20
625.020000000000
30
0.0
11
41.980000000000
21
625.020000000000
31
0.0
0
LINE
5
5b2
100
AcDbEntity
8
0-0
6
CONTINUOUS
62
4
100
AcDbLine
10
41.250000000000
20
624.860000000000
30
0.0
11
41.820000000000
21
624.860000000000
31
0.0
0
LINE
5
5b3
100
AcDbEntity
8
0-0
6
CONTINUOUS
62
4
100
AcDbLine
10
42.370000000000
20
625.980000000000
30
0.0
11
42.940000000000
21
625.980000000000
31
0.0
0
LINE
5
5b4
100
AcDbEntity
8
0-0
6
CONTINUOUS
62
4
100
AcDbLine
10
42.210000000000
20
625.820000000000
30
0.0
11
42.780000000000
21
625.820000000000
31
0.0
0
LINE
5
5b5
100
AcDbEntity
8
0-0
6
CONTINUOUS
62
4
100
AcDbLine
10
42.050000000000
20
625.660000000000
30
0.0
11
42.620000000000
21
625.660000000000
31
0.0
0
LINE
5
5b6
100
AcDbEntity
8
0-0
6
CONTINUOUS
62
4
100
AcDbLine
10
41.900000000000
20
625.500000000000
30
0.0
11
42.460000000000
21
625.500000000000
31
0.0
0
LINE
5
5b7
100
AcDbEntity
8
0-0
6
CONTINUOUS
62
4
100
AcDbLine
10
43.060000000000
20
622.460000000000
30
0.0
11
43.860000000000
21
622.460000000000
31
0.0
0
LINE
5
5b8
100
AcDbEntity
8
0-0
6
CONTINUOUS
62
2
100
AcDbLine
10
27.380000000000
20
601.450000000000
30
0.0
11
27.380000000000
21
1161.450000000000
31
0.0
0
LINE
5
5b9
100
AcDbEntity
8
0-0
6
CONTINUOUS
62
2
100
AcDbLine
10
815.820000000000
20
1161.450000000000
30
0.0
11
27.380000000000
21
1161.450000000000
31
0.0
0
LINE
5
5ba
100
AcDbEntity
8
0-0
6
CONTINUOUS
62
4
100
AcDbLine
10
575.230000000000
20
500.780000000000
30
0.0
11
585.230000000000
21
500.780000000000
31
0.0
0
LINE
5
5bb
100
AcDbEntity
8
0-0
6
CONTINUOUS
62
4
100
AcDbLine
10
425.230000000000
20
510.780000000000
30
0.0
11
585.230000000000
21
510.780000000000
31
0.0
0
LINE
5
5bc
100
AcDbEntity
8
0-0
6
CONTINUOUS
62
4
100
AcDbLine
10
585.230000000000
20
510.780000000000
30
0.0
11
615.230000000000
21
510.780000000000
31
0.0
0
LINE
5
5bd
100
AcDbEntity
8
0-0
6
CONTINUOUS
62
4
100
AcDbLine
10
585.230000000000
20
500.780000000000
30
0.0
11
615.230000000000
21
500.780000000000
31
0.0
0
LINE
5
5be
100
AcDbEntity
8
0-0
6
CONTINUOUS
62
4
100
AcDbLine
10
415.230000000000
20
500.780000000000
30
0.0
11
425.230000000000
21
500.780000000000
31
0.0
0
LINE
5
5bf
100
AcDbEntity
8
0-0
6
CONTINUOUS
62
4
100
AcDbLine
10
415.230000000000
20
500.780000000000
30
0.0
11
385.230000000000
21
500.780000000000
31
0.0
0
LINE
5
5c0
100
AcDbEntity
8
0-0
6
CONTINUOUS
62
4
100
AcDbLine
10
575.230000000000
20
389.750000000000
30
0.0
11
575.230000000000
21
399.750000000000
31
0.0
0
LINE
5
5c1
100
AcDbEntity
8
0-0
6
CONTINUOUS
62
4
100
AcDbLine
10
425.230000000000
20
399.750000000000
30
0.0
11
575.230000000000
21
399.750000000000
31
0.0
0
LINE
5
5c2
100
AcDbEntity
8
0-0
6
CONTINUOUS
62
4
100
AcDbLine
10
575.230000000000
20
399.750000000000
30
0.0
11
585.230000000000
21
399.750000000000
31
0.0
0
LINE
5
5c3
100
AcDbEntity
8
0-0
6
CONTINUOUS
62
4
100
AcDbLine
10
585.230000000000
20
399.750000000000
30
0.0
11
615.230000000000
21
399.750000000000
31
0.0
0
LINE
5
5c4
100
AcDbEntity
8
0-0
6
CONTINUOUS
62
4
100
AcDbLine
10
585.230000000000
20
409.750000000000
30
0.0
11
615.230000000000
21
409.750000000000
31
0.0
0
LINE
5
5c5
100
AcDbEntity
8
0-0
6
CONTINUOUS
62
4
100
AcDbLine
10
425.230000000000
20
409.750000000000
30
0.0
11
585.230000000000
21
409.750000000000
31
0.0
0
LINE
5
5c6
100
AcDbEntity
8
0-0
6
CONTINUOUS
62
4
100
AcDbLine
10
359.580000000000
20
760.140000000000
30
0.0
11
359.580000000000
21
770.140000000000
31
0.0
0
LINE
5
5c7
100
AcDbEntity
8
0-0
6
CONTINUOUS
62
4
100
AcDbLine
10
260.580000000000
20
802.640000000000
30
0.0
11
250.580000000000
21
802.640000000000
31
0.0
0
LINE
5
5c8
100
AcDbEntity
8
0-0
6
CONTINUOUS
62
4
100
AcDbLine
10
260.580000000000
20
727.640000000000
30
0.0
11
250.580000000000
21
727.640000000000
31
0.0
0
LINE
5
5c9
100
AcDbEntity
8
0-0
6
CONTINUOUS
62
4
100
AcDbLine
10
172.320000000000
20
812.760000000000
30
0.0
11
172.320000000000
21
822.760000000000
31
0.0
0
LINE
5
5ca
100
AcDbEntity
8
0-0
6
CONTINUOUS
62
4
100
AcDbLine
10
83.820000000000
20
727.760000000000
30
0.0
11
73.820000000000
21
727.760000000000
31
0.0
0
LINE
5
5cb
100
AcDbEntity
8
0-0
6
CONTINUOUS
62
4
100
AcDbLine
10
83.820000000000
20
802.760000000000
30
0.0
11
73.820000000000
21
802.760000000000
31
0.0
0
LINE
5
5cc
100
AcDbEntity
8
0-0
6
CONTINUOUS
62
4
100
AcDbLine
10
284.580000000000
20
829.310000000000
30
0.0
11
284.580000000000
21
834.310000000000
31
0.0
0
LINE
5
5cd
100
AcDbEntity
8
0-0
6
CONTINUOUS
62
4
100
AcDbLine
10
260.580000000000
20
822.140000000000
30
0.0
11
250.580000000000
21
822.140000000000
31
0.0
0
LINE
5
5ce
100
AcDbEntity
8
0-0
6
CONTINUOUS
62
3
100
AcDbLine
10
273.580000000000
20
802.640000000000
30
0.0
11
283.080000000000
21
802.640000000000
31
0.0
0
LINE
5
5cf
100
AcDbEntity
8
0-0
6
CONTINUOUS
62
3
100
AcDbLine
10
283.080000000000
20
802.140000000000
30
0.0
11
273.580000000000
21
802.140000000000
31
0.0
0
LINE
5
5d0
100
AcDbEntity
8
0-0
6
CONTINUOUS
62
4
100
AcDbLine
10
207.320000000000
20
788.760000000000
30
0.0
11
207.320000000000
21
802.760000000000
31
0.0
0
LINE
5
5d1
100
AcDbEntity
8
0-0
6
CONTINUOUS
62
4
100
AcDbLine
10
197.320000000000
20
788.760000000000
30
0.0
11
207.320000000000
21
788.760000000000
31
0.0
0
LINE
5
5d2
100
AcDbEntity
8
0-0
6
CONTINUOUS
62
4
100
AcDbLine
10
197.320000000000
20
802.760000000000
30
0.0
11
207.320000000000
21
802.760000000000
31
0.0
0
LINE
5
5d3
100
AcDbEntity
8
0-0
6
CONTINUOUS
62
4
100
AcDbLine
10
162.320000000000
20
778.760000000000
30
0.0
11
162.320000000000
21
768.760000000000
31
0.0
0
LINE
5
5d4
100
AcDbEntity
8
0-0
6
CONTINUOUS
62
4
100
AcDbLine
10
162.320000000000
20
768.760000000000
30
0.0
11
172.320000000000
21
768.760000000000
31
0.0
0
LINE
5
5d5
100
AcDbEntity
8
0-0
6
CONTINUOUS
62
4
100
AcDbLine
10
172.320000000000
20
778.760000000000
30
0.0
11
172.320000000000
21
768.760000000000
31
0.0
0
LINE
5
5d6
100
AcDbEntity
8
0-0
6
CONTINUOUS
62
4
100
AcDbLine
10
177.320000000000
20
778.760000000000
30
0.0
11
177.320000000000
21
768.760000000000
31
0.0
0
LINE
5
5d7
100
AcDbEntity
8
0-0
6
CONTINUOUS
62
4
100
AcDbLine
10
162.320000000000
20
768.760000000000
30
0.0
11
162.320000000000
21
758.760000000000
31
0.0
0
LINE
5
5d8
100
AcDbEntity
8
0-0
6
CONTINUOUS
62
4
100
AcDbLine
10
152.320000000000
20
788.760000000000
30
0.0
11
152.320000000000
21
792.760000000000
31
0.0
0
LINE
5
5d9
100
AcDbEntity
8
0-0
6
CONTINUOUS
62
4
100
AcDbLine
10
157.320000000000
20
788.760000000000
30
0.0
11
152.320000000000
21
788.760000000000
31
0.0
0
LINE
5
5da
100
AcDbEntity
8
0-0
6
CONTINUOUS
62
4
100
AcDbLine
10
157.320000000000
20
792.760000000000
30
0.0
11
152.320000000000
21
792.760000000000
31
0.0
0
LINE
5
5db
100
AcDbEntity
8
0-0
6
CONTINUOUS
62
3
100
AcDbLine
10
163.940000000000
20
792.760000000000
30
0.0
11
170.020000000000
21
793.670000000000
31
0.0
0
LINE
5
5dc
100
AcDbEntity
8
0-0
6
CONTINUOUS
62
3
100
AcDbLine
10
164.020000000000
20
792.270000000000
30
0.0
11
170.130000000000
21
793.180000000000
31
0.0
0
LINE
5
5dd
100
AcDbEntity
8
0-0
6
CONTINUOUS
62
3
100
AcDbLine
10
172.310000000000
20
801.180000000000
30
0.0
11
171.180000000000
21
794.160000000000
31
0.0
0
LINE
5
5de
100
AcDbEntity
8
0-0
6
CONTINUOUS
62
3
100
AcDbLine
10
171.820000000000
20
801.260000000000
30
0.0
11
170.690000000000
21
794.290000000000
31
0.0
0
LINE
5
5df
100
AcDbEntity
8
0-0
6
CONTINUOUS
62
3
100
AcDbLine
10
177.690000000000
20
790.110000000000
30
0.0
11
179.820000000000
21
789.260000000000
31
0.0
0
LINE
5
5e0
100
AcDbEntity
8
0-0
6
CONTINUOUS
62
3
100
AcDbLine
10
179.820000000000
20
789.260000000000
30
0.0
11
184.940000000000
21
789.260000000000
31
0.0
0
LINE
5
5e1
100
AcDbEntity
8
0-0
6
CONTINUOUS
62
3
100
AcDbLine
10
179.720000000000
20
788.760000000000
30
0.0
11
185.070000000000
21
788.760000000000
31
0.0
0
LINE
5
5e2
100
AcDbEntity
8
0-0
6
CONTINUOUS
62
3
100
AcDbLine
10
177.500000000000
20
789.650000000000
30
0.0
11
179.720000000000
21
788.760000000000
31
0.0
0
LINE
5
5e3
100
AcDbEntity
8
0-0
6
CONTINUOUS
62
3
100
AcDbLine
10
163.940000000000
20
789.260000000000
30
0.0
11
174.820000000000
21
789.260000000000
31
0.0
0
LINE
5
5e4
100
AcDbEntity
8
0-0
6
CONTINUOUS
62
3
100
AcDbLine
10
174.820000000000
20
789.260000000000
30
0.0
11
176.950000000000
21
790.110000000000
31
0.0
0
LINE
5
5e5
100
AcDbEntity
8
0-0
6
CONTINUOUS
62
3
100
AcDbLine
10
177.130000000000
20
789.650000000000
30
0.0
11
174.910000000000
21
788.760000000000
31
0.0
0
LINE
5
5e6
100
AcDbEntity
8
0-0
6
CONTINUOUS
62
3
100
AcDbLine
10
174.910000000000
20
788.760000000000
30
0.0
11
163.940000000000
21
788.760000000000
31
0.0
0
LINE
5
5e7
100
AcDbEntity
8
0-0
6
CONTINUOUS
62
4
100
AcDbLine
10
190.320000000000
20
778.760000000000
30
0.0
11
190.320000000000
21
768.760000000000
31
0.0
0
LINE
5
5e8
100
AcDbEntity
8
0-0
6
CONTINUOUS
62
4
100
AcDbLine
10
190.320000000000
20
768.760000000000
30
0.0
11
190.320000000000
21
758.760000000000
31
0.0
0
LINE
5
5e9
100
AcDbEntity
8
0-0
6
CONTINUOUS
62
4
100
AcDbLine
10
172.320000000000
20
768.760000000000
30
0.0
11
190.320000000000
21
768.760000000000
31
0.0
0
LINE
5
5ea
100
AcDbEntity
8
0-0
6
CONTINUOUS
62
4
100
AcDbLine
10
162.320000000000
20
758.760000000000
30
0.0
11
190.320000000000
21
758.760000000000
31
0.0
0
LINE
5
5eb
100
AcDbEntity
8
0-0
6
CONTINUOUS
62
3
100
AcDbLine
10
184.940000000000
20
789.260000000000
30
0.0
11
190.080000000000
21
792.060000000000
31
0.0
0
LINE
5
5ec
100
AcDbEntity
8
0-0
6
CONTINUOUS
62
3
100
AcDbLine
10
190.080000000000
20
792.060000000000
30
0.0
11
190.320000000000
21
791.620000000000
31
0.0
0
LINE
5
5ed
100
AcDbEntity
8
0-0
6
CONTINUOUS
62
3
100
AcDbLine
10
185.070000000000
20
788.760000000000
30
0.0
11
190.320000000000
21
791.620000000000
31
0.0
0
LINE
5
5ee
100
AcDbEntity
8
0-0
6
CONTINUOUS
62
3
100
AcDbLine
10
98.820000000000
20
728.260000000000
30
0.0
11
107.320000000000
21
728.260000000000
31
0.0
0
LINE
5
5ef
100
AcDbEntity
8
0-0
6
CONTINUOUS
62
3
100
AcDbLine
10
107.320000000000
20
727.760000000000
30
0.0
11
98.820000000000
21
727.760000000000
31
0.0
0
LINE
5
5f0
100
AcDbEntity
8
0-0
6
CONTINUOUS
62
3
100
AcDbLine
10
108.320000000000
20
721.260000000000
30
0.0
11
108.320000000000
21
726.760000000000
31
0.0
0
LINE
5
5f1
100
AcDbEntity
8
0-0
6
CONTINUOUS
62
3
100
AcDbLine
10
109.300000000000
20
707.640000000000
30
0.0
11
109.780000000000
21
707.770000000000
31
0.0
0
LINE
5
5f2
100
AcDbEntity
8
0-0
6
CONTINUOUS
62
3
100
AcDbLine
10
108.820000000000
20
721.360000000000
30
0.0
11
108.820000000000
21
726.760000000000
31
0.0
0
LINE
5
5f3
100
AcDbEntity
8
0-0
6
CONTINUOUS
62
3
100
AcDbLine
10
109.300000000000
20
707.640000000000
30
0.0
11
108.320000000000
21
711.170000000000
31
0.0
0
LINE
5
5f4
100
AcDbEntity
8
0-0
6
CONTINUOUS
62
3
100
AcDbLine
10
108.320000000000
20
711.170000000000
30
0.0
11
108.320000000000
21
726.760000000000
31
0.0
0
LINE
5
5f5
100
AcDbEntity
8
0-0
6
CONTINUOUS
62
3
100
AcDbLine
10
108.820000000000
20
711.240000000000
30
0.0
11
108.820000000000
21
726.760000000000
31
0.0
0
LINE
5
5f6
100
AcDbEntity
8
0-0
6
CONTINUOUS
62
3
100
AcDbLine
10
109.780000000000
20
707.770000000000
30
0.0
11
108.820000000000
21
711.240000000000
31
0.0
0
LINE
5
5f7
100
AcDbEntity
8
0-0
6
CONTINUOUS
62
3
100
AcDbLine
10
283.080000000000
20
802.140000000000
30
0.0
11
274.580000000000
21
802.140000000000
31
0.0
0
LINE
5
5f8
100
AcDbEntity
8
0-0
6
CONTINUOUS
62
3
100
AcDbLine
10
274.580000000000
20
802.640000000000
30
0.0
11
283.080000000000
21
802.640000000000
31
0.0
0
LINE
5
5f9
100
AcDbEntity
8
0-0
6
CONTINUOUS
62
3
100
AcDbLine
10
273.580000000000
20
809.140000000000
30
0.0
11
273.580000000000
21
803.640000000000
31
0.0
0
LINE
5
5fa
100
AcDbEntity
8
0-0
6
CONTINUOUS
62
3
100
AcDbLine
10
272.600000000000
20
822.770000000000
30
0.0
11
272.110000000000
21
822.640000000000
31
0.0
0
LINE
5
5fb
100
AcDbEntity
8
0-0
6
CONTINUOUS
62
3
100
AcDbLine
10
273.080000000000
20
809.040000000000
30
0.0
11
273.080000000000
21
803.640000000000
31
0.0
0
LINE
5
5fc
100
AcDbEntity
8
0-0
6
CONTINUOUS
62
3
100
AcDbLine
10
272.600000000000
20
822.770000000000
30
0.0
11
273.580000000000
21
819.230000000000
31
0.0
0
LINE
5
5fd
100
AcDbEntity
8
0-0
6
CONTINUOUS
62
3
100
AcDbLine
10
273.580000000000
20
819.230000000000
30
0.0
11
273.580000000000
21
803.640000000000
31
0.0
0
LINE
5
5fe
100
AcDbEntity
8
0-0
6
CONTINUOUS
62
3
100
AcDbLine
10
273.080000000000
20
819.170000000000
30
0.0
11
273.080000000000
21
803.640000000000
31
0.0
0
LINE
5
5ff
100
AcDbEntity
8
0-0
6
CONTINUOUS
62
3
100
AcDbLine
10
272.110000000000
20
822.640000000000
30
0.0
11
273.080000000000
21
819.170000000000
31
0.0
0
LINE
5
600
100
AcDbEntity
8
0-0
6
CONTINUOUS
62
4
100
AcDbLine
10
284.580000000000
20
829.310000000000
30
0.0
11
284.580000000000
21
834.310000000000
31
0.0
0
LINE
5
601
100
AcDbEntity
8
0-0
6
CONTINUOUS
62
4
100
AcDbLine
10
97.320000000000
20
701.100000000000
30
0.0
11
97.320000000000
21
691.100000000000
31
0.0
0
LINE
5
602
100
AcDbEntity
8
0-0
6
CONTINUOUS
62
4
100
AcDbLine
10
109.320000000000
20
701.100000000000
30
0.0
11
109.320000000000
21
691.100000000000
31
0.0
0
LINE
5
603
100
AcDbEntity
8
0-0
6
CONTINUOUS
62
4
100
AcDbLine
10
109.320000000000
20
691.100000000000
30
0.0
11
97.320000000000
21
691.100000000000
31
0.0
0
LINE
5
604
100
AcDbEntity
8
0-0
6
CONTINUOUS
62
4
100
AcDbLine
10
272.580000000000
20
834.310000000000
30
0.0
11
284.580000000000
21
834.310000000000
31
0.0
0
LINE
5
605
100
AcDbEntity
8
0-0
6
CONTINUOUS
62
4
100
AcDbLine
10
272.580000000000
20
829.310000000000
30
0.0
11
272.580000000000
21
834.310000000000
31
0.0
0
LINE
5
606
100
AcDbEntity
8
0-0
6
CONTINUOUS
62
4
100
AcDbLine
10
394.580000000000
20
713.640000000000
30
0.0
11
394.580000000000
21
727.640000000000
31
0.0
0
LINE
5
607
100
AcDbEntity
8
0-0
6
CONTINUOUS
62
4
100
AcDbLine
10
384.580000000000
20
713.640000000000
30
0.0
11
394.580000000000
21
713.640000000000
31
0.0
0
LINE
5
608
100
AcDbEntity
8
0-0
6
CONTINUOUS
62
4
100
AcDbLine
10
384.580000000000
20
727.640000000000
30
0.0
11
394.580000000000
21
727.640000000000
31
0.0
0
LINE
5
609
100
AcDbEntity
8
0-0
6
CONTINUOUS
62
4
100
AcDbLine
10
349.580000000000
20
703.640000000000
30
0.0
11
349.580000000000
21
693.640000000000
31
0.0
0
LINE
5
60a
100
AcDbEntity
8
0-0
6
CONTINUOUS
62
4
100
AcDbLine
10
349.580000000000
20
693.640000000000
30
0.0
11
359.580000000000
21
693.640000000000
31
0.0
0
LINE
5
60b
100
AcDbEntity
8
0-0
6
CONTINUOUS
62
4
100
AcDbLine
10
359.580000000000
20
703.640000000000
30
0.0
11
359.580000000000
21
693.640000000000
31
0.0
0
LINE
5
60c
100
AcDbEntity
8
0-0
6
CONTINUOUS
62
4
100
AcDbLine
10
364.580000000000
20
703.640000000000
30
0.0
11
364.580000000000
21
693.640000000000
31
0.0
0
LINE
5
60d
100
AcDbEntity
8
0-0
6
CONTINUOUS
62
4
100
AcDbLine
10
349.580000000000
20
693.640000000000
30
0.0
11
349.580000000000
21
683.640000000000
31
0.0
0
LINE
5
60e
100
AcDbEntity
8
0-0
6
CONTINUOUS
62
4
100
AcDbLine
10
339.580000000000
20
713.640000000000
30
0.0
11
339.580000000000
21
717.640000000000
31
0.0
0
LINE
5
60f
100
AcDbEntity
8
0-0
6
CONTINUOUS
62
4
100
AcDbLine
10
344.580000000000
20
713.640000000000
30
0.0
11
339.580000000000
21
713.640000000000
31
0.0
0
LINE
5
610
100
AcDbEntity
8
0-0
6
CONTINUOUS
62
4
100
AcDbLine
10
344.580000000000
20
717.640000000000
30
0.0
11
339.580000000000
21
717.640000000000
31
0.0
0
LINE
5
611
100
AcDbEntity
8
0-0
6
CONTINUOUS
62
3
100
AcDbLine
10
351.200000000000
20
717.640000000000
30
0.0
11
357.280000000000
21
718.560000000000
31
0.0
0
LINE
5
612
100
AcDbEntity
8
0-0
6
CONTINUOUS
62
3
100
AcDbLine
10
351.280000000000
20
717.150000000000
30
0.0
11
357.390000000000
21
718.070000000000
31
0.0
0
LINE
5
613
100
AcDbEntity
8
0-0
6
CONTINUOUS
62
3
100
AcDbLine
10
359.570000000000
20
726.060000000000
30
0.0
11
358.430000000000
21
719.050000000000
31
0.0
0
LINE
5
614
100
AcDbEntity
8
0-0
6
CONTINUOUS
62
3
100
AcDbLine
10
359.080000000000
20
726.140000000000
30
0.0
11
357.950000000000
21
719.170000000000
31
0.0
0
LINE
5
615
100
AcDbEntity
8
0-0
6
CONTINUOUS
62
3
100
AcDbLine
10
364.950000000000
20
715.000000000000
30
0.0
11
367.080000000000
21
714.140000000000
31
0.0
0
LINE
5
616
100
AcDbEntity
8
0-0
6
CONTINUOUS
62
3
100
AcDbLine
10
367.080000000000
20
714.140000000000
30
0.0
11
372.200000000000
21
714.140000000000
31
0.0
0
LINE
5
617
100
AcDbEntity
8
0-0
6
CONTINUOUS
62
3
100
AcDbLine
10
366.980000000000
20
713.640000000000
30
0.0
11
372.330000000000
21
713.640000000000
31
0.0
0
LINE
5
618
100
AcDbEntity
8
0-0
6
CONTINUOUS
62
3
100
AcDbLine
10
364.760000000000
20
714.530000000000
30
0.0
11
366.980000000000
21
713.640000000000
31
0.0
0
LINE
5
619
100
AcDbEntity
8
0-0
6
CONTINUOUS
62
3
100
AcDbLine
10
351.200000000000
20
714.140000000000
30
0.0
11
362.080000000000
21
714.140000000000
31
0.0
0
LINE
5
61a
100
AcDbEntity
8
0-0
6
CONTINUOUS
62
3
100
AcDbLine
10
362.080000000000
20
714.140000000000
30
0.0
11
364.200000000000
21
715.000000000000
31
0.0
0
LINE
5
61b
100
AcDbEntity
8
0-0
6
CONTINUOUS
62
3
100
AcDbLine
10
364.390000000000
20
714.530000000000
30
0.0
11
362.170000000000
21
713.640000000000
31
0.0
0
LINE
5
61c
100
AcDbEntity
8
0-0
6
CONTINUOUS
62
3
100
AcDbLine
10
362.170000000000
20
713.640000000000
30
0.0
11
351.200000000000
21
713.640000000000
31
0.0
0
LINE
5
61d
100
AcDbEntity
8
0-0
6
CONTINUOUS
62
4
100
AcDbLine
10
377.580000000000
20
703.640000000000
30
0.0
11
377.580000000000
21
693.640000000000
31
0.0
0
LINE
5
61e
100
AcDbEntity
8
0-0
6
CONTINUOUS
62
4
100
AcDbLine
10
377.580000000000
20
693.640000000000
30
0.0
11
377.580000000000
21
683.640000000000
31
0.0
0
LINE
5
61f
100
AcDbEntity
8
0-0
6
CONTINUOUS
62
4
100
AcDbLine
10
359.580000000000
20
693.640000000000
30
0.0
11
377.580000000000
21
693.640000000000
31
0.0
0
LINE
5
620
100
AcDbEntity
8
0-0
6
CONTINUOUS
62
4
100
AcDbLine
10
349.580000000000
20
683.640000000000
30
0.0
11
377.580000000000
21
683.640000000000
31
0.0
0
LINE
5
621
100
AcDbEntity
8
0-0
6
CONTINUOUS
62
3
100
AcDbLine
10
372.200000000000
20
714.140000000000
30
0.0
11
377.340000000000
21
716.950000000000
31
0.0
0
LINE
5
622
100
AcDbEntity
8
0-0
6
CONTINUOUS
62
3
100
AcDbLine
10
377.340000000000
20
716.950000000000
30
0.0
11
377.580000000000
21
716.510000000000
31
0.0
0
LINE
5
623
100
AcDbEntity
8
0-0
6
CONTINUOUS
62
3
100
AcDbLine
10
372.330000000000
20
713.640000000000
30
0.0
11
377.580000000000
21
716.510000000000
31
0.0
0
LINE
5
624
100
AcDbEntity
8
0-0
6
CONTINUOUS
62
4
100
AcDbLine
10
736.830000000000
20
738.140000000000
30
0.0
11
736.830000000000
21
748.140000000000
31
0.0
0
LINE
5
625
100
AcDbEntity
8
0-0
6
CONTINUOUS
62
4
100
AcDbLine
10
637.830000000000
20
727.640000000000
30
0.0
11
627.830000000000
21
727.640000000000
31
0.0
0
LINE
5
626
100
AcDbEntity
8
0-0
6
CONTINUOUS
62
4
100
AcDbLine
10
539.580000000000
20
812.760000000000
30
0.0
11
539.580000000000
21
822.760000000000
31
0.0
0
LINE
5
627
100
AcDbEntity
8
0-0
6
CONTINUOUS
62
4
100
AcDbLine
10
451.080000000000
20
802.640000000000
30
0.0
11
441.080000000000
21
802.640000000000
31
0.0
0
LINE
5
628
100
AcDbEntity
8
0-0
6
CONTINUOUS
62
4
100
AcDbLine
10
464.580000000000
20
812.760000000000
30
0.0
11
464.580000000000
21
822.760000000000
31
0.0
0
LINE
5
629
100
AcDbEntity
8
0-0
6
CONTINUOUS
62
4
100
AcDbLine
10
637.830000000000
20
812.640000000000
30
0.0
11
627.830000000000
21
812.640000000000
31
0.0
0
LINE
5
62a
100
AcDbEntity
8
0-0
6
CONTINUOUS
62
4
100
AcDbLine
10
637.830000000000
20
809.640000000000
30
0.0
11
627.830000000000
21
809.640000000000
31
0.0
0
LINE
5
62b
100
AcDbEntity
8
0-0
6
CONTINUOUS
62
4
100
AcDbLine
10
627.830000000000
20
812.640000000000
30
0.0
11
617.840000000000
21
812.640000000000
31
0.0
0
LINE
5
62c
100
AcDbEntity
8
0-0
6
CONTINUOUS
62
4
100
AcDbLine
10
637.830000000000
20
802.640000000000
30
0.0
11
617.840000000000
21
802.640000000000
31
0.0
0
LINE
5
62d
100
AcDbEntity
8
0-0
6
CONTINUOUS
62
4
100
AcDbLine
10
451.080000000000
20
727.640000000000
30
0.0
11
431.080000000000
21
727.640000000000
31
0.0
0
LINE
5
62e
100
AcDbEntity
8
0-0
6
CONTINUOUS
62
4
100
AcDbLine
10
464.580000000000
20
704.030000000000
30
0.0
11
464.580000000000
21
694.030000000000
31
0.0
0
LINE
5
62f
100
AcDbEntity
8
0-0
6
CONTINUOUS
62
3
100
AcDbLine
10
466.080000000000
20
728.140000000000
30
0.0
11
474.580000000000
21
728.140000000000
31
0.0
0
LINE
5
630
100
AcDbEntity
8
0-0
6
CONTINUOUS
62
3
100
AcDbLine
10
474.580000000000
20
727.640000000000
30
0.0
11
466.080000000000
21
727.640000000000
31
0.0
0
LINE
5
631
100
AcDbEntity
8
0-0
6
CONTINUOUS
62
3
100
AcDbLine
10
475.580000000000
20
721.140000000000
30
0.0
11
475.580000000000
21
726.640000000000
31
0.0
0
LINE
5
632
100
AcDbEntity
8
0-0
6
CONTINUOUS
62
3
100
AcDbLine
10
476.560000000000
20
717.640000000000
30
0.0
11
477.040000000000
21
717.780000000000
31
0.0
0
LINE
5
633
100
AcDbEntity
8
0-0
6
CONTINUOUS
62
3
100
AcDbLine
10
476.560000000000
20
717.640000000000
30
0.0
11
475.580000000000
21
721.180000000000
31
0.0
0
LINE
5
634
100
AcDbEntity
8
0-0
6
CONTINUOUS
62
3
100
AcDbLine
10
475.580000000000
20
721.180000000000
30
0.0
11
475.580000000000
21
726.640000000000
31
0.0
0
LINE
5
635
100
AcDbEntity
8
0-0
6
CONTINUOUS
62
3
100
AcDbLine
10
476.080000000000
20
721.250000000000
30
0.0
11
476.080000000000
21
726.640000000000
31
0.0
0
LINE
5
636
100
AcDbEntity
8
0-0
6
CONTINUOUS
62
3
100
AcDbLine
10
476.080000000000
20
721.250000000000
30
0.0
11
476.080000000000
21
726.640000000000
31
0.0
0
LINE
5
637
100
AcDbEntity
8
0-0
6
CONTINUOUS
62
3
100
AcDbLine
10
477.040000000000
20
717.780000000000
30
0.0
11
476.080000000000
21
721.250000000000
31
0.0
0
LINE
5
638
100
AcDbEntity
8
0-0
6
CONTINUOUS
62
4
100
AcDbLine
10
451.080000000000
20
717.640000000000
30
0.0
11
431.080000000000
21
717.640000000000
31
0.0
0
LINE
5
639
100
AcDbEntity
8
0-0
6
CONTINUOUS
62
4
100
AcDbLine
10
451.080000000000
20
720.640000000000
30
0.0
11
441.080000000000
21
720.640000000000
31
0.0
0
LINE
5
63a
100
AcDbEntity
8
0-0
6
CONTINUOUS
62
4
100
AcDbLine
10
441.080000000000
20
717.640000000000
30
0.0
11
441.080000000000
21
727.640000000000
31
0.0
0
LINE
5
63b
100
AcDbEntity
8
0-0
6
CONTINUOUS
62
4
100
AcDbLine
10
431.080000000000
20
727.640000000000
30
0.0
11
431.080000000000
21
717.640000000000
31
0.0
0
LINE
5
63c
100
AcDbEntity
8
0-0
6
CONTINUOUS
62
4
100
AcDbLine
10
574.580000000000
20
788.760000000000
30
0.0
11
574.580000000000
21
802.760000000000
31
0.0
0
LINE
5
63d
100
AcDbEntity
8
0-0
6
CONTINUOUS
62
4
100
AcDbLine
10
564.580000000000
20
788.760000000000
30
0.0
11
574.580000000000
21
788.760000000000
31
0.0
0
LINE
5
63e
100
AcDbEntity
8
0-0
6
CONTINUOUS
62
4
100
AcDbLine
10
564.580000000000
20
802.760000000000
30
0.0
11
574.580000000000
21
802.760000000000
31
0.0
0
LINE
5
63f
100
AcDbEntity
8
0-0
6
CONTINUOUS
62
4
100
AcDbLine
10
529.580000000000
20
778.760000000000
30
0.0
11
529.580000000000
21
768.760000000000
31
0.0
0
LINE
5
640
100
AcDbEntity
8
0-0
6
CONTINUOUS
62
4
100
AcDbLine
10
529.580000000000
20
768.760000000000
30
0.0
11
539.580000000000
21
768.760000000000
31
0.0
0
LINE
5
641
100
AcDbEntity
8
0-0
6
CONTINUOUS
62
4
100
AcDbLine
10
539.580000000000
20
778.760000000000
30
0.0
11
539.580000000000
21
768.760000000000
31
0.0
0
LINE
5
642
100
AcDbEntity
8
0-0
6
CONTINUOUS
62
4
100
AcDbLine
10
544.580000000000
20
778.760000000000
30
0.0
11
544.580000000000
21
768.760000000000
31
0.0
0
LINE
5
643
100
AcDbEntity
8
0-0
6
CONTINUOUS
62
4
100
AcDbLine
10
529.580000000000
20
768.760000000000
30
0.0
11
529.580000000000
21
758.760000000000
31
0.0
0
LINE
5
644
100
AcDbEntity
8
0-0
6
CONTINUOUS
62
4
100
AcDbLine
10
519.580000000000
20
788.760000000000
30
0.0
11
519.580000000000
21
792.760000000000
31
0.0
0
LINE
5
645
100
AcDbEntity
8
0-0
6
CONTINUOUS
62
4
100
AcDbLine
10
524.580000000000
20
788.760000000000
30
0.0
11
519.580000000000
21
788.760000000000
31
0.0
0
LINE
5
646
100
AcDbEntity
8
0-0
6
CONTINUOUS
62
4
100
AcDbLine
10
524.580000000000
20
792.760000000000
30
0.0
11
519.580000000000
21
792.760000000000
31
0.0
0
LINE
5
647
100
AcDbEntity
8
0-0
6
CONTINUOUS
62
3
100
AcDbLine
10
531.200000000000
20
792.760000000000
30
0.0
11
537.280000000000
21
793.670000000000
31
0.0
0
LINE
5
648
100
AcDbEntity
8
0-0
6
CONTINUOUS
62
3
100
AcDbLine
10
531.280000000000
20
792.270000000000
30
0.0
11
537.390000000000
21
793.180000000000
31
0.0
0
LINE
5
649
100
AcDbEntity
8
0-0
6
CONTINUOUS
62
3
100
AcDbLine
10
539.570000000000
20
801.180000000000
30
0.0
11
538.430000000000
21
794.160000000000
31
0.0
0
LINE
5
64a
100
AcDbEntity
8
0-0
6
CONTINUOUS
62
3
100
AcDbLine
10
539.080000000000
20
801.260000000000
30
0.0
11
537.950000000000
21
794.290000000000
31
0.0
0
LINE
5
64b
100
AcDbEntity
8
0-0
6
CONTINUOUS
62
3
100
AcDbLine
10
544.950000000000
20
790.110000000000
30
0.0
11
547.080000000000
21
789.260000000000
31
0.0
0
LINE
5
64c
100
AcDbEntity
8
0-0
6
CONTINUOUS
62
3
100
AcDbLine
10
547.080000000000
20
789.260000000000
30
0.0
11
552.200000000000
21
789.260000000000
31
0.0
0
LINE
5
64d
100
AcDbEntity
8
0-0
6
CONTINUOUS
62
3
100
AcDbLine
10
546.980000000000
20
788.760000000000
30
0.0
11
552.330000000000
21
788.760000000000
31
0.0
0
LINE
5
64e
100
AcDbEntity
8
0-0
6
CONTINUOUS
62
3
100
AcDbLine
10
544.760000000000
20
789.650000000000
30
0.0
11
546.980000000000
21
788.760000000000
31
0.0
0
LINE
5
64f
100
AcDbEntity
8
0-0
6
CONTINUOUS
62
3
100
AcDbLine
10
531.200000000000
20
789.260000000000
30
0.0
11
542.080000000000
21
789.260000000000
31
0.0
0
LINE
5
650
100
AcDbEntity
8
0-0
6
CONTINUOUS
62
3
100
AcDbLine
10
542.080000000000
20
789.260000000000
30
0.0
11
544.200000000000
21
790.110000000000
31
0.0
0
LINE
5
651
100
AcDbEntity
8
0-0
6
CONTINUOUS
62
3
100
AcDbLine
10
544.390000000000
20
789.650000000000
30
0.0
11
542.170000000000
21
788.760000000000
31
0.0
0
LINE
5
652
100
AcDbEntity
8
0-0
6
CONTINUOUS
62
3
100
AcDbLine
10
542.170000000000
20
788.760000000000
30
0.0
11
531.200000000000
21
788.760000000000
31
0.0
0
LINE
5
653
100
AcDbEntity
8
0-0
6
CONTINUOUS
62
4
100
AcDbLine
10
557.580000000000
20
778.760000000000
30
0.0
11
557.580000000000
21
768.760000000000
31
0.0
0
LINE
5
654
100
AcDbEntity
8
0-0
6
CONTINUOUS
62
4
100
AcDbLine
10
557.580000000000
20
768.760000000000
30
0.0
11
557.580000000000
21
758.760000000000
31
0.0
0
LINE
5
655
100
AcDbEntity
8
0-0
6
CONTINUOUS
62
4
100
AcDbLine
10
539.580000000000
20
768.760000000000
30
0.0
11
557.580000000000
21
768.760000000000
31
0.0
0
LINE
5
656
100
AcDbEntity
8
0-0
6
CONTINUOUS
62
4
100
AcDbLine
10
529.580000000000
20
758.760000000000
30
0.0
11
557.580000000000
21
758.760000000000
31
0.0
0
LINE
5
657
100
AcDbEntity
8
0-0
6
CONTINUOUS
62
3
100
AcDbLine
10
552.200000000000
20
789.260000000000
30
0.0
11
557.340000000000
21
792.060000000000
31
0.0
0
LINE
5
658
100
AcDbEntity
8
0-0
6
CONTINUOUS
62
3
100
AcDbLine
10
557.340000000000
20
792.060000000000
30
0.0
11
557.580000000000
21
791.620000000000
31
0.0
0
LINE
5
659
100
AcDbEntity
8
0-0
6
CONTINUOUS
62
3
100
AcDbLine
10
552.330000000000
20
788.760000000000
30
0.0
11
557.580000000000
21
791.620000000000
31
0.0
0
LINE
5
65a
100
AcDbEntity
8
0-0
6
CONTINUOUS
62
4
100
AcDbLine
10
771.830000000000
20
714.140000000000
30
0.0
11
771.830000000000
21
728.140000000000
31
0.0
0
LINE
5
65b
100
AcDbEntity
8
0-0
6
CONTINUOUS
62
4
100
AcDbLine
10
761.830000000000
20
714.140000000000
30
0.0
11
771.830000000000
21
714.140000000000
31
0.0
0
LINE
5
65c
100
AcDbEntity
8
0-0
6
CONTINUOUS
62
4
100
AcDbLine
10
761.830000000000
20
728.140000000000
30
0.0
11
771.830000000000
21
728.140000000000
31
0.0
0
LINE
5
65d
100
AcDbEntity
8
0-0
6
CONTINUOUS
62
4
100
AcDbLine
10
726.840000000000
20
704.140000000000
30
0.0
11
726.840000000000
21
694.140000000000
31
0.0
0
LINE
5
65e
100
AcDbEntity
8
0-0
6
CONTINUOUS
62
4
100
AcDbLine
10
726.840000000000
20
694.140000000000
30
0.0
11
736.840000000000
21
694.140000000000
31
0.0
0
LINE
5
65f
100
AcDbEntity
8
0-0
6
CONTINUOUS
62
4
100
AcDbLine
10
736.840000000000
20
704.140000000000
30
0.0
11
736.840000000000
21
694.140000000000
31
0.0
0
LINE
5
660
100
AcDbEntity
8
0-0
6
CONTINUOUS
62
4
100
AcDbLine
10
741.840000000000
20
704.140000000000
30
0.0
11
741.840000000000
21
694.140000000000
31
0.0
0
LINE
5
661
100
AcDbEntity
8
0-0
6
CONTINUOUS
62
4
100
AcDbLine
10
726.840000000000
20
694.140000000000
30
0.0
11
726.840000000000
21
684.140000000000
31
0.0
0
LINE
5
662
100
AcDbEntity
8
0-0
6
CONTINUOUS
62
4
100
AcDbLine
10
716.830000000000
20
714.140000000000
30
0.0
11
716.830000000000
21
718.140000000000
31
0.0
0
LINE
5
663
100
AcDbEntity
8
0-0
6
CONTINUOUS
62
4
100
AcDbLine
10
721.830000000000
20
714.140000000000
30
0.0
11
716.830000000000
21
714.140000000000
31
0.0
0
LINE
5
664
100
AcDbEntity
8
0-0
6
CONTINUOUS
62
4
100
AcDbLine
10
721.830000000000
20
718.140000000000
30
0.0
11
716.830000000000
21
718.140000000000
31
0.0
0
LINE
5
665
100
AcDbEntity
8
0-0
6
CONTINUOUS
62
3
100
AcDbLine
10
728.460000000000
20
718.140000000000
30
0.0
11
734.540000000000
21
719.060000000000
31
0.0
0
LINE
5
666
100
AcDbEntity
8
0-0
6
CONTINUOUS
62
3
100
AcDbLine
10
728.530000000000
20
717.650000000000
30
0.0
11
734.640000000000
21
718.570000000000
31
0.0
0
LINE
5
667
100
AcDbEntity
8
0-0
6
CONTINUOUS
62
3
100
AcDbLine
10
736.830000000000
20
726.560000000000
30
0.0
11
735.690000000000
21
719.550000000000
31
0.0
0
LINE
5
668
100
AcDbEntity
8
0-0
6
CONTINUOUS
62
3
100
AcDbLine
10
736.330000000000
20
726.640000000000
30
0.0
11
735.210000000000
21
719.670000000000
31
0.0
0
LINE
5
669
100
AcDbEntity
8
0-0
6
CONTINUOUS
62
3
100
AcDbLine
10
742.210000000000
20
715.500000000000
30
0.0
11
744.340000000000
21
714.640000000000
31
0.0
0
LINE
5
66a
100
AcDbEntity
8
0-0
6
CONTINUOUS
62
3
100
AcDbLine
10
744.340000000000
20
714.640000000000
30
0.0
11
749.460000000000
21
714.640000000000
31
0.0
0
LINE
5
66b
100
AcDbEntity
8
0-0
6
CONTINUOUS
62
3
100
AcDbLine
10
744.240000000000
20
714.140000000000
30
0.0
11
749.590000000000
21
714.140000000000
31
0.0
0
LINE
5
66c
100
AcDbEntity
8
0-0
6
CONTINUOUS
62
3
100
AcDbLine
10
742.020000000000
20
715.030000000000
30
0.0
11
744.240000000000
21
714.140000000000
31
0.0
0
LINE
5
66d
100
AcDbEntity
8
0-0
6
CONTINUOUS
62
3
100
AcDbLine
10
728.460000000000
20
714.640000000000
30
0.0
11
739.340000000000
21
714.640000000000
31
0.0
0
LINE
5
66e
100
AcDbEntity
8
0-0
6
CONTINUOUS
62
3
100
AcDbLine
10
739.340000000000
20
714.640000000000
30
0.0
11
741.460000000000
21
715.500000000000
31
0.0
0
LINE
5
66f
100
AcDbEntity
8
0-0
6
CONTINUOUS
62
3
100
AcDbLine
10
741.650000000000
20
715.030000000000
30
0.0
11
739.430000000000
21
714.140000000000
31
0.0
0
LINE
5
670
100
AcDbEntity
8
0-0
6
CONTINUOUS
62
3
100
AcDbLine
10
739.430000000000
20
714.140000000000
30
0.0
11
728.460000000000
21
714.140000000000
31
0.0
0
LINE
5
671
100
AcDbEntity
8
0-0
6
CONTINUOUS
62
4
100
AcDbLine
10
754.830000000000
20
704.140000000000
30
0.0
11
754.830000000000
21
694.140000000000
31
0.0
0
LINE
5
672
100
AcDbEntity
8
0-0
6
CONTINUOUS
62
4
100
AcDbLine
10
754.830000000000
20
694.140000000000
30
0.0
11
754.830000000000
21
684.140000000000
31
0.0
0
LINE
5
673
100
AcDbEntity
8
0-0
6
CONTINUOUS
62
4
100
AcDbLine
10
736.840000000000
20
694.140000000000
30
0.0
11
754.830000000000
21
694.140000000000
31
0.0
0
LINE
5
674
100
AcDbEntity
8
0-0
6
CONTINUOUS
62
4
100
AcDbLine
10
726.840000000000
20
684.140000000000
30
0.0
11
754.830000000000
21
684.140000000000
31
0.0
0
LINE
5
675
100
AcDbEntity
8
0-0
6
CONTINUOUS
62
3
100
AcDbLine
10
749.460000000000
20
714.640000000000
30
0.0
11
754.600000000000
21
717.450000000000
31
0.0
0
LINE
5
676
100
AcDbEntity
8
0-0
6
CONTINUOUS
62
3
100
AcDbLine
10
754.600000000000
20
717.450000000000
30
0.0
11
754.830000000000
21
717.010000000000
31
0.0
0
LINE
5
677
100
AcDbEntity
8
0-0
6
CONTINUOUS
62
3
100
AcDbLine
10
749.590000000000
20
714.140000000000
30
0.0
11
754.830000000000
21
717.010000000000
31
0.0
0
LINE
5
678
100
AcDbEntity
8
0-0
6
CONTINUOUS
62
4
100
AcDbLine
10
627.830000000000
20
812.640000000000
30
0.0
11
627.830000000000
21
802.640000000000
31
0.0
0
LINE
5
679
100
AcDbEntity
8
0-0
6
CONTINUOUS
62
4
100
AcDbLine
10
617.840000000000
20
812.640000000000
30
0.0
11
617.840000000000
21
802.640000000000
31
0.0
0
LINE
5
67a
100
AcDbEntity
8
0-0
6
CONTINUOUS
62
3
100
AcDbLine
10
660.330000000000
20
802.140000000000
30
0.0
11
651.830000000000
21
802.140000000000
31
0.0
0
LINE
5
67b
100
AcDbEntity
8
0-0
6
CONTINUOUS
62
3
100
AcDbLine
10
651.830000000000
20
802.640000000000
30
0.0
11
660.330000000000
21
802.640000000000
31
0.0
0
LINE
5
67c
100
AcDbEntity
8
0-0
6
CONTINUOUS
62
3
100
AcDbLine
10
650.830000000000
20
809.140000000000
30
0.0
11
650.830000000000
21
803.640000000000
31
0.0
0
LINE
5
67d
100
AcDbEntity
8
0-0
6
CONTINUOUS
62
3
100
AcDbLine
10
649.850000000000
20
812.640000000000
30
0.0
11
649.370000000000
21
812.510000000000
31
0.0
0
LINE
5
67e
100
AcDbEntity
8
0-0
6
CONTINUOUS
62
3
100
AcDbLine
10
649.850000000000
20
812.640000000000
30
0.0
11
650.830000000000
21
809.110000000000
31
0.0
0
LINE
5
67f
100
AcDbEntity
8
0-0
6
CONTINUOUS
62
3
100
AcDbLine
10
650.830000000000
20
809.110000000000
30
0.0
11
650.830000000000
21
803.640000000000
31
0.0
0
LINE
5
680
100
AcDbEntity
8
0-0
6
CONTINUOUS
62
3
100
AcDbLine
10
650.330000000000
20
809.040000000000
30
0.0
11
650.330000000000
21
803.640000000000
31
0.0
0
LINE
5
681
100
AcDbEntity
8
0-0
6
CONTINUOUS
62
3
100
AcDbLine
10
650.330000000000
20
809.040000000000
30
0.0
11
650.330000000000
21
803.640000000000
31
0.0
0
LINE
5
682
100
AcDbEntity
8
0-0
6
CONTINUOUS
62
3
100
AcDbLine
10
649.370000000000
20
812.510000000000
30
0.0
11
650.330000000000
21
809.040000000000
31
0.0
0
LINE
5
683
100
AcDbEntity
8
0-0
6
CONTINUOUS
62
4
100
AcDbLine
10
464.580000000000
20
694.030000000000
30
0.0
11
476.580000000000
21
694.030000000000
31
0.0
0
LINE
5
684
100
AcDbEntity
8
0-0
6
CONTINUOUS
62
4
100
AcDbLine
10
476.580000000000
20
704.030000000000
30
0.0
11
476.580000000000
21
694.030000000000
31
0.0
0
LINE
5
685
100
AcDbEntity
8
0-0
6
CONTINUOUS
62
4
100
AcDbLine
10
661.830000000000
20
819.810000000000
30
0.0
11
661.830000000000
21
824.810000000000
31
0.0
0
LINE
5
686
100
AcDbEntity
8
0-0
6
CONTINUOUS
62
4
100
AcDbLine
10
661.830000000000
20
819.810000000000
30
0.0
11
661.830000000000
21
824.810000000000
31
0.0
0
LINE
5
687
100
AcDbEntity
8
0-0
6
CONTINUOUS
62
4
100
AcDbLine
10
649.830000000000
20
824.810000000000
30
0.0
11
661.830000000000
21
824.810000000000
31
0.0
0
LINE
5
688
100
AcDbEntity
8
0-0
6
CONTINUOUS
62
4
100
AcDbLine
10
649.830000000000
20
819.810000000000
30
0.0
11
649.830000000000
21
824.810000000000
31
0.0
0
LINE
5
689
100
AcDbEntity
8
0-0
6
CONTINUOUS
62
4
100
AcDbLine
10
97.320000000000
20
812.760000000000
30
0.0
11
97.320000000000
21
822.760000000000
31
0.0
0
LINE
5
68a
100
AcDbEntity
8
0-0
6
CONTINUOUS
62
4
100
AcDbLine
10
97.320000000000
20
822.760000000000
30
0.0
11
172.320000000000
21
822.760000000000
31
0.0
0
LINE
5
68b
100
AcDbEntity
8
0-0
6
CONTINUOUS
62
4
100
AcDbLine
10
73.820000000000
20
708.260000000000
30
0.0
11
73.820000000000
21
802.760000000000
31
0.0
0
LINE
5
68c
100
AcDbEntity
8
0-0
6
CONTINUOUS
62
4
100
AcDbLine
10
83.820000000000
20
708.260000000000
30
0.0
11
73.820000000000
21
708.260000000000
31
0.0
0
LINE
5
68d
100
AcDbEntity
8
0-0
6
CONTINUOUS
62
3
100
AcDbLine
10
98.820000000000
20
802.760000000000
30
0.0
11
170.820000000000
21
802.760000000000
31
0.0
0
LINE
5
68e
100
AcDbEntity
8
0-0
6
CONTINUOUS
62
3
100
AcDbLine
10
170.820000000000
20
802.260000000000
30
0.0
11
98.820000000000
21
802.260000000000
31
0.0
0
LINE
5
68f
100
AcDbEntity
8
0-0
6
CONTINUOUS
62
3
100
AcDbLine
10
97.820000000000
20
801.260000000000
30
0.0
11
97.820000000000
21
729.260000000000
31
0.0
0
LINE
5
690
100
AcDbEntity
8
0-0
6
CONTINUOUS
62
3
100
AcDbLine
10
97.320000000000
20
801.260000000000
30
0.0
11
97.320000000000
21
729.260000000000
31
0.0
0
LINE
5
691
100
AcDbEntity
8
0-0
6
CONTINUOUS
62
4
100
AcDbLine
10
250.580000000000
20
822.140000000000
30
0.0
11
250.580000000000
21
727.640000000000
31
0.0
0
LINE
5
692
100
AcDbEntity
8
0-0
6
CONTINUOUS
62
4
100
AcDbLine
10
284.580000000000
20
770.140000000000
30
0.0
11
359.580000000000
21
770.140000000000
31
0.0
0
LINE
5
693
100
AcDbEntity
8
0-0
6
CONTINUOUS
62
3
100
AcDbLine
10
284.080000000000
20
728.640000000000
30
0.0
11
284.080000000000
21
801.140000000000
31
0.0
0
LINE
5
694
100
AcDbEntity
8
0-0
6
CONTINUOUS
62
3
100
AcDbLine
10
284.580000000000
20
728.640000000000
30
0.0
11
284.580000000000
21
801.140000000000
31
0.0
0
LINE
5
695
100
AcDbEntity
8
0-0
6
CONTINUOUS
62
3
100
AcDbLine
10
285.580000000000
20
727.640000000000
30
0.0
11
358.080000000000
21
727.640000000000
31
0.0
0
LINE
5
696
100
AcDbEntity
8
0-0
6
CONTINUOUS
62
3
100
AcDbLine
10
358.080000000000
20
727.140000000000
30
0.0
11
285.580000000000
21
727.140000000000
31
0.0
0
LINE
5
697
100
AcDbEntity
8
0-0
6
CONTINUOUS
62
4
100
AcDbLine
10
441.080000000000
20
727.640000000000
30
0.0
11
441.080000000000
21
802.640000000000
31
0.0
0
LINE
5
698
100
AcDbEntity
8
0-0
6
CONTINUOUS
62
3
100
AcDbLine
10
464.580000000000
20
801.260000000000
30
0.0
11
464.580000000000
21
729.140000000000
31
0.0
0
LINE
5
699
100
AcDbEntity
8
0-0
6
CONTINUOUS
62
3
100
AcDbLine
10
465.080000000000
20
801.260000000000
30
0.0
11
465.080000000000
21
729.140000000000
31
0.0
0
LINE
5
69a
100
AcDbEntity
8
0-0
6
CONTINUOUS
62
4
100
AcDbLine
10
464.580000000000
20
822.760000000000
30
0.0
11
539.580000000000
21
822.760000000000
31
0.0
0
LINE
5
69b
100
AcDbEntity
8
0-0
6
CONTINUOUS
62
3
100
AcDbLine
10
466.080000000000
20
802.760000000000
30
0.0
11
538.080000000000
21
802.760000000000
31
0.0
0
LINE
5
69c
100
AcDbEntity
8
0-0
6
CONTINUOUS
62
3
100
AcDbLine
10
538.080000000000
20
802.260000000000
30
0.0
11
466.080000000000
21
802.260000000000
31
0.0
0
LINE
5
69d
100
AcDbEntity
8
0-0
6
CONTINUOUS
62
4
100
AcDbLine
10
627.830000000000
20
802.640000000000
30
0.0
11
627.830000000000
21
727.640000000000
31
0.0
0
LINE
5
69e
100
AcDbEntity
8
0-0
6
CONTINUOUS
62
4
100
AcDbLine
10
661.830000000000
20
748.140000000000
30
0.0
11
736.830000000000
21
748.140000000000
31
0.0
0
LINE
5
69f
100
AcDbEntity
8
0-0
6
CONTINUOUS
62
3
100
AcDbLine
10
661.330000000000
20
729.140000000000
30
0.0
11
661.330000000000
21
801.140000000000
31
0.0
0
LINE
5
6a0
100
AcDbEntity
8
0-0
6
CONTINUOUS
62
3
100
AcDbLine
10
661.830000000000
20
729.140000000000
30
0.0
11
661.830000000000
21
801.140000000000
31
0.0
0
LINE
5
6a1
100
AcDbEntity
8
0-0
6
CONTINUOUS
62
3
100
AcDbLine
10
662.830000000000
20
728.140000000000
30
0.0
11
735.330000000000
21
728.140000000000
31
0.0
0
LINE
5
6a2
100
AcDbEntity
8
0-0
6
CONTINUOUS
62
3
100
AcDbLine
10
735.330000000000
20
727.640000000000
30
0.0
11
662.830000000000
21
727.640000000000
31
0.0
0
LINE
5
6a3
100
AcDbEntity
8
0-0
6
CONTINUOUS
62
4
100
AcDbLine
10
153.100000000000
20
490.780000000000
30
0.0
11
153.100000000000
21
500.780000000000
31
0.0
0
LINE
5
6a4
100
AcDbEntity
8
0-0
6
CONTINUOUS
62
3
100
AcDbLine
10
153.600000000000
20
479.280000000000
30
0.0
11
153.600000000000
21
470.780000000000
31
0.0
0
LINE
5
6a5
100
AcDbEntity
8
0-0
6
CONTINUOUS
62
3
100
AcDbLine
10
153.100000000000
20
470.780000000000
30
0.0
11
153.100000000000
21
479.280000000000
31
0.0
0
LINE
5
6a6
100
AcDbEntity
8
0-0
6
CONTINUOUS
62
4
100
AcDbLine
10
123.600000000000
20
468.780000000000
30
0.0
11
113.600000000000
21
468.780000000000
31
0.0
0
LINE
5
6a7
100
AcDbEntity
8
0-0
6
CONTINUOUS
62
4
100
AcDbLine
10
123.600000000000
20
480.780000000000
30
0.0
11
113.600000000000
21
480.780000000000
31
0.0
0
LINE
5
6a8
100
AcDbEntity
8
0-0
6
CONTINUOUS
62
4
100
AcDbLine
10
132.980000000000
20
456.780000000000
30
0.0
11
132.980000000000
21
446.780000000000
31
0.0
0
LINE
5
6a9
100
AcDbEntity
8
0-0
6
CONTINUOUS
62
4
100
AcDbLine
10
132.980000000000
20
446.780000000000
30
0.0
11
132.980000000000
21
436.780000000000
31
0.0
0
LINE
5
6aa
100
AcDbEntity
8
0-0
6
CONTINUOUS
62
4
100
AcDbLine
10
153.600000000000
20
456.780000000000
30
0.0
11
153.600000000000
21
436.780000000000
31
0.0
0
LINE
5
6ab
100
AcDbEntity
8
0-0
6
CONTINUOUS
62
3
100
AcDbLine
10
146.600000000000
20
469.780000000000
30
0.0
11
152.100000000000
21
469.780000000000
31
0.0
0
LINE
5
6ac
100
AcDbEntity
8
0-0
6
CONTINUOUS
62
3
100
AcDbLine
10
132.980000000000
20
468.800000000000
30
0.0
11
133.110000000000
21
468.320000000000
31
0.0
0
LINE
5
6ad
100
AcDbEntity
8
0-0
6
CONTINUOUS
62
3
100
AcDbLine
10
146.700000000000
20
469.280000000000
30
0.0
11
152.100000000000
21
469.280000000000
31
0.0
0
LINE
5
6ae
100
AcDbEntity
8
0-0
6
CONTINUOUS
62
4
100
AcDbLine
10
136.480000000000
20
456.780000000000
30
0.0
11
136.480000000000
21
446.780000000000
31
0.0
0
LINE
5
6af
100
AcDbEntity
8
0-0
6
CONTINUOUS
62
4
100
AcDbLine
10
132.980000000000
20
446.780000000000
30
0.0
11
153.600000000000
21
446.780000000000
31
0.0
0
LINE
5
6b0
100
AcDbEntity
8
0-0
6
CONTINUOUS
62
4
100
AcDbLine
10
132.980000000000
20
436.780000000000
30
0.0
11
153.600000000000
21
436.780000000000
31
0.0
0
LINE
5
6b1
100
AcDbEntity
8
0-0
6
CONTINUOUS
62
3
100
AcDbLine
10
132.980000000000
20
468.800000000000
30
0.0
11
136.510000000000
21
469.780000000000
31
0.0
0
LINE
5
6b2
100
AcDbEntity
8
0-0
6
CONTINUOUS
62
3
100
AcDbLine
10
136.510000000000
20
469.780000000000
30
0.0
11
152.100000000000
21
469.780000000000
31
0.0
0
LINE
5
6b3
100
AcDbEntity
8
0-0
6
CONTINUOUS
62
3
100
AcDbLine
10
136.580000000000
20
469.280000000000
30
0.0
11
152.100000000000
21
469.280000000000
31
0.0
0
LINE
5
6b4
100
AcDbEntity
8
0-0
6
CONTINUOUS
62
3
100
AcDbLine
10
133.110000000000
20
468.320000000000
30
0.0
11
136.580000000000
21
469.280000000000
31
0.0
0
LINE
5
6b5
100
AcDbEntity
8
0-0
6
CONTINUOUS
62
4
100
AcDbLine
10
113.600000000000
20
468.780000000000
30
0.0
11
113.600000000000
21
480.780000000000
31
0.0
0
LINE
5
6b6
100
AcDbEntity
8
0-0
6
CONTINUOUS
62
4
100
AcDbLine
10
303.100000000000
20
490.780000000000
30
0.0
11
303.100000000000
21
500.780000000000
31
0.0
0
LINE
5
6b7
100
AcDbEntity
8
0-0
6
CONTINUOUS
62
4
100
AcDbLine
10
338.100000000000
20
466.780000000000
30
0.0
11
338.100000000000
21
480.780000000000
31
0.0
0
LINE
5
6b8
100
AcDbEntity
8
0-0
6
CONTINUOUS
62
4
100
AcDbLine
10
328.100000000000
20
466.780000000000
30
0.0
11
338.100000000000
21
466.780000000000
31
0.0
0
LINE
5
6b9
100
AcDbEntity
8
0-0
6
CONTINUOUS
62
4
100
AcDbLine
10
328.100000000000
20
480.780000000000
30
0.0
11
338.100000000000
21
480.780000000000
31
0.0
0
LINE
5
6ba
100
AcDbEntity
8
0-0
6
CONTINUOUS
62
4
100
AcDbLine
10
293.100000000000
20
456.780000000000
30
0.0
11
293.100000000000
21
446.780000000000
31
0.0
0
LINE
5
6bb
100
AcDbEntity
8
0-0
6
CONTINUOUS
62
4
100
AcDbLine
10
293.100000000000
20
446.780000000000
30
0.0
11
303.100000000000
21
446.780000000000
31
0.0
0
LINE
5
6bc
100
AcDbEntity
8
0-0
6
CONTINUOUS
62
4
100
AcDbLine
10
303.100000000000
20
456.780000000000
30
0.0
11
303.100000000000
21
446.780000000000
31
0.0
0
LINE
5
6bd
100
AcDbEntity
8
0-0
6
CONTINUOUS
62
4
100
AcDbLine
10
308.100000000000
20
456.780000000000
30
0.0
11
308.100000000000
21
446.780000000000
31
0.0
0
LINE
5
6be
100
AcDbEntity
8
0-0
6
CONTINUOUS
62
4
100
AcDbLine
10
293.100000000000
20
446.780000000000
30
0.0
11
293.100000000000
21
436.780000000000
31
0.0
0
LINE
5
6bf
100
AcDbEntity
8
0-0
6
CONTINUOUS
62
4
100
AcDbLine
10
283.100000000000
20
466.780000000000
30
0.0
11
283.100000000000
21
470.780000000000
31
0.0
0
LINE
5
6c0
100
AcDbEntity
8
0-0
6
CONTINUOUS
62
4
100
AcDbLine
10
288.100000000000
20
466.780000000000
30
0.0
11
283.100000000000
21
466.780000000000
31
0.0
0
LINE
5
6c1
100
AcDbEntity
8
0-0
6
CONTINUOUS
62
4
100
AcDbLine
10
288.100000000000
20
470.780000000000
30
0.0
11
283.100000000000
21
470.780000000000
31
0.0
0
LINE
5
6c2
100
AcDbEntity
8
0-0
6
CONTINUOUS
62
3
100
AcDbLine
10
294.730000000000
20
470.780000000000
30
0.0
11
300.810000000000
21
471.700000000000
31
0.0
0
LINE
5
6c3
100
AcDbEntity
8
0-0
6
CONTINUOUS
62
3
100
AcDbLine
10
294.800000000000
20
470.290000000000
30
0.0
11
300.910000000000
21
471.210000000000
31
0.0
0
LINE
5
6c4
100
AcDbEntity
8
0-0
6
CONTINUOUS
62
3
100
AcDbLine
10
303.090000000000
20
479.200000000000
30
0.0
11
301.960000000000
21
472.190000000000
31
0.0
0
LINE
5
6c5
100
AcDbEntity
8
0-0
6
CONTINUOUS
62
3
100
AcDbLine
10
302.600000000000
20
479.280000000000
30
0.0
11
301.470000000000
21
472.310000000000
31
0.0
0
LINE
5
6c6
100
AcDbEntity
8
0-0
6
CONTINUOUS
62
3
100
AcDbLine
10
308.470000000000
20
468.130000000000
30
0.0
11
310.600000000000
21
467.280000000000
31
0.0
0
LINE
5
6c7
100
AcDbEntity
8
0-0
6
CONTINUOUS
62
3
100
AcDbLine
10
310.600000000000
20
467.280000000000
30
0.0
11
315.730000000000
21
467.280000000000
31
0.0
0
LINE
5
6c8
100
AcDbEntity
8
0-0
6
CONTINUOUS
62
3
100
AcDbLine
10
310.500000000000
20
466.780000000000
30
0.0
11
315.850000000000
21
466.780000000000
31
0.0
0
LINE
5
6c9
100
AcDbEntity
8
0-0
6
CONTINUOUS
62
3
100
AcDbLine
10
308.290000000000
20
467.670000000000
30
0.0
11
310.500000000000
21
466.780000000000
31
0.0
0
LINE
5
6ca
100
AcDbEntity
8
0-0
6
CONTINUOUS
62
3
100
AcDbLine
10
294.730000000000
20
467.280000000000
30
0.0
11
305.600000000000
21
467.280000000000
31
0.0
0
LINE
5
6cb
100
AcDbEntity
8
0-0
6
CONTINUOUS
62
3
100
AcDbLine
10
305.600000000000
20
467.280000000000
30
0.0
11
307.730000000000
21
468.130000000000
31
0.0
0
LINE
5
6cc
100
AcDbEntity
8
0-0
6
CONTINUOUS
62
3
100
AcDbLine
10
307.920000000000
20
467.670000000000
30
0.0
11
305.700000000000
21
466.780000000000
31
0.0
0
LINE
5
6cd
100
AcDbEntity
8
0-0
6
CONTINUOUS
62
3
100
AcDbLine
10
305.700000000000
20
466.780000000000
30
0.0
11
294.730000000000
21
466.780000000000
31
0.0
0
LINE
5
6ce
100
AcDbEntity
8
0-0
6
CONTINUOUS
62
4
100
AcDbLine
10
321.100000000000
20
456.780000000000
30
0.0
11
321.100000000000
21
446.780000000000
31
0.0
0
LINE
5
6cf
100
AcDbEntity
8
0-0
6
CONTINUOUS
62
4
100
AcDbLine
10
321.100000000000
20
446.780000000000
30
0.0
11
321.100000000000
21
436.780000000000
31
0.0
0
LINE
5
6d0
100
AcDbEntity
8
0-0
6
CONTINUOUS
62
4
100
AcDbLine
10
303.100000000000
20
446.780000000000
30
0.0
11
321.100000000000
21
446.780000000000
31
0.0
0
LINE
5
6d1
100
AcDbEntity
8
0-0
6
CONTINUOUS
62
4
100
AcDbLine
10
293.100000000000
20
436.780000000000
30
0.0
11
321.100000000000
21
436.780000000000
31
0.0
0
LINE
5
6d2
100
AcDbEntity
8
0-0
6
CONTINUOUS
62
3
100
AcDbLine
10
315.730000000000
20
467.280000000000
30
0.0
11
320.860000000000
21
470.080000000000
31
0.0
0
LINE
5
6d3
100
AcDbEntity
8
0-0
6
CONTINUOUS
62
3
100
AcDbLine
10
320.860000000000
20
470.080000000000
30
0.0
11
321.100000000000
21
469.650000000000
31
0.0
0
LINE
5
6d4
100
AcDbEntity
8
0-0
6
CONTINUOUS
62
3
100
AcDbLine
10
315.850000000000
20
466.780000000000
30
0.0
11
321.100000000000
21
469.650000000000
31
0.0
0
LINE
5
6d5
100
AcDbEntity
8
0-0
6
CONTINUOUS
62
3
100
AcDbLine
10
153.600000000000
20
378.250000000000
30
0.0
11
153.600000000000
21
369.750000000000
31
0.0
0
LINE
5
6d6
100
AcDbEntity
8
0-0
6
CONTINUOUS
62
3
100
AcDbLine
10
153.100000000000
20
369.750000000000
30
0.0
11
153.100000000000
21
378.250000000000
31
0.0
0
LINE
5
6d7
100
AcDbEntity
8
0-0
6
CONTINUOUS
62
4
100
AcDbLine
10
123.600000000000
20
367.750000000000
30
0.0
11
113.600000000000
21
367.750000000000
31
0.0
0
LINE
5
6d8
100
AcDbEntity
8
0-0
6
CONTINUOUS
62
4
100
AcDbLine
10
123.600000000000
20
379.750000000000
30
0.0
11
113.600000000000
21
379.750000000000
31
0.0
0
LINE
5
6d9
100
AcDbEntity
8
0-0
6
CONTINUOUS
62
4
100
AcDbLine
10
132.980000000000
20
355.750000000000
30
0.0
11
132.980000000000
21
345.750000000000
31
0.0
0
LINE
5
6da
100
AcDbEntity
8
0-0
6
CONTINUOUS
62
4
100
AcDbLine
10
132.980000000000
20
345.750000000000
30
0.0
11
132.980000000000
21
335.750000000000
31
0.0
0
LINE
5
6db
100
AcDbEntity
8
0-0
6
CONTINUOUS
62
4
100
AcDbLine
10
153.600000000000
20
355.750000000000
30
0.0
11
153.600000000000
21
335.750000000000
31
0.0
0
LINE
5
6dc
100
AcDbEntity
8
0-0
6
CONTINUOUS
62
3
100
AcDbLine
10
146.600000000000
20
368.750000000000
30
0.0
11
152.100000000000
21
368.750000000000
31
0.0
0
LINE
5
6dd
100
AcDbEntity
8
0-0
6
CONTINUOUS
62
3
100
AcDbLine
10
132.980000000000
20
367.760000000000
30
0.0
11
133.110000000000
21
367.280000000000
31
0.0
0
LINE
5
6de
100
AcDbEntity
8
0-0
6
CONTINUOUS
62
3
100
AcDbLine
10
146.700000000000
20
368.250000000000
30
0.0
11
152.100000000000
21
368.250000000000
31
0.0
0
LINE
5
6df
100
AcDbEntity
8
0-0
6
CONTINUOUS
62
4
100
AcDbLine
10
136.480000000000
20
355.750000000000
30
0.0
11
136.480000000000
21
345.750000000000
31
0.0
0
LINE
5
6e0
100
AcDbEntity
8
0-0
6
CONTINUOUS
62
4
100
AcDbLine
10
132.980000000000
20
345.750000000000
30
0.0
11
153.600000000000
21
345.750000000000
31
0.0
0
LINE
5
6e1
100
AcDbEntity
8
0-0
6
CONTINUOUS
62
4
100
AcDbLine
10
132.980000000000
20
335.750000000000
30
0.0
11
153.600000000000
21
335.750000000000
31
0.0
0
LINE
5
6e2
100
AcDbEntity
8
0-0
6
CONTINUOUS
62
3
100
AcDbLine
10
132.980000000000
20
367.760000000000
30
0.0
11
136.510000000000
21
368.750000000000
31
0.0
0
LINE
5
6e3
100
AcDbEntity
8
0-0
6
CONTINUOUS
62
3
100
AcDbLine
10
136.510000000000
20
368.750000000000
30
0.0
11
152.100000000000
21
368.750000000000
31
0.0
0
LINE
5
6e4
100
AcDbEntity
8
0-0
6
CONTINUOUS
62
3
100
AcDbLine
10
136.580000000000
20
368.250000000000
30
0.0
11
152.100000000000
21
368.250000000000
31
0.0
0
LINE
5
6e5
100
AcDbEntity
8
0-0
6
CONTINUOUS
62
3
100
AcDbLine
10
133.110000000000
20
367.280000000000
30
0.0
11
136.580000000000
21
368.250000000000
31
0.0
0
LINE
5
6e6
100
AcDbEntity
8
0-0
6
CONTINUOUS
62
4
100
AcDbLine
10
113.600000000000
20
367.750000000000
30
0.0
11
113.600000000000
21
379.750000000000
31
0.0
0
LINE
5
6e7
100
AcDbEntity
8
0-0
6
CONTINUOUS
62
4
100
AcDbLine
10
338.100000000000
20
365.750000000000
30
0.0
11
338.100000000000
21
379.750000000000
31
0.0
0
LINE
5
6e8
100
AcDbEntity
8
0-0
6
CONTINUOUS
62
4
100
AcDbLine
10
328.100000000000
20
365.750000000000
30
0.0
11
338.100000000000
21
365.750000000000
31
0.0
0
LINE
5
6e9
100
AcDbEntity
8
0-0
6
CONTINUOUS
62
4
100
AcDbLine
10
328.100000000000
20
379.750000000000
30
0.0
11
338.100000000000
21
379.750000000000
31
0.0
0
LINE
5
6ea
100
AcDbEntity
8
0-0
6
CONTINUOUS
62
4
100
AcDbLine
10
293.100000000000
20
355.750000000000
30
0.0
11
293.100000000000
21
345.750000000000
31
0.0
0
LINE
5
6eb
100
AcDbEntity
8
0-0
6
CONTINUOUS
62
4
100
AcDbLine
10
293.100000000000
20
345.750000000000
30
0.0
11
303.100000000000
21
345.750000000000
31
0.0
0
LINE
5
6ec
100
AcDbEntity
8
0-0
6
CONTINUOUS
62
4
100
AcDbLine
10
303.100000000000
20
355.750000000000
30
0.0
11
303.100000000000
21
345.750000000000
31
0.0
0
LINE
5
6ed
100
AcDbEntity
8
0-0
6
CONTINUOUS
62
4
100
AcDbLine
10
308.100000000000
20
355.750000000000
30
0.0
11
308.100000000000
21
345.750000000000
31
0.0
0
LINE
5
6ee
100
AcDbEntity
8
0-0
6
CONTINUOUS
62
4
100
AcDbLine
10
293.100000000000
20
345.750000000000
30
0.0
11
293.100000000000
21
335.750000000000
31
0.0
0
LINE
5
6ef
100
AcDbEntity
8
0-0
6
CONTINUOUS
62
4
100
AcDbLine
10
283.100000000000
20
365.750000000000
30
0.0
11
283.100000000000
21
369.750000000000
31
0.0
0
LINE
5
6f0
100
AcDbEntity
8
0-0
6
CONTINUOUS
62
4
100
AcDbLine
10
288.100000000000
20
365.750000000000
30
0.0
11
283.100000000000
21
365.750000000000
31
0.0
0
LINE
5
6f1
100
AcDbEntity
8
0-0
6
CONTINUOUS
62
4
100
AcDbLine
10
288.100000000000
20
369.750000000000
30
0.0
11
283.100000000000
21
369.750000000000
31
0.0
0
LINE
5
6f2
100
AcDbEntity
8
0-0
6
CONTINUOUS
62
3
100
AcDbLine
10
294.730000000000
20
369.750000000000
30
0.0
11
300.810000000000
21
370.660000000000
31
0.0
0
LINE
5
6f3
100
AcDbEntity
8
0-0
6
CONTINUOUS
62
3
100
AcDbLine
10
294.800000000000
20
369.250000000000
30
0.0
11
300.910000000000
21
370.170000000000
31
0.0
0
LINE
5
6f4
100
AcDbEntity
8
0-0
6
CONTINUOUS
62
3
100
AcDbLine
10
303.090000000000
20
378.170000000000
30
0.0
11
301.960000000000
21
371.150000000000
31
0.0
0
LINE
5
6f5
100
AcDbEntity
8
0-0
6
CONTINUOUS
62
3
100
AcDbLine
10
302.600000000000
20
378.250000000000
30
0.0
11
301.470000000000
21
371.270000000000
31
0.0
0
LINE
5
6f6
100
AcDbEntity
8
0-0
6
CONTINUOUS
62
3
100
AcDbLine
10
308.470000000000
20
367.100000000000
30
0.0
11
310.600000000000
21
366.250000000000
31
0.0
0
LINE
5
6f7
100
AcDbEntity
8
0-0
6
CONTINUOUS
62
3
100
AcDbLine
10
310.600000000000
20
366.250000000000
30
0.0
11
315.730000000000
21
366.250000000000
31
0.0
0
LINE
5
6f8
100
AcDbEntity
8
0-0
6
CONTINUOUS
62
3
100
AcDbLine
10
310.500000000000
20
365.750000000000
30
0.0
11
315.850000000000
21
365.750000000000
31
0.0
0
LINE
5
6f9
100
AcDbEntity
8
0-0
6
CONTINUOUS
62
3
100
AcDbLine
10
308.290000000000
20
366.630000000000
30
0.0
11
310.500000000000
21
365.750000000000
31
0.0
0
LINE
5
6fa
100
AcDbEntity
8
0-0
6
CONTINUOUS
62
3
100
AcDbLine
10
294.730000000000
20
366.250000000000
30
0.0
11
305.600000000000
21
366.250000000000
31
0.0
0
LINE
5
6fb
100
AcDbEntity
8
0-0
6
CONTINUOUS
62
3
100
AcDbLine
10
305.600000000000
20
366.250000000000
30
0.0
11
307.730000000000
21
367.100000000000
31
0.0
0
LINE
5
6fc
100
AcDbEntity
8
0-0
6
CONTINUOUS
62
3
100
AcDbLine
10
307.920000000000
20
366.630000000000
30
0.0
11
305.700000000000
21
365.750000000000
31
0.0
0
LINE
5
6fd
100
AcDbEntity
8
0-0
6
CONTINUOUS
62
3
100
AcDbLine
10
305.700000000000
20
365.750000000000
30
0.0
11
294.730000000000
21
365.750000000000
31
0.0
0
LINE
5
6fe
100
AcDbEntity
8
0-0
6
CONTINUOUS
62
4
100
AcDbLine
10
321.100000000000
20
355.750000000000
30
0.0
11
321.100000000000
21
345.750000000000
31
0.0
0
LINE
5
6ff
100
AcDbEntity
8
0-0
6
CONTINUOUS
62
4
100
AcDbLine
10
321.100000000000
20
345.750000000000
30
0.0
11
321.100000000000
21
335.750000000000
31
0.0
0
LINE
5
700
100
AcDbEntity
8
0-0
6
CONTINUOUS
62
4
100
AcDbLine
10
303.100000000000
20
345.750000000000
30
0.0
11
321.100000000000
21
345.750000000000
31
0.0
0
LINE
5
701
100
AcDbEntity
8
0-0
6
CONTINUOUS
62
4
100
AcDbLine
10
293.100000000000
20
335.750000000000
30
0.0
11
321.100000000000
21
335.750000000000
31
0.0
0
LINE
5
702
100
AcDbEntity
8
0-0
6
CONTINUOUS
62
3
100
AcDbLine
10
315.730000000000
20
366.250000000000
30
0.0
11
320.860000000000
21
369.050000000000
31
0.0
0
LINE
5
703
100
AcDbEntity
8
0-0
6
CONTINUOUS
62
3
100
AcDbLine
10
320.860000000000
20
369.050000000000
30
0.0
11
321.100000000000
21
368.610000000000
31
0.0
0
LINE
5
704
100
AcDbEntity
8
0-0
6
CONTINUOUS
62
3
100
AcDbLine
10
315.850000000000
20
365.750000000000
30
0.0
11
321.100000000000
21
368.610000000000
31
0.0
0
LINE
5
705
100
AcDbEntity
8
0-0
6
CONTINUOUS
62
3
100
AcDbLine
10
425.730000000000
20
479.280000000000
30
0.0
11
425.730000000000
21
470.780000000000
31
0.0
0
LINE
5
706
100
AcDbEntity
8
0-0
6
CONTINUOUS
62
3
100
AcDbLine
10
425.230000000000
20
470.780000000000
30
0.0
11
425.230000000000
21
479.280000000000
31
0.0
0
LINE
5
707
100
AcDbEntity
8
0-0
6
CONTINUOUS
62
3
100
AcDbLine
10
406.100000000000
20
470.780000000000
30
0.0
11
412.180000000000
21
471.700000000000
31
0.0
0
LINE
5
708
100
AcDbEntity
8
0-0
6
CONTINUOUS
62
3
100
AcDbLine
10
406.180000000000
20
470.290000000000
30
0.0
11
412.290000000000
21
471.210000000000
31
0.0
0
LINE
5
709
100
AcDbEntity
8
0-0
6
CONTINUOUS
62
3
100
AcDbLine
10
414.470000000000
20
479.200000000000
30
0.0
11
413.330000000000
21
472.190000000000
31
0.0
0
LINE
5
70a
100
AcDbEntity
8
0-0
6
CONTINUOUS
62
3
100
AcDbLine
10
413.980000000000
20
479.280000000000
30
0.0
11
412.850000000000
21
472.310000000000
31
0.0
0
LINE
5
70b
100
AcDbEntity
8
0-0
6
CONTINUOUS
62
3
100
AcDbLine
10
418.850000000000
20
468.130000000000
30
0.0
11
420.980000000000
21
467.280000000000
31
0.0
0
LINE
5
70c
100
AcDbEntity
8
0-0
6
CONTINUOUS
62
3
100
AcDbLine
10
420.980000000000
20
467.280000000000
30
0.0
11
426.100000000000
21
467.280000000000
31
0.0
0
LINE
5
70d
100
AcDbEntity
8
0-0
6
CONTINUOUS
62
3
100
AcDbLine
10
420.880000000000
20
466.780000000000
30
0.0
11
426.230000000000
21
466.780000000000
31
0.0
0
LINE
5
70e
100
AcDbEntity
8
0-0
6
CONTINUOUS
62
3
100
AcDbLine
10
418.660000000000
20
467.670000000000
30
0.0
11
420.880000000000
21
466.780000000000
31
0.0
0
LINE
5
70f
100
AcDbEntity
8
0-0
6
CONTINUOUS
62
3
100
AcDbLine
10
406.100000000000
20
467.280000000000
30
0.0
11
415.980000000000
21
467.280000000000
31
0.0
0
LINE
5
710
100
AcDbEntity
8
0-0
6
CONTINUOUS
62
3
100
AcDbLine
10
415.980000000000
20
467.280000000000
30
0.0
11
418.100000000000
21
468.130000000000
31
0.0
0
LINE
5
711
100
AcDbEntity
8
0-0
6
CONTINUOUS
62
3
100
AcDbLine
10
416.070000000000
20
466.780000000000
30
0.0
11
406.100000000000
21
466.780000000000
31
0.0
0
LINE
5
712
100
AcDbEntity
8
0-0
6
CONTINUOUS
62
3
100
AcDbLine
10
418.290000000000
20
467.670000000000
30
0.0
11
416.070000000000
21
466.780000000000
31
0.0
0
LINE
5
713
100
AcDbEntity
8
0-0
6
CONTINUOUS
62
3
100
AcDbLine
10
408.730000000000
20
469.780000000000
30
0.0
11
424.230000000000
21
469.780000000000
31
0.0
0
LINE
5
714
100
AcDbEntity
8
0-0
6
CONTINUOUS
62
3
100
AcDbLine
10
408.830000000000
20
469.280000000000
30
0.0
11
424.230000000000
21
469.280000000000
31
0.0
0
LINE
5
715
100
AcDbEntity
8
0-0
6
CONTINUOUS
62
3
100
AcDbLine
10
404.730000000000
20
468.660000000000
30
0.0
11
408.760000000000
21
469.780000000000
31
0.0
0
LINE
5
716
100
AcDbEntity
8
0-0
6
CONTINUOUS
62
3
100
AcDbLine
10
404.730000000000
20
468.660000000000
30
0.0
11
404.860000000000
21
468.180000000000
31
0.0
0
LINE
5
717
100
AcDbEntity
8
0-0
6
CONTINUOUS
62
3
100
AcDbLine
10
404.860000000000
20
468.180000000000
30
0.0
11
408.830000000000
21
469.280000000000
31
0.0
0
LINE
5
718
100
AcDbEntity
8
0-0
6
CONTINUOUS
62
3
100
AcDbLine
10
426.100000000000
20
467.280000000000
30
0.0
11
431.240000000000
21
470.080000000000
31
0.0
0
LINE
5
719
100
AcDbEntity
8
0-0
6
CONTINUOUS
62
3
100
AcDbLine
10
431.240000000000
20
470.080000000000
30
0.0
11
431.480000000000
21
469.650000000000
31
0.0
0
LINE
5
71a
100
AcDbEntity
8
0-0
6
CONTINUOUS
62
3
100
AcDbLine
10
426.230000000000
20
466.780000000000
30
0.0
11
431.480000000000
21
469.650000000000
31
0.0
0
LINE
5
71b
100
AcDbEntity
8
0-0
6
CONTINUOUS
62
3
100
AcDbLine
10
586.480000000000
20
479.280000000000
30
0.0
11
586.480000000000
21
470.780000000000
31
0.0
0
LINE
5
71c
100
AcDbEntity
8
0-0
6
CONTINUOUS
62
3
100
AcDbLine
10
585.980000000000
20
470.780000000000
30
0.0
11
585.980000000000
21
479.280000000000
31
0.0
0
LINE
5
71d
100
AcDbEntity
8
0-0
6
CONTINUOUS
62
3
100
AcDbLine
10
566.850000000000
20
470.780000000000
30
0.0
11
572.930000000000
21
471.700000000000
31
0.0
0
LINE
5
71e
100
AcDbEntity
8
0-0
6
CONTINUOUS
62
3
100
AcDbLine
10
566.930000000000
20
470.290000000000
30
0.0
11
573.040000000000
21
471.210000000000
31
0.0
0
LINE
5
71f
100
AcDbEntity
8
0-0
6
CONTINUOUS
62
3
100
AcDbLine
10
575.220000000000
20
479.200000000000
30
0.0
11
574.080000000000
21
472.190000000000
31
0.0
0
LINE
5
720
100
AcDbEntity
8
0-0
6
CONTINUOUS
62
3
100
AcDbLine
10
574.730000000000
20
479.280000000000
30
0.0
11
573.600000000000
21
472.310000000000
31
0.0
0
LINE
5
721
100
AcDbEntity
8
0-0
6
CONTINUOUS
62
3
100
AcDbLine
10
579.600000000000
20
468.130000000000
30
0.0
11
581.730000000000
21
467.280000000000
31
0.0
0
LINE
5
722
100
AcDbEntity
8
0-0
6
CONTINUOUS
62
3
100
AcDbLine
10
581.730000000000
20
467.280000000000
30
0.0
11
586.850000000000
21
467.280000000000
31
0.0
0
LINE
5
723
100
AcDbEntity
8
0-0
6
CONTINUOUS
62
3
100
AcDbLine
10
581.630000000000
20
466.780000000000
30
0.0
11
586.980000000000
21
466.780000000000
31
0.0
0
LINE
5
724
100
AcDbEntity
8
0-0
6
CONTINUOUS
62
3
100
AcDbLine
10
579.410000000000
20
467.670000000000
30
0.0
11
581.630000000000
21
466.780000000000
31
0.0
0
LINE
5
725
100
AcDbEntity
8
0-0
6
CONTINUOUS
62
3
100
AcDbLine
10
566.850000000000
20
467.280000000000
30
0.0
11
576.730000000000
21
467.280000000000
31
0.0
0
LINE
5
726
100
AcDbEntity
8
0-0
6
CONTINUOUS
62
3
100
AcDbLine
10
576.730000000000
20
467.280000000000
30
0.0
11
578.850000000000
21
468.130000000000
31
0.0
0
LINE
5
727
100
AcDbEntity
8
0-0
6
CONTINUOUS
62
3
100
AcDbLine
10
576.820000000000
20
466.780000000000
30
0.0
11
566.850000000000
21
466.780000000000
31
0.0
0
LINE
5
728
100
AcDbEntity
8
0-0
6
CONTINUOUS
62
3
100
AcDbLine
10
579.040000000000
20
467.670000000000
30
0.0
11
576.820000000000
21
466.780000000000
31
0.0
0
LINE
5
729
100
AcDbEntity
8
0-0
6
CONTINUOUS
62
3
100
AcDbLine
10
569.480000000000
20
469.780000000000
30
0.0
11
584.980000000000
21
469.780000000000
31
0.0
0
LINE
5
72a
100
AcDbEntity
8
0-0
6
CONTINUOUS
62
3
100
AcDbLine
10
569.580000000000
20
469.280000000000
30
0.0
11
584.980000000000
21
469.280000000000
31
0.0
0
LINE
5
72b
100
AcDbEntity
8
0-0
6
CONTINUOUS
62
3
100
AcDbLine
10
565.480000000000
20
468.660000000000
30
0.0
11
569.510000000000
21
469.780000000000
31
0.0
0
LINE
5
72c
100
AcDbEntity
8
0-0
6
CONTINUOUS
62
3
100
AcDbLine
10
565.480000000000
20
468.660000000000
30
0.0
11
565.610000000000
21
468.180000000000
31
0.0
0
LINE
5
72d
100
AcDbEntity
8
0-0
6
CONTINUOUS
62
3
100
AcDbLine
10
565.610000000000
20
468.180000000000
30
0.0
11
569.580000000000
21
469.280000000000
31
0.0
0
LINE
5
72e
100
AcDbEntity
8
0-0
6
CONTINUOUS
62
3
100
AcDbLine
10
586.850000000000
20
467.280000000000
30
0.0
11
591.990000000000
21
470.080000000000
31
0.0
0
LINE
5
72f
100
AcDbEntity
8
0-0
6
CONTINUOUS
62
3
100
AcDbLine
10
591.990000000000
20
470.080000000000
30
0.0
11
592.230000000000
21
469.650000000000
31
0.0
0
LINE
5
730
100
AcDbEntity
8
0-0
6
CONTINUOUS
62
3
100
AcDbLine
10
586.980000000000
20
466.780000000000
30
0.0
11
592.230000000000
21
469.650000000000
31
0.0
0
LINE
5
731
100
AcDbEntity
8
0-0
6
CONTINUOUS
62
4
100
AcDbLine
10
414.230000000000
20
389.750000000000
30
0.0
11
414.230000000000
21
399.750000000000
31
0.0
0
LINE
5
732
100
AcDbEntity
8
0-0
6
CONTINUOUS
62
4
100
AcDbLine
10
586.230000000000
20
389.750000000000
30
0.0
11
586.230000000000
21
409.750000000000
31
0.0
0
LINE
5
733
100
AcDbEntity
8
0-0
6
CONTINUOUS
62
3
100
AcDbLine
10
425.730000000000
20
378.250000000000
30
0.0
11
425.730000000000
21
369.750000000000
31
0.0
0
LINE
5
734
100
AcDbEntity
8
0-0
6
CONTINUOUS
62
3
100
AcDbLine
10
425.230000000000
20
369.750000000000
30
0.0
11
425.230000000000
21
378.250000000000
31
0.0
0
LINE
5
735
100
AcDbEntity
8
0-0
6
CONTINUOUS
62
3
100
AcDbLine
10
406.100000000000
20
369.750000000000
30
0.0
11
412.180000000000
21
370.660000000000
31
0.0
0
LINE
5
736
100
AcDbEntity
8
0-0
6
CONTINUOUS
62
3
100
AcDbLine
10
406.180000000000
20
369.250000000000
30
0.0
11
412.290000000000
21
370.170000000000
31
0.0
0
LINE
5
737
100
AcDbEntity
8
0-0
6
CONTINUOUS
62
3
100
AcDbLine
10
414.470000000000
20
378.170000000000
30
0.0
11
413.330000000000
21
371.150000000000
31
0.0
0
LINE
5
738
100
AcDbEntity
8
0-0
6
CONTINUOUS
62
3
100
AcDbLine
10
413.980000000000
20
378.250000000000
30
0.0
11
412.850000000000
21
371.270000000000
31
0.0
0
LINE
5
739
100
AcDbEntity
8
0-0
6
CONTINUOUS
62
3
100
AcDbLine
10
418.850000000000
20
367.100000000000
30
0.0
11
420.980000000000
21
366.250000000000
31
0.0
0
LINE
5
73a
100
AcDbEntity
8
0-0
6
CONTINUOUS
62
3
100
AcDbLine
10
420.980000000000
20
366.250000000000
30
0.0
11
426.100000000000
21
366.250000000000
31
0.0
0
LINE
5
73b
100
AcDbEntity
8
0-0
6
CONTINUOUS
62
3
100
AcDbLine
10
420.880000000000
20
365.750000000000
30
0.0
11
426.230000000000
21
365.750000000000
31
0.0
0
LINE
5
73c
100
AcDbEntity
8
0-0
6
CONTINUOUS
62
3
100
AcDbLine
10
418.660000000000
20
366.630000000000
30
0.0
11
420.880000000000
21
365.750000000000
31
0.0
0
LINE
5
73d
100
AcDbEntity
8
0-0
6
CONTINUOUS
62
3
100
AcDbLine
10
406.100000000000
20
366.250000000000
30
0.0
11
415.980000000000
21
366.250000000000
31
0.0
0
LINE
5
73e
100
AcDbEntity
8
0-0
6
CONTINUOUS
62
3
100
AcDbLine
10
415.980000000000
20
366.250000000000
30
0.0
11
418.100000000000
21
367.100000000000
31
0.0
0
LINE
5
73f
100
AcDbEntity
8
0-0
6
CONTINUOUS
62
3
100
AcDbLine
10
416.070000000000
20
365.750000000000
30
0.0
11
406.100000000000
21
365.750000000000
31
0.0
0
LINE
5
740
100
AcDbEntity
8
0-0
6
CONTINUOUS
62
3
100
AcDbLine
10
418.290000000000
20
366.630000000000
30
0.0
11
416.070000000000
21
365.750000000000
31
0.0
0
LINE
5
741
100
AcDbEntity
8
0-0
6
CONTINUOUS
62
3
100
AcDbLine
10
408.730000000000
20
368.750000000000
30
0.0
11
424.230000000000
21
368.750000000000
31
0.0
0
LINE
5
742
100
AcDbEntity
8
0-0
6
CONTINUOUS
62
3
100
AcDbLine
10
408.830000000000
20
368.250000000000
30
0.0
11
424.230000000000
21
368.250000000000
31
0.0
0
LINE
5
743
100
AcDbEntity
8
0-0
6
CONTINUOUS
62
3
100
AcDbLine
10
404.730000000000
20
367.630000000000
30
0.0
11
408.760000000000
21
368.750000000000
31
0.0
0
LINE
5
744
100
AcDbEntity
8
0-0
6
CONTINUOUS
62
3
100
AcDbLine
10
404.730000000000
20
367.630000000000
30
0.0
11
404.860000000000
21
367.140000000000
31
0.0
0
LINE
5
745
100
AcDbEntity
8
0-0
6
CONTINUOUS
62
3
100
AcDbLine
10
404.860000000000
20
367.140000000000
30
0.0
11
408.830000000000
21
368.250000000000
31
0.0
0
LINE
5
746
100
AcDbEntity
8
0-0
6
CONTINUOUS
62
3
100
AcDbLine
10
426.100000000000
20
366.250000000000
30
0.0
11
431.240000000000
21
369.050000000000
31
0.0
0
LINE
5
747
100
AcDbEntity
8
0-0
6
CONTINUOUS
62
3
100
AcDbLine
10
431.240000000000
20
369.050000000000
30
0.0
11
431.480000000000
21
368.610000000000
31
0.0
0
LINE
5
748
100
AcDbEntity
8
0-0
6
CONTINUOUS
62
3
100
AcDbLine
10
426.230000000000
20
365.750000000000
30
0.0
11
431.480000000000
21
368.610000000000
31
0.0
0
LINE
5
749
100
AcDbEntity
8
0-0
6
CONTINUOUS
62
3
100
AcDbLine
10
385.230000000000
20
379.750000000000
30
0.0
11
412.980000000000
21
379.750000000000
31
0.0
0
LINE
5
74a
100
AcDbEntity
8
0-0
6
CONTINUOUS
62
3
100
AcDbLine
10
412.980000000000
20
379.250000000000
30
0.0
11
385.230000000000
21
379.250000000000
31
0.0
0
LINE
5
74b
100
AcDbEntity
8
0-0
6
CONTINUOUS
62
3
100
AcDbLine
10
385.230000000000
20
480.780000000000
30
0.0
11
412.980000000000
21
480.780000000000
31
0.0
0
LINE
5
74c
100
AcDbEntity
8
0-0
6
CONTINUOUS
62
3
100
AcDbLine
10
412.980000000000
20
480.280000000000
30
0.0
11
385.230000000000
21
480.280000000000
31
0.0
0
LINE
5
74d
100
AcDbEntity
8
0-0
6
CONTINUOUS
62
3
100
AcDbLine
10
587.480000000000
20
480.780000000000
30
0.0
11
615.230000000000
21
480.780000000000
31
0.0
0
LINE
5
74e
100
AcDbEntity
8
0-0
6
CONTINUOUS
62
3
100
AcDbLine
10
587.480000000000
20
480.280000000000
30
0.0
11
615.230000000000
21
480.280000000000
31
0.0
0
LINE
5
74f
100
AcDbEntity
8
0-0
6
CONTINUOUS
62
3
100
AcDbLine
10
586.480000000000
20
378.250000000000
30
0.0
11
586.480000000000
21
369.750000000000
31
0.0
0
LINE
5
750
100
AcDbEntity
8
0-0
6
CONTINUOUS
62
3
100
AcDbLine
10
585.980000000000
20
369.750000000000
30
0.0
11
585.980000000000
21
378.250000000000
31
0.0
0
LINE
5
751
100
AcDbEntity
8
0-0
6
CONTINUOUS
62
3
100
AcDbLine
10
566.850000000000
20
369.750000000000
30
0.0
11
572.930000000000
21
370.660000000000
31
0.0
0
LINE
5
752
100
AcDbEntity
8
0-0
6
CONTINUOUS
62
3
100
AcDbLine
10
566.930000000000
20
369.250000000000
30
0.0
11
573.040000000000
21
370.170000000000
31
0.0
0
LINE
5
753
100
AcDbEntity
8
0-0
6
CONTINUOUS
62
3
100
AcDbLine
10
575.220000000000
20
378.170000000000
30
0.0
11
574.080000000000
21
371.150000000000
31
0.0
0
LINE
5
754
100
AcDbEntity
8
0-0
6
CONTINUOUS
62
3
100
AcDbLine
10
574.730000000000
20
378.250000000000
30
0.0
11
573.600000000000
21
371.270000000000
31
0.0
0
LINE
5
755
100
AcDbEntity
8
0-0
6
CONTINUOUS
62
3
100
AcDbLine
10
579.600000000000
20
367.100000000000
30
0.0
11
581.730000000000
21
366.250000000000
31
0.0
0
LINE
5
756
100
AcDbEntity
8
0-0
6
CONTINUOUS
62
3
100
AcDbLine
10
581.730000000000
20
366.250000000000
30
0.0
11
586.850000000000
21
366.250000000000
31
0.0
0
LINE
5
757
100
AcDbEntity
8
0-0
6
CONTINUOUS
62
3
100
AcDbLine
10
581.630000000000
20
365.750000000000
30
0.0
11
586.980000000000
21
365.750000000000
31
0.0
0
LINE
5
758
100
AcDbEntity
8
0-0
6
CONTINUOUS
62
3
100
AcDbLine
10
579.410000000000
20
366.630000000000
30
0.0
11
581.630000000000
21
365.750000000000
31
0.0
0
LINE
5
759
100
AcDbEntity
8
0-0
6
CONTINUOUS
62
3
100
AcDbLine
10
566.850000000000
20
366.250000000000
30
0.0
11
576.730000000000
21
366.250000000000
31
0.0
0
LINE
5
75a
100
AcDbEntity
8
0-0
6
CONTINUOUS
62
3
100
AcDbLine
10
576.730000000000
20
366.250000000000
30
0.0
11
578.850000000000
21
367.100000000000
31
0.0
0
LINE
5
75b
100
AcDbEntity
8
0-0
6
CONTINUOUS
62
3
100
AcDbLine
10
576.820000000000
20
365.750000000000
30
0.0
11
566.850000000000
21
365.750000000000
31
0.0
0
LINE
5
75c
100
AcDbEntity
8
0-0
6
CONTINUOUS
62
3
100
AcDbLine
10
579.040000000000
20
366.630000000000
30
0.0
11
576.820000000000
21
365.750000000000
31
0.0
0
LINE
5
75d
100
AcDbEntity
8
0-0
6
CONTINUOUS
62
3
100
AcDbLine
10
569.480000000000
20
368.750000000000
30
0.0
11
584.980000000000
21
368.750000000000
31
0.0
0
LINE
5
75e
100
AcDbEntity
8
0-0
6
CONTINUOUS
62
3
100
AcDbLine
10
569.580000000000
20
368.250000000000
30
0.0
11
584.980000000000
21
368.250000000000
31
0.0
0
LINE
5
75f
100
AcDbEntity
8
0-0
6
CONTINUOUS
62
3
100
AcDbLine
10
565.480000000000
20
367.630000000000
30
0.0
11
569.510000000000
21
368.750000000000
31
0.0
0
LINE
5
760
100
AcDbEntity
8
0-0
6
CONTINUOUS
62
3
100
AcDbLine
10
565.480000000000
20
367.630000000000
30
0.0
11
565.610000000000
21
367.140000000000
31
0.0
0
LINE
5
761
100
AcDbEntity
8
0-0
6
CONTINUOUS
62
3
100
AcDbLine
10
565.610000000000
20
367.140000000000
30
0.0
11
569.580000000000
21
368.250000000000
31
0.0
0
LINE
5
762
100
AcDbEntity
8
0-0
6
CONTINUOUS
62
3
100
AcDbLine
10
586.850000000000
20
366.250000000000
30
0.0
11
591.990000000000
21
369.050000000000
31
0.0
0
LINE
5
763
100
AcDbEntity
8
0-0
6
CONTINUOUS
62
3
100
AcDbLine
10
591.990000000000
20
369.050000000000
30
0.0
11
592.230000000000
21
368.610000000000
31
0.0
0
LINE
5
764
100
AcDbEntity
8
0-0
6
CONTINUOUS
62
3
100
AcDbLine
10
586.980000000000
20
365.750000000000
30
0.0
11
592.230000000000
21
368.610000000000
31
0.0
0
LINE
5
765
100
AcDbEntity
8
0-0
6
CONTINUOUS
62
3
100
AcDbLine
10
587.480000000000
20
379.750000000000
30
0.0
11
615.230000000000
21
379.750000000000
31
0.0
0
LINE
5
766
100
AcDbEntity
8
0-0
6
CONTINUOUS
62
3
100
AcDbLine
10
587.480000000000
20
379.250000000000
30
0.0
11
615.230000000000
21
379.250000000000
31
0.0
0
LINE
5
767
100
AcDbEntity
8
0-0
6
CONTINUOUS
62
3
100
AcDbLine
10
153.730000000000
20
214.100000000000
30
0.0
11
153.730000000000
21
205.600000000000
31
0.0
0
LINE
5
768
100
AcDbEntity
8
0-0
6
CONTINUOUS
62
3
100
AcDbLine
10
153.230000000000
20
205.600000000000
30
0.0
11
153.230000000000
21
214.100000000000
31
0.0
0
LINE
5
769
100
AcDbEntity
8
0-0
6
CONTINUOUS
62
4
100
AcDbLine
10
123.730000000000
20
203.600000000000
30
0.0
11
113.730000000000
21
203.600000000000
31
0.0
0
LINE
5
76a
100
AcDbEntity
8
0-0
6
CONTINUOUS
62
4
100
AcDbLine
10
123.730000000000
20
215.600000000000
30
0.0
11
113.730000000000
21
215.600000000000
31
0.0
0
LINE
5
76b
100
AcDbEntity
8
0-0
6
CONTINUOUS
62
4
100
AcDbLine
10
143.230000000000
20
191.600000000000
30
0.0
11
143.230000000000
21
181.600000000000
31
0.0
0
LINE
5
76c
100
AcDbEntity
8
0-0
6
CONTINUOUS
62
4
100
AcDbLine
10
143.230000000000
20
181.600000000000
30
0.0
11
143.230000000000
21
171.600000000000
31
0.0
0
LINE
5
76d
100
AcDbEntity
8
0-0
6
CONTINUOUS
62
4
100
AcDbLine
10
153.730000000000
20
191.600000000000
30
0.0
11
153.730000000000
21
171.600000000000
31
0.0
0
LINE
5
76e
100
AcDbEntity
8
0-0
6
CONTINUOUS
62
3
100
AcDbLine
10
146.730000000000
20
204.600000000000
30
0.0
11
152.230000000000
21
204.600000000000
31
0.0
0
LINE
5
76f
100
AcDbEntity
8
0-0
6
CONTINUOUS
62
3
100
AcDbLine
10
143.230000000000
20
203.620000000000
30
0.0
11
143.360000000000
21
203.130000000000
31
0.0
0
LINE
5
770
100
AcDbEntity
8
0-0
6
CONTINUOUS
62
3
100
AcDbLine
10
143.230000000000
20
203.620000000000
30
0.0
11
146.760000000000
21
204.600000000000
31
0.0
0
LINE
5
771
100
AcDbEntity
8
0-0
6
CONTINUOUS
62
3
100
AcDbLine
10
146.760000000000
20
204.600000000000
30
0.0
11
152.230000000000
21
204.600000000000
31
0.0
0
LINE
5
772
100
AcDbEntity
8
0-0
6
CONTINUOUS
62
3
100
AcDbLine
10
146.830000000000
20
204.100000000000
30
0.0
11
152.230000000000
21
204.100000000000
31
0.0
0
LINE
5
773
100
AcDbEntity
8
0-0
6
CONTINUOUS
62
3
100
AcDbLine
10
146.830000000000
20
204.100000000000
30
0.0
11
152.230000000000
21
204.100000000000
31
0.0
0
LINE
5
774
100
AcDbEntity
8
0-0
6
CONTINUOUS
62
3
100
AcDbLine
10
143.360000000000
20
203.130000000000
30
0.0
11
146.830000000000
21
204.100000000000
31
0.0
0
LINE
5
775
100
AcDbEntity
8
0-0
6
CONTINUOUS
62
4
100
AcDbLine
10
143.230000000000
20
181.600000000000
30
0.0
11
153.730000000000
21
181.600000000000
31
0.0
0
LINE
5
776
100
AcDbEntity
8
0-0
6
CONTINUOUS
62
4
100
AcDbLine
10
143.230000000000
20
171.600000000000
30
0.0
11
153.730000000000
21
171.600000000000
31
0.0
0
LINE
5
777
100
AcDbEntity
8
0-0
6
CONTINUOUS
62
4
100
AcDbLine
10
146.730000000000
20
191.600000000000
30
0.0
11
146.730000000000
21
181.600000000000
31
0.0
0
LINE
5
778
100
AcDbEntity
8
0-0
6
CONTINUOUS
62
4
100
AcDbLine
10
113.730000000000
20
203.600000000000
30
0.0
11
113.730000000000
21
215.600000000000
31
0.0
0
LINE
5
779
100
AcDbEntity
8
0-0
6
CONTINUOUS
62
4
100
AcDbLine
10
338.100000000000
20
201.600000000000
30
0.0
11
338.100000000000
21
215.600000000000
31
0.0
0
LINE
5
77a
100
AcDbEntity
8
0-0
6
CONTINUOUS
62
4
100
AcDbLine
10
328.100000000000
20
201.600000000000
30
0.0
11
338.100000000000
21
201.600000000000
31
0.0
0
LINE
5
77b
100
AcDbEntity
8
0-0
6
CONTINUOUS
62
4
100
AcDbLine
10
328.100000000000
20
215.600000000000
30
0.0
11
338.100000000000
21
215.600000000000
31
0.0
0
LINE
5
77c
100
AcDbEntity
8
0-0
6
CONTINUOUS
62
4
100
AcDbLine
10
293.100000000000
20
191.600000000000
30
0.0
11
293.100000000000
21
181.600000000000
31
0.0
0
LINE
5
77d
100
AcDbEntity
8
0-0
6
CONTINUOUS
62
4
100
AcDbLine
10
293.100000000000
20
181.600000000000
30
0.0
11
303.100000000000
21
181.600000000000
31
0.0
0
LINE
5
77e
100
AcDbEntity
8
0-0
6
CONTINUOUS
62
4
100
AcDbLine
10
303.100000000000
20
191.600000000000
30
0.0
11
303.100000000000
21
181.600000000000
31
0.0
0
LINE
5
77f
100
AcDbEntity
8
0-0
6
CONTINUOUS
62
4
100
AcDbLine
10
308.100000000000
20
191.600000000000
30
0.0
11
308.100000000000
21
181.600000000000
31
0.0
0
LINE
5
780
100
AcDbEntity
8
0-0
6
CONTINUOUS
62
4
100
AcDbLine
10
293.100000000000
20
181.600000000000
30
0.0
11
293.100000000000
21
171.600000000000
31
0.0
0
LINE
5
781
100
AcDbEntity
8
0-0
6
CONTINUOUS
62
4
100
AcDbLine
10
283.100000000000
20
201.600000000000
30
0.0
11
283.100000000000
21
205.600000000000
31
0.0
0
LINE
5
782
100
AcDbEntity
8
0-0
6
CONTINUOUS
62
4
100
AcDbLine
10
288.100000000000
20
201.600000000000
30
0.0
11
283.100000000000
21
201.600000000000
31
0.0
0
LINE
5
783
100
AcDbEntity
8
0-0
6
CONTINUOUS
62
4
100
AcDbLine
10
288.100000000000
20
205.600000000000
30
0.0
11
283.100000000000
21
205.600000000000
31
0.0
0
LINE
5
784
100
AcDbEntity
8
0-0
6
CONTINUOUS
62
3
100
AcDbLine
10
294.730000000000
20
205.600000000000
30
0.0
11
300.810000000000
21
206.510000000000
31
0.0
0
LINE
5
785
100
AcDbEntity
8
0-0
6
CONTINUOUS
62
3
100
AcDbLine
10
294.800000000000
20
205.100000000000
30
0.0
11
300.910000000000
21
206.020000000000
31
0.0
0
LINE
5
786
100
AcDbEntity
8
0-0
6
CONTINUOUS
62
3
100
AcDbLine
10
303.090000000000
20
214.020000000000
30
0.0
11
301.960000000000
21
207.000000000000
31
0.0
0
LINE
5
787
100
AcDbEntity
8
0-0
6
CONTINUOUS
62
3
100
AcDbLine
10
302.600000000000
20
214.100000000000
30
0.0
11
301.470000000000
21
207.120000000000
31
0.0
0
LINE
5
788
100
AcDbEntity
8
0-0
6
CONTINUOUS
62
3
100
AcDbLine
10
308.470000000000
20
202.950000000000
30
0.0
11
310.600000000000
21
202.100000000000
31
0.0
0
LINE
5
789
100
AcDbEntity
8
0-0
6
CONTINUOUS
62
3
100
AcDbLine
10
310.600000000000
20
202.100000000000
30
0.0
11
315.730000000000
21
202.100000000000
31
0.0
0
LINE
5
78a
100
AcDbEntity
8
0-0
6
CONTINUOUS
62
3
100
AcDbLine
10
310.500000000000
20
201.600000000000
30
0.0
11
315.850000000000
21
201.600000000000
31
0.0
0
LINE
5
78b
100
AcDbEntity
8
0-0
6
CONTINUOUS
62
3
100
AcDbLine
10
308.290000000000
20
202.480000000000
30
0.0
11
310.500000000000
21
201.600000000000
31
0.0
0
LINE
5
78c
100
AcDbEntity
8
0-0
6
CONTINUOUS
62
3
100
AcDbLine
10
294.730000000000
20
202.100000000000
30
0.0
11
305.600000000000
21
202.100000000000
31
0.0
0
LINE
5
78d
100
AcDbEntity
8
0-0
6
CONTINUOUS
62
3
100
AcDbLine
10
305.600000000000
20
202.100000000000
30
0.0
11
307.730000000000
21
202.950000000000
31
0.0
0
LINE
5
78e
100
AcDbEntity
8
0-0
6
CONTINUOUS
62
3
100
AcDbLine
10
307.920000000000
20
202.480000000000
30
0.0
11
305.700000000000
21
201.600000000000
31
0.0
0
LINE
5
78f
100
AcDbEntity
8
0-0
6
CONTINUOUS
62
3
100
AcDbLine
10
305.700000000000
20
201.600000000000
30
0.0
11
294.730000000000
21
201.600000000000
31
0.0
0
LINE
5
790
100
AcDbEntity
8
0-0
6
CONTINUOUS
62
4
100
AcDbLine
10
321.100000000000
20
191.600000000000
30
0.0
11
321.100000000000
21
181.600000000000
31
0.0
0
LINE
5
791
100
AcDbEntity
8
0-0
6
CONTINUOUS
62
4
100
AcDbLine
10
321.100000000000
20
181.600000000000
30
0.0
11
321.100000000000
21
171.600000000000
31
0.0
0
LINE
5
792
100
AcDbEntity
8
0-0
6
CONTINUOUS
62
4
100
AcDbLine
10
303.100000000000
20
181.600000000000
30
0.0
11
321.100000000000
21
181.600000000000
31
0.0
0
LINE
5
793
100
AcDbEntity
8
0-0
6
CONTINUOUS
62
4
100
AcDbLine
10
293.100000000000
20
171.600000000000
30
0.0
11
321.100000000000
21
171.600000000000
31
0.0
0
LINE
5
794
100
AcDbEntity
8
0-0
6
CONTINUOUS
62
3
100
AcDbLine
10
315.730000000000
20
202.100000000000
30
0.0
11
320.860000000000
21
204.900000000000
31
0.0
0
LINE
5
795
100
AcDbEntity
8
0-0
6
CONTINUOUS
62
3
100
AcDbLine
10
320.860000000000
20
204.900000000000
30
0.0
11
321.100000000000
21
204.460000000000
31
0.0
0
LINE
5
796
100
AcDbEntity
8
0-0
6
CONTINUOUS
62
3
100
AcDbLine
10
315.850000000000
20
201.600000000000
30
0.0
11
321.100000000000
21
204.460000000000
31
0.0
0
LINE
5
797
100
AcDbEntity
8
0-0
6
CONTINUOUS
62
3
100
AcDbLine
10
425.850000000000
20
214.100000000000
30
0.0
11
425.850000000000
21
205.600000000000
31
0.0
0
LINE
5
798
100
AcDbEntity
8
0-0
6
CONTINUOUS
62
3
100
AcDbLine
10
425.350000000000
20
205.600000000000
30
0.0
11
425.350000000000
21
214.100000000000
31
0.0
0
LINE
5
799
100
AcDbEntity
8
0-0
6
CONTINUOUS
62
3
100
AcDbLine
10
416.730000000000
20
205.600000000000
30
0.0
11
422.810000000000
21
206.510000000000
31
0.0
0
LINE
5
79a
100
AcDbEntity
8
0-0
6
CONTINUOUS
62
3
100
AcDbLine
10
416.800000000000
20
205.100000000000
30
0.0
11
422.910000000000
21
206.020000000000
31
0.0
0
LINE
5
79b
100
AcDbEntity
8
0-0
6
CONTINUOUS
62
3
100
AcDbLine
10
425.090000000000
20
214.020000000000
30
0.0
11
423.960000000000
21
207.000000000000
31
0.0
0
LINE
5
79c
100
AcDbEntity
8
0-0
6
CONTINUOUS
62
3
100
AcDbLine
10
424.600000000000
20
214.100000000000
30
0.0
11
423.470000000000
21
207.120000000000
31
0.0
0
LINE
5
79d
100
AcDbEntity
8
0-0
6
CONTINUOUS
62
3
100
AcDbLine
10
429.470000000000
20
202.950000000000
30
0.0
11
431.600000000000
21
202.100000000000
31
0.0
0
LINE
5
79e
100
AcDbEntity
8
0-0
6
CONTINUOUS
62
3
100
AcDbLine
10
431.600000000000
20
202.100000000000
30
0.0
11
436.730000000000
21
202.100000000000
31
0.0
0
LINE
5
79f
100
AcDbEntity
8
0-0
6
CONTINUOUS
62
3
100
AcDbLine
10
431.500000000000
20
201.600000000000
30
0.0
11
436.850000000000
21
201.600000000000
31
0.0
0
LINE
5
7a0
100
AcDbEntity
8
0-0
6
CONTINUOUS
62
3
100
AcDbLine
10
429.290000000000
20
202.480000000000
30
0.0
11
431.500000000000
21
201.600000000000
31
0.0
0
LINE
5
7a1
100
AcDbEntity
8
0-0
6
CONTINUOUS
62
3
100
AcDbLine
10
416.730000000000
20
202.100000000000
30
0.0
11
426.600000000000
21
202.100000000000
31
0.0
0
LINE
5
7a2
100
AcDbEntity
8
0-0
6
CONTINUOUS
62
3
100
AcDbLine
10
426.600000000000
20
202.100000000000
30
0.0
11
428.730000000000
21
202.950000000000
31
0.0
0
LINE
5
7a3
100
AcDbEntity
8
0-0
6
CONTINUOUS
62
3
100
AcDbLine
10
426.700000000000
20
201.600000000000
30
0.0
11
416.730000000000
21
201.600000000000
31
0.0
0
LINE
5
7a4
100
AcDbEntity
8
0-0
6
CONTINUOUS
62
3
100
AcDbLine
10
428.920000000000
20
202.480000000000
30
0.0
11
426.700000000000
21
201.600000000000
31
0.0
0
LINE
5
7a5
100
AcDbEntity
8
0-0
6
CONTINUOUS
62
3
100
AcDbLine
10
418.850000000000
20
204.600000000000
30
0.0
11
424.350000000000
21
204.600000000000
31
0.0
0
LINE
5
7a6
100
AcDbEntity
8
0-0
6
CONTINUOUS
62
3
100
AcDbLine
10
418.950000000000
20
204.100000000000
30
0.0
11
424.350000000000
21
204.100000000000
31
0.0
0
LINE
5
7a7
100
AcDbEntity
8
0-0
6
CONTINUOUS
62
3
100
AcDbLine
10
415.350000000000
20
203.620000000000
30
0.0
11
415.480000000000
21
203.130000000000
31
0.0
0
LINE
5
7a8
100
AcDbEntity
8
0-0
6
CONTINUOUS
62
3
100
AcDbLine
10
415.480000000000
20
203.130000000000
30
0.0
11
418.950000000000
21
204.100000000000
31
0.0
0
LINE
5
7a9
100
AcDbEntity
8
0-0
6
CONTINUOUS
62
3
100
AcDbLine
10
415.350000000000
20
203.620000000000
30
0.0
11
418.890000000000
21
204.600000000000
31
0.0
0
LINE
5
7aa
100
AcDbEntity
8
0-0
6
CONTINUOUS
62
3
100
AcDbLine
10
436.730000000000
20
202.100000000000
30
0.0
11
441.860000000000
21
204.900000000000
31
0.0
0
LINE
5
7ab
100
AcDbEntity
8
0-0
6
CONTINUOUS
62
3
100
AcDbLine
10
441.860000000000
20
204.900000000000
30
0.0
11
442.100000000000
21
204.460000000000
31
0.0
0
LINE
5
7ac
100
AcDbEntity
8
0-0
6
CONTINUOUS
62
3
100
AcDbLine
10
436.850000000000
20
201.600000000000
30
0.0
11
442.100000000000
21
204.460000000000
31
0.0
0
LINE
5
7ad
100
AcDbEntity
8
0-0
6
CONTINUOUS
62
3
100
AcDbLine
10
575.850000000000
20
214.100000000000
30
0.0
11
575.850000000000
21
205.600000000000
31
0.0
0
LINE
5
7ae
100
AcDbEntity
8
0-0
6
CONTINUOUS
62
3
100
AcDbLine
10
575.350000000000
20
205.600000000000
30
0.0
11
575.350000000000
21
214.100000000000
31
0.0
0
LINE
5
7af
100
AcDbEntity
8
0-0
6
CONTINUOUS
62
3
100
AcDbLine
10
566.730000000000
20
205.600000000000
30
0.0
11
572.810000000000
21
206.510000000000
31
0.0
0
LINE
5
7b0
100
AcDbEntity
8
0-0
6
CONTINUOUS
62
3
100
AcDbLine
10
566.800000000000
20
205.100000000000
30
0.0
11
572.910000000000
21
206.020000000000
31
0.0
0
LINE
5
7b1
100
AcDbEntity
8
0-0
6
CONTINUOUS
62
3
100
AcDbLine
10
575.090000000000
20
214.020000000000
30
0.0
11
573.960000000000
21
207.000000000000
31
0.0
0
LINE
5
7b2
100
AcDbEntity
8
0-0
6
CONTINUOUS
62
3
100
AcDbLine
10
574.600000000000
20
214.100000000000
30
0.0
11
573.470000000000
21
207.120000000000
31
0.0
0
LINE
5
7b3
100
AcDbEntity
8
0-0
6
CONTINUOUS
62
3
100
AcDbLine
10
579.470000000000
20
202.950000000000
30
0.0
11
581.600000000000
21
202.100000000000
31
0.0
0
LINE
5
7b4
100
AcDbEntity
8
0-0
6
CONTINUOUS
62
3
100
AcDbLine
10
581.600000000000
20
202.100000000000
30
0.0
11
586.730000000000
21
202.100000000000
31
0.0
0
LINE
5
7b5
100
AcDbEntity
8
0-0
6
CONTINUOUS
62
3
100
AcDbLine
10
581.500000000000
20
201.600000000000
30
0.0
11
586.850000000000
21
201.600000000000
31
0.0
0
LINE
5
7b6
100
AcDbEntity
8
0-0
6
CONTINUOUS
62
3
100
AcDbLine
10
579.290000000000
20
202.480000000000
30
0.0
11
581.500000000000
21
201.600000000000
31
0.0
0
LINE
5
7b7
100
AcDbEntity
8
0-0
6
CONTINUOUS
62
3
100
AcDbLine
10
566.730000000000
20
202.100000000000
30
0.0
11
576.600000000000
21
202.100000000000
31
0.0
0
LINE
5
7b8
100
AcDbEntity
8
0-0
6
CONTINUOUS
62
3
100
AcDbLine
10
576.600000000000
20
202.100000000000
30
0.0
11
578.730000000000
21
202.950000000000
31
0.0
0
LINE
5
7b9
100
AcDbEntity
8
0-0
6
CONTINUOUS
62
3
100
AcDbLine
10
576.700000000000
20
201.600000000000
30
0.0
11
566.730000000000
21
201.600000000000
31
0.0
0
LINE
5
7ba
100
AcDbEntity
8
0-0
6
CONTINUOUS
62
3
100
AcDbLine
10
578.920000000000
20
202.480000000000
30
0.0
11
576.700000000000
21
201.600000000000
31
0.0
0
LINE
5
7bb
100
AcDbEntity
8
0-0
6
CONTINUOUS
62
3
100
AcDbLine
10
568.850000000000
20
204.600000000000
30
0.0
11
574.350000000000
21
204.600000000000
31
0.0
0
LINE
5
7bc
100
AcDbEntity
8
0-0
6
CONTINUOUS
62
3
100
AcDbLine
10
568.950000000000
20
204.100000000000
30
0.0
11
574.350000000000
21
204.100000000000
31
0.0
0
LINE
5
7bd
100
AcDbEntity
8
0-0
6
CONTINUOUS
62
3
100
AcDbLine
10
565.350000000000
20
203.620000000000
30
0.0
11
565.480000000000
21
203.130000000000
31
0.0
0
LINE
5
7be
100
AcDbEntity
8
0-0
6
CONTINUOUS
62
3
100
AcDbLine
10
565.480000000000
20
203.130000000000
30
0.0
11
568.950000000000
21
204.100000000000
31
0.0
0
LINE
5
7bf
100
AcDbEntity
8
0-0
6
CONTINUOUS
62
3
100
AcDbLine
10
565.350000000000
20
203.620000000000
30
0.0
11
568.890000000000
21
204.600000000000
31
0.0
0
LINE
5
7c0
100
AcDbEntity
8
0-0
6
CONTINUOUS
62
3
100
AcDbLine
10
586.730000000000
20
202.100000000000
30
0.0
11
591.860000000000
21
204.900000000000
31
0.0
0
LINE
5
7c1
100
AcDbEntity
8
0-0
6
CONTINUOUS
62
3
100
AcDbLine
10
591.860000000000
20
204.900000000000
30
0.0
11
592.100000000000
21
204.460000000000
31
0.0
0
LINE
5
7c2
100
AcDbEntity
8
0-0
6
CONTINUOUS
62
3
100
AcDbLine
10
586.850000000000
20
201.600000000000
30
0.0
11
592.100000000000
21
204.460000000000
31
0.0
0
LINE
5
7c3
100
AcDbEntity
8
0-0
6
CONTINUOUS
62
4
100
AcDbLine
10
203.100000000000
20
90.560000000000
30
0.0
11
253.100000000000
21
90.560000000000
31
0.0
0
LINE
5
7c4
100
AcDbEntity
8
0-0
6
CONTINUOUS
62
4
100
AcDbLine
10
203.100000000000
20
100.560000000000
30
0.0
11
203.100000000000
21
90.560000000000
31
0.0
0
LINE
5
7c5
100
AcDbEntity
8
0-0
6
CONTINUOUS
62
4
100
AcDbLine
10
253.100000000000
20
100.560000000000
30
0.0
11
253.100000000000
21
90.560000000000
31
0.0
0
LINE
5
7c6
100
AcDbEntity
8
0-0
6
CONTINUOUS
62
4
100
AcDbLine
10
203.100000000000
20
355.750000000000
30
0.0
11
253.100000000000
21
355.750000000000
31
0.0
0
LINE
5
7c7
100
AcDbEntity
8
0-0
6
CONTINUOUS
62
4
100
AcDbLine
10
203.100000000000
20
365.750000000000
30
0.0
11
203.100000000000
21
355.750000000000
31
0.0
0
LINE
5
7c8
100
AcDbEntity
8
0-0
6
CONTINUOUS
62
4
100
AcDbLine
10
253.100000000000
20
365.750000000000
30
0.0
11
253.100000000000
21
355.750000000000
31
0.0
0
LINE
5
7c9
100
AcDbEntity
8
0-0
6
CONTINUOUS
62
3
100
AcDbLine
10
153.730000000000
20
113.060000000000
30
0.0
11
153.730000000000
21
104.560000000000
31
0.0
0
LINE
5
7ca
100
AcDbEntity
8
0-0
6
CONTINUOUS
62
3
100
AcDbLine
10
153.230000000000
20
104.560000000000
30
0.0
11
153.230000000000
21
113.060000000000
31
0.0
0
LINE
5
7cb
100
AcDbEntity
8
0-0
6
CONTINUOUS
62
4
100
AcDbLine
10
123.730000000000
20
102.560000000000
30
0.0
11
113.730000000000
21
102.560000000000
31
0.0
0
LINE
5
7cc
100
AcDbEntity
8
0-0
6
CONTINUOUS
62
4
100
AcDbLine
10
123.730000000000
20
114.560000000000
30
0.0
11
113.730000000000
21
114.560000000000
31
0.0
0
LINE
5
7cd
100
AcDbEntity
8
0-0
6
CONTINUOUS
62
4
100
AcDbLine
10
143.230000000000
20
90.560000000000
30
0.0
11
143.230000000000
21
80.560000000000
31
0.0
0
LINE
5
7ce
100
AcDbEntity
8
0-0
6
CONTINUOUS
62
4
100
AcDbLine
10
143.230000000000
20
80.560000000000
30
0.0
11
143.230000000000
21
70.560000000000
31
0.0
0
LINE
5
7cf
100
AcDbEntity
8
0-0
6
CONTINUOUS
62
4
100
AcDbLine
10
153.730000000000
20
90.560000000000
30
0.0
11
153.730000000000
21
70.560000000000
31
0.0
0
LINE
5
7d0
100
AcDbEntity
8
0-0
6
CONTINUOUS
62
3
100
AcDbLine
10
146.730000000000
20
103.560000000000
30
0.0
11
152.230000000000
21
103.560000000000
31
0.0
0
LINE
5
7d1
100
AcDbEntity
8
0-0
6
CONTINUOUS
62
3
100
AcDbLine
10
143.230000000000
20
102.580000000000
30
0.0
11
143.360000000000
21
102.100000000000
31
0.0
0
LINE
5
7d2
100
AcDbEntity
8
0-0
6
CONTINUOUS
62
3
100
AcDbLine
10
143.230000000000
20
102.580000000000
30
0.0
11
146.760000000000
21
103.560000000000
31
0.0
0
LINE
5
7d3
100
AcDbEntity
8
0-0
6
CONTINUOUS
62
3
100
AcDbLine
10
146.760000000000
20
103.560000000000
30
0.0
11
152.230000000000
21
103.560000000000
31
0.0
0
LINE
5
7d4
100
AcDbEntity
8
0-0
6
CONTINUOUS
62
3
100
AcDbLine
10
146.830000000000
20
103.060000000000
30
0.0
11
152.230000000000
21
103.060000000000
31
0.0
0
LINE
5
7d5
100
AcDbEntity
8
0-0
6
CONTINUOUS
62
3
100
AcDbLine
10
146.830000000000
20
103.060000000000
30
0.0
11
152.230000000000
21
103.060000000000
31
0.0
0
LINE
5
7d6
100
AcDbEntity
8
0-0
6
CONTINUOUS
62
3
100
AcDbLine
10
143.360000000000
20
102.100000000000
30
0.0
11
146.830000000000
21
103.060000000000
31
0.0
0
LINE
5
7d7
100
AcDbEntity
8
0-0
6
CONTINUOUS
62
4
100
AcDbLine
10
143.230000000000
20
80.560000000000
30
0.0
11
153.730000000000
21
80.560000000000
31
0.0
0
LINE
5
7d8
100
AcDbEntity
8
0-0
6
CONTINUOUS
62
4
100
AcDbLine
10
143.230000000000
20
70.560000000000
30
0.0
11
153.730000000000
21
70.560000000000
31
0.0
0
LINE
5
7d9
100
AcDbEntity
8
0-0
6
CONTINUOUS
62
4
100
AcDbLine
10
146.730000000000
20
90.560000000000
30
0.0
11
146.730000000000
21
80.560000000000
31
0.0
0
LINE
5
7da
100
AcDbEntity
8
0-0
6
CONTINUOUS
62
4
100
AcDbLine
10
113.730000000000
20
102.560000000000
30
0.0
11
113.730000000000
21
114.560000000000
31
0.0
0
LINE
5
7db
100
AcDbEntity
8
0-0
6
CONTINUOUS
62
4
100
AcDbLine
10
338.100000000000
20
100.560000000000
30
0.0
11
338.100000000000
21
114.560000000000
31
0.0
0
LINE
5
7dc
100
AcDbEntity
8
0-0
6
CONTINUOUS
62
4
100
AcDbLine
10
328.100000000000
20
100.560000000000
30
0.0
11
338.100000000000
21
100.560000000000
31
0.0
0
LINE
5
7dd
100
AcDbEntity
8
0-0
6
CONTINUOUS
62
4
100
AcDbLine
10
328.100000000000
20
114.560000000000
30
0.0
11
338.100000000000
21
114.560000000000
31
0.0
0
LINE
5
7de
100
AcDbEntity
8
0-0
6
CONTINUOUS
62
4
100
AcDbLine
10
293.100000000000
20
90.560000000000
30
0.0
11
293.100000000000
21
80.560000000000
31
0.0
0
LINE
5
7df
100
AcDbEntity
8
0-0
6
CONTINUOUS
62
4
100
AcDbLine
10
293.100000000000
20
80.560000000000
30
0.0
11
303.100000000000
21
80.560000000000
31
0.0
0
LINE
5
7e0
100
AcDbEntity
8
0-0
6
CONTINUOUS
62
4
100
AcDbLine
10
303.100000000000
20
90.560000000000
30
0.0
11
303.100000000000
21
80.560000000000
31
0.0
0
LINE
5
7e1
100
AcDbEntity
8
0-0
6
CONTINUOUS
62
4
100
AcDbLine
10
308.100000000000
20
90.560000000000
30
0.0
11
308.100000000000
21
80.560000000000
31
0.0
0
LINE
5
7e2
100
AcDbEntity
8
0-0
6
CONTINUOUS
62
4
100
AcDbLine
10
293.100000000000
20
80.560000000000
30
0.0
11
293.100000000000
21
70.560000000000
31
0.0
0
LINE
5
7e3
100
AcDbEntity
8
0-0
6
CONTINUOUS
62
4
100
AcDbLine
10
283.100000000000
20
100.560000000000
30
0.0
11
283.100000000000
21
104.560000000000
31
0.0
0
LINE
5
7e4
100
AcDbEntity
8
0-0
6
CONTINUOUS
62
4
100
AcDbLine
10
288.100000000000
20
100.560000000000
30
0.0
11
283.100000000000
21
100.560000000000
31
0.0
0
LINE
5
7e5
100
AcDbEntity
8
0-0
6
CONTINUOUS
62
4
100
AcDbLine
10
288.100000000000
20
104.560000000000
30
0.0
11
283.100000000000
21
104.560000000000
31
0.0
0
LINE
5
7e6
100
AcDbEntity
8
0-0
6
CONTINUOUS
62
3
100
AcDbLine
10
294.730000000000
20
104.560000000000
30
0.0
11
300.810000000000
21
105.470000000000
31
0.0
0
LINE
5
7e7
100
AcDbEntity
8
0-0
6
CONTINUOUS
62
3
100
AcDbLine
10
294.800000000000
20
104.060000000000
30
0.0
11
300.910000000000
21
104.980000000000
31
0.0
0
LINE
5
7e8
100
AcDbEntity
8
0-0
6
CONTINUOUS
62
3
100
AcDbLine
10
303.090000000000
20
112.980000000000
30
0.0
11
301.960000000000
21
105.960000000000
31
0.0
0
LINE
5
7e9
100
AcDbEntity
8
0-0
6
CONTINUOUS
62
3
100
AcDbLine
10
302.600000000000
20
113.060000000000
30
0.0
11
301.470000000000
21
106.080000000000
31
0.0
0
LINE
5
7ea
100
AcDbEntity
8
0-0
6
CONTINUOUS
62
3
100
AcDbLine
10
308.470000000000
20
101.910000000000
30
0.0
11
310.600000000000
21
101.060000000000
31
0.0
0
LINE
5
7eb
100
AcDbEntity
8
0-0
6
CONTINUOUS
62
3
100
AcDbLine
10
310.600000000000
20
101.060000000000
30
0.0
11
315.730000000000
21
101.060000000000
31
0.0
0
LINE
5
7ec
100
AcDbEntity
8
0-0
6
CONTINUOUS
62
3
100
AcDbLine
10
310.500000000000
20
100.560000000000
30
0.0
11
315.850000000000
21
100.560000000000
31
0.0
0
LINE
5
7ed
100
AcDbEntity
8
0-0
6
CONTINUOUS
62
3
100
AcDbLine
10
308.290000000000
20
101.450000000000
30
0.0
11
310.500000000000
21
100.560000000000
31
0.0
0
LINE
5
7ee
100
AcDbEntity
8
0-0
6
CONTINUOUS
62
3
100
AcDbLine
10
294.730000000000
20
101.060000000000
30
0.0
11
305.600000000000
21
101.060000000000
31
0.0
0
LINE
5
7ef
100
AcDbEntity
8
0-0
6
CONTINUOUS
62
3
100
AcDbLine
10
305.600000000000
20
101.060000000000
30
0.0
11
307.730000000000
21
101.910000000000
31
0.0
0
LINE
5
7f0
100
AcDbEntity
8
0-0
6
CONTINUOUS
62
3
100
AcDbLine
10
307.920000000000
20
101.450000000000
30
0.0
11
305.700000000000
21
100.560000000000
31
0.0
0
LINE
5
7f1
100
AcDbEntity
8
0-0
6
CONTINUOUS
62
3
100
AcDbLine
10
305.700000000000
20
100.560000000000
30
0.0
11
294.730000000000
21
100.560000000000
31
0.0
0
LINE
5
7f2
100
AcDbEntity
8
0-0
6
CONTINUOUS
62
4
100
AcDbLine
10
321.100000000000
20
90.560000000000
30
0.0
11
321.100000000000
21
80.560000000000
31
0.0
0
LINE
5
7f3
100
AcDbEntity
8
0-0
6
CONTINUOUS
62
4
100
AcDbLine
10
321.100000000000
20
80.560000000000
30
0.0
11
321.100000000000
21
70.560000000000
31
0.0
0
LINE
5
7f4
100
AcDbEntity
8
0-0
6
CONTINUOUS
62
4
100
AcDbLine
10
303.100000000000
20
80.560000000000
30
0.0
11
321.100000000000
21
80.560000000000
31
0.0
0
LINE
5
7f5
100
AcDbEntity
8
0-0
6
CONTINUOUS
62
4
100
AcDbLine
10
293.100000000000
20
70.560000000000
30
0.0
11
321.100000000000
21
70.560000000000
31
0.0
0
LINE
5
7f6
100
AcDbEntity
8
0-0
6
CONTINUOUS
62
3
100
AcDbLine
10
315.730000000000
20
101.060000000000
30
0.0
11
320.860000000000
21
103.860000000000
31
0.0
0
LINE
5
7f7
100
AcDbEntity
8
0-0
6
CONTINUOUS
62
3
100
AcDbLine
10
320.860000000000
20
103.860000000000
30
0.0
11
321.100000000000
21
103.420000000000
31
0.0
0
LINE
5
7f8
100
AcDbEntity
8
0-0
6
CONTINUOUS
62
3
100
AcDbLine
10
315.850000000000
20
100.560000000000
30
0.0
11
321.100000000000
21
103.420000000000
31
0.0
0
LINE
5
7f9
100
AcDbEntity
8
0-0
6
CONTINUOUS
62
3
100
AcDbLine
10
425.850000000000
20
113.060000000000
30
0.0
11
425.850000000000
21
104.560000000000
31
0.0
0
LINE
5
7fa
100
AcDbEntity
8
0-0
6
CONTINUOUS
62
3
100
AcDbLine
10
425.350000000000
20
104.560000000000
30
0.0
11
425.350000000000
21
113.060000000000
31
0.0
0
LINE
5
7fb
100
AcDbEntity
8
0-0
6
CONTINUOUS
62
3
100
AcDbLine
10
416.730000000000
20
104.560000000000
30
0.0
11
422.810000000000
21
105.470000000000
31
0.0
0
LINE
5
7fc
100
AcDbEntity
8
0-0
6
CONTINUOUS
62
3
100
AcDbLine
10
416.800000000000
20
104.060000000000
30
0.0
11
422.910000000000
21
104.980000000000
31
0.0
0
LINE
5
7fd
100
AcDbEntity
8
0-0
6
CONTINUOUS
62
3
100
AcDbLine
10
425.090000000000
20
112.980000000000
30
0.0
11
423.960000000000
21
105.960000000000
31
0.0
0
LINE
5
7fe
100
AcDbEntity
8
0-0
6
CONTINUOUS
62
3
100
AcDbLine
10
424.600000000000
20
113.060000000000
30
0.0
11
423.470000000000
21
106.090000000000
31
0.0
0
LINE
5
7ff
100
AcDbEntity
8
0-0
6
CONTINUOUS
62
3
100
AcDbLine
10
429.470000000000
20
101.910000000000
30
0.0
11
431.600000000000
21
101.060000000000
31
0.0
0
LINE
5
800
100
AcDbEntity
8
0-0
6
CONTINUOUS
62
3
100
AcDbLine
10
431.600000000000
20
101.060000000000
30
0.0
11
436.730000000000
21
101.060000000000
31
0.0
0
LINE
5
801
100
AcDbEntity
8
0-0
6
CONTINUOUS
62
3
100
AcDbLine
10
431.500000000000
20
100.560000000000
30
0.0
11
436.850000000000
21
100.560000000000
31
0.0
0
LINE
5
802
100
AcDbEntity
8
0-0
6
CONTINUOUS
62
3
100
AcDbLine
10
429.290000000000
20
101.450000000000
30
0.0
11
431.500000000000
21
100.560000000000
31
0.0
0
LINE
5
803
100
AcDbEntity
8
0-0
6
CONTINUOUS
62
3
100
AcDbLine
10
416.730000000000
20
101.060000000000
30
0.0
11
426.600000000000
21
101.060000000000
31
0.0
0
LINE
5
804
100
AcDbEntity
8
0-0
6
CONTINUOUS
62
3
100
AcDbLine
10
426.600000000000
20
101.060000000000
30
0.0
11
428.730000000000
21
101.910000000000
31
0.0
0
LINE
5
805
100
AcDbEntity
8
0-0
6
CONTINUOUS
62
3
100
AcDbLine
10
426.700000000000
20
100.560000000000
30
0.0
11
416.730000000000
21
100.560000000000
31
0.0
0
LINE
5
806
100
AcDbEntity
8
0-0
6
CONTINUOUS
62
3
100
AcDbLine
10
428.920000000000
20
101.450000000000
30
0.0
11
426.700000000000
21
100.560000000000
31
0.0
0
LINE
5
807
100
AcDbEntity
8
0-0
6
CONTINUOUS
62
3
100
AcDbLine
10
418.850000000000
20
103.560000000000
30
0.0
11
424.350000000000
21
103.560000000000
31
0.0
0
LINE
5
808
100
AcDbEntity
8
0-0
6
CONTINUOUS
62
3
100
AcDbLine
10
418.950000000000
20
103.060000000000
30
0.0
11
424.350000000000
21
103.060000000000
31
0.0
0
LINE
5
809
100
AcDbEntity
8
0-0
6
CONTINUOUS
62
3
100
AcDbLine
10
415.350000000000
20
102.580000000000
30
0.0
11
415.480000000000
21
102.100000000000
31
0.0
0
LINE
5
80a
100
AcDbEntity
8
0-0
6
CONTINUOUS
62
3
100
AcDbLine
10
415.480000000000
20
102.100000000000
30
0.0
11
418.950000000000
21
103.060000000000
31
0.0
0
LINE
5
80b
100
AcDbEntity
8
0-0
6
CONTINUOUS
62
3
100
AcDbLine
10
415.350000000000
20
102.580000000000
30
0.0
11
418.890000000000
21
103.560000000000
31
0.0
0
LINE
5
80c
100
AcDbEntity
8
0-0
6
CONTINUOUS
62
3
100
AcDbLine
10
436.730000000000
20
101.060000000000
30
0.0
11
441.860000000000
21
103.860000000000
31
0.0
0
LINE
5
80d
100
AcDbEntity
8
0-0
6
CONTINUOUS
62
3
100
AcDbLine
10
441.860000000000
20
103.860000000000
30
0.0
11
442.100000000000
21
103.420000000000
31
0.0
0
LINE
5
80e
100
AcDbEntity
8
0-0
6
CONTINUOUS
62
3
100
AcDbLine
10
436.850000000000
20
100.560000000000
30
0.0
11
442.100000000000
21
103.420000000000
31
0.0
0
LINE
5
80f
100
AcDbEntity
8
0-0
6
CONTINUOUS
62
3
100
AcDbLine
10
575.850000000000
20
113.060000000000
30
0.0
11
575.850000000000
21
104.560000000000
31
0.0
0
LINE
5
810
100
AcDbEntity
8
0-0
6
CONTINUOUS
62
3
100
AcDbLine
10
575.350000000000
20
104.560000000000
30
0.0
11
575.350000000000
21
113.060000000000
31
0.0
0
LINE
5
811
100
AcDbEntity
8
0-0
6
CONTINUOUS
62
3
100
AcDbLine
10
566.730000000000
20
104.560000000000
30
0.0
11
572.810000000000
21
105.470000000000
31
0.0
0
LINE
5
812
100
AcDbEntity
8
0-0
6
CONTINUOUS
62
3
100
AcDbLine
10
566.800000000000
20
104.060000000000
30
0.0
11
572.910000000000
21
104.980000000000
31
0.0
0
LINE
5
813
100
AcDbEntity
8
0-0
6
CONTINUOUS
62
3
100
AcDbLine
10
575.090000000000
20
112.980000000000
30
0.0
11
573.960000000000
21
105.960000000000
31
0.0
0
LINE
5
814
100
AcDbEntity
8
0-0
6
CONTINUOUS
62
3
100
AcDbLine
10
574.600000000000
20
113.060000000000
30
0.0
11
573.470000000000
21
106.090000000000
31
0.0
0
LINE
5
815
100
AcDbEntity
8
0-0
6
CONTINUOUS
62
3
100
AcDbLine
10
579.470000000000
20
101.910000000000
30
0.0
11
581.600000000000
21
101.060000000000
31
0.0
0
LINE
5
816
100
AcDbEntity
8
0-0
6
CONTINUOUS
62
3
100
AcDbLine
10
581.600000000000
20
101.060000000000
30
0.0
11
586.730000000000
21
101.060000000000
31
0.0
0
LINE
5
817
100
AcDbEntity
8
0-0
6
CONTINUOUS
62
3
100
AcDbLine
10
581.500000000000
20
100.560000000000
30
0.0
11
586.850000000000
21
100.560000000000
31
0.0
0
LINE
5
818
100
AcDbEntity
8
0-0
6
CONTINUOUS
62
3
100
AcDbLine
10
579.290000000000
20
101.450000000000
30
0.0
11
581.500000000000
21
100.560000000000
31
0.0
0
LINE
5
819
100
AcDbEntity
8
0-0
6
CONTINUOUS
62
3
100
AcDbLine
10
566.730000000000
20
101.060000000000
30
0.0
11
576.600000000000
21
101.060000000000
31
0.0
0
LINE
5
81a
100
AcDbEntity
8
0-0
6
CONTINUOUS
62
3
100
AcDbLine
10
576.600000000000
20
101.060000000000
30
0.0
11
578.730000000000
21
101.910000000000
31
0.0
0
LINE
5
81b
100
AcDbEntity
8
0-0
6
CONTINUOUS
62
3
100
AcDbLine
10
576.700000000000
20
100.560000000000
30
0.0
11
566.730000000000
21
100.560000000000
31
0.0
0
LINE
5
81c
100
AcDbEntity
8
0-0
6
CONTINUOUS
62
3
100
AcDbLine
10
578.920000000000
20
101.450000000000
30
0.0
11
576.700000000000
21
100.560000000000
31
0.0
0
LINE
5
81d
100
AcDbEntity
8
0-0
6
CONTINUOUS
62
3
100
AcDbLine
10
568.850000000000
20
103.560000000000
30
0.0
11
574.350000000000
21
103.560000000000
31
0.0
0
LINE
5
81e
100
AcDbEntity
8
0-0
6
CONTINUOUS
62
3
100
AcDbLine
10
568.950000000000
20
103.060000000000
30
0.0
11
574.350000000000
21
103.060000000000
31
0.0
0
LINE
5
81f
100
AcDbEntity
8
0-0
6
CONTINUOUS
62
3
100
AcDbLine
10
565.350000000000
20
102.580000000000
30
0.0
11
565.480000000000
21
102.100000000000
31
0.0
0
LINE
5
820
100
AcDbEntity
8
0-0
6
CONTINUOUS
62
3
100
AcDbLine
10
565.480000000000
20
102.100000000000
30
0.0
11
568.950000000000
21
103.060000000000
31
0.0
0
LINE
5
821
100
AcDbEntity
8
0-0
6
CONTINUOUS
62
3
100
AcDbLine
10
565.350000000000
20
102.580000000000
30
0.0
11
568.890000000000
21
103.560000000000
31
0.0
0
LINE
5
822
100
AcDbEntity
8
0-0
6
CONTINUOUS
62
3
100
AcDbLine
10
586.730000000000
20
101.060000000000
30
0.0
11
591.860000000000
21
103.860000000000
31
0.0
0
LINE
5
823
100
AcDbEntity
8
0-0
6
CONTINUOUS
62
3
100
AcDbLine
10
591.860000000000
20
103.860000000000
30
0.0
11
592.100000000000
21
103.420000000000
31
0.0
0
LINE
5
824
100
AcDbEntity
8
0-0
6
CONTINUOUS
62
3
100
AcDbLine
10
586.850000000000
20
100.560000000000
30
0.0
11
592.100000000000
21
103.420000000000
31
0.0
0
LINE
5
825
100
AcDbEntity
8
0-0
6
CONTINUOUS
62
3
100
AcDbLine
10
139.080000000000
20
1025.610000000000
30
0.0
11
121.080000000000
21
1025.610000000000
31
0.0
0
LINE
5
826
100
AcDbEntity
8
0-0
6
CONTINUOUS
62
3
100
AcDbLine
10
139.580000000000
20
1026.110000000000
30
0.0
11
139.580000000000
21
1033.110000000000
31
0.0
0
LINE
5
827
100
AcDbEntity
8
0-0
6
CONTINUOUS
62
3
100
AcDbLine
10
140.080000000000
20
1026.110000000000
30
0.0
11
140.080000000000
21
1033.110000000000
31
0.0
0
LINE
5
828
100
AcDbEntity
8
0-0
6
CONTINUOUS
62
3
100
AcDbLine
10
121.080000000000
20
1025.110000000000
30
0.0
11
139.080000000000
21
1025.110000000000
31
0.0
0
LINE
5
829
100
AcDbEntity
8
0-0
6
CONTINUOUS
62
4
100
AcDbLine
10
120.080000000000
20
1058.110000000000
30
0.0
11
170.080000000000
21
1058.110000000000
31
0.0
0
LINE
5
82a
100
AcDbEntity
8
0-0
6
CONTINUOUS
62
4
100
AcDbLine
10
120.080000000000
20
1053.110000000000
30
0.0
11
120.080000000000
21
1058.110000000000
31
0.0
0
LINE
5
82b
100
AcDbEntity
8
0-0
6
CONTINUOUS
62
4
100
AcDbLine
10
170.080000000000
20
1053.110000000000
30
0.0
11
170.080000000000
21
1058.110000000000
31
0.0
0
LINE
5
82c
100
AcDbEntity
8
0-0
6
CONTINUOUS
62
4
100
AcDbLine
10
140.080000000000
20
1020.110000000000
30
0.0
11
140.080000000000
21
1015.110000000000
31
0.0
0
LINE
5
82d
100
AcDbEntity
8
0-0
6
CONTINUOUS
62
4
100
AcDbLine
10
115.080000000000
20
1048.110000000000
30
0.0
11
110.080000000000
21
1048.110000000000
31
0.0
0
LINE
5
82e
100
AcDbEntity
8
0-0
6
CONTINUOUS
62
4
100
AcDbLine
10
150.080000000000
20
1034.110000000000
30
0.0
11
150.080000000000
21
1025.110000000000
31
0.0
0
LINE
5
82f
100
AcDbEntity
8
0-0
6
CONTINUOUS
62
4
100
AcDbLine
10
145.080000000000
20
1034.110000000000
30
0.0
11
150.080000000000
21
1034.110000000000
31
0.0
0
LINE
5
830
100
AcDbEntity
8
0-0
6
CONTINUOUS
62
4
100
AcDbLine
10
145.080000000000
20
1025.110000000000
30
0.0
11
150.080000000000
21
1025.110000000000
31
0.0
0
LINE
5
831
100
AcDbEntity
8
0-0
6
CONTINUOUS
62
3
100
AcDbLine
10
121.080000000000
20
1048.110000000000
30
0.0
11
170.080000000000
21
1048.110000000000
31
0.0
0
LINE
5
832
100
AcDbEntity
8
0-0
6
CONTINUOUS
62
3
100
AcDbLine
10
121.080000000000
20
1047.610000000000
30
0.0
11
170.080000000000
21
1047.610000000000
31
0.0
0
LINE
5
833
100
AcDbEntity
8
0-0
6
CONTINUOUS
62
3
100
AcDbLine
10
170.080000000000
20
1048.110000000000
30
0.0
11
170.080000000000
21
1047.610000000000
31
0.0
0
LINE
5
834
100
AcDbEntity
8
0-0
6
CONTINUOUS
62
3
100
AcDbLine
10
132.080000000000
20
1034.110000000000
30
0.0
11
132.080000000000
21
1033.610000000000
31
0.0
0
LINE
5
835
100
AcDbEntity
8
0-0
6
CONTINUOUS
62
3
100
AcDbLine
10
132.080000000000
20
1034.110000000000
30
0.0
11
139.080000000000
21
1034.110000000000
31
0.0
0
LINE
5
836
100
AcDbEntity
8
0-0
6
CONTINUOUS
62
3
100
AcDbLine
10
139.080000000000
20
1033.610000000000
30
0.0
11
132.080000000000
21
1033.610000000000
31
0.0
0
LINE
5
837
100
AcDbEntity
8
0-0
6
CONTINUOUS
62
4
100
AcDbLine
10
120.080000000000
20
1000.110000000000
30
0.0
11
140.080000000000
21
1000.110000000000
31
0.0
0
LINE
5
838
100
AcDbEntity
8
0-0
6
CONTINUOUS
62
4
100
AcDbLine
10
120.080000000000
20
1005.110000000000
30
0.0
11
120.080000000000
21
1000.110000000000
31
0.0
0
LINE
5
839
100
AcDbEntity
8
0-0
6
CONTINUOUS
62
4
100
AcDbLine
10
140.080000000000
20
1005.110000000000
30
0.0
11
140.080000000000
21
1000.110000000000
31
0.0
0
LINE
5
83a
100
AcDbEntity
8
0-0
6
CONTINUOUS
62
4
100
AcDbLine
10
132.080000000000
20
1020.110000000000
30
0.0
11
132.080000000000
21
1015.110000000000
31
0.0
0
LINE
5
83b
100
AcDbEntity
8
0-0
6
CONTINUOUS
62
4
100
AcDbLine
10
132.080000000000
20
1015.110000000000
30
0.0
11
140.080000000000
21
1015.110000000000
31
0.0
0
LINE
5
83c
100
AcDbEntity
8
0-0
6
CONTINUOUS
62
4
100
AcDbLine
10
110.080000000000
20
1048.110000000000
30
0.0
11
110.080000000000
21
1025.110000000000
31
0.0
0
LINE
5
83d
100
AcDbEntity
8
0-0
6
CONTINUOUS
62
4
100
AcDbLine
10
115.080000000000
20
1025.110000000000
30
0.0
11
110.080000000000
21
1025.110000000000
31
0.0
0
LINE
5
83e
100
AcDbEntity
8
0-0
6
CONTINUOUS
62
3
100
AcDbLine
10
120.580000000000
20
1026.110000000000
30
0.0
11
120.580000000000
21
1047.110000000000
31
0.0
0
LINE
5
83f
100
AcDbEntity
8
0-0
6
CONTINUOUS
62
3
100
AcDbLine
10
120.080000000000
20
1026.110000000000
30
0.0
11
120.080000000000
21
1047.110000000000
31
0.0
0
LINE
5
840
100
AcDbEntity
8
0-0
6
CONTINUOUS
62
4
100
AcDbLine
10
671.600000000000
20
1038.110000000000
30
0.0
11
671.600000000000
21
1043.110000000000
31
0.0
0
LINE
5
841
100
AcDbEntity
8
0-0
6
CONTINUOUS
62
4
100
AcDbLine
10
713.600000000000
20
1038.110000000000
30
0.0
11
713.600000000000
21
1043.110000000000
31
0.0
0
LINE
5
842
100
AcDbEntity
8
0-0
6
CONTINUOUS
62
4
100
AcDbLine
10
717.340000000000
20
1030.150000000000
30
0.0
11
722.350000000000
21
1030.150000000000
31
0.0
0
LINE
5
843
100
AcDbEntity
8
0-0
6
CONTINUOUS
62
4
100
AcDbLine
10
674.100000000000
20
1005.110000000000
30
0.0
11
674.100000000000
21
1000.110000000000
31
0.0
0
LINE
5
844
100
AcDbEntity
8
0-0
6
CONTINUOUS
62
4
100
AcDbLine
10
698.100000000000
20
990.110000000000
30
0.0
11
698.100000000000
21
985.110000000000
31
0.0
0
LINE
5
845
100
AcDbEntity
8
0-0
6
CONTINUOUS
62
4
100
AcDbLine
10
674.100000000000
20
990.110000000000
30
0.0
11
674.100000000000
21
985.110000000000
31
0.0
0
LINE
5
846
100
AcDbEntity
8
0-0
6
CONTINUOUS
62
4
100
AcDbLine
10
682.090000000000
20
1005.110000000000
30
0.0
11
682.090000000000
21
1000.110000000000
31
0.0
0
LINE
5
847
100
AcDbEntity
8
0-0
6
CONTINUOUS
62
4
100
AcDbLine
10
686.100000000000
20
1005.110000000000
30
0.0
11
686.100000000000
21
1000.110000000000
31
0.0
0
LINE
5
848
100
AcDbEntity
8
0-0
6
CONTINUOUS
62
4
100
AcDbLine
10
674.100000000000
20
1000.110000000000
30
0.0
11
682.090000000000
21
1000.110000000000
31
0.0
0
LINE
5
849
100
AcDbEntity
8
0-0
6
CONTINUOUS
62
4
100
AcDbLine
10
717.340000000000
20
1013.150000000000
30
0.0
11
722.350000000000
21
1013.150000000000
31
0.0
0
LINE
5
84a
100
AcDbEntity
8
0-0
6
CONTINUOUS
62
3
100
AcDbLine
10
660.330000000000
20
1032.110000000000
30
0.0
11
671.600000000000
21
1032.610000000000
31
0.0
0
LINE
5
84b
100
AcDbEntity
8
0-0
6
CONTINUOUS
62
3
100
AcDbLine
10
660.360000000000
20
1031.610000000000
30
0.0
11
671.620000000000
21
1032.110000000000
31
0.0
0
LINE
5
84c
100
AcDbEntity
8
0-0
6
CONTINUOUS
62
3
100
AcDbLine
10
671.620000000000
20
1032.110000000000
30
0.0
11
671.600000000000
21
1032.610000000000
31
0.0
0
LINE
5
84d
100
AcDbEntity
8
0-0
6
CONTINUOUS
62
4
100
AcDbLine
10
659.600000000000
20
1038.110000000000
30
0.0
11
659.600000000000
21
1043.110000000000
31
0.0
0
LINE
5
84e
100
AcDbEntity
8
0-0
6
CONTINUOUS
62
4
100
AcDbLine
10
722.350000000000
20
1030.150000000000
30
0.0
11
722.350000000000
21
1013.150000000000
31
0.0
0
LINE
5
84f
100
AcDbEntity
8
0-0
6
CONTINUOUS
62
3
100
AcDbLine
10
660.340000000000
20
1033.110000000000
30
0.0
11
712.590000000000
21
1033.110000000000
31
0.0
0
LINE
5
850
100
AcDbEntity
8
0-0
6
CONTINUOUS
62
3
100
AcDbLine
10
660.330000000000
20
1032.610000000000
30
0.0
11
712.590000000000
21
1032.610000000000
31
0.0
0
LINE
5
851
100
AcDbEntity
8
0-0
6
CONTINUOUS
62
3
100
AcDbLine
10
712.600000000000
20
1031.610000000000
30
0.0
11
687.060000000000
21
1030.650000000000
31
0.0
0
LINE
5
852
100
AcDbEntity
8
0-0
6
CONTINUOUS
62
3
100
AcDbLine
10
712.620000000000
20
1031.110000000000
30
0.0
11
687.080000000000
21
1030.150000000000
31
0.0
0
LINE
5
853
100
AcDbEntity
8
0-0
6
CONTINUOUS
62
3
100
AcDbLine
10
687.100000000000
20
1013.150000000000
30
0.0
11
697.350000000000
21
1012.610000000000
31
0.0
0
LINE
5
854
100
AcDbEntity
8
0-0
6
CONTINUOUS
62
3
100
AcDbLine
10
687.070000000000
20
1012.650000000000
30
0.0
11
697.320000000000
21
1012.110000000000
31
0.0
0
LINE
5
855
100
AcDbEntity
8
0-0
6
CONTINUOUS
62
3
100
AcDbLine
10
674.850000000000
20
1012.110000000000
30
0.0
11
682.090000000000
21
1011.610000000000
31
0.0
0
LINE
5
856
100
AcDbEntity
8
0-0
6
CONTINUOUS
62
3
100
AcDbLine
10
674.850000000000
20
1012.610000000000
30
0.0
11
682.130000000000
21
1012.110000000000
31
0.0
0
LINE
5
857
100
AcDbEntity
8
0-0
6
CONTINUOUS
62
3
100
AcDbLine
10
674.850000000000
20
1011.110000000000
30
0.0
11
697.350000000000
21
1011.110000000000
31
0.0
0
LINE
5
858
100
AcDbEntity
8
0-0
6
CONTINUOUS
62
3
100
AcDbLine
10
674.850000000000
20
1011.610000000000
30
0.0
11
697.350000000000
21
1011.610000000000
31
0.0
0
LINE
5
859
100
AcDbEntity
8
0-0
6
CONTINUOUS
62
3
100
AcDbLine
10
682.130000000000
20
1012.110000000000
30
0.0
11
682.090000000000
21
1011.610000000000
31
0.0
0
LINE
5
85a
100
AcDbEntity
8
0-0
6
CONTINUOUS
62
4
100
AcDbLine
10
686.100000000000
20
1000.110000000000
30
0.0
11
698.100000000000
21
1000.110000000000
31
0.0
0
LINE
5
85b
100
AcDbEntity
8
0-0
6
CONTINUOUS
62
4
100
AcDbLine
10
698.100000000000
20
1005.110000000000
30
0.0
11
698.100000000000
21
1000.110000000000
31
0.0
0
LINE
5
85c
100
AcDbEntity
8
0-0
6
CONTINUOUS
62
4
100
AcDbLine
10
674.100000000000
20
985.110000000000
30
0.0
11
698.100000000000
21
985.110000000000
31
0.0
0
LINE
5
85d
100
AcDbEntity
8
0-0
6
CONTINUOUS
62
4
100
AcDbLine
10
686.100000000000
20
1038.110000000000
30
0.0
11
686.100000000000
21
1043.110000000000
31
0.0
0
LINE
5
85e
100
AcDbEntity
8
0-0
6
CONTINUOUS
62
4
100
AcDbLine
10
659.600000000000
20
1058.110000000000
30
0.0
11
713.600000000000
21
1058.110000000000
31
0.0
0
LINE
5
85f
100
AcDbEntity
8
0-0
6
CONTINUOUS
62
4
100
AcDbLine
10
659.600000000000
20
1053.110000000000
30
0.0
11
659.600000000000
21
1058.110000000000
31
0.0
0
LINE
5
860
100
AcDbEntity
8
0-0
6
CONTINUOUS
62
4
100
AcDbLine
10
713.600000000000
20
1053.110000000000
30
0.0
11
713.600000000000
21
1058.110000000000
31
0.0
0
LINE
5
861
100
AcDbEntity
8
0-0
6
CONTINUOUS
62
3
100
AcDbLine
10
686.600000000000
20
1029.650000000000
30
0.0
11
686.600000000000
21
1013.650000000000
31
0.0
0
LINE
5
862
100
AcDbEntity
8
0-0
6
CONTINUOUS
62
3
100
AcDbLine
10
686.100000000000
20
1029.650000000000
30
0.0
11
686.100000000000
21
1013.650000000000
31
0.0
0
LINE
5
863
100
AcDbEntity
8
0-0
6
CONTINUOUS
62
4
100
AcDbLine
10
731.340000000000
20
1033.110000000000
30
0.0
11
736.350000000000
21
1033.110000000000
31
0.0
0
LINE
5
864
100
AcDbEntity
8
0-0
6
CONTINUOUS
62
4
100
AcDbLine
10
736.350000000000
20
1033.110000000000
30
0.0
11
736.350000000000
21
1011.110000000000
31
0.0
0
LINE
5
865
100
AcDbEntity
8
0-0
6
CONTINUOUS
62
4
100
AcDbLine
10
731.340000000000
20
1011.110000000000
30
0.0
11
736.350000000000
21
1011.110000000000
31
0.0
0
LINE
5
866
100
AcDbEntity
8
0-0
6
CONTINUOUS
62
4
100
AcDbLine
10
659.600000000000
20
1043.110000000000
30
0.0
11
671.600000000000
21
1043.110000000000
31
0.0
0
LINE
5
867
100
AcDbEntity
8
0-0
6
CONTINUOUS
62
4
100
AcDbLine
10
686.100000000000
20
1043.110000000000
30
0.0
11
713.600000000000
21
1043.110000000000
31
0.0
0
LINE
5
868
100
AcDbEntity
8
0-0
6
CONTINUOUS
62
4
100
AcDbLine
10
242.980000000000
20
1058.110000000000
30
0.0
11
302.980000000000
21
1058.110000000000
31
0.0
0
LINE
5
869
100
AcDbEntity
8
0-0
6
CONTINUOUS
62
4
100
AcDbLine
10
242.980000000000
20
1053.110000000000
30
0.0
11
242.980000000000
21
1058.110000000000
31
0.0
0
LINE
5
86a
100
AcDbEntity
8
0-0
6
CONTINUOUS
62
4
100
AcDbLine
10
302.980000000000
20
1053.110000000000
30
0.0
11
302.980000000000
21
1058.110000000000
31
0.0
0
LINE
5
86b
100
AcDbEntity
8
0-0
6
CONTINUOUS
62
3
100
AcDbLine
10
242.980000000000
20
1048.110000000000
30
0.0
11
242.980000000000
21
1047.610000000000
31
0.0
0
LINE
5
86c
100
AcDbEntity
8
0-0
6
CONTINUOUS
62
4
100
AcDbLine
10
258.980000000000
20
1026.110000000000
30
0.0
11
258.980000000000
21
1021.110000000000
31
0.0
0
LINE
5
86d
100
AcDbEntity
8
0-0
6
CONTINUOUS
62
4
100
AcDbLine
10
288.980000000000
20
1026.110000000000
30
0.0
11
288.980000000000
21
1021.110000000000
31
0.0
0
LINE
5
86e
100
AcDbEntity
8
0-0
6
CONTINUOUS
62
4
100
AcDbLine
10
288.980000000000
20
1011.110000000000
30
0.0
11
288.980000000000
21
1006.110000000000
31
0.0
0
LINE
5
86f
100
AcDbEntity
8
0-0
6
CONTINUOUS
62
4
100
AcDbLine
10
258.980000000000
20
1011.110000000000
30
0.0
11
258.980000000000
21
1006.110000000000
31
0.0
0
LINE
5
870
100
AcDbEntity
8
0-0
6
CONTINUOUS
62
4
100
AcDbLine
10
258.980000000000
20
1006.110000000000
30
0.0
11
288.980000000000
21
1006.110000000000
31
0.0
0
LINE
5
871
100
AcDbEntity
8
0-0
6
CONTINUOUS
62
4
100
AcDbLine
10
266.980000000000
20
1026.110000000000
30
0.0
11
266.980000000000
21
1021.110000000000
31
0.0
0
LINE
5
872
100
AcDbEntity
8
0-0
6
CONTINUOUS
62
4
100
AcDbLine
10
272.980000000000
20
1026.110000000000
30
0.0
11
272.980000000000
21
1021.110000000000
31
0.0
0
LINE
5
873
100
AcDbEntity
8
0-0
6
CONTINUOUS
62
4
100
AcDbLine
10
258.980000000000
20
1021.110000000000
30
0.0
11
266.980000000000
21
1021.110000000000
31
0.0
0
LINE
5
874
100
AcDbEntity
8
0-0
6
CONTINUOUS
62
4
100
AcDbLine
10
272.980000000000
20
1021.110000000000
30
0.0
11
288.980000000000
21
1021.110000000000
31
0.0
0
LINE
5
875
100
AcDbEntity
8
0-0
6
CONTINUOUS
62
4
100
AcDbLine
10
306.730000000000
20
1046.610000000000
30
0.0
11
311.730000000000
21
1046.610000000000
31
0.0
0
LINE
5
876
100
AcDbEntity
8
0-0
6
CONTINUOUS
62
3
100
AcDbLine
10
242.980000000000
20
1048.110000000000
30
0.0
11
302.230000000000
21
1048.110000000000
31
0.0
0
LINE
5
877
100
AcDbEntity
8
0-0
6
CONTINUOUS
62
3
100
AcDbLine
10
273.980000000000
20
1046.610000000000
30
0.0
11
302.230000000000
21
1046.610000000000
31
0.0
0
LINE
5
878
100
AcDbEntity
8
0-0
6
CONTINUOUS
62
3
100
AcDbLine
10
242.980000000000
20
1047.610000000000
30
0.0
11
302.230000000000
21
1047.610000000000
31
0.0
0
LINE
5
879
100
AcDbEntity
8
0-0
6
CONTINUOUS
62
3
100
AcDbLine
10
273.980000000000
20
1047.110000000000
30
0.0
11
302.230000000000
21
1047.110000000000
31
0.0
0
LINE
5
87a
100
AcDbEntity
8
0-0
6
CONTINUOUS
62
3
100
AcDbLine
10
273.980000000000
20
1032.610000000000
30
0.0
11
288.230000000000
21
1032.610000000000
31
0.0
0
LINE
5
87b
100
AcDbEntity
8
0-0
6
CONTINUOUS
62
3
100
AcDbLine
10
288.230000000000
20
1032.110000000000
30
0.0
11
273.980000000000
21
1032.110000000000
31
0.0
0
LINE
5
87c
100
AcDbEntity
8
0-0
6
CONTINUOUS
62
3
100
AcDbLine
10
259.730000000000
20
1032.110000000000
30
0.0
11
266.980000000000
21
1032.110000000000
31
0.0
0
LINE
5
87d
100
AcDbEntity
8
0-0
6
CONTINUOUS
62
3
100
AcDbLine
10
266.980000000000
20
1032.610000000000
30
0.0
11
259.730000000000
21
1032.610000000000
31
0.0
0
LINE
5
87e
100
AcDbEntity
8
0-0
6
CONTINUOUS
62
3
100
AcDbLine
10
266.980000000000
20
1032.610000000000
30
0.0
11
266.980000000000
21
1032.110000000000
31
0.0
0
LINE
5
87f
100
AcDbEntity
8
0-0
6
CONTINUOUS
62
3
100
AcDbLine
10
259.730000000000
20
1031.610000000000
30
0.0
11
288.230000000000
21
1031.610000000000
31
0.0
0
LINE
5
880
100
AcDbEntity
8
0-0
6
CONTINUOUS
62
3
100
AcDbLine
10
259.730000000000
20
1031.110000000000
30
0.0
11
288.230000000000
21
1031.110000000000
31
0.0
0
LINE
5
881
100
AcDbEntity
8
0-0
6
CONTINUOUS
62
4
100
AcDbLine
10
306.730000000000
20
1032.610000000000
30
0.0
11
311.730000000000
21
1032.610000000000
31
0.0
0
LINE
5
882
100
AcDbEntity
8
0-0
6
CONTINUOUS
62
4
100
AcDbLine
10
311.730000000000
20
1046.610000000000
30
0.0
11
311.730000000000
21
1032.610000000000
31
0.0
0
LINE
5
883
100
AcDbEntity
8
0-0
6
CONTINUOUS
62
3
100
AcDbLine
10
272.980000000000
20
1046.110000000000
30
0.0
11
272.980000000000
21
1033.110000000000
31
0.0
0
LINE
5
884
100
AcDbEntity
8
0-0
6
CONTINUOUS
62
3
100
AcDbLine
10
273.480000000000
20
1046.110000000000
30
0.0
11
273.480000000000
21
1033.110000000000
31
0.0
0
LINE
5
885
100
AcDbEntity
8
0-0
6
CONTINUOUS
62
3
100
AcDbLine
10
395.880000000000
20
1063.110000000000
30
0.0
11
396.380000000000
21
1063.110000000000
31
0.0
0
LINE
5
886
100
AcDbEntity
8
0-0
6
CONTINUOUS
62
3
100
AcDbLine
10
410.380000000000
20
993.610000000000
30
0.0
11
410.880000000000
21
993.610000000000
31
0.0
0
LINE
5
887
100
AcDbEntity
8
0-0
6
CONTINUOUS
62
3
100
AcDbLine
10
396.380000000000
20
1014.110000000000
30
0.0
11
396.380000000000
21
1063.110000000000
31
0.0
0
LINE
5
888
100
AcDbEntity
8
0-0
6
CONTINUOUS
62
3
100
AcDbLine
10
418.380000000000
20
986.110000000000
30
0.0
11
411.380000000000
21
986.110000000000
31
0.0
0
LINE
5
889
100
AcDbEntity
8
0-0
6
CONTINUOUS
62
3
100
AcDbLine
10
418.380000000000
20
985.610000000000
30
0.0
11
411.380000000000
21
985.610000000000
31
0.0
0
LINE
5
88a
100
AcDbEntity
8
0-0
6
CONTINUOUS
62
3
100
AcDbLine
10
395.880000000000
20
1014.110000000000
30
0.0
11
395.880000000000
21
1063.110000000000
31
0.0
0
LINE
5
88b
100
AcDbEntity
8
0-0
6
CONTINUOUS
62
4
100
AcDbLine
10
385.880000000000
20
1013.110000000000
30
0.0
11
385.880000000000
21
1063.110000000000
31
0.0
0
LINE
5
88c
100
AcDbEntity
8
0-0
6
CONTINUOUS
62
4
100
AcDbLine
10
390.880000000000
20
1013.110000000000
30
0.0
11
385.880000000000
21
1013.110000000000
31
0.0
0
LINE
5
88d
100
AcDbEntity
8
0-0
6
CONTINUOUS
62
4
100
AcDbLine
10
390.880000000000
20
1063.110000000000
30
0.0
11
385.880000000000
21
1063.110000000000
31
0.0
0
LINE
5
88e
100
AcDbEntity
8
0-0
6
CONTINUOUS
62
4
100
AcDbLine
10
407.880000000000
20
985.610000000000
30
0.0
11
402.880000000000
21
985.610000000000
31
0.0
0
LINE
5
88f
100
AcDbEntity
8
0-0
6
CONTINUOUS
62
4
100
AcDbLine
10
424.380000000000
20
1010.610000000000
30
0.0
11
429.380000000000
21
1010.610000000000
31
0.0
0
LINE
5
890
100
AcDbEntity
8
0-0
6
CONTINUOUS
62
4
100
AcDbLine
10
410.380000000000
20
975.610000000000
30
0.0
11
419.380000000000
21
975.610000000000
31
0.0
0
LINE
5
891
100
AcDbEntity
8
0-0
6
CONTINUOUS
62
4
100
AcDbLine
10
410.380000000000
20
980.610000000000
30
0.0
11
410.380000000000
21
975.610000000000
31
0.0
0
LINE
5
892
100
AcDbEntity
8
0-0
6
CONTINUOUS
62
4
100
AcDbLine
10
419.380000000000
20
980.610000000000
30
0.0
11
419.380000000000
21
975.610000000000
31
0.0
0
LINE
5
893
100
AcDbEntity
8
0-0
6
CONTINUOUS
62
4
100
AcDbLine
10
424.380000000000
20
985.610000000000
30
0.0
11
429.380000000000
21
985.610000000000
31
0.0
0
LINE
5
894
100
AcDbEntity
8
0-0
6
CONTINUOUS
62
3
100
AcDbLine
10
418.880000000000
20
986.610000000000
30
0.0
11
418.880000000000
21
1009.610000000000
31
0.0
0
LINE
5
895
100
AcDbEntity
8
0-0
6
CONTINUOUS
62
3
100
AcDbLine
10
419.380000000000
20
1009.610000000000
30
0.0
11
419.380000000000
21
986.610000000000
31
0.0
0
LINE
5
896
100
AcDbEntity
8
0-0
6
CONTINUOUS
62
4
100
AcDbLine
10
396.380000000000
20
1023.610000000000
30
0.0
11
419.380000000000
21
1023.610000000000
31
0.0
0
LINE
5
897
100
AcDbEntity
8
0-0
6
CONTINUOUS
62
4
100
AcDbLine
10
419.380000000000
20
1018.610000000000
30
0.0
11
419.380000000000
21
1023.610000000000
31
0.0
0
LINE
5
898
100
AcDbEntity
8
0-0
6
CONTINUOUS
62
3
100
AcDbLine
10
528.780000000000
20
1063.110000000000
30
0.0
11
529.280000000000
21
1063.110000000000
31
0.0
0
LINE
5
899
100
AcDbEntity
8
0-0
6
CONTINUOUS
62
3
100
AcDbLine
10
528.780000000000
20
1014.110000000000
30
0.0
11
528.780000000000
21
1063.110000000000
31
0.0
0
LINE
5
89a
100
AcDbEntity
8
0-0
6
CONTINUOUS
62
4
100
AcDbLine
10
518.780000000000
20
1013.110000000000
30
0.0
11
518.780000000000
21
1063.110000000000
31
0.0
0
LINE
5
89b
100
AcDbEntity
8
0-0
6
CONTINUOUS
62
4
100
AcDbLine
10
523.780000000000
20
1013.110000000000
30
0.0
11
518.780000000000
21
1013.110000000000
31
0.0
0
LINE
5
89c
100
AcDbEntity
8
0-0
6
CONTINUOUS
62
4
100
AcDbLine
10
523.780000000000
20
1063.110000000000
30
0.0
11
518.780000000000
21
1063.110000000000
31
0.0
0
LINE
5
89d
100
AcDbEntity
8
0-0
6
CONTINUOUS
62
4
100
AcDbLine
10
514.780000000000
20
985.610000000000
30
0.0
11
509.780000000000
21
985.610000000000
31
0.0
0
LINE
5
89e
100
AcDbEntity
8
0-0
6
CONTINUOUS
62
4
100
AcDbLine
10
557.280000000000
20
1010.610000000000
30
0.0
11
562.280000000000
21
1010.610000000000
31
0.0
0
LINE
5
89f
100
AcDbEntity
8
0-0
6
CONTINUOUS
62
4
100
AcDbLine
10
517.280000000000
20
980.610000000000
30
0.0
11
517.280000000000
21
975.610000000000
31
0.0
0
LINE
5
8a0
100
AcDbEntity
8
0-0
6
CONTINUOUS
62
4
100
AcDbLine
10
552.280000000000
20
980.610000000000
30
0.0
11
552.280000000000
21
975.610000000000
31
0.0
0
LINE
5
8a1
100
AcDbEntity
8
0-0
6
CONTINUOUS
62
4
100
AcDbLine
10
557.280000000000
20
985.610000000000
30
0.0
11
562.280000000000
21
985.610000000000
31
0.0
0
LINE
5
8a2
100
AcDbEntity
8
0-0
6
CONTINUOUS
62
3
100
AcDbLine
10
552.280000000000
20
1009.610000000000
30
0.0
11
552.280000000000
21
986.610000000000
31
0.0
0
LINE
5
8a3
100
AcDbEntity
8
0-0
6
CONTINUOUS
62
4
100
AcDbLine
10
529.280000000000
20
1023.610000000000
30
0.0
11
552.280000000000
21
1023.610000000000
31
0.0
0
LINE
5
8a4
100
AcDbEntity
8
0-0
6
CONTINUOUS
62
4
100
AcDbLine
10
552.280000000000
20
1018.610000000000
30
0.0
11
552.280000000000
21
1023.610000000000
31
0.0
0
LINE
5
8a5
100
AcDbEntity
8
0-0
6
CONTINUOUS
62
4
100
AcDbLine
10
557.280000000000
20
1013.610000000000
30
0.0
11
562.280000000000
21
1013.610000000000
31
0.0
0
LINE
5
8a6
100
AcDbEntity
8
0-0
6
CONTINUOUS
62
4
100
AcDbLine
10
562.280000000000
20
1013.610000000000
30
0.0
11
562.280000000000
21
985.610000000000
31
0.0
0
LINE
5
8a7
100
AcDbEntity
8
0-0
6
CONTINUOUS
62
3
100
AcDbLine
10
551.280000000000
20
986.110000000000
30
0.0
11
518.280000000000
21
986.110000000000
31
0.0
0
LINE
5
8a8
100
AcDbEntity
8
0-0
6
CONTINUOUS
62
3
100
AcDbLine
10
551.280000000000
20
985.610000000000
30
0.0
11
518.280000000000
21
985.610000000000
31
0.0
0
LINE
5
8a9
100
AcDbEntity
8
0-0
6
CONTINUOUS
62
4
100
AcDbLine
10
517.280000000000
20
975.610000000000
30
0.0
11
552.280000000000
21
975.610000000000
31
0.0
0
LINE
5
8aa
100
AcDbEntity
8
0-0
6
CONTINUOUS
62
3
100
AcDbLine
10
529.280000000000
20
1014.120000000000
30
0.0
11
529.280000000000
21
1063.110000000000
31
0.0
0
LINE
5
8ab
100
AcDbEntity
8
0-0
6
CONTINUOUS
62
3
100
AcDbLine
10
551.350000000000
20
1010.100000000000
30
0.0
11
529.550000000000
21
1013.140000000000
31
0.0
0
LINE
5
8ac
100
AcDbEntity
8
0-0
6
CONTINUOUS
62
3
100
AcDbLine
10
551.780000000000
20
1009.610000000000
30
0.0
11
551.780000000000
21
986.610000000000
31
0.0
0
LINE
5
8ad
100
AcDbEntity
8
0-0
6
CONTINUOUS
62
3
100
AcDbLine
10
529.710000000000
20
1013.620000000000
30
0.0
11
551.420000000000
21
1010.590000000000
31
0.0
0
LINE
5
8ae
100
AcDbEntity
8
0-0
6
CONTINUOUS
62
3
100
AcDbLine
10
418.450000000000
20
1010.100000000000
30
0.0
11
396.650000000000
21
1013.140000000000
31
0.0
0
LINE
5
8af
100
AcDbEntity
8
0-0
6
CONTINUOUS
62
3
100
AcDbLine
10
396.810000000000
20
1013.620000000000
30
0.0
11
418.520000000000
21
1010.590000000000
31
0.0
0
LINE
5
8b0
100
AcDbEntity
8
0-0
6
CONTINUOUS
62
4
100
AcDbLine
10
424.380000000000
20
1013.610000000000
30
0.0
11
429.380000000000
21
1013.610000000000
31
0.0
0
LINE
5
8b1
100
AcDbEntity
8
0-0
6
CONTINUOUS
62
4
100
AcDbLine
10
429.380000000000
20
1013.610000000000
30
0.0
11
429.380000000000
21
985.610000000000
31
0.0
0
LINE
5
8b2
100
AcDbEntity
8
0-0
6
CONTINUOUS
62
4
100
AcDbLine
10
514.780000000000
20
994.610000000000
30
0.0
11
509.780000000000
21
994.610000000000
31
0.0
0
LINE
5
8b3
100
AcDbEntity
8
0-0
6
CONTINUOUS
62
4
100
AcDbLine
10
509.780000000000
20
994.610000000000
30
0.0
11
509.780000000000
21
985.610000000000
31
0.0
0
LINE
5
8b4
100
AcDbEntity
8
0-0
6
CONTINUOUS
62
3
100
AcDbLine
10
525.280000000000
20
994.610000000000
30
0.0
11
525.280000000000
21
994.110000000000
31
0.0
0
LINE
5
8b5
100
AcDbEntity
8
0-0
6
CONTINUOUS
62
3
100
AcDbLine
10
517.780000000000
20
986.610000000000
30
0.0
11
517.780000000000
21
993.610000000000
31
0.0
0
LINE
5
8b6
100
AcDbEntity
8
0-0
6
CONTINUOUS
62
3
100
AcDbLine
10
517.280000000000
20
986.610000000000
30
0.0
11
517.280000000000
21
993.610000000000
31
0.0
0
LINE
5
8b7
100
AcDbEntity
8
0-0
6
CONTINUOUS
62
4
100
AcDbLine
10
525.280000000000
20
997.110000000000
30
0.0
11
525.280000000000
21
1002.110000000000
31
0.0
0
LINE
5
8b8
100
AcDbEntity
8
0-0
6
CONTINUOUS
62
4
100
AcDbLine
10
517.280000000000
20
997.110000000000
30
0.0
11
517.280000000000
21
1002.110000000000
31
0.0
0
LINE
5
8b9
100
AcDbEntity
8
0-0
6
CONTINUOUS
62
4
100
AcDbLine
10
407.880000000000
20
993.610000000000
30
0.0
11
402.880000000000
21
993.610000000000
31
0.0
0
LINE
5
8ba
100
AcDbEntity
8
0-0
6
CONTINUOUS
62
4
100
AcDbLine
10
402.880000000000
20
993.610000000000
30
0.0
11
402.880000000000
21
985.610000000000
31
0.0
0
LINE
5
8bb
100
AcDbEntity
8
0-0
6
CONTINUOUS
62
3
100
AcDbLine
10
410.380000000000
20
993.610000000000
30
0.0
11
410.380000000000
21
986.610000000000
31
0.0
0
LINE
5
8bc
100
AcDbEntity
8
0-0
6
CONTINUOUS
62
3
100
AcDbLine
10
410.880000000000
20
986.610000000000
30
0.0
11
410.880000000000
21
993.610000000000
31
0.0
0
LINE
5
8bd
100
AcDbEntity
8
0-0
6
CONTINUOUS
62
4
100
AcDbLine
10
525.280000000000
20
1002.110000000000
30
0.0
11
517.280000000000
21
1002.110000000000
31
0.0
0
LINE
5
8be
100
AcDbEntity
8
0-0
6
CONTINUOUS
62
3
100
AcDbLine
10
525.280000000000
20
994.610000000000
30
0.0
11
518.280000000000
21
994.610000000000
31
0.0
0
LINE
5
8bf
100
AcDbEntity
8
0-0
6
CONTINUOUS
62
3
100
AcDbLine
10
518.280000000000
20
994.110000000000
30
0.0
11
525.280000000000
21
994.110000000000
31
0.0
0
LINE
5
8c0
100
AcDbEntity
8
0-0
6
CONTINUOUS
62
4
100
AcDbLine
10
150.080000000000
20
1048.110000000000
30
0.0
11
150.080000000000
21
1034.110000000000
31
0.0
0
ARC
5
8c1
100
AcDbEntity
8
0-0
6
CONTINUOUS
62
3
100
AcDbCircle
10
525.850000000000
20
378.250000000000
30
0.0
40
0.999999973880
100
AcDbArc
50
90.000000000000
51
134.998992919922
0
ARC
5
8c2
100
AcDbEntity
8
0-0
6
CONTINUOUS
62
3
100
AcDbCircle
10
523.810000000000
20
379.750000000000
30
0.0
40
0.999999973880
100
AcDbArc
50
270.000000000000
51
314.998992919922
0
ARC
5
8c3
100
AcDbEntity
8
0-0
6
CONTINUOUS
62
3
100
AcDbCircle
10
525.850000000000
20
378.250000000000
30
0.0
40
1.500000063431
100
AcDbArc
50
90.000000000000
51
134.998992919922
0
ARC
5
8c4
100
AcDbEntity
8
0-0
6
CONTINUOUS
62
3
100
AcDbCircle
10
523.810000000000
20
379.750000000000
30
0.0
40
1.500000063431
100
AcDbArc
50
270.000000000000
51
314.998992919922
0
ARC
5
8c5
100
AcDbEntity
8
0-0
6
CONTINUOUS
62
3
100
AcDbCircle
10
474.600000000000
20
378.250000000000
30
0.0
40
0.999999973880
100
AcDbArc
50
45.001007080078
51
90.000000000000
0
ARC
5
8c6
100
AcDbEntity
8
0-0
6
CONTINUOUS
62
3
100
AcDbCircle
10
476.640000000000
20
379.750000000000
30
0.0
40
0.999999973880
100
AcDbArc
50
225.001007080078
51
270.000000000000
0
ARC
5
8c7
100
AcDbEntity
8
0-0
6
CONTINUOUS
62
3
100
AcDbCircle
10
474.600000000000
20
378.250000000000
30
0.0
40
1.500000063431
100
AcDbArc
50
45.001007080078
51
90.000000000000
0
ARC
5
8c8
100
AcDbEntity
8
0-0
6
CONTINUOUS
62
3
100
AcDbCircle
10
476.640000000000
20
379.750000000000
30
0.0
40
1.500000063431
100
AcDbArc
50
225.001007080078
51
270.000000000000
0
ARC
5
8c9
100
AcDbEntity
8
0-0
6
CONTINUOUS
62
3
100
AcDbCircle
10
525.720000000000
20
113.060000000000
30
0.0
40
0.999999973880
100
AcDbArc
50
90.000000000000
51
134.998992919922
0
ARC
5
8ca
100
AcDbEntity
8
0-0
6
CONTINUOUS
62
3
100
AcDbCircle
10
523.690000000000
20
114.560000000000
30
0.0
40
0.999999973880
100
AcDbArc
50
270.000000000000
51
314.998992919922
0
ARC
5
8cb
100
AcDbEntity
8
0-0
6
CONTINUOUS
62
3
100
AcDbCircle
10
525.720000000000
20
113.060000000000
30
0.0
40
1.500000063431
100
AcDbArc
50
90.000000000000
51
134.998992919922
0
ARC
5
8cc
100
AcDbEntity
8
0-0
6
CONTINUOUS
62
3
100
AcDbCircle
10
523.690000000000
20
114.560000000000
30
0.0
40
1.500000063431
100
AcDbArc
50
270.000000000000
51
314.998992919922
0
ARC
5
8cd
100
AcDbEntity
8
0-0
6
CONTINUOUS
62
3
100
AcDbCircle
10
474.480000000000
20
113.060000000000
30
0.0
40
0.999999973880
100
AcDbArc
50
45.001007080078
51
90.000000000000
0
ARC
5
8ce
100
AcDbEntity
8
0-0
6
CONTINUOUS
62
3
100
AcDbCircle
10
476.510000000000
20
114.560000000000
30
0.0
40
0.999999973880
100
AcDbArc
50
225.001007080078
51
270.000000000000
0
ARC
5
8cf
100
AcDbEntity
8
0-0
6
CONTINUOUS
62
3
100
AcDbCircle
10
474.480000000000
20
113.060000000000
30
0.0
40
1.500000063431
100
AcDbArc
50
45.001007080078
51
90.000000000000
0
ARC
5
8d0
100
AcDbEntity
8
0-0
6
CONTINUOUS
62
3
100
AcDbCircle
10
476.510000000000
20
114.560000000000
30
0.0
40
1.500000063431
100
AcDbArc
50
225.001007080078
51
270.000000000000
0
CIRCLE
5
8d1
100
AcDbEntity
8
0-0
6
CONTINUOUS
62
3
100
AcDbCircle
10
39.860000000000
20
33.550000000000
30
0.0
40
5.656899535249
0
CIRCLE
5
8d2
100
AcDbEntity
8
0-0
6
CONTINUOUS
62
3
100
AcDbCircle
10
39.860000000000
20
33.550000000000
30
0.0
40
6.456900006885
0
CIRCLE
5
8d3
100
AcDbEntity
8
0-0
6
CONTINUOUS
62
4
100
AcDbCircle
10
39.860000000000
20
33.550000000000
30
0.0
40
5.736899910767
0
CIRCLE
5
8d4
100
AcDbEntity
8
0-0
6
CONTINUOUS
62
4
100
AcDbCircle
10
39.860000000000
20
33.550000000000
30
0.0
40
5.896899567288
0
CIRCLE
5
8d5
100
AcDbEntity
8
0-0
6
CONTINUOUS
62
4
100
AcDbCircle
10
39.860000000000
20
33.550000000000
30
0.0
40
6.056900318325
0
CIRCLE
5
8d6
100
AcDbEntity
8
0-0
6
CONTINUOUS
62
4
100
AcDbCircle
10
39.860000000000
20
33.550000000000
30
0.0
40
6.216899974846
0
CIRCLE
5
8d7
100
AcDbEntity
8
0-0
6
CONTINUOUS
62
4
100
AcDbCircle
10
39.860000000000
20
33.550000000000
30
0.0
40
6.376899631366
0
ARC
5
8d8
100
AcDbEntity
8
0-0
6
CONTINUOUS
62
3
100
AcDbCircle
10
253.720000000000
20
378.250000000000
30
0.0
40
0.999999973880
100
AcDbArc
50
90.000000000000
51
134.998992919922
0
ARC
5
8d9
100
AcDbEntity
8
0-0
6
CONTINUOUS
62
3
100
AcDbCircle
10
251.690000000000
20
379.750000000000
30
0.0
40
0.999999973880
100
AcDbArc
50
270.000000000000
51
314.998992919922
0
ARC
5
8da
100
AcDbEntity
8
0-0
6
CONTINUOUS
62
3
100
AcDbCircle
10
253.720000000000
20
378.250000000000
30
0.0
40
1.500000063431
100
AcDbArc
50
90.000000000000
51
134.998992919922
0
ARC
5
8db
100
AcDbEntity
8
0-0
6
CONTINUOUS
62
3
100
AcDbCircle
10
251.690000000000
20
379.750000000000
30
0.0
40
1.500000063431
100
AcDbArc
50
270.000000000000
51
314.998992919922
0
ARC
5
8dc
100
AcDbEntity
8
0-0
6
CONTINUOUS
62
3
100
AcDbCircle
10
202.480000000000
20
378.250000000000
30
0.0
40
0.999999973880
100
AcDbArc
50
45.001007080078
51
90.000000000000
0
ARC
5
8dd
100
AcDbEntity
8
0-0
6
CONTINUOUS
62
3
100
AcDbCircle
10
204.510000000000
20
379.750000000000
30
0.0
40
0.999999973880
100
AcDbArc
50
225.001007080078
51
270.000000000000
0
ARC
5
8de
100
AcDbEntity
8
0-0
6
CONTINUOUS
62
3
100
AcDbCircle
10
202.480000000000
20
378.250000000000
30
0.0
40
1.500000063431
100
AcDbArc
50
45.001007080078
51
90.000000000000
0
ARC
5
8df
100
AcDbEntity
8
0-0
6
CONTINUOUS
62
3
100
AcDbCircle
10
204.510000000000
20
379.750000000000
30
0.0
40
1.500000063431
100
AcDbArc
50
225.001007080078
51
270.000000000000
0
ARC
5
8e0
100
AcDbEntity
8
0-0
6
CONTINUOUS
62
3
100
AcDbCircle
10
253.600000000000
20
113.060000000000
30
0.0
40
0.999999973880
100
AcDbArc
50
90.000000000000
51
134.998992919922
0
ARC
5
8e1
100
AcDbEntity
8
0-0
6
CONTINUOUS
62
3
100
AcDbCircle
10
251.560000000000
20
114.560000000000
30
0.0
40
0.999999973880
100
AcDbArc
50
270.000000000000
51
314.998992919922
0
ARC
5
8e2
100
AcDbEntity
8
0-0
6
CONTINUOUS
62
3
100
AcDbCircle
10
253.600000000000
20
113.060000000000
30
0.0
40
1.500000063431
100
AcDbArc
50
90.000000000000
51
134.998992919922
0
ARC
5
8e3
100
AcDbEntity
8
0-0
6
CONTINUOUS
62
3
100
AcDbCircle
10
251.560000000000
20
114.560000000000
30
0.0
40
1.500000063431
100
AcDbArc
50
270.000000000000
51
314.998992919922
0
ARC
5
8e4
100
AcDbEntity
8
0-0
6
CONTINUOUS
62
3
100
AcDbCircle
10
202.350000000000
20
113.060000000000
30
0.0
40
0.999999973880
100
AcDbArc
50
45.001007080078
51
90.000000000000
0
ARC
5
8e5
100
AcDbEntity
8
0-0
6
CONTINUOUS
62
3
100
AcDbCircle
10
204.390000000000
20
114.560000000000
30
0.0
40
0.999999973880
100
AcDbArc
50
225.001007080078
51
270.000000000000
0
ARC
5
8e6
100
AcDbEntity
8
0-0
6
CONTINUOUS
62
3
100
AcDbCircle
10
202.350000000000
20
113.060000000000
30
0.0
40
1.500000063431
100
AcDbArc
50
45.001007080078
51
90.000000000000
0
ARC
5
8e7
100
AcDbEntity
8
0-0
6
CONTINUOUS
62
3
100
AcDbCircle
10
204.390000000000
20
114.560000000000
30
0.0
40
1.500000063431
100
AcDbArc
50
225.001007080078
51
270.000000000000
0
CIRCLE
5
8e8
100
AcDbEntity
8
0-0
6
CONTINUOUS
62
3
100
AcDbCircle
10
39.860000000000
20
623.180000000000
30
0.0
40
5.656899535249
0
CIRCLE
5
8e9
100
AcDbEntity
8
0-0
6
CONTINUOUS
62
3
100
AcDbCircle
10
39.860000000000
20
623.180000000000
30
0.0
40
6.456900006885
0
CIRCLE
5
8ea
100
AcDbEntity
8
0-0
6
CONTINUOUS
62
4
100
AcDbCircle
10
39.860000000000
20
623.180000000000
30
0.0
40
5.736899910767
0
CIRCLE
5
8eb
100
AcDbEntity
8
0-0
6
CONTINUOUS
62
4
100
AcDbCircle
10
39.860000000000
20
623.180000000000
30
0.0
40
5.896899567288
0
CIRCLE
5
8ec
100
AcDbEntity
8
0-0
6
CONTINUOUS
62
4
100
AcDbCircle
10
39.860000000000
20
623.180000000000
30
0.0
40
6.056900318325
0
CIRCLE
5
8ed
100
AcDbEntity
8
0-0
6
CONTINUOUS
62
4
100
AcDbCircle
10
39.860000000000
20
623.180000000000
30
0.0
40
6.216899974846
0
CIRCLE
5
8ee
100
AcDbEntity
8
0-0
6
CONTINUOUS
62
4
100
AcDbCircle
10
39.860000000000
20
623.180000000000
30
0.0
40
6.376899631366
0
ARC
5
8ef
100
AcDbEntity
8
0-0
6
CONTINUOUS
62
3
100
AcDbCircle
10
285.580000000000
20
728.640000000000
30
0.0
40
0.999999973880
100
AcDbArc
50
180.000000000000
51
270.000000000000
0
ARC
5
8f0
100
AcDbEntity
8
0-0
6
CONTINUOUS
62
3
100
AcDbCircle
10
285.580000000000
20
728.640000000000
30
0.0
40
1.500000063431
100
AcDbArc
50
180.000000000000
51
270.000000000000
0
ARC
5
8f1
100
AcDbEntity
8
0-0
6
CONTINUOUS
62
3
100
AcDbCircle
10
98.820000000000
20
801.260000000000
30
0.0
40
0.999999973880
100
AcDbArc
50
90.000000000000
51
180.000000000000
0
ARC
5
8f2
100
AcDbEntity
8
0-0
6
CONTINUOUS
62
3
100
AcDbCircle
10
98.820000000000
20
801.260000000000
30
0.0
40
1.500000063431
100
AcDbArc
50
90.000000000000
51
180.000000000000
0
ARC
5
8f3
100
AcDbEntity
8
0-0
6
CONTINUOUS
62
3
100
AcDbCircle
10
283.080000000000
20
801.140000000000
30
0.0
40
0.999999973880
100
AcDbArc
50
360.000000000000
51
450.000000000000
0
ARC
5
8f4
100
AcDbEntity
8
0-0
6
CONTINUOUS
62
3
100
AcDbCircle
10
283.080000000000
20
801.140000000000
30
0.0
40
1.500000063431
100
AcDbArc
50
360.000000000000
51
450.000000000000
0
ARC
5
8f5
100
AcDbEntity
8
0-0
6
CONTINUOUS
62
3
100
AcDbCircle
10
170.820000000000
20
801.260000000000
30
0.0
40
0.999999973880
100
AcDbArc
50
360.000000000000
51
450.000000000000
0
ARC
5
8f6
100
AcDbEntity
8
0-0
6
CONTINUOUS
62
3
100
AcDbCircle
10
170.820000000000
20
801.260000000000
30
0.0
40
1.500000063431
100
AcDbArc
50
360.000000000000
51
450.000000000000
0
ARC
5
8f7
100
AcDbEntity
8
0-0
6
CONTINUOUS
62
3
100
AcDbCircle
10
163.940000000000
20
790.760000000000
30
0.0
40
1.500000063431
100
AcDbArc
50
90.000000000000
51
270.000000000000
0
ARC
5
8f8
100
AcDbEntity
8
0-0
6
CONTINUOUS
62
3
100
AcDbCircle
10
163.940000000000
20
790.760000000000
30
0.0
40
1.999999947760
100
AcDbArc
50
90.000000000000
51
270.000000000000
0
ARC
5
8f9
100
AcDbEntity
8
0-0
6
CONTINUOUS
62
3
100
AcDbCircle
10
177.320000000000
20
789.180000000000
30
0.0
40
0.499999986940
100
AcDbArc
50
68.194900512695
51
111.805099487305
0
ARC
5
8fa
100
AcDbEntity
8
0-0
6
CONTINUOUS
62
3
100
AcDbCircle
10
177.320000000000
20
789.180000000000
30
0.0
40
0.999999973880
100
AcDbArc
50
68.194900512695
51
111.805099487305
0
ARC
5
8fb
100
AcDbEntity
8
0-0
6
CONTINUOUS
62
3
100
AcDbCircle
10
169.750000000000
20
794.640000000000
30
0.0
40
1.500000063431
100
AcDbArc
50
284.482406616211
51
341.618011474609
0
ARC
5
8fc
100
AcDbEntity
8
0-0
6
CONTINUOUS
62
3
100
AcDbCircle
10
169.750000000000
20
794.640000000000
30
0.0
40
0.999999973880
100
AcDbArc
50
285.828018188477
51
339.546127319336
0
ARC
5
8fd
100
AcDbEntity
8
0-0
6
CONTINUOUS
62
3
100
AcDbCircle
10
107.320000000000
20
726.760000000000
30
0.0
40
0.999999973880
100
AcDbArc
50
360.000000000000
51
450.000000000000
0
ARC
5
8fe
100
AcDbEntity
8
0-0
6
CONTINUOUS
62
3
100
AcDbCircle
10
107.320000000000
20
726.760000000000
30
0.0
40
1.500000063431
100
AcDbArc
50
360.000000000000
51
450.000000000000
0
ARC
5
8ff
100
AcDbEntity
8
0-0
6
CONTINUOUS
62
3
100
AcDbCircle
10
98.820000000000
20
729.260000000000
30
0.0
40
0.999999973880
100
AcDbArc
50
180.000000000000
51
270.000000000000
0
ARC
5
900
100
AcDbEntity
8
0-0
6
CONTINUOUS
62
3
100
AcDbCircle
10
98.820000000000
20
729.260000000000
30
0.0
40
1.500000063431
100
AcDbArc
50
180.000000000000
51
270.000000000000
0
ARC
5
901
100
AcDbEntity
8
0-0
6
CONTINUOUS
62
3
100
AcDbCircle
10
107.320000000000
20
726.760000000000
30
0.0
40
0.999999973880
100
AcDbArc
50
360.000000000000
51
450.000000000000
0
ARC
5
902
100
AcDbEntity
8
0-0
6
CONTINUOUS
62
3
100
AcDbCircle
10
107.320000000000
20
726.760000000000
30
0.0
40
1.500000063431
100
AcDbArc
50
360.000000000000
51
450.000000000000
0
ARC
5
903
100
AcDbEntity
8
0-0
6
CONTINUOUS
62
3
100
AcDbCircle
10
274.580000000000
20
803.640000000000
30
0.0
40
0.999999973880
100
AcDbArc
50
180.000000000000
51
270.000000000000
0
ARC
5
904
100
AcDbEntity
8
0-0
6
CONTINUOUS
62
3
100
AcDbCircle
10
274.580000000000
20
803.640000000000
30
0.0
40
1.500000063431
100
AcDbArc
50
180.000000000000
51
270.000000000000
0
ARC
5
905
100
AcDbEntity
8
0-0
6
CONTINUOUS
62
3
100
AcDbCircle
10
283.080000000000
20
801.140000000000
30
0.0
40
0.999999973880
100
AcDbArc
50
360.000000000000
51
450.000000000000
0
ARC
5
906
100
AcDbEntity
8
0-0
6
CONTINUOUS
62
3
100
AcDbCircle
10
283.080000000000
20
801.140000000000
30
0.0
40
1.500000063431
100
AcDbArc
50
360.000000000000
51
450.000000000000
0
ARC
5
907
100
AcDbEntity
8
0-0
6
CONTINUOUS
62
3
100
AcDbCircle
10
274.580000000000
20
803.640000000000
30
0.0
40
0.999999973880
100
AcDbArc
50
180.000000000000
51
270.000000000000
0
ARC
5
908
100
AcDbEntity
8
0-0
6
CONTINUOUS
62
3
100
AcDbCircle
10
274.580000000000
20
803.640000000000
30
0.0
40
1.500000063431
100
AcDbArc
50
180.000000000000
51
270.000000000000
0
ARC
5
909
100
AcDbEntity
8
0-0
6
CONTINUOUS
62
3
100
AcDbCircle
10
358.080000000000
20
726.140000000000
30
0.0
40
0.999999973880
100
AcDbArc
50
360.000000000000
51
450.000000000000
0
ARC
5
90a
100
AcDbEntity
8
0-0
6
CONTINUOUS
62
3
100
AcDbCircle
10
358.080000000000
20
726.140000000000
30
0.0
40
1.500000063431
100
AcDbArc
50
360.000000000000
51
450.000000000000
0
ARC
5
90b
100
AcDbEntity
8
0-0
6
CONTINUOUS
62
3
100
AcDbCircle
10
351.200000000000
20
715.640000000000
30
0.0
40
1.500000063431
100
AcDbArc
50
90.000000000000
51
270.000000000000
0
ARC
5
90c
100
AcDbEntity
8
0-0
6
CONTINUOUS
62
3
100
AcDbCircle
10
351.200000000000
20
715.640000000000
30
0.0
40
1.999999947760
100
AcDbArc
50
90.000000000000
51
270.000000000000
0
ARC
5
90d
100
AcDbEntity
8
0-0
6
CONTINUOUS
62
3
100
AcDbCircle
10
364.580000000000
20
714.070000000000
30
0.0
40
0.499999986940
100
AcDbArc
50
68.194900512695
51
111.805099487305
0
ARC
5
90e
100
AcDbEntity
8
0-0
6
CONTINUOUS
62
3
100
AcDbCircle
10
364.580000000000
20
714.070000000000
30
0.0
40
0.999999973880
100
AcDbArc
50
68.194900512695
51
111.805099487305
0
ARC
5
90f
100
AcDbEntity
8
0-0
6
CONTINUOUS
62
3
100
AcDbCircle
10
357.010000000000
20
719.520000000000
30
0.0
40
1.500000063431
100
AcDbArc
50
284.482406616211
51
341.618011474609
0
ARC
5
910
100
AcDbEntity
8
0-0
6
CONTINUOUS
62
3
100
AcDbCircle
10
357.010000000000
20
719.520000000000
30
0.0
40
0.999999973880
100
AcDbArc
50
285.828018188477
51
339.546127319336
0
ARC
5
911
100
AcDbEntity
8
0-0
6
CONTINUOUS
62
3
100
AcDbCircle
10
662.830000000000
20
729.140000000000
30
0.0
40
0.999999973880
100
AcDbArc
50
180.000000000000
51
270.000000000000
0
ARC
5
912
100
AcDbEntity
8
0-0
6
CONTINUOUS
62
3
100
AcDbCircle
10
662.830000000000
20
729.140000000000
30
0.0
40
1.500000063431
100
AcDbArc
50
180.000000000000
51
270.000000000000
0
ARC
5
913
100
AcDbEntity
8
0-0
6
CONTINUOUS
62
3
100
AcDbCircle
10
466.080000000000
20
801.260000000000
30
0.0
40
0.999999973880
100
AcDbArc
50
90.000000000000
51
180.000000000000
0
ARC
5
914
100
AcDbEntity
8
0-0
6
CONTINUOUS
62
3
100
AcDbCircle
10
466.080000000000
20
801.260000000000
30
0.0
40
1.500000063431
100
AcDbArc
50
90.000000000000
51
180.000000000000
0
ARC
5
915
100
AcDbEntity
8
0-0
6
CONTINUOUS
62
3
100
AcDbCircle
10
474.580000000000
20
726.640000000000
30
0.0
40
0.999999973880
100
AcDbArc
50
360.000000000000
51
450.000000000000
0
ARC
5
916
100
AcDbEntity
8
0-0
6
CONTINUOUS
62
3
100
AcDbCircle
10
474.580000000000
20
726.640000000000
30
0.0
40
1.500000063431
100
AcDbArc
50
360.000000000000
51
450.000000000000
0
ARC
5
917
100
AcDbEntity
8
0-0
6
CONTINUOUS
62
3
100
AcDbCircle
10
466.080000000000
20
729.140000000000
30
0.0
40
0.999999973880
100
AcDbArc
50
180.000000000000
51
270.000000000000
0
ARC
5
918
100
AcDbEntity
8
0-0
6
CONTINUOUS
62
3
100
AcDbCircle
10
466.080000000000
20
729.140000000000
30
0.0
40
1.500000063431
100
AcDbArc
50
180.000000000000
51
270.000000000000
0
ARC
5
919
100
AcDbEntity
8
0-0
6
CONTINUOUS
62
3
100
AcDbCircle
10
474.580000000000
20
726.640000000000
30
0.0
40
0.999999973880
100
AcDbArc
50
360.000000000000
51
450.000000000000
0
ARC
5
91a
100
AcDbEntity
8
0-0
6
CONTINUOUS
62
3
100
AcDbCircle
10
474.580000000000
20
726.640000000000
30
0.0
40
1.500000063431
100
AcDbArc
50
360.000000000000
51
450.000000000000
0
ARC
5
91b
100
AcDbEntity
8
0-0
6
CONTINUOUS
62
3
100
AcDbCircle
10
538.080000000000
20
801.260000000000
30
0.0
40
0.999999973880
100
AcDbArc
50
360.000000000000
51
450.000000000000
0
ARC
5
91c
100
AcDbEntity
8
0-0
6
CONTINUOUS
62
3
100
AcDbCircle
10
538.080000000000
20
801.260000000000
30
0.0
40
1.500000063431
100
AcDbArc
50
360.000000000000
51
450.000000000000
0
ARC
5
91d
100
AcDbEntity
8
0-0
6
CONTINUOUS
62
3
100
AcDbCircle
10
531.200000000000
20
790.760000000000
30
0.0
40
1.500000063431
100
AcDbArc
50
90.000000000000
51
270.000000000000
0
ARC
5
91e
100
AcDbEntity
8
0-0
6
CONTINUOUS
62
3
100
AcDbCircle
10
531.200000000000
20
790.760000000000
30
0.0
40
1.999999947760
100
AcDbArc
50
90.000000000000
51
270.000000000000
0
ARC
5
91f
100
AcDbEntity
8
0-0
6
CONTINUOUS
62
3
100
AcDbCircle
10
544.580000000000
20
789.180000000000
30
0.0
40
0.499999986940
100
AcDbArc
50
68.194900512695
51
111.805099487305
0
ARC
5
920
100
AcDbEntity
8
0-0
6
CONTINUOUS
62
3
100
AcDbCircle
10
544.580000000000
20
789.180000000000
30
0.0
40
0.999999973880
100
AcDbArc
50
68.194900512695
51
111.805099487305
0
ARC
5
921
100
AcDbEntity
8
0-0
6
CONTINUOUS
62
3
100
AcDbCircle
10
537.010000000000
20
794.640000000000
30
0.0
40
1.500000063431
100
AcDbArc
50
284.482406616211
51
341.618011474609
0
ARC
5
922
100
AcDbEntity
8
0-0
6
CONTINUOUS
62
3
100
AcDbCircle
10
537.010000000000
20
794.640000000000
30
0.0
40
0.999999973880
100
AcDbArc
50
285.828018188477
51
339.546127319336
0
ARC
5
923
100
AcDbEntity
8
0-0
6
CONTINUOUS
62
3
100
AcDbCircle
10
735.330000000000
20
726.640000000000
30
0.0
40
0.999999973880
100
AcDbArc
50
360.000000000000
51
450.000000000000
0
ARC
5
924
100
AcDbEntity
8
0-0
6
CONTINUOUS
62
3
100
AcDbCircle
10
735.330000000000
20
726.640000000000
30
0.0
40
1.500000063431
100
AcDbArc
50
360.000000000000
51
450.000000000000
0
ARC
5
925
100
AcDbEntity
8
0-0
6
CONTINUOUS
62
3
100
AcDbCircle
10
728.460000000000
20
716.140000000000
30
0.0
40
1.500000063431
100
AcDbArc
50
90.000000000000
51
270.000000000000
0
ARC
5
926
100
AcDbEntity
8
0-0
6
CONTINUOUS
62
3
100
AcDbCircle
10
728.460000000000
20
716.140000000000
30
0.0
40
1.999999947760
100
AcDbArc
50
90.000000000000
51
270.000000000000
0
ARC
5
927
100
AcDbEntity
8
0-0
6
CONTINUOUS
62
3
100
AcDbCircle
10
741.840000000000
20
714.570000000000
30
0.0
40
0.499999986940
100
AcDbArc
50
68.194900512695
51
111.805099487305
0
ARC
5
928
100
AcDbEntity
8
0-0
6
CONTINUOUS
62
3
100
AcDbCircle
10
741.840000000000
20
714.570000000000
30
0.0
40
0.999999973880
100
AcDbArc
50
68.194900512695
51
111.805099487305
0
ARC
5
929
100
AcDbEntity
8
0-0
6
CONTINUOUS
62
3
100
AcDbCircle
10
734.270000000000
20
720.020000000000
30
0.0
40
1.500000063431
100
AcDbArc
50
284.482406616211
51
341.618011474609
0
ARC
5
92a
100
AcDbEntity
8
0-0
6
CONTINUOUS
62
3
100
AcDbCircle
10
734.270000000000
20
720.020000000000
30
0.0
40
0.999999973880
100
AcDbArc
50
285.828018188477
51
339.546127319336
0
ARC
5
92b
100
AcDbEntity
8
0-0
6
CONTINUOUS
62
3
100
AcDbCircle
10
651.830000000000
20
803.640000000000
30
0.0
40
0.999999973880
100
AcDbArc
50
180.000000000000
51
270.000000000000
0
ARC
5
92c
100
AcDbEntity
8
0-0
6
CONTINUOUS
62
3
100
AcDbCircle
10
651.830000000000
20
803.640000000000
30
0.0
40
1.500000063431
100
AcDbArc
50
180.000000000000
51
270.000000000000
0
ARC
5
92d
100
AcDbEntity
8
0-0
6
CONTINUOUS
62
3
100
AcDbCircle
10
660.330000000000
20
801.140000000000
30
0.0
40
0.999999973880
100
AcDbArc
50
360.000000000000
51
450.000000000000
0
ARC
5
92e
100
AcDbEntity
8
0-0
6
CONTINUOUS
62
3
100
AcDbCircle
10
660.330000000000
20
801.140000000000
30
0.0
40
1.500000063431
100
AcDbArc
50
360.000000000000
51
450.000000000000
0
ARC
5
92f
100
AcDbEntity
8
0-0
6
CONTINUOUS
62
3
100
AcDbCircle
10
651.830000000000
20
803.640000000000
30
0.0
40
0.999999973880
100
AcDbArc
50
180.000000000000
51
270.000000000000
0
ARC
5
930
100
AcDbEntity
8
0-0
6
CONTINUOUS
62
3
100
AcDbCircle
10
651.830000000000
20
803.640000000000
30
0.0
40
1.500000063431
100
AcDbArc
50
180.000000000000
51
270.000000000000
0
ARC
5
931
100
AcDbEntity
8
0-0
6
CONTINUOUS
62
3
100
AcDbCircle
10
152.100000000000
20
470.780000000000
30
0.0
40
0.999999973880
100
AcDbArc
50
270.000000000000
51
360.000000000000
0
ARC
5
932
100
AcDbEntity
8
0-0
6
CONTINUOUS
62
3
100
AcDbCircle
10
152.100000000000
20
470.780000000000
30
0.0
40
1.500000063431
100
AcDbArc
50
270.000000000000
51
360.000000000000
0
ARC
5
933
100
AcDbEntity
8
0-0
6
CONTINUOUS
62
3
100
AcDbCircle
10
154.600000000000
20
479.280000000000
30
0.0
40
0.999999973880
100
AcDbArc
50
90.000000000000
51
180.000000000000
0
ARC
5
934
100
AcDbEntity
8
0-0
6
CONTINUOUS
62
3
100
AcDbCircle
10
154.600000000000
20
479.280000000000
30
0.0
40
1.500000063431
100
AcDbArc
50
90.000000000000
51
180.000000000000
0
ARC
5
935
100
AcDbEntity
8
0-0
6
CONTINUOUS
62
3
100
AcDbCircle
10
152.100000000000
20
470.780000000000
30
0.0
40
0.999999973880
100
AcDbArc
50
270.000000000000
51
360.000000000000
0
ARC
5
936
100
AcDbEntity
8
0-0
6
CONTINUOUS
62
3
100
AcDbCircle
10
152.100000000000
20
470.780000000000
30
0.0
40
1.500000063431
100
AcDbArc
50
270.000000000000
51
360.000000000000
0
ARC
5
937
100
AcDbEntity
8
0-0
6
CONTINUOUS
62
3
100
AcDbCircle
10
301.600000000000
20
479.280000000000
30
0.0
40
0.999999973880
100
AcDbArc
50
360.000000000000
51
450.000000000000
0
ARC
5
938
100
AcDbEntity
8
0-0
6
CONTINUOUS
62
3
100
AcDbCircle
10
301.600000000000
20
479.280000000000
30
0.0
40
1.500000063431
100
AcDbArc
50
360.000000000000
51
450.000000000000
0
ARC
5
939
100
AcDbEntity
8
0-0
6
CONTINUOUS
62
3
100
AcDbCircle
10
294.730000000000
20
468.780000000000
30
0.0
40
1.500000063431
100
AcDbArc
50
90.000000000000
51
270.000000000000
0
ARC
5
93a
100
AcDbEntity
8
0-0
6
CONTINUOUS
62
3
100
AcDbCircle
10
294.730000000000
20
468.780000000000
30
0.0
40
1.999999947760
100
AcDbArc
50
90.000000000000
51
270.000000000000
0
ARC
5
93b
100
AcDbEntity
8
0-0
6
CONTINUOUS
62
3
100
AcDbCircle
10
308.100000000000
20
467.210000000000
30
0.0
40
0.499999986940
100
AcDbArc
50
68.194900512695
51
111.805099487305
0
ARC
5
93c
100
AcDbEntity
8
0-0
6
CONTINUOUS
62
3
100
AcDbCircle
10
308.100000000000
20
467.210000000000
30
0.0
40
0.999999973880
100
AcDbArc
50
68.194900512695
51
111.805099487305
0
ARC
5
93d
100
AcDbEntity
8
0-0
6
CONTINUOUS
62
3
100
AcDbCircle
10
300.540000000000
20
472.660000000000
30
0.0
40
1.500000063431
100
AcDbArc
50
284.482406616211
51
341.618011474609
0
ARC
5
93e
100
AcDbEntity
8
0-0
6
CONTINUOUS
62
3
100
AcDbCircle
10
300.540000000000
20
472.660000000000
30
0.0
40
0.999999973880
100
AcDbArc
50
285.828018188477
51
339.546127319336
0
ARC
5
93f
100
AcDbEntity
8
0-0
6
CONTINUOUS
62
3
100
AcDbCircle
10
152.100000000000
20
369.750000000000
30
0.0
40
0.999999973880
100
AcDbArc
50
270.000000000000
51
360.000000000000
0
ARC
5
940
100
AcDbEntity
8
0-0
6
CONTINUOUS
62
3
100
AcDbCircle
10
152.100000000000
20
369.750000000000
30
0.0
40
1.500000063431
100
AcDbArc
50
270.000000000000
51
360.000000000000
0
ARC
5
941
100
AcDbEntity
8
0-0
6
CONTINUOUS
62
3
100
AcDbCircle
10
154.600000000000
20
378.250000000000
30
0.0
40
0.999999973880
100
AcDbArc
50
90.000000000000
51
180.000000000000
0
ARC
5
942
100
AcDbEntity
8
0-0
6
CONTINUOUS
62
3
100
AcDbCircle
10
154.600000000000
20
378.250000000000
30
0.0
40
1.500000063431
100
AcDbArc
50
90.000000000000
51
180.000000000000
0
ARC
5
943
100
AcDbEntity
8
0-0
6
CONTINUOUS
62
3
100
AcDbCircle
10
152.100000000000
20
369.750000000000
30
0.0
40
0.999999973880
100
AcDbArc
50
270.000000000000
51
360.000000000000
0
ARC
5
944
100
AcDbEntity
8
0-0
6
CONTINUOUS
62
3
100
AcDbCircle
10
152.100000000000
20
369.750000000000
30
0.0
40
1.500000063431
100
AcDbArc
50
270.000000000000
51
360.000000000000
0
ARC
5
945
100
AcDbEntity
8
0-0
6
CONTINUOUS
62
3
100
AcDbCircle
10
301.600000000000
20
378.250000000000
30
0.0
40
0.999999973880
100
AcDbArc
50
360.000000000000
51
450.000000000000
0
ARC
5
946
100
AcDbEntity
8
0-0
6
CONTINUOUS
62
3
100
AcDbCircle
10
301.600000000000
20
378.250000000000
30
0.0
40
1.500000063431
100
AcDbArc
50
360.000000000000
51
450.000000000000
0
ARC
5
947
100
AcDbEntity
8
0-0
6
CONTINUOUS
62
3
100
AcDbCircle
10
294.730000000000
20
367.750000000000
30
0.0
40
1.500000063431
100
AcDbArc
50
90.000000000000
51
270.000000000000
0
ARC
5
948
100
AcDbEntity
8
0-0
6
CONTINUOUS
62
3
100
AcDbCircle
10
294.730000000000
20
367.750000000000
30
0.0
40
1.999999947760
100
AcDbArc
50
90.000000000000
51
270.000000000000
0
ARC
5
949
100
AcDbEntity
8
0-0
6
CONTINUOUS
62
3
100
AcDbCircle
10
308.100000000000
20
366.170000000000
30
0.0
40
0.499999986940
100
AcDbArc
50
68.194900512695
51
111.805099487305
0
ARC
5
94a
100
AcDbEntity
8
0-0
6
CONTINUOUS
62
3
100
AcDbCircle
10
308.100000000000
20
366.170000000000
30
0.0
40
0.999999973880
100
AcDbArc
50
68.194900512695
51
111.805099487305
0
ARC
5
94b
100
AcDbEntity
8
0-0
6
CONTINUOUS
62
3
100
AcDbCircle
10
300.540000000000
20
371.620000000000
30
0.0
40
1.500000063431
100
AcDbArc
50
284.482406616211
51
341.618011474609
0
ARC
5
94c
100
AcDbEntity
8
0-0
6
CONTINUOUS
62
3
100
AcDbCircle
10
300.540000000000
20
371.620000000000
30
0.0
40
0.999999973880
100
AcDbArc
50
285.828018188477
51
339.546127319336
0
ARC
5
94d
100
AcDbEntity
8
0-0
6
CONTINUOUS
62
3
100
AcDbCircle
10
426.730000000000
20
479.280000000000
30
0.0
40
0.999999973880
100
AcDbArc
50
90.000000000000
51
180.000000000000
0
ARC
5
94e
100
AcDbEntity
8
0-0
6
CONTINUOUS
62
3
100
AcDbCircle
10
426.730000000000
20
479.280000000000
30
0.0
40
0.999999973880
100
AcDbArc
50
90.000000000000
51
180.000000000000
0
ARC
5
94f
100
AcDbEntity
8
0-0
6
CONTINUOUS
62
3
100
AcDbCircle
10
426.730000000000
20
479.280000000000
30
0.0
40
1.500000063431
100
AcDbArc
50
90.000000000000
51
180.000000000000
0
ARC
5
950
100
AcDbEntity
8
0-0
6
CONTINUOUS
62
3
100
AcDbCircle
10
424.230000000000
20
470.780000000000
30
0.0
40
0.999999973880
100
AcDbArc
50
270.000000000000
51
360.000000000000
0
ARC
5
951
100
AcDbEntity
8
0-0
6
CONTINUOUS
62
3
100
AcDbCircle
10
424.230000000000
20
470.780000000000
30
0.0
40
1.500000063431
100
AcDbArc
50
270.000000000000
51
360.000000000000
0
ARC
5
952
100
AcDbEntity
8
0-0
6
CONTINUOUS
62
3
100
AcDbCircle
10
412.980000000000
20
479.280000000000
30
0.0
40
0.999999973880
100
AcDbArc
50
360.000000000000
51
450.000000000000
0
ARC
5
953
100
AcDbEntity
8
0-0
6
CONTINUOUS
62
3
100
AcDbCircle
10
412.980000000000
20
479.280000000000
30
0.0
40
1.500000063431
100
AcDbArc
50
360.000000000000
51
450.000000000000
0
ARC
5
954
100
AcDbEntity
8
0-0
6
CONTINUOUS
62
3
100
AcDbCircle
10
406.100000000000
20
468.780000000000
30
0.0
40
1.500000063431
100
AcDbArc
50
90.000000000000
51
270.000000000000
0
ARC
5
955
100
AcDbEntity
8
0-0
6
CONTINUOUS
62
3
100
AcDbCircle
10
406.100000000000
20
468.780000000000
30
0.0
40
1.999999947760
100
AcDbArc
50
90.000000000000
51
270.000000000000
0
ARC
5
956
100
AcDbEntity
8
0-0
6
CONTINUOUS
62
3
100
AcDbCircle
10
418.480000000000
20
467.210000000000
30
0.0
40
0.499999986940
100
AcDbArc
50
68.194900512695
51
111.805099487305
0
ARC
5
957
100
AcDbEntity
8
0-0
6
CONTINUOUS
62
3
100
AcDbCircle
10
418.480000000000
20
467.210000000000
30
0.0
40
0.999999973880
100
AcDbArc
50
68.194900512695
51
111.805099487305
0
ARC
5
958
100
AcDbEntity
8
0-0
6
CONTINUOUS
62
3
100
AcDbCircle
10
411.910000000000
20
472.660000000000
30
0.0
40
1.500000063431
100
AcDbArc
50
284.482406616211
51
341.618011474609
0
ARC
5
959
100
AcDbEntity
8
0-0
6
CONTINUOUS
62
3
100
AcDbCircle
10
411.910000000000
20
472.660000000000
30
0.0
40
0.999999973880
100
AcDbArc
50
285.828018188477
51
339.546127319336
0
ARC
5
95a
100
AcDbEntity
8
0-0
6
CONTINUOUS
62
3
100
AcDbCircle
10
587.480000000000
20
479.280000000000
30
0.0
40
0.999999973880
100
AcDbArc
50
90.000000000000
51
180.000000000000
0
ARC
5
95b
100
AcDbEntity
8
0-0
6
CONTINUOUS
62
3
100
AcDbCircle
10
587.480000000000
20
479.280000000000
30
0.0
40
0.999999973880
100
AcDbArc
50
90.000000000000
51
180.000000000000
0
ARC
5
95c
100
AcDbEntity
8
0-0
6
CONTINUOUS
62
3
100
AcDbCircle
10
587.480000000000
20
479.280000000000
30
0.0
40
1.500000063431
100
AcDbArc
50
90.000000000000
51
180.000000000000
0
ARC
5
95d
100
AcDbEntity
8
0-0
6
CONTINUOUS
62
3
100
AcDbCircle
10
584.980000000000
20
470.780000000000
30
0.0
40
0.999999973880
100
AcDbArc
50
270.000000000000
51
360.000000000000
0
ARC
5
95e
100
AcDbEntity
8
0-0
6
CONTINUOUS
62
3
100
AcDbCircle
10
584.980000000000
20
470.780000000000
30
0.0
40
1.500000063431
100
AcDbArc
50
270.000000000000
51
360.000000000000
0
ARC
5
95f
100
AcDbEntity
8
0-0
6
CONTINUOUS
62
3
100
AcDbCircle
10
573.730000000000
20
479.280000000000
30
0.0
40
0.999999973880
100
AcDbArc
50
360.000000000000
51
450.000000000000
0
ARC
5
960
100
AcDbEntity
8
0-0
6
CONTINUOUS
62
3
100
AcDbCircle
10
573.730000000000
20
479.280000000000
30
0.0
40
1.500000063431
100
AcDbArc
50
360.000000000000
51
450.000000000000
0
ARC
5
961
100
AcDbEntity
8
0-0
6
CONTINUOUS
62
3
100
AcDbCircle
10
566.850000000000
20
468.780000000000
30
0.0
40
1.500000063431
100
AcDbArc
50
90.000000000000
51
270.000000000000
0
ARC
5
962
100
AcDbEntity
8
0-0
6
CONTINUOUS
62
3
100
AcDbCircle
10
566.850000000000
20
468.780000000000
30
0.0
40
1.999999947760
100
AcDbArc
50
90.000000000000
51
270.000000000000
0
ARC
5
963
100
AcDbEntity
8
0-0
6
CONTINUOUS
62
3
100
AcDbCircle
10
579.230000000000
20
467.210000000000
30
0.0
40
0.499999986940
100
AcDbArc
50
68.194900512695
51
111.805099487305
0
ARC
5
964
100
AcDbEntity
8
0-0
6
CONTINUOUS
62
3
100
AcDbCircle
10
579.230000000000
20
467.210000000000
30
0.0
40
0.999999973880
100
AcDbArc
50
68.194900512695
51
111.805099487305
0
ARC
5
965
100
AcDbEntity
8
0-0
6
CONTINUOUS
62
3
100
AcDbCircle
10
572.660000000000
20
472.660000000000
30
0.0
40
1.500000063431
100
AcDbArc
50
284.482406616211
51
341.618011474609
0
ARC
5
966
100
AcDbEntity
8
0-0
6
CONTINUOUS
62
3
100
AcDbCircle
10
572.660000000000
20
472.660000000000
30
0.0
40
0.999999973880
100
AcDbArc
50
285.828018188477
51
339.546127319336
0
ARC
5
967
100
AcDbEntity
8
0-0
6
CONTINUOUS
62
3
100
AcDbCircle
10
426.730000000000
20
378.250000000000
30
0.0
40
0.999999973880
100
AcDbArc
50
90.000000000000
51
180.000000000000
0
ARC
5
968
100
AcDbEntity
8
0-0
6
CONTINUOUS
62
3
100
AcDbCircle
10
426.730000000000
20
378.250000000000
30
0.0
40
0.999999973880
100
AcDbArc
50
90.000000000000
51
180.000000000000
0
ARC
5
969
100
AcDbEntity
8
0-0
6
CONTINUOUS
62
3
100
AcDbCircle
10
426.730000000000
20
378.250000000000
30
0.0
40
1.500000063431
100
AcDbArc
50
90.000000000000
51
180.000000000000
0
ARC
5
96a
100
AcDbEntity
8
0-0
6
CONTINUOUS
62
3
100
AcDbCircle
10
424.230000000000
20
369.750000000000
30
0.0
40
0.999999973880
100
AcDbArc
50
270.000000000000
51
360.000000000000
0
ARC
5
96b
100
AcDbEntity
8
0-0
6
CONTINUOUS
62
3
100
AcDbCircle
10
424.230000000000
20
369.750000000000
30
0.0
40
1.500000063431
100
AcDbArc
50
270.000000000000
51
360.000000000000
0
ARC
5
96c
100
AcDbEntity
8
0-0
6
CONTINUOUS
62
3
100
AcDbCircle
10
412.980000000000
20
378.250000000000
30
0.0
40
0.999999973880
100
AcDbArc
50
360.000000000000
51
450.000000000000
0
ARC
5
96d
100
AcDbEntity
8
0-0
6
CONTINUOUS
62
3
100
AcDbCircle
10
412.980000000000
20
378.250000000000
30
0.0
40
1.500000063431
100
AcDbArc
50
360.000000000000
51
450.000000000000
0
ARC
5
96e
100
AcDbEntity
8
0-0
6
CONTINUOUS
62
3
100
AcDbCircle
10
406.100000000000
20
367.750000000000
30
0.0
40
1.500000063431
100
AcDbArc
50
90.000000000000
51
270.000000000000
0
ARC
5
96f
100
AcDbEntity
8
0-0
6
CONTINUOUS
62
3
100
AcDbCircle
10
406.100000000000
20
367.750000000000
30
0.0
40
1.999999947760
100
AcDbArc
50
90.000000000000
51
270.000000000000
0
ARC
5
970
100
AcDbEntity
8
0-0
6
CONTINUOUS
62
3
100
AcDbCircle
10
418.480000000000
20
366.170000000000
30
0.0
40
0.499999986940
100
AcDbArc
50
68.194900512695
51
111.805099487305
0
ARC
5
971
100
AcDbEntity
8
0-0
6
CONTINUOUS
62
3
100
AcDbCircle
10
418.480000000000
20
366.170000000000
30
0.0
40
0.999999973880
100
AcDbArc
50
68.194900512695
51
111.805099487305
0
ARC
5
972
100
AcDbEntity
8
0-0
6
CONTINUOUS
62
3
100
AcDbCircle
10
411.910000000000
20
371.620000000000
30
0.0
40
1.500000063431
100
AcDbArc
50
284.482406616211
51
341.618011474609
0
ARC
5
973
100
AcDbEntity
8
0-0
6
CONTINUOUS
62
3
100
AcDbCircle
10
411.910000000000
20
371.620000000000
30
0.0
40
0.999999973880
100
AcDbArc
50
285.828018188477
51
339.546127319336
0
ARC
5
974
100
AcDbEntity
8
0-0
6
CONTINUOUS
62
3
100
AcDbCircle
10
587.480000000000
20
378.250000000000
30
0.0
40
0.999999973880
100
AcDbArc
50
90.000000000000
51
180.000000000000
0
ARC
5
975
100
AcDbEntity
8
0-0
6
CONTINUOUS
62
3
100
AcDbCircle
10
587.480000000000
20
378.250000000000
30
0.0
40
0.999999973880
100
AcDbArc
50
90.000000000000
51
180.000000000000
0
ARC
5
976
100
AcDbEntity
8
0-0
6
CONTINUOUS
62
3
100
AcDbCircle
10
587.480000000000
20
378.250000000000
30
0.0
40
1.500000063431
100
AcDbArc
50
90.000000000000
51
180.000000000000
0
ARC
5
977
100
AcDbEntity
8
0-0
6
CONTINUOUS
62
3
100
AcDbCircle
10
584.980000000000
20
369.750000000000
30
0.0
40
0.999999973880
100
AcDbArc
50
270.000000000000
51
360.000000000000
0
ARC
5
978
100
AcDbEntity
8
0-0
6
CONTINUOUS
62
3
100
AcDbCircle
10
584.980000000000
20
369.750000000000
30
0.0
40
1.500000063431
100
AcDbArc
50
270.000000000000
51
360.000000000000
0
ARC
5
979
100
AcDbEntity
8
0-0
6
CONTINUOUS
62
3
100
AcDbCircle
10
573.730000000000
20
378.250000000000
30
0.0
40
0.999999973880
100
AcDbArc
50
360.000000000000
51
450.000000000000
0
ARC
5
97a
100
AcDbEntity
8
0-0
6
CONTINUOUS
62
3
100
AcDbCircle
10
573.730000000000
20
378.250000000000
30
0.0
40
1.500000063431
100
AcDbArc
50
360.000000000000
51
450.000000000000
0
ARC
5
97b
100
AcDbEntity
8
0-0
6
CONTINUOUS
62
3
100
AcDbCircle
10
566.850000000000
20
367.750000000000
30
0.0
40
1.500000063431
100
AcDbArc
50
90.000000000000
51
270.000000000000
0
ARC
5
97c
100
AcDbEntity
8
0-0
6
CONTINUOUS
62
3
100
AcDbCircle
10
566.850000000000
20
367.750000000000
30
0.0
40
1.999999947760
100
AcDbArc
50
90.000000000000
51
270.000000000000
0
ARC
5
97d
100
AcDbEntity
8
0-0
6
CONTINUOUS
62
3
100
AcDbCircle
10
579.230000000000
20
366.170000000000
30
0.0
40
0.499999986940
100
AcDbArc
50
68.194900512695
51
111.805099487305
0
ARC
5
97e
100
AcDbEntity
8
0-0
6
CONTINUOUS
62
3
100
AcDbCircle
10
579.230000000000
20
366.170000000000
30
0.0
40
0.999999973880
100
AcDbArc
50
68.194900512695
51
111.805099487305
0
ARC
5
97f
100
AcDbEntity
8
0-0
6
CONTINUOUS
62
3
100
AcDbCircle
10
572.660000000000
20
371.620000000000
30
0.0
40
1.500000063431
100
AcDbArc
50
284.482406616211
51
341.618011474609
0
ARC
5
980
100
AcDbEntity
8
0-0
6
CONTINUOUS
62
3
100
AcDbCircle
10
572.660000000000
20
371.620000000000
30
0.0
40
0.999999973880
100
AcDbArc
50
285.828018188477
51
339.546127319336
0
ARC
5
981
100
AcDbEntity
8
0-0
6
CONTINUOUS
62
3
100
AcDbCircle
10
152.230000000000
20
205.600000000000
30
0.0
40
0.999999973880
100
AcDbArc
50
270.000000000000
51
360.000000000000
0
ARC
5
982
100
AcDbEntity
8
0-0
6
CONTINUOUS
62
3
100
AcDbCircle
10
152.230000000000
20
205.600000000000
30
0.0
40
1.500000063431
100
AcDbArc
50
270.000000000000
51
360.000000000000
0
ARC
5
983
100
AcDbEntity
8
0-0
6
CONTINUOUS
62
3
100
AcDbCircle
10
154.730000000000
20
214.100000000000
30
0.0
40
0.999999973880
100
AcDbArc
50
90.000000000000
51
180.000000000000
0
ARC
5
984
100
AcDbEntity
8
0-0
6
CONTINUOUS
62
3
100
AcDbCircle
10
154.730000000000
20
214.100000000000
30
0.0
40
1.500000063431
100
AcDbArc
50
90.000000000000
51
180.000000000000
0
ARC
5
985
100
AcDbEntity
8
0-0
6
CONTINUOUS
62
3
100
AcDbCircle
10
152.230000000000
20
205.600000000000
30
0.0
40
0.999999973880
100
AcDbArc
50
270.000000000000
51
360.000000000000
0
ARC
5
986
100
AcDbEntity
8
0-0
6
CONTINUOUS
62
3
100
AcDbCircle
10
152.230000000000
20
205.600000000000
30
0.0
40
1.500000063431
100
AcDbArc
50
270.000000000000
51
360.000000000000
0
ARC
5
987
100
AcDbEntity
8
0-0
6
CONTINUOUS
62
3
100
AcDbCircle
10
301.600000000000
20
214.100000000000
30
0.0
40
0.999999973880
100
AcDbArc
50
360.000000000000
51
450.000000000000
0
ARC
5
988
100
AcDbEntity
8
0-0
6
CONTINUOUS
62
3
100
AcDbCircle
10
301.600000000000
20
214.100000000000
30
0.0
40
1.500000063431
100
AcDbArc
50
360.000000000000
51
450.000000000000
0
ARC
5
989
100
AcDbEntity
8
0-0
6
CONTINUOUS
62
3
100
AcDbCircle
10
294.730000000000
20
203.600000000000
30
0.0
40
1.500000063431
100
AcDbArc
50
90.000000000000
51
270.000000000000
0
ARC
5
98a
100
AcDbEntity
8
0-0
6
CONTINUOUS
62
3
100
AcDbCircle
10
294.730000000000
20
203.600000000000
30
0.0
40
1.999999947760
100
AcDbArc
50
90.000000000000
51
270.000000000000
0
ARC
5
98b
100
AcDbEntity
8
0-0
6
CONTINUOUS
62
3
100
AcDbCircle
10
308.100000000000
20
202.020000000000
30
0.0
40
0.499999986940
100
AcDbArc
50
68.194900512695
51
111.805099487305
0
ARC
5
98c
100
AcDbEntity
8
0-0
6
CONTINUOUS
62
3
100
AcDbCircle
10
308.100000000000
20
202.020000000000
30
0.0
40
0.999999973880
100
AcDbArc
50
68.194900512695
51
111.805099487305
0
ARC
5
98d
100
AcDbEntity
8
0-0
6
CONTINUOUS
62
3
100
AcDbCircle
10
300.540000000000
20
207.470000000000
30
0.0
40
1.500000063431
100
AcDbArc
50
284.482406616211
51
341.618011474609
0
ARC
5
98e
100
AcDbEntity
8
0-0
6
CONTINUOUS
62
3
100
AcDbCircle
10
300.540000000000
20
207.470000000000
30
0.0
40
0.999999973880
100
AcDbArc
50
285.828018188477
51
339.546127319336
0
ARC
5
98f
100
AcDbEntity
8
0-0
6
CONTINUOUS
62
3
100
AcDbCircle
10
426.850000000000
20
214.100000000000
30
0.0
40
0.999999973880
100
AcDbArc
50
90.000000000000
51
180.000000000000
0
ARC
5
990
100
AcDbEntity
8
0-0
6
CONTINUOUS
62
3
100
AcDbCircle
10
426.850000000000
20
214.100000000000
30
0.0
40
0.999999973880
100
AcDbArc
50
90.000000000000
51
180.000000000000
0
ARC
5
991
100
AcDbEntity
8
0-0
6
CONTINUOUS
62
3
100
AcDbCircle
10
426.850000000000
20
214.100000000000
30
0.0
40
1.500000063431
100
AcDbArc
50
90.000000000000
51
180.000000000000
0
ARC
5
992
100
AcDbEntity
8
0-0
6
CONTINUOUS
62
3
100
AcDbCircle
10
424.350000000000
20
205.600000000000
30
0.0
40
0.999999973880
100
AcDbArc
50
270.000000000000
51
360.000000000000
0
ARC
5
993
100
AcDbEntity
8
0-0
6
CONTINUOUS
62
3
100
AcDbCircle
10
424.350000000000
20
205.600000000000
30
0.0
40
1.500000063431
100
AcDbArc
50
270.000000000000
51
360.000000000000
0
ARC
5
994
100
AcDbEntity
8
0-0
6
CONTINUOUS
62
3
100
AcDbCircle
10
423.600000000000
20
214.100000000000
30
0.0
40
0.999999973880
100
AcDbArc
50
360.000000000000
51
450.000000000000
0
ARC
5
995
100
AcDbEntity
8
0-0
6
CONTINUOUS
62
3
100
AcDbCircle
10
423.600000000000
20
214.100000000000
30
0.0
40
1.500000063431
100
AcDbArc
50
360.000000000000
51
450.000000000000
0
ARC
5
996
100
AcDbEntity
8
0-0
6
CONTINUOUS
62
3
100
AcDbCircle
10
416.730000000000
20
203.600000000000
30
0.0
40
1.500000063431
100
AcDbArc
50
90.000000000000
51
270.000000000000
0
ARC
5
997
100
AcDbEntity
8
0-0
6
CONTINUOUS
62
3
100
AcDbCircle
10
416.730000000000
20
203.600000000000
30
0.0
40
1.999999947760
100
AcDbArc
50
90.000000000000
51
270.000000000000
0
ARC
5
998
100
AcDbEntity
8
0-0
6
CONTINUOUS
62
3
100
AcDbCircle
10
429.100000000000
20
202.020000000000
30
0.0
40
0.499999986940
100
AcDbArc
50
68.194900512695
51
111.805099487305
0
ARC
5
999
100
AcDbEntity
8
0-0
6
CONTINUOUS
62
3
100
AcDbCircle
10
429.100000000000
20
202.020000000000
30
0.0
40
0.999999973880
100
AcDbArc
50
68.194900512695
51
111.805099487305
0
ARC
5
99a
100
AcDbEntity
8
0-0
6
CONTINUOUS
62
3
100
AcDbCircle
10
422.540000000000
20
207.470000000000
30
0.0
40
1.500000063431
100
AcDbArc
50
284.482406616211
51
341.618011474609
0
ARC
5
99b
100
AcDbEntity
8
0-0
6
CONTINUOUS
62
3
100
AcDbCircle
10
422.540000000000
20
207.470000000000
30
0.0
40
0.999999973880
100
AcDbArc
50
285.828018188477
51
339.546127319336
0
ARC
5
99c
100
AcDbEntity
8
0-0
6
CONTINUOUS
62
3
100
AcDbCircle
10
576.850000000000
20
214.100000000000
30
0.0
40
0.999999973880
100
AcDbArc
50
90.000000000000
51
180.000000000000
0
ARC
5
99d
100
AcDbEntity
8
0-0
6
CONTINUOUS
62
3
100
AcDbCircle
10
576.850000000000
20
214.100000000000
30
0.0
40
0.999999973880
100
AcDbArc
50
90.000000000000
51
180.000000000000
0
ARC
5
99e
100
AcDbEntity
8
0-0
6
CONTINUOUS
62
3
100
AcDbCircle
10
576.850000000000
20
214.100000000000
30
0.0
40
1.500000063431
100
AcDbArc
50
90.000000000000
51
180.000000000000
0
ARC
5
99f
100
AcDbEntity
8
0-0
6
CONTINUOUS
62
3
100
AcDbCircle
10
574.350000000000
20
205.600000000000
30
0.0
40
0.999999973880
100
AcDbArc
50
270.000000000000
51
360.000000000000
0
ARC
5
9a0
100
AcDbEntity
8
0-0
6
CONTINUOUS
62
3
100
AcDbCircle
10
574.350000000000
20
205.600000000000
30
0.0
40
1.500000063431
100
AcDbArc
50
270.000000000000
51
360.000000000000
0
ARC
5
9a1
100
AcDbEntity
8
0-0
6
CONTINUOUS
62
3
100
AcDbCircle
10
573.600000000000
20
214.100000000000
30
0.0
40
0.999999973880
100
AcDbArc
50
360.000000000000
51
450.000000000000
0
ARC
5
9a2
100
AcDbEntity
8
0-0
6
CONTINUOUS
62
3
100
AcDbCircle
10
573.600000000000
20
214.100000000000
30
0.0
40
1.500000063431
100
AcDbArc
50
360.000000000000
51
450.000000000000
0
ARC
5
9a3
100
AcDbEntity
8
0-0
6
CONTINUOUS
62
3
100
AcDbCircle
10
566.730000000000
20
203.600000000000
30
0.0
40
1.500000063431
100
AcDbArc
50
90.000000000000
51
270.000000000000
0
ARC
5
9a4
100
AcDbEntity
8
0-0
6
CONTINUOUS
62
3
100
AcDbCircle
10
566.730000000000
20
203.600000000000
30
0.0
40
1.999999947760
100
AcDbArc
50
90.000000000000
51
270.000000000000
0
ARC
5
9a5
100
AcDbEntity
8
0-0
6
CONTINUOUS
62
3
100
AcDbCircle
10
579.100000000000
20
202.020000000000
30
0.0
40
0.499999986940
100
AcDbArc
50
68.194900512695
51
111.805099487305
0
ARC
5
9a6
100
AcDbEntity
8
0-0
6
CONTINUOUS
62
3
100
AcDbCircle
10
579.100000000000
20
202.020000000000
30
0.0
40
0.999999973880
100
AcDbArc
50
68.194900512695
51
111.805099487305
0
ARC
5
9a7
100
AcDbEntity
8
0-0
6
CONTINUOUS
62
3
100
AcDbCircle
10
572.540000000000
20
207.470000000000
30
0.0
40
1.500000063431
100
AcDbArc
50
284.482406616211
51
341.618011474609
0
ARC
5
9a8
100
AcDbEntity
8
0-0
6
CONTINUOUS
62
3
100
AcDbCircle
10
572.540000000000
20
207.470000000000
30
0.0
40
0.999999973880
100
AcDbArc
50
285.828018188477
51
339.546127319336
0
ARC
5
9a9
100
AcDbEntity
8
0-0
6
CONTINUOUS
62
3
100
AcDbCircle
10
152.230000000000
20
104.560000000000
30
0.0
40
0.999999973880
100
AcDbArc
50
270.000000000000
51
360.000000000000
0
ARC
5
9aa
100
AcDbEntity
8
0-0
6
CONTINUOUS
62
3
100
AcDbCircle
10
152.230000000000
20
104.560000000000
30
0.0
40
1.500000063431
100
AcDbArc
50
270.000000000000
51
360.000000000000
0
ARC
5
9ab
100
AcDbEntity
8
0-0
6
CONTINUOUS
62
3
100
AcDbCircle
10
154.730000000000
20
113.060000000000
30
0.0
40
0.999999973880
100
AcDbArc
50
90.000000000000
51
180.000000000000
0
ARC
5
9ac
100
AcDbEntity
8
0-0
6
CONTINUOUS
62
3
100
AcDbCircle
10
154.730000000000
20
113.060000000000
30
0.0
40
1.500000063431
100
AcDbArc
50
90.000000000000
51
180.000000000000
0
ARC
5
9ad
100
AcDbEntity
8
0-0
6
CONTINUOUS
62
3
100
AcDbCircle
10
152.230000000000
20
104.560000000000
30
0.0
40
0.999999973880
100
AcDbArc
50
270.000000000000
51
360.000000000000
0
ARC
5
9ae
100
AcDbEntity
8
0-0
6
CONTINUOUS
62
3
100
AcDbCircle
10
152.230000000000
20
104.560000000000
30
0.0
40
1.500000063431
100
AcDbArc
50
270.000000000000
51
360.000000000000
0
ARC
5
9af
100
AcDbEntity
8
0-0
6
CONTINUOUS
62
3
100
AcDbCircle
10
301.600000000000
20
113.060000000000
30
0.0
40
0.999999973880
100
AcDbArc
50
360.000000000000
51
450.000000000000
0
ARC
5
9b0
100
AcDbEntity
8
0-0
6
CONTINUOUS
62
3
100
AcDbCircle
10
301.600000000000
20
113.060000000000
30
0.0
40
1.500000063431
100
AcDbArc
50
360.000000000000
51
450.000000000000
0
ARC
5
9b1
100
AcDbEntity
8
0-0
6
CONTINUOUS
62
3
100
AcDbCircle
10
294.730000000000
20
102.560000000000
30
0.0
40
1.500000063431
100
AcDbArc
50
90.000000000000
51
270.000000000000
0
ARC
5
9b2
100
AcDbEntity
8
0-0
6
CONTINUOUS
62
3
100
AcDbCircle
10
294.730000000000
20
102.560000000000
30
0.0
40
1.999999947760
100
AcDbArc
50
90.000000000000
51
270.000000000000
0
ARC
5
9b3
100
AcDbEntity
8
0-0
6
CONTINUOUS
62
3
100
AcDbCircle
10
308.100000000000
20
100.980000000000
30
0.0
40
0.499999986940
100
AcDbArc
50
68.194900512695
51
111.805099487305
0
ARC
5
9b4
100
AcDbEntity
8
0-0
6
CONTINUOUS
62
3
100
AcDbCircle
10
308.100000000000
20
100.980000000000
30
0.0
40
0.999999973880
100
AcDbArc
50
68.194900512695
51
111.805099487305
0
ARC
5
9b5
100
AcDbEntity
8
0-0
6
CONTINUOUS
62
3
100
AcDbCircle
10
300.540000000000
20
106.430000000000
30
0.0
40
1.500000063431
100
AcDbArc
50
284.482406616211
51
341.618011474609
0
ARC
5
9b6
100
AcDbEntity
8
0-0
6
CONTINUOUS
62
3
100
AcDbCircle
10
300.540000000000
20
106.430000000000
30
0.0
40
0.999999973880
100
AcDbArc
50
285.828018188477
51
339.546127319336
0
ARC
5
9b7
100
AcDbEntity
8
0-0
6
CONTINUOUS
62
3
100
AcDbCircle
10
426.850000000000
20
113.060000000000
30
0.0
40
0.999999973880
100
AcDbArc
50
90.000000000000
51
180.000000000000
0
ARC
5
9b8
100
AcDbEntity
8
0-0
6
CONTINUOUS
62
3
100
AcDbCircle
10
426.850000000000
20
113.060000000000
30
0.0
40
0.999999973880
100
AcDbArc
50
90.000000000000
51
180.000000000000
0
ARC
5
9b9
100
AcDbEntity
8
0-0
6
CONTINUOUS
62
3
100
AcDbCircle
10
426.850000000000
20
113.060000000000
30
0.0
40
1.500000063431
100
AcDbArc
50
90.000000000000
51
180.000000000000
0
ARC
5
9ba
100
AcDbEntity
8
0-0
6
CONTINUOUS
62
3
100
AcDbCircle
10
424.350000000000
20
104.560000000000
30
0.0
40
0.999999973880
100
AcDbArc
50
270.000000000000
51
360.000000000000
0
ARC
5
9bb
100
AcDbEntity
8
0-0
6
CONTINUOUS
62
3
100
AcDbCircle
10
424.350000000000
20
104.560000000000
30
0.0
40
1.500000063431
100
AcDbArc
50
270.000000000000
51
360.000000000000
0
ARC
5
9bc
100
AcDbEntity
8
0-0
6
CONTINUOUS
62
3
100
AcDbCircle
10
423.600000000000
20
113.060000000000
30
0.0
40
0.999999973880
100
AcDbArc
50
360.000000000000
51
450.000000000000
0
ARC
5
9bd
100
AcDbEntity
8
0-0
6
CONTINUOUS
62
3
100
AcDbCircle
10
423.600000000000
20
113.060000000000
30
0.0
40
1.500000063431
100
AcDbArc
50
360.000000000000
51
450.000000000000
0
ARC
5
9be
100
AcDbEntity
8
0-0
6
CONTINUOUS
62
3
100
AcDbCircle
10
416.730000000000
20
102.560000000000
30
0.0
40
1.500000063431
100
AcDbArc
50
90.000000000000
51
270.000000000000
0
ARC
5
9bf
100
AcDbEntity
8
0-0
6
CONTINUOUS
62
3
100
AcDbCircle
10
416.730000000000
20
102.560000000000
30
0.0
40
1.999999947760
100
AcDbArc
50
90.000000000000
51
270.000000000000
0
ARC
5
9c0
100
AcDbEntity
8
0-0
6
CONTINUOUS
62
3
100
AcDbCircle
10
429.100000000000
20
100.980000000000
30
0.0
40
0.499999986940
100
AcDbArc
50
68.194900512695
51
111.805099487305
0
ARC
5
9c1
100
AcDbEntity
8
0-0
6
CONTINUOUS
62
3
100
AcDbCircle
10
429.100000000000
20
100.980000000000
30
0.0
40
0.999999973880
100
AcDbArc
50
68.194900512695
51
111.805099487305
0
ARC
5
9c2
100
AcDbEntity
8
0-0
6
CONTINUOUS
62
3
100
AcDbCircle
10
422.540000000000
20
106.430000000000
30
0.0
40
1.500000063431
100
AcDbArc
50
284.482406616211
51
341.618011474609
0
ARC
5
9c3
100
AcDbEntity
8
0-0
6
CONTINUOUS
62
3
100
AcDbCircle
10
422.540000000000
20
106.430000000000
30
0.0
40
0.999999973880
100
AcDbArc
50
285.828018188477
51
339.546127319336
0
ARC
5
9c4
100
AcDbEntity
8
0-0
6
CONTINUOUS
62
3
100
AcDbCircle
10
576.850000000000
20
113.060000000000
30
0.0
40
0.999999973880
100
AcDbArc
50
90.000000000000
51
180.000000000000
0
ARC
5
9c5
100
AcDbEntity
8
0-0
6
CONTINUOUS
62
3
100
AcDbCircle
10
576.850000000000
20
113.060000000000
30
0.0
40
0.999999973880
100
AcDbArc
50
90.000000000000
51
180.000000000000
0
ARC
5
9c6
100
AcDbEntity
8
0-0
6
CONTINUOUS
62
3
100
AcDbCircle
10
576.850000000000
20
113.060000000000
30
0.0
40
1.500000063431
100
AcDbArc
50
90.000000000000
51
180.000000000000
0
ARC
5
9c7
100
AcDbEntity
8
0-0
6
CONTINUOUS
62
3
100
AcDbCircle
10
574.350000000000
20
104.560000000000
30
0.0
40
0.999999973880
100
AcDbArc
50
270.000000000000
51
360.000000000000
0
ARC
5
9c8
100
AcDbEntity
8
0-0
6
CONTINUOUS
62
3
100
AcDbCircle
10
574.350000000000
20
104.560000000000
30
0.0
40
1.500000063431
100
AcDbArc
50
270.000000000000
51
360.000000000000
0
ARC
5
9c9
100
AcDbEntity
8
0-0
6
CONTINUOUS
62
3
100
AcDbCircle
10
573.600000000000
20
113.060000000000
30
0.0
40
0.999999973880
100
AcDbArc
50
360.000000000000
51
450.000000000000
0
ARC
5
9ca
100
AcDbEntity
8
0-0
6
CONTINUOUS
62
3
100
AcDbCircle
10
573.600000000000
20
113.060000000000
30
0.0
40
1.500000063431
100
AcDbArc
50
360.000000000000
51
450.000000000000
0
ARC
5
9cb
100
AcDbEntity
8
0-0
6
CONTINUOUS
62
3
100
AcDbCircle
10
566.730000000000
20
102.560000000000
30
0.0
40
1.500000063431
100
AcDbArc
50
90.000000000000
51
270.000000000000
0
ARC
5
9cc
100
AcDbEntity
8
0-0
6
CONTINUOUS
62
3
100
AcDbCircle
10
566.730000000000
20
102.560000000000
30
0.0
40
1.999999947760
100
AcDbArc
50
90.000000000000
51
270.000000000000
0
ARC
5
9cd
100
AcDbEntity
8
0-0
6
CONTINUOUS
62
3
100
AcDbCircle
10
579.100000000000
20
100.980000000000
30
0.0
40
0.499999986940
100
AcDbArc
50
68.194900512695
51
111.805099487305
0
ARC
5
9ce
100
AcDbEntity
8
0-0
6
CONTINUOUS
62
3
100
AcDbCircle
10
579.100000000000
20
100.980000000000
30
0.0
40
0.999999973880
100
AcDbArc
50
68.194900512695
51
111.805099487305
0
ARC
5
9cf
100
AcDbEntity
8
0-0
6
CONTINUOUS
62
3
100
AcDbCircle
10
572.540000000000
20
106.430000000000
30
0.0
40
1.500000063431
100
AcDbArc
50
284.482406616211
51
341.618011474609
0
ARC
5
9d0
100
AcDbEntity
8
0-0
6
CONTINUOUS
62
3
100
AcDbCircle
10
572.540000000000
20
106.430000000000
30
0.0
40
0.999999973880
100
AcDbArc
50
285.828018188477
51
339.546127319336
0
ARC
5
9d1
100
AcDbEntity
8
0-0
6
CONTINUOUS
62
3
100
AcDbCircle
10
121.080000000000
20
1047.110000000000
30
0.0
40
0.499999986940
100
AcDbArc
50
90.000000000000
51
180.000000000000
0
ARC
5
9d2
100
AcDbEntity
8
0-0
6
CONTINUOUS
62
3
100
AcDbCircle
10
121.080000000000
20
1047.110000000000
30
0.0
40
0.499999986940
100
AcDbArc
50
90.000000000000
51
180.000000000000
0
ARC
5
9d3
100
AcDbEntity
8
0-0
6
CONTINUOUS
62
3
100
AcDbCircle
10
139.080000000000
20
1026.110000000000
30
0.0
40
0.499999986940
100
AcDbArc
50
270.000000000000
51
360.000000000000
0
ARC
5
9d4
100
AcDbEntity
8
0-0
6
CONTINUOUS
62
3
100
AcDbCircle
10
121.080000000000
20
1026.110000000000
30
0.0
40
0.499999986940
100
AcDbArc
50
180.000000000000
51
270.000000000000
0
ARC
5
9d5
100
AcDbEntity
8
0-0
6
CONTINUOUS
62
3
100
AcDbCircle
10
139.080000000000
20
1026.110000000000
30
0.0
40
0.999999973880
100
AcDbArc
50
270.000000000000
51
360.000000000000
0
ARC
5
9d6
100
AcDbEntity
8
0-0
6
CONTINUOUS
62
3
100
AcDbCircle
10
121.080000000000
20
1047.110000000000
30
0.0
40
0.999999973880
100
AcDbArc
50
90.000000000000
51
180.000000000000
0
ARC
5
9d7
100
AcDbEntity
8
0-0
6
CONTINUOUS
62
3
100
AcDbCircle
10
139.080000000000
20
1033.110000000000
30
0.0
40
0.499999986940
100
AcDbArc
50
360.000000000000
51
450.000000000000
0
ARC
5
9d8
100
AcDbEntity
8
0-0
6
CONTINUOUS
62
3
100
AcDbCircle
10
139.080000000000
20
1033.110000000000
30
0.0
40
0.999999973880
100
AcDbArc
50
360.000000000000
51
450.000000000000
0
ARC
5
9d9
100
AcDbEntity
8
0-0
6
CONTINUOUS
62
3
100
AcDbCircle
10
139.080000000000
20
1026.110000000000
30
0.0
40
0.499999986940
100
AcDbArc
50
270.000000000000
51
360.000000000000
0
ARC
5
9da
100
AcDbEntity
8
0-0
6
CONTINUOUS
62
3
100
AcDbCircle
10
121.080000000000
20
1026.110000000000
30
0.0
40
0.999999973880
100
AcDbArc
50
180.000000000000
51
270.000000000000
0
ARC
5
9db
100
AcDbEntity
8
0-0
6
CONTINUOUS
62
3
100
AcDbCircle
10
687.100000000000
20
1013.650000000000
30
0.0
40
0.499999986940
100
AcDbArc
50
180.000000000000
51
270.000000000000
0
ARC
5
9dc
100
AcDbEntity
8
0-0
6
CONTINUOUS
62
3
100
AcDbCircle
10
687.100000000000
20
1013.650000000000
30
0.0
40
0.999999973880
100
AcDbArc
50
180.000000000000
51
270.000000000000
0
ARC
5
9dd
100
AcDbEntity
8
0-0
6
CONTINUOUS
62
3
100
AcDbCircle
10
660.340000000000
20
1032.360000000000
30
0.0
40
0.749799872072
100
AcDbArc
50
90.795059204102
51
270.795059204102
0
ARC
5
9de
100
AcDbEntity
8
0-0
6
CONTINUOUS
62
3
100
AcDbCircle
10
660.330000000000
20
1032.360000000000
30
0.0
40
0.249999993470
100
AcDbArc
50
90.000000000000
51
270.000000000000
0
ARC
5
9df
100
AcDbEntity
8
0-0
6
CONTINUOUS
62
3
100
AcDbCircle
10
687.100000000000
20
1029.650000000000
30
0.0
40
0.499999986940
100
AcDbArc
50
92.141006469727
51
180.000000000000
0
ARC
5
9e0
100
AcDbEntity
8
0-0
6
CONTINUOUS
62
3
100
AcDbCircle
10
687.100000000000
20
1029.650000000000
30
0.0
40
0.999999973880
100
AcDbArc
50
92.141006469727
51
180.000000000000
0
ARC
5
9e1
100
AcDbEntity
8
0-0
6
CONTINUOUS
62
3
100
AcDbCircle
10
712.600000000000
20
1032.110000000000
30
0.0
40
0.999900030873
100
AcDbArc
50
270.535202026367
51
450.266891479492
0
ARC
5
9e2
100
AcDbEntity
8
0-0
6
CONTINUOUS
62
3
100
AcDbCircle
10
712.600000000000
20
1032.110000000000
30
0.0
40
0.499899975525
100
AcDbArc
50
270.535202026367
51
450.533859252930
0
ARC
5
9e3
100
AcDbEntity
8
0-0
6
CONTINUOUS
62
3
100
AcDbCircle
10
697.350000000000
20
1011.860000000000
30
0.0
40
0.249999993470
100
AcDbArc
50
270.000000000000
51
450.000000000000
0
ARC
5
9e4
100
AcDbEntity
8
0-0
6
CONTINUOUS
62
3
100
AcDbCircle
10
697.350000000000
20
1011.860000000000
30
0.0
40
0.750299997552
100
AcDbArc
50
270.000000000000
51
450.000000000000
0
ARC
5
9e5
100
AcDbEntity
8
0-0
6
CONTINUOUS
62
3
100
AcDbCircle
10
674.850000000000
20
1011.860000000000
30
0.0
40
0.249999993470
100
AcDbArc
50
90.000000000000
51
270.000000000000
0
ARC
5
9e6
100
AcDbEntity
8
0-0
6
CONTINUOUS
62
3
100
AcDbCircle
10
674.850000000000
20
1011.860000000000
30
0.0
40
0.750500020381
100
AcDbArc
50
89.754119873047
51
270.000000000000
0
ARC
5
9e7
100
AcDbEntity
8
0-0
6
CONTINUOUS
62
3
100
AcDbCircle
10
273.980000000000
20
1033.110000000000
30
0.0
40
0.499999986940
100
AcDbArc
50
180.000000000000
51
270.000000000000
0
ARC
5
9e8
100
AcDbEntity
8
0-0
6
CONTINUOUS
62
3
100
AcDbCircle
10
273.980000000000
20
1033.110000000000
30
0.0
40
0.999999973880
100
AcDbArc
50
180.000000000000
51
270.000000000000
0
ARC
5
9e9
100
AcDbEntity
8
0-0
6
CONTINUOUS
62
3
100
AcDbCircle
10
273.980000000000
20
1046.110000000000
30
0.0
40
0.499999986940
100
AcDbArc
50
90.000000000000
51
180.000000000000
0
ARC
5
9ea
100
AcDbEntity
8
0-0
6
CONTINUOUS
62
3
100
AcDbCircle
10
273.980000000000
20
1046.110000000000
30
0.0
40
0.999999973880
100
AcDbArc
50
90.000000000000
51
180.000000000000
0
ARC
5
9eb
100
AcDbEntity
8
0-0
6
CONTINUOUS
62
3
100
AcDbCircle
10
302.230000000000
20
1047.360000000000
30
0.0
40
0.750000031715
100
AcDbArc
50
270.000000000000
51
450.000000000000
0
ARC
5
9ec
100
AcDbEntity
8
0-0
6
CONTINUOUS
62
3
100
AcDbCircle
10
302.230000000000
20
1047.360000000000
30
0.0
40
0.249999993470
100
AcDbArc
50
270.000000000000
51
450.000000000000
0
ARC
5
9ed
100
AcDbEntity
8
0-0
6
CONTINUOUS
62
3
100
AcDbCircle
10
288.230000000000
20
1031.860000000000
30
0.0
40
0.750000031715
100
AcDbArc
50
270.000000000000
51
450.000000000000
0
ARC
5
9ee
100
AcDbEntity
8
0-0
6
CONTINUOUS
62
3
100
AcDbCircle
10
288.230000000000
20
1031.860000000000
30
0.0
40
0.249999993470
100
AcDbArc
50
270.000000000000
51
450.000000000000
0
ARC
5
9ef
100
AcDbEntity
8
0-0
6
CONTINUOUS
62
3
100
AcDbCircle
10
259.730000000000
20
1031.860000000000
30
0.0
40
0.750000031715
100
AcDbArc
50
90.000000000000
51
270.000000000000
0
ARC
5
9f0
100
AcDbEntity
8
0-0
6
CONTINUOUS
62
3
100
AcDbCircle
10
259.730000000000
20
1031.860000000000
30
0.0
40
0.249999993470
100
AcDbArc
50
90.000000000000
51
270.000000000000
0
ARC
5
9f1
100
AcDbEntity
8
0-0
6
CONTINUOUS
62
3
100
AcDbCircle
10
418.380000000000
20
986.610000000000
30
0.0
40
0.499999986940
100
AcDbArc
50
270.000000000000
51
360.000000000000
0
ARC
5
9f2
100
AcDbEntity
8
0-0
6
CONTINUOUS
62
3
100
AcDbCircle
10
418.380000000000
20
986.610000000000
30
0.0
40
0.999999973880
100
AcDbArc
50
270.000000000000
51
360.000000000000
0
ARC
5
9f3
100
AcDbEntity
8
0-0
6
CONTINUOUS
62
3
100
AcDbCircle
10
411.380000000000
20
986.610000000000
30
0.0
40
0.499999986940
100
AcDbArc
50
180.000000000000
51
270.000000000000
0
ARC
5
9f4
100
AcDbEntity
8
0-0
6
CONTINUOUS
62
3
100
AcDbCircle
10
411.380000000000
20
986.610000000000
30
0.0
40
0.999999973880
100
AcDbArc
50
180.000000000000
51
270.000000000000
0
ARC
5
9f5
100
AcDbEntity
8
0-0
6
CONTINUOUS
62
3
100
AcDbCircle
10
418.380000000000
20
986.610000000000
30
0.0
40
0.499999986940
100
AcDbArc
50
270.000000000000
51
360.000000000000
0
ARC
5
9f6
100
AcDbEntity
8
0-0
6
CONTINUOUS
62
3
100
AcDbCircle
10
551.280000000000
20
986.610000000000
30
0.0
40
0.499999986940
100
AcDbArc
50
270.000000000000
51
360.000000000000
0
ARC
5
9f7
100
AcDbEntity
8
0-0
6
CONTINUOUS
62
3
100
AcDbCircle
10
551.280000000000
20
986.610000000000
30
0.0
40
0.999999973880
100
AcDbArc
50
270.000000000000
51
360.000000000000
0
ARC
5
9f8
100
AcDbEntity
8
0-0
6
CONTINUOUS
62
3
100
AcDbCircle
10
551.280000000000
20
986.610000000000
30
0.0
40
0.499999986940
100
AcDbArc
50
270.000000000000
51
360.000000000000
0
ARC
5
9f9
100
AcDbEntity
8
0-0
6
CONTINUOUS
62
3
100
AcDbCircle
10
529.780000000000
20
1014.120000000000
30
0.0
40
0.499999986940
100
AcDbArc
50
180.000000000000
51
262.060195922852
0
ARC
5
9fa
100
AcDbEntity
8
0-0
6
CONTINUOUS
62
3
100
AcDbCircle
10
529.780000000000
20
1014.120000000000
30
0.0
40
0.999999973880
100
AcDbArc
50
180.000000000000
51
256.431945800781
0
ARC
5
9fb
100
AcDbEntity
8
0-0
6
CONTINUOUS
62
3
100
AcDbCircle
10
551.280000000000
20
1009.610000000000
30
0.0
40
0.499999986940
100
AcDbArc
50
360.000000000000
51
442.059402465820
0
ARC
5
9fc
100
AcDbEntity
8
0-0
6
CONTINUOUS
62
3
100
AcDbCircle
10
551.280000000000
20
1009.610000000000
30
0.0
40
0.999999973880
100
AcDbArc
50
360.000000000000
51
442.059402465820
0
ARC
5
9fd
100
AcDbEntity
8
0-0
6
CONTINUOUS
62
3
100
AcDbCircle
10
396.880000000000
20
1014.120000000000
30
0.0
40
0.499999986940
100
AcDbArc
50
180.000000000000
51
262.060195922852
0
ARC
5
9fe
100
AcDbEntity
8
0-0
6
CONTINUOUS
62
3
100
AcDbCircle
10
396.880000000000
20
1014.120000000000
30
0.0
40
0.999999973880
100
AcDbArc
50
180.000000000000
51
256.431945800781
0
ARC
5
9ff
100
AcDbEntity
8
0-0
6
CONTINUOUS
62
3
100
AcDbCircle
10
418.380000000000
20
1009.610000000000
30
0.0
40
0.499999986940
100
AcDbArc
50
360.000000000000
51
442.059402465820
0
ARC
5
a00
100
AcDbEntity
8
0-0
6
CONTINUOUS
62
3
100
AcDbCircle
10
418.380000000000
20
1009.610000000000
30
0.0
40
0.999999973880
100
AcDbArc
50
360.000000000000
51
442.059402465820
0
ARC
5
a01
100
AcDbEntity
8
0-0
6
CONTINUOUS
62
3
100
AcDbCircle
10
518.280000000000
20
986.610000000000
30
0.0
40
0.499999986940
100
AcDbArc
50
180.000000000000
51
270.000000000000
0
ARC
5
a02
100
AcDbEntity
8
0-0
6
CONTINUOUS
62
3
100
AcDbCircle
10
518.280000000000
20
986.610000000000
30
0.0
40
0.999999973880
100
AcDbArc
50
180.000000000000
51
270.000000000000
0
ARC
5
a03
100
AcDbEntity
8
0-0
6
CONTINUOUS
62
3
100
AcDbCircle
10
518.280000000000
20
993.610000000000
30
0.0
40
0.499999986940
100
AcDbArc
50
90.000000000000
51
180.000000000000
0
ARC
5
a04
100
AcDbEntity
8
0-0
6
CONTINUOUS
62
3
100
AcDbCircle
10
518.280000000000
20
993.610000000000
30
0.0
40
0.999999973880
100
AcDbArc
50
90.000000000000
51
180.000000000000
0
TEXT
5
a05
100
AcDbEntity
8
0-0
62
7
100
AcDbText
10
265.928
20
37.427
30
0.0
40
2.925
1
変　　　　　　更　　　　　　記　　　　　　事
41
1.167
50
0.000
100
AcDbText
0
TEXT
5
a06
100
AcDbEntity
8
0-0
62
7
100
AcDbText
10
407.795
20
37.027
30
0.0
40
2.925
1
受領　　日附
41
1.167
50
0.000
100
AcDbText
0
TEXT
5
a07
100
AcDbEntity
8
0-0
62
7
100
AcDbText
10
506.904
20
22.311
30
0.0
40
2.925
1
施工者
41
1.167
50
0.000
100
AcDbText
0
TEXT
5
a08
100
AcDbEntity
8
0-0
62
7
100
AcDbText
10
506.904
20
37.126
30
0.0
40
2.925
1
設計者
41
1.167
50
0.000
100
AcDbText
0
TEXT
5
a09
100
AcDbEntity
8
0-0
62
7
100
AcDbText
10
609.646
20
22.040
30
0.0
40
2.925
1
作図
41
1.167
50
0.000
100
AcDbText
0
TEXT
5
a0a
100
AcDbEntity
8
0-0
62
7
100
AcDbText
10
645.559
20
22.305
30
0.0
40
2.925
1
図面名
41
1.167
50
0.000
100
AcDbText
0
TEXT
5
a0b
100
AcDbEntity
8
0-0
62
7
100
AcDbText
10
609.646
20
36.854
30
0.0
40
2.925
1
日附
41
1.167
50
0.000
100
AcDbText
0
TEXT
5
a0c
100
AcDbEntity
8
0-0
62
7
100
AcDbText
10
645.559
20
37.120
30
0.0
40
2.925
1
工事件名
41
1.167
50
0.000
100
AcDbText
0
TEXT
5
a0d
100
AcDbEntity
8
0-0
62
7
100
AcDbText
10
620.714
20
36.729
30
0.0
40
2.925
1
年　月　日
41
1.167
50
0.000
100
AcDbText
0
TEXT
5
a0e
100
AcDbEntity
8
0-0
62
7
100
AcDbText
10
620.714
20
21.914
30
0.0
40
2.925
1
年　月　日
41
1.167
50
0.000
100
AcDbText
0
TEXT
5
a0f
100
AcDbEntity
8
0-0
62
7
100
AcDbText
10
771.731
20
37.120
30
0.0
40
2.925
1
設計番号
41
1.167
50
0.000
100
AcDbText
0
TEXT
5
a10
100
AcDbEntity
8
0-0
62
7
100
AcDbText
10
193.389
20
33.735
30
0.0
40
2.925
1
. 　.　 
41
1.167
50
0.000
100
AcDbText
0
TEXT
5
a11
100
AcDbEntity
8
0-0
62
7
100
AcDbText
10
193.389
20
28.797
30
0.0
40
2.925
1
. 　.　 
41
1.167
50
0.000
100
AcDbText
0
TEXT
5
a12
100
AcDbEntity
8
0-0
62
7
100
AcDbText
10
193.389
20
23.859
30
0.0
40
2.925
1
. 　.　 
41
1.167
50
0.000
100
AcDbText
0
TEXT
5
a13
100
AcDbEntity
8
0-0
62
7
100
AcDbText
10
193.389
20
18.920
30
0.0
40
2.925
1
. 　.　 
41
1.167
50
0.000
100
AcDbText
0
TEXT
5
a14
100
AcDbEntity
8
0-0
62
7
100
AcDbText
10
193.389
20
13.982
30
0.0
40
2.925
1
. 　.　 
41
1.167
50
0.000
100
AcDbText
0
TEXT
5
a15
100
AcDbEntity
8
0-0
62
3
100
AcDbText
10
517.035
20
30.588
30
0.0
40
3.900
1
　　　　　　　　　　
41
1.125
50
0.000
100
AcDbText
0
TEXT
5
a16
100
AcDbEntity
8
0-0
62
3
100
AcDbText
10
517.035
20
15.773
30
0.0
40
3.900
1
　　　　　　　　　　
41
1.125
50
0.000
100
AcDbText
0
TEXT
5
a17
100
AcDbEntity
8
0-0
62
3
100
AcDbText
10
658.767
20
31.361
30
0.0
40
3.900
1
　　　　　　　　　　　　　
41
1.125
50
0.000
100
AcDbText
0
TEXT
5
a18
100
AcDbEntity
8
0-0
62
7
100
AcDbText
10
188.903
20
37.395
30
0.0
40
2.925
1
年　月　日
41
1.167
50
0.000
100
AcDbText
0
TEXT
5
a19
100
AcDbEntity
8
0-0
62
7
100
AcDbText
10
436.381
20
36.735
30
0.0
40
2.925
1
年　　月　　日
41
1.167
50
0.000
100
AcDbText
0
TEXT
5
a1a
100
AcDbEntity
8
0-0
62
7
100
AcDbText
10
442.657
20
31.524
30
0.0
40
2.925
1
.　 　.
41
1.167
50
0.000
100
AcDbText
0
TEXT
5
a1b
100
AcDbEntity
8
0-0
62
7
100
AcDbText
10
407.795
20
22.212
30
0.0
40
2.925
1
受領　　日附
41
1.167
50
0.000
100
AcDbText
0
TEXT
5
a1c
100
AcDbEntity
8
0-0
62
7
100
AcDbText
10
436.381
20
21.920
30
0.0
40
2.925
1
年　　月　　日
41
1.167
50
0.000
100
AcDbText
0
TEXT
5
a1d
100
AcDbEntity
8
0-0
62
7
100
AcDbText
10
442.657
20
16.709
30
0.0
40
2.925
1
.　 　.
41
1.167
50
0.000
100
AcDbText
0
TEXT
5
a1e
100
AcDbEntity
8
0-0
62
7
100
AcDbText
10
624.100
20
30.667
30
0.0
40
2.925
1
.　　.　
41
1.167
50
0.000
100
AcDbText
0
TEXT
5
a1f
100
AcDbEntity
8
0-0
62
7
100
AcDbText
10
771.731
20
22.305
30
0.0
40
2.925
1
縮　尺
41
1.167
50
0.000
100
AcDbText
0
TEXT
5
a20
100
AcDbEntity
8
0-0
62
3
100
AcDbText
10
783.350
20
20.225
30
0.0
40
3.900
1
Ａ１－１／１　
41
1.125
50
0.000
100
AcDbText
0
TEXT
5
a21
100
AcDbEntity
8
0-0
62
3
100
AcDbText
10
783.350
20
12.817
30
0.0
40
3.900
1
Ａ３－１／２　
41
1.125
50
0.000
100
AcDbText
0
TEXT
5
a22
100
AcDbEntity
8
0-0
62
6
100
AcDbText
10
494.476
20
501.783
30
0.0
40
6.825
1
150
41
1.143
50
0.000
100
AcDbText
0
TEXT
5
a23
100
AcDbEntity
8
0-0
62
6
100
AcDbText
10
591.976
20
501.783
30
0.0
40
6.825
1
@150
41
1.143
50
0.000
100
AcDbText
0
TEXT
5
a24
100
AcDbEntity
8
0-0
62
6
100
AcDbText
10
395.976
20
501.783
30
0.0
40
6.825
1
@150
41
1.143
50
0.000
100
AcDbText
0
TEXT
5
a25
100
AcDbEntity
8
0-0
62
6
100
AcDbText
10
222.351
20
501.783
30
0.0
40
6.825
1
150
41
1.143
50
0.000
100
AcDbText
0
TEXT
5
a26
100
AcDbEntity
8
0-0
62
6
100
AcDbText
10
494.476
20
400.746
30
0.0
40
6.825
1
150
41
1.143
50
0.000
100
AcDbText
0
TEXT
5
a27
100
AcDbEntity
8
0-0
62
6
100
AcDbText
10
591.976
20
400.746
30
0.0
40
6.825
1
@150
41
1.143
50
0.000
100
AcDbText
0
TEXT
5
a28
100
AcDbEntity
8
0-0
62
6
100
AcDbText
10
496.476
20
356.746
30
0.0
40
6.825
1
50
41
1.143
50
0.000
100
AcDbText
0
TEXT
5
a29
100
AcDbEntity
8
0-0
62
6
100
AcDbText
10
222.351
20
236.596
30
0.0
40
6.825
1
150
41
1.143
50
0.000
100
AcDbText
0
TEXT
5
a2a
100
AcDbEntity
8
0-0
62
6
100
AcDbText
10
494.476
20
236.596
30
0.0
40
6.825
1
150
41
1.143
50
0.000
100
AcDbText
0
TEXT
5
a2b
100
AcDbEntity
8
0-0
62
6
100
AcDbText
10
400.976
20
236.596
30
0.0
40
6.825
1
@150
41
1.143
50
0.000
100
AcDbText
0
TEXT
5
a2c
100
AcDbEntity
8
0-0
62
6
100
AcDbText
10
583.976
20
236.596
30
0.0
40
6.825
1
@150
41
1.143
50
0.000
100
AcDbText
0
TEXT
5
a2d
100
AcDbEntity
8
0-0
62
6
100
AcDbText
10
494.476
20
135.559
30
0.0
40
6.825
1
150
41
1.143
50
0.000
100
AcDbText
0
TEXT
5
a2e
100
AcDbEntity
8
0-0
62
6
100
AcDbText
10
400.976
20
135.559
30
0.0
40
6.825
1
@150
41
1.143
50
0.000
100
AcDbText
0
TEXT
5
a2f
100
AcDbEntity
8
0-0
62
6
100
AcDbText
10
583.976
20
135.559
30
0.0
40
6.825
1
@150
41
1.143
50
0.000
100
AcDbText
0
TEXT
5
a30
100
AcDbEntity
8
0-0
62
6
100
AcDbText
10
496.351
20
91.559
30
0.0
40
6.825
1
50
41
1.143
50
0.000
100
AcDbText
0
TEXT
5
a31
100
AcDbEntity
8
0-0
62
3
100
AcDbText
10
83.178
20
13.785
30
0.0
40
3.900
1
電話（０５４）２６３－２２８０（代表）
41
1.125
50
0.000
100
AcDbText
0
TEXT
5
a32
100
AcDbEntity
8
0-0
62
6
100
AcDbText
10
61.073
20
29.382
30
0.0
40
7.800
1
小　池　弥　太　郎　商　店
41
1.125
50
0.000
100
AcDbText
0
TEXT
5
a33
100
AcDbEntity
8
0-0
62
3
100
AcDbText
10
83.176
20
21.201
30
0.0
40
3.900
1
静岡県静岡市葵区流通センター１６番
41
1.125
50
0.000
100
AcDbText
0
TEXT
5
a34
100
AcDbEntity
8
0-0
62
7
100
AcDbText
10
49.950
20
33.676
30
0.0
40
2.925
1
株
41
1.167
50
0.000
100
AcDbText
0
TEXT
5
a35
100
AcDbEntity
8
0-0
62
7
100
AcDbText
10
53.525
20
30.051
30
0.0
40
2.925
1
社
41
1.167
50
0.000
100
AcDbText
0
TEXT
5
a36
100
AcDbEntity
8
0-0
62
7
100
AcDbText
10
49.925
20
30.051
30
0.0
40
2.925
1
会
41
1.167
50
0.000
100
AcDbText
0
TEXT
5
a37
100
AcDbEntity
8
0-0
62
7
100
AcDbText
10
53.325
20
33.576
30
0.0
40
2.925
1
式
41
1.167
50
0.000
100
AcDbText
0
TEXT
5
a38
100
AcDbEntity
8
0-0
62
2
100
AcDbText
10
484.276
20
346.446
30
0.0
40
5.850
1
（リブ付）
41
1.167
50
0.000
100
AcDbText
0
TEXT
5
a39
100
AcDbEntity
8
0-0
62
2
100
AcDbText
10
483.900
20
453.789
30
0.0
40
5.850
1
（フラット）
41
1.167
50
0.000
100
AcDbText
0
TEXT
5
a3a
100
AcDbEntity
8
0-0
62
2
100
AcDbText
10
484.151
20
81.260
30
0.0
40
5.850
1
（リブ付）
41
1.167
50
0.000
100
AcDbText
0
TEXT
5
a3b
100
AcDbEntity
8
0-0
62
2
100
AcDbText
10
483.775
20
188.602
30
0.0
40
5.850
1
（フラット）
41
1.167
50
0.000
100
AcDbText
0
TEXT
5
a3c
100
AcDbEntity
8
0-0
62
6
100
AcDbText
10
33.829
20
539.382
30
0.0
40
7.800
1
（目地ありタイプ）
41
1.125
50
0.000
100
AcDbText
0
TEXT
5
a3d
100
AcDbEntity
8
0-0
62
2
100
AcDbText
10
212.151
20
346.446
30
0.0
40
5.850
1
（リブ付）
41
1.167
50
0.000
100
AcDbText
0
TEXT
5
a3e
100
AcDbEntity
8
0-0
62
2
100
AcDbText
10
211.775
20
453.789
30
0.0
40
5.850
1
（フラット）
41
1.167
50
0.000
100
AcDbText
0
TEXT
5
a3f
100
AcDbEntity
8
0-0
62
6
100
AcDbText
10
222.351
20
400.746
30
0.0
40
6.825
1
150
41
1.143
50
0.000
100
AcDbText
0
TEXT
5
a40
100
AcDbEntity
8
0-0
62
6
100
AcDbText
10
33.829
20
274.195
30
0.0
40
7.800
1
（目地なしタイプ）
41
1.125
50
0.000
100
AcDbText
0
TEXT
5
a41
100
AcDbEntity
8
0-0
62
6
100
AcDbText
10
33.829
20
284.195
30
0.0
40
7.800
1
スパンドレル１５０
41
1.125
50
0.000
100
AcDbText
0
TEXT
5
a42
100
AcDbEntity
8
0-0
62
6
100
AcDbText
10
222.351
20
135.559
30
0.0
40
6.825
1
150
41
1.143
50
0.000
100
AcDbText
0
TEXT
5
a43
100
AcDbEntity
8
0-0
62
2
100
AcDbText
10
212.026
20
81.260
30
0.0
40
5.850
1
（リブ付）
41
1.167
50
0.000
100
AcDbText
0
TEXT
5
a44
100
AcDbEntity
8
0-0
62
2
100
AcDbText
10
211.650
20
188.602
30
0.0
40
5.850
1
（フラット）
41
1.167
50
0.000
100
AcDbText
0
TEXT
5
a45
100
AcDbEntity
8
0-0
62
7
100
AcDbText
10
265.928
20
627.060
30
0.0
40
2.925
1
変　　　　　　更　　　　　　記　　　　　　事
41
1.167
50
0.000
100
AcDbText
0
TEXT
5
a46
100
AcDbEntity
8
0-0
62
7
100
AcDbText
10
407.795
20
626.660
30
0.0
40
2.925
1
受領　　日附
41
1.167
50
0.000
100
AcDbText
0
TEXT
5
a47
100
AcDbEntity
8
0-0
62
7
100
AcDbText
10
506.904
20
611.944
30
0.0
40
2.925
1
施工者
41
1.167
50
0.000
100
AcDbText
0
TEXT
5
a48
100
AcDbEntity
8
0-0
62
7
100
AcDbText
10
506.904
20
626.759
30
0.0
40
2.925
1
設計者
41
1.167
50
0.000
100
AcDbText
0
TEXT
5
a49
100
AcDbEntity
8
0-0
62
7
100
AcDbText
10
609.646
20
611.673
30
0.0
40
2.925
1
作図
41
1.167
50
0.000
100
AcDbText
0
TEXT
5
a4a
100
AcDbEntity
8
0-0
62
7
100
AcDbText
10
645.559
20
611.938
30
0.0
40
2.925
1
図面名
41
1.167
50
0.000
100
AcDbText
0
TEXT
5
a4b
100
AcDbEntity
8
0-0
62
7
100
AcDbText
10
609.646
20
626.488
30
0.0
40
2.925
1
日附
41
1.167
50
0.000
100
AcDbText
0
TEXT
5
a4c
100
AcDbEntity
8
0-0
62
7
100
AcDbText
10
645.559
20
626.753
30
0.0
40
2.925
1
工事件名
41
1.167
50
0.000
100
AcDbText
0
TEXT
5
a4d
100
AcDbEntity
8
0-0
62
7
100
AcDbText
10
620.714
20
626.362
30
0.0
40
2.925
1
年　月　日
41
1.167
50
0.000
100
AcDbText
0
TEXT
5
a4e
100
AcDbEntity
8
0-0
62
7
100
AcDbText
10
620.714
20
611.547
30
0.0
40
2.925
1
年　月　日
41
1.167
50
0.000
100
AcDbText
0
TEXT
5
a4f
100
AcDbEntity
8
0-0
62
7
100
AcDbText
10
771.731
20
626.753
30
0.0
40
2.925
1
設計番号
41
1.167
50
0.000
100
AcDbText
0
TEXT
5
a50
100
AcDbEntity
8
0-0
62
7
100
AcDbText
10
193.389
20
623.368
30
0.0
40
2.925
1
. 　.　 
41
1.167
50
0.000
100
AcDbText
0
TEXT
5
a51
100
AcDbEntity
8
0-0
62
7
100
AcDbText
10
193.389
20
618.430
30
0.0
40
2.925
1
. 　.　 
41
1.167
50
0.000
100
AcDbText
0
TEXT
5
a52
100
AcDbEntity
8
0-0
62
7
100
AcDbText
10
193.389
20
613.492
30
0.0
40
2.925
1
. 　.　 
41
1.167
50
0.000
100
AcDbText
0
TEXT
5
a53
100
AcDbEntity
8
0-0
62
7
100
AcDbText
10
193.389
20
608.553
30
0.0
40
2.925
1
. 　.　 
41
1.167
50
0.000
100
AcDbText
0
TEXT
5
a54
100
AcDbEntity
8
0-0
62
7
100
AcDbText
10
193.389
20
603.615
30
0.0
40
2.925
1
. 　.　 
41
1.167
50
0.000
100
AcDbText
0
TEXT
5
a55
100
AcDbEntity
8
0-0
62
3
100
AcDbText
10
517.035
20
620.221
30
0.0
40
3.900
1
　　　　　　　　　　
41
1.125
50
0.000
100
AcDbText
0
TEXT
5
a56
100
AcDbEntity
8
0-0
62
3
100
AcDbText
10
517.035
20
605.406
30
0.0
40
3.900
1
　　　　　　　　　　
41
1.125
50
0.000
100
AcDbText
0
TEXT
5
a57
100
AcDbEntity
8
0-0
62
3
100
AcDbText
10
658.767
20
620.995
30
0.0
40
3.900
1
　　　　　　　　　　　　　
41
1.125
50
0.000
100
AcDbText
0
TEXT
5
a58
100
AcDbEntity
8
0-0
62
7
100
AcDbText
10
188.903
20
627.028
30
0.0
40
2.925
1
年　月　日
41
1.167
50
0.000
100
AcDbText
0
TEXT
5
a59
100
AcDbEntity
8
0-0
62
7
100
AcDbText
10
436.381
20
626.368
30
0.0
40
2.925
1
年　　月　　日
41
1.167
50
0.000
100
AcDbText
0
TEXT
5
a5a
100
AcDbEntity
8
0-0
62
7
100
AcDbText
10
442.657
20
621.157
30
0.0
40
2.925
1
.　 　.
41
1.167
50
0.000
100
AcDbText
0
TEXT
5
a5b
100
AcDbEntity
8
0-0
62
7
100
AcDbText
10
407.795
20
611.845
30
0.0
40
2.925
1
受領　　日附
41
1.167
50
0.000
100
AcDbText
0
TEXT
5
a5c
100
AcDbEntity
8
0-0
62
7
100
AcDbText
10
436.381
20
611.553
30
0.0
40
2.925
1
年　　月　　日
41
1.167
50
0.000
100
AcDbText
0
TEXT
5
a5d
100
AcDbEntity
8
0-0
62
7
100
AcDbText
10
442.657
20
606.342
30
0.0
40
2.925
1
.　 　.
41
1.167
50
0.000
100
AcDbText
0
TEXT
5
a5e
100
AcDbEntity
8
0-0
62
7
100
AcDbText
10
624.100
20
620.300
30
0.0
40
2.925
1
.　　.　
41
1.167
50
0.000
100
AcDbText
0
TEXT
5
a5f
100
AcDbEntity
8
0-0
62
7
100
AcDbText
10
771.731
20
611.938
30
0.0
40
2.925
1
縮　尺
41
1.167
50
0.000
100
AcDbText
0
TEXT
5
a60
100
AcDbEntity
8
0-0
62
3
100
AcDbText
10
783.350
20
609.858
30
0.0
40
3.900
1
Ａ１－１／１　
41
1.125
50
0.000
100
AcDbText
0
TEXT
5
a61
100
AcDbEntity
8
0-0
62
3
100
AcDbText
10
783.350
20
602.450
30
0.0
40
3.900
1
Ａ３－１／２　
41
1.125
50
0.000
100
AcDbText
0
TEXT
5
a62
100
AcDbEntity
8
0-0
62
3
100
AcDbText
10
83.178
20
603.418
30
0.0
40
3.900
1
電話（０５４）２６３－２２８０（代表）
41
1.125
50
0.000
100
AcDbText
0
TEXT
5
a63
100
AcDbEntity
8
0-0
62
6
100
AcDbText
10
61.073
20
619.015
30
0.0
40
7.800
1
小　池　弥　太　郎　商　店
41
1.125
50
0.000
100
AcDbText
0
TEXT
5
a64
100
AcDbEntity
8
0-0
62
3
100
AcDbText
10
83.176
20
610.834
30
0.0
40
3.900
1
静岡県静岡市葵区流通センター１６番
41
1.125
50
0.000
100
AcDbText
0
TEXT
5
a65
100
AcDbEntity
8
0-0
62
7
100
AcDbText
10
49.950
20
623.309
30
0.0
40
2.925
1
株
41
1.167
50
0.000
100
AcDbText
0
TEXT
5
a66
100
AcDbEntity
8
0-0
62
7
100
AcDbText
10
53.525
20
619.684
30
0.0
40
2.925
1
社
41
1.167
50
0.000
100
AcDbText
0
TEXT
5
a67
100
AcDbEntity
8
0-0
62
7
100
AcDbText
10
49.925
20
619.684
30
0.0
40
2.925
1
会
41
1.167
50
0.000
100
AcDbText
0
TEXT
5
a68
100
AcDbEntity
8
0-0
62
7
100
AcDbText
10
53.325
20
623.209
30
0.0
40
2.925
1
式
41
1.167
50
0.000
100
AcDbText
0
TEXT
5
a69
100
AcDbEntity
8
0-0
62
6
100
AcDbText
10
93.629
20
855.337
30
0.0
40
6.825
1
Ｌ＝２０００～３０００
41
1.143
50
0.000
100
AcDbText
0
TEXT
5
a6a
100
AcDbEntity
8
0-0
62
6
100
AcDbText
10
268.887
20
855.337
30
0.0
40
6.825
1
Ｌ＝２０００～３０００
41
1.143
50
0.000
100
AcDbText
0
TEXT
5
a6b
100
AcDbEntity
8
0-0
62
6
100
AcDbText
10
646.146
20
855.837
30
0.0
40
6.825
1
Ｌ＝２０００～３０００
41
1.143
50
0.000
100
AcDbText
0
TEXT
5
a6c
100
AcDbEntity
8
0-0
62
6
100
AcDbText
10
460.887
20
855.337
30
0.0
40
6.825
1
Ｌ＝２０００～３０００
41
1.143
50
0.000
100
AcDbText
0
TEXT
5
a6d
100
AcDbEntity
8
0-0
62
3
100
AcDbText
10
658.767
20
606.180
30
0.0
40
3.900
1
スパンドレル用　役物部材図
41
1.125
50
0.000
100
AcDbText
0
TEXT
5
a6e
100
AcDbEntity
8
0-0
62
6
100
AcDbText
10
460.887
20
865.337
30
0.0
40
6.825
1
ＳＰＲ150（出隅）
41
1.143
50
0.000
100
AcDbText
0
TEXT
5
a6f
100
AcDbEntity
8
0-0
62
6
100
AcDbText
10
646.146
20
865.837
30
0.0
40
6.825
1
ＳＰＲ150（入隅）
41
1.143
50
0.000
100
AcDbText
0
TEXT
5
a70
100
AcDbEntity
8
0-0
62
6
100
AcDbText
10
275.326
20
835.308
30
0.0
40
6.825
1
12
41
1.143
50
359.999
100
AcDbText
0
TEXT
5
a71
100
AcDbEntity
8
0-0
62
6
100
AcDbText
10
249.576
20
808.953
30
0.0
40
6.825
1
20
41
1.143
50
90.000
100
AcDbText
0
TEXT
5
a72
100
AcDbEntity
8
0-0
62
6
100
AcDbText
10
72.818
20
713.953
30
0.0
40
6.825
1
20
41
1.143
50
90.000
100
AcDbText
0
TEXT
5
a73
100
AcDbEntity
8
0-0
62
6
100
AcDbText
10
215.317
20
792.012
30
0.0
40
6.825
1
14
41
1.143
50
90.000
100
AcDbText
0
TEXT
5
a74
100
AcDbEntity
8
0-0
62
6
100
AcDbText
10
151.317
20
789.012
30
0.0
40
6.825
1
4
41
1.143
50
90.000
100
AcDbText
0
TEXT
5
a75
100
AcDbEntity
8
0-0
62
6
100
AcDbText
10
163.567
20
769.262
30
0.0
40
6.825
1
10
41
1.143
50
0.000
100
AcDbText
0
TEXT
5
a76
100
AcDbEntity
8
0-0
62
6
100
AcDbText
10
173.067
20
769.262
30
0.0
40
6.825
1
5
41
1.143
50
0.000
100
AcDbText
0
TEXT
5
a77
100
AcDbEntity
8
0-0
62
6
100
AcDbText
10
180.067
20
769.262
30
0.0
40
6.825
1
13
41
1.143
50
0.000
100
AcDbText
0
TEXT
5
a78
100
AcDbEntity
8
0-0
62
6
100
AcDbText
10
172.567
20
759.262
30
0.0
40
6.825
1
28
41
1.143
50
0.000
100
AcDbText
0
TEXT
5
a79
100
AcDbEntity
8
0-0
62
6
100
AcDbText
10
99.067
20
692.097
30
0.0
40
6.825
1
12
41
1.143
50
359.999
100
AcDbText
0
TEXT
5
a7a
100
AcDbEntity
8
0-0
62
6
100
AcDbText
10
402.576
20
716.894
30
0.0
40
6.825
1
14
41
1.143
50
90.000
100
AcDbText
0
TEXT
5
a7b
100
AcDbEntity
8
0-0
62
6
100
AcDbText
10
338.576
20
713.894
30
0.0
40
6.825
1
4
41
1.143
50
90.000
100
AcDbText
0
TEXT
5
a7c
100
AcDbEntity
8
0-0
62
6
100
AcDbText
10
350.826
20
694.144
30
0.0
40
6.825
1
10
41
1.143
50
0.000
100
AcDbText
0
TEXT
5
a7d
100
AcDbEntity
8
0-0
62
6
100
AcDbText
10
360.326
20
694.144
30
0.0
40
6.825
1
5
41
1.143
50
0.000
100
AcDbText
0
TEXT
5
a7e
100
AcDbEntity
8
0-0
62
6
100
AcDbText
10
367.326
20
694.144
30
0.0
40
6.825
1
13
41
1.143
50
0.000
100
AcDbText
0
TEXT
5
a7f
100
AcDbEntity
8
0-0
62
6
100
AcDbText
10
359.826
20
684.144
30
0.0
40
6.825
1
28
41
1.143
50
0.000
100
AcDbText
0
TEXT
5
a80
100
AcDbEntity
8
0-0
62
6
100
AcDbText
10
430.576
20
718.894
30
0.0
40
6.825
1
10
41
1.143
50
90.000
100
AcDbText
0
TEXT
5
a81
100
AcDbEntity
8
0-0
62
6
100
AcDbText
10
440.576
20
718.394
30
0.0
40
6.825
1
3
41
1.143
50
90.000
100
AcDbText
0
TEXT
5
a82
100
AcDbEntity
8
0-0
62
6
100
AcDbText
10
440.576
20
723.394
30
0.0
40
6.825
1
7
41
1.143
50
90.000
100
AcDbText
0
TEXT
5
a83
100
AcDbEntity
8
0-0
62
6
100
AcDbText
10
582.576
20
792.012
30
0.0
40
6.825
1
14
41
1.143
50
90.000
100
AcDbText
0
TEXT
5
a84
100
AcDbEntity
8
0-0
62
6
100
AcDbText
10
518.576
20
789.012
30
0.0
40
6.825
1
4
41
1.143
50
90.000
100
AcDbText
0
TEXT
5
a85
100
AcDbEntity
8
0-0
62
6
100
AcDbText
10
530.826
20
769.262
30
0.0
40
6.825
1
10
41
1.143
50
0.000
100
AcDbText
0
TEXT
5
a86
100
AcDbEntity
8
0-0
62
6
100
AcDbText
10
540.326
20
769.262
30
0.0
40
6.825
1
5
41
1.143
50
0.000
100
AcDbText
0
TEXT
5
a87
100
AcDbEntity
8
0-0
62
6
100
AcDbText
10
547.326
20
769.262
30
0.0
40
6.825
1
13
41
1.143
50
0.000
100
AcDbText
0
TEXT
5
a88
100
AcDbEntity
8
0-0
62
6
100
AcDbText
10
539.826
20
759.262
30
0.0
40
6.825
1
28
41
1.143
50
0.000
100
AcDbText
0
TEXT
5
a89
100
AcDbEntity
8
0-0
62
6
100
AcDbText
10
779.835
20
717.394
30
0.0
40
6.825
1
14
41
1.143
50
90.000
100
AcDbText
0
TEXT
5
a8a
100
AcDbEntity
8
0-0
62
6
100
AcDbText
10
715.835
20
714.394
30
0.0
40
6.825
1
4
41
1.143
50
90.000
100
AcDbText
0
TEXT
5
a8b
100
AcDbEntity
8
0-0
62
6
100
AcDbText
10
728.085
20
694.644
30
0.0
40
6.825
1
10
41
1.143
50
0.000
100
AcDbText
0
TEXT
5
a8c
100
AcDbEntity
8
0-0
62
6
100
AcDbText
10
737.585
20
694.644
30
0.0
40
6.825
1
5
41
1.143
50
0.000
100
AcDbText
0
TEXT
5
a8d
100
AcDbEntity
8
0-0
62
6
100
AcDbText
10
744.585
20
694.644
30
0.0
40
6.825
1
13
41
1.143
50
0.000
100
AcDbText
0
TEXT
5
a8e
100
AcDbEntity
8
0-0
62
6
100
AcDbText
10
737.085
20
684.644
30
0.0
40
6.825
1
28
41
1.143
50
0.000
100
AcDbText
0
TEXT
5
a8f
100
AcDbEntity
8
0-0
62
6
100
AcDbText
10
617.335
20
803.894
30
0.0
40
6.825
1
10
41
1.143
50
90.000
100
AcDbText
0
TEXT
5
a90
100
AcDbEntity
8
0-0
62
6
100
AcDbText
10
627.335
20
803.394
30
0.0
40
6.825
1
7
41
1.143
50
90.000
100
AcDbText
0
TEXT
5
a91
100
AcDbEntity
8
0-0
62
6
100
AcDbText
10
627.335
20
808.394
30
0.0
40
6.825
1
3
41
1.143
50
90.000
100
AcDbText
0
TEXT
5
a92
100
AcDbEntity
8
0-0
62
6
100
AcDbText
10
466.826
20
694.526
30
0.0
40
6.825
1
12
41
1.143
50
0.000
100
AcDbText
0
TEXT
5
a93
100
AcDbEntity
8
0-0
62
6
100
AcDbText
10
652.585
20
825.808
30
0.0
40
6.825
1
12
41
1.143
50
359.999
100
AcDbText
0
TEXT
5
a94
100
AcDbEntity
8
0-0
62
6
100
AcDbText
10
73.318
20
761.512
30
0.0
40
6.825
1
75
41
1.143
50
90.000
100
AcDbText
0
TEXT
5
a95
100
AcDbEntity
8
0-0
62
6
100
AcDbText
10
131.067
20
823.262
30
0.0
40
6.825
1
75
41
1.143
50
0.000
100
AcDbText
0
TEXT
5
a96
100
AcDbEntity
8
0-0
62
6
100
AcDbText
10
250.076
20
761.394
30
0.0
40
6.825
1
75
41
1.143
50
90.000
100
AcDbText
0
TEXT
5
a97
100
AcDbEntity
8
0-0
62
6
100
AcDbText
10
318.326
20
770.644
30
0.0
40
6.825
1
75
41
1.143
50
0.000
100
AcDbText
0
TEXT
5
a98
100
AcDbEntity
8
0-0
62
6
100
AcDbText
10
440.576
20
761.394
30
0.0
40
6.825
1
75
41
1.143
50
90.000
100
AcDbText
0
TEXT
5
a99
100
AcDbEntity
8
0-0
62
6
100
AcDbText
10
498.326
20
823.262
30
0.0
40
6.825
1
75
41
1.143
50
0.000
100
AcDbText
0
TEXT
5
a9a
100
AcDbEntity
8
0-0
62
6
100
AcDbText
10
627.335
20
761.394
30
0.0
40
6.825
1
75
41
1.143
50
90.000
100
AcDbText
0
TEXT
5
a9b
100
AcDbEntity
8
0-0
62
6
100
AcDbText
10
695.585
20
748.644
30
0.0
40
6.825
1
75
41
1.143
50
0.000
100
AcDbText
0
TEXT
5
a9c
100
AcDbEntity
8
0-0
62
6
100
AcDbText
10
112.601
20
471.533
30
0.0
40
6.825
1
12
41
1.143
50
90.000
100
AcDbText
0
TEXT
5
a9d
100
AcDbEntity
8
0-0
62
6
100
AcDbText
10
132.976
20
447.283
30
0.0
40
6.825
1
3
41
1.143
50
0.000
100
AcDbText
0
TEXT
5
a9e
100
AcDbEntity
8
0-0
62
6
100
AcDbText
10
141.288
20
447.283
30
0.0
40
6.825
1
17
41
1.143
50
0.000
100
AcDbText
0
TEXT
5
a9f
100
AcDbEntity
8
0-0
62
6
100
AcDbText
10
139.538
20
437.283
30
0.0
40
6.825
1
20
41
1.143
50
0.000
100
AcDbText
0
TEXT
5
aa0
100
AcDbEntity
8
0-0
62
6
100
AcDbText
10
346.101
20
470.033
30
0.0
40
6.825
1
14
41
1.143
50
90.000
100
AcDbText
0
TEXT
5
aa1
100
AcDbEntity
8
0-0
62
6
100
AcDbText
10
282.101
20
467.033
30
0.0
40
6.825
1
4
41
1.143
50
90.000
100
AcDbText
0
TEXT
5
aa2
100
AcDbEntity
8
0-0
62
6
100
AcDbText
10
294.351
20
447.283
30
0.0
40
6.825
1
10
41
1.143
50
0.000
100
AcDbText
0
TEXT
5
aa3
100
AcDbEntity
8
0-0
62
6
100
AcDbText
10
303.851
20
447.283
30
0.0
40
6.825
1
5
41
1.143
50
359.999
100
AcDbText
0
TEXT
5
aa4
100
AcDbEntity
8
0-0
62
6
100
AcDbText
10
310.851
20
447.283
30
0.0
40
6.825
1
13
41
1.143
50
0.000
100
AcDbText
0
TEXT
5
aa5
100
AcDbEntity
8
0-0
62
6
100
AcDbText
10
303.351
20
437.283
30
0.0
40
6.825
1
28
41
1.143
50
0.000
100
AcDbText
0
TEXT
5
aa6
100
AcDbEntity
8
0-0
62
6
100
AcDbText
10
112.601
20
370.496
30
0.0
40
6.825
1
12
41
1.143
50
90.000
100
AcDbText
0
TEXT
5
aa7
100
AcDbEntity
8
0-0
62
6
100
AcDbText
10
132.976
20
346.246
30
0.0
40
6.825
1
3
41
1.143
50
0.000
100
AcDbText
0
TEXT
5
aa8
100
AcDbEntity
8
0-0
62
6
100
AcDbText
10
141.288
20
346.246
30
0.0
40
6.825
1
17
41
1.143
50
0.000
100
AcDbText
0
TEXT
5
aa9
100
AcDbEntity
8
0-0
62
6
100
AcDbText
10
139.538
20
336.246
30
0.0
40
6.825
1
20
41
1.143
50
0.000
100
AcDbText
0
TEXT
5
aaa
100
AcDbEntity
8
0-0
62
6
100
AcDbText
10
346.101
20
368.996
30
0.0
40
6.825
1
14
41
1.143
50
90.000
100
AcDbText
0
TEXT
5
aab
100
AcDbEntity
8
0-0
62
6
100
AcDbText
10
282.101
20
365.996
30
0.0
40
6.825
1
4
41
1.143
50
90.000
100
AcDbText
0
TEXT
5
aac
100
AcDbEntity
8
0-0
62
6
100
AcDbText
10
294.351
20
346.246
30
0.0
40
6.825
1
10
41
1.143
50
0.000
100
AcDbText
0
TEXT
5
aad
100
AcDbEntity
8
0-0
62
6
100
AcDbText
10
303.851
20
346.246
30
0.0
40
6.825
1
5
41
1.143
50
359.999
100
AcDbText
0
TEXT
5
aae
100
AcDbEntity
8
0-0
62
6
100
AcDbText
10
310.851
20
346.246
30
0.0
40
6.825
1
13
41
1.143
50
0.000
100
AcDbText
0
TEXT
5
aaf
100
AcDbEntity
8
0-0
62
6
100
AcDbText
10
303.351
20
336.246
30
0.0
40
6.825
1
28
41
1.143
50
0.000
100
AcDbText
0
TEXT
5
ab0
100
AcDbEntity
8
0-0
62
6
100
AcDbText
10
415.976
20
501.783
30
0.0
40
6.825
1
11
41
1.143
50
0.000
100
AcDbText
0
TEXT
5
ab1
100
AcDbEntity
8
0-0
62
6
100
AcDbText
10
576.476
20
501.283
30
0.0
40
6.825
1
11
41
1.143
50
0.000
100
AcDbText
0
TEXT
5
ab2
100
AcDbEntity
8
0-0
62
6
100
AcDbText
10
395.976
20
400.746
30
0.0
40
6.825
1
@150
41
1.143
50
0.000
100
AcDbText
0
TEXT
5
ab3
100
AcDbEntity
8
0-0
62
6
100
AcDbText
10
415.976
20
400.746
30
0.0
40
6.825
1
11
41
1.143
50
0.000
100
AcDbText
0
TEXT
5
ab4
100
AcDbEntity
8
0-0
62
6
100
AcDbText
10
576.476
20
400.246
30
0.0
40
6.825
1
11
41
1.143
50
0.000
100
AcDbText
0
TEXT
5
ab5
100
AcDbEntity
8
0-0
62
6
100
AcDbText
10
33.829
20
549.382
30
0.0
40
7.800
1
スパンドレル１６１
41
1.125
50
0.000
100
AcDbText
0
TEXT
5
ab6
100
AcDbEntity
8
0-0
62
6
100
AcDbText
10
400.976
20
511.783
30
0.0
40
6.825
1
@161
41
1.143
50
0.000
100
AcDbText
0
TEXT
5
ab7
100
AcDbEntity
8
0-0
62
6
100
AcDbText
10
499.976
20
511.783
30
0.0
40
6.825
1
161
41
1.143
50
0.000
100
AcDbText
0
TEXT
5
ab8
100
AcDbEntity
8
0-0
62
6
100
AcDbText
10
591.976
20
511.783
30
0.0
40
6.825
1
@161
41
1.143
50
0.000
100
AcDbText
0
TEXT
5
ab9
100
AcDbEntity
8
0-0
62
6
100
AcDbText
10
112.726
20
206.347
30
0.0
40
6.825
1
12
41
1.143
50
90.000
100
AcDbText
0
TEXT
5
aba
100
AcDbEntity
8
0-0
62
6
100
AcDbText
10
144.726
20
172.097
30
0.0
40
6.825
1
10
41
1.143
50
0.000
100
AcDbText
0
TEXT
5
abb
100
AcDbEntity
8
0-0
62
6
100
AcDbText
10
148.476
20
182.097
30
0.0
40
6.825
1
7
41
1.143
50
0.000
100
AcDbText
0
TEXT
5
abc
100
AcDbEntity
8
0-0
62
6
100
AcDbText
10
143.226
20
182.097
30
0.0
40
6.825
1
3
41
1.143
50
0.000
100
AcDbText
0
TEXT
5
abd
100
AcDbEntity
8
0-0
62
6
100
AcDbText
10
346.101
20
204.847
30
0.0
40
6.825
1
14
41
1.143
50
90.000
100
AcDbText
0
TEXT
5
abe
100
AcDbEntity
8
0-0
62
6
100
AcDbText
10
282.101
20
201.846
30
0.0
40
6.825
1
4
41
1.143
50
90.000
100
AcDbText
0
TEXT
5
abf
100
AcDbEntity
8
0-0
62
6
100
AcDbText
10
294.351
20
182.096
30
0.0
40
6.825
1
10
41
1.143
50
0.000
100
AcDbText
0
TEXT
5
ac0
100
AcDbEntity
8
0-0
62
6
100
AcDbText
10
303.851
20
182.096
30
0.0
40
6.825
1
5
41
1.143
50
359.999
100
AcDbText
0
TEXT
5
ac1
100
AcDbEntity
8
0-0
62
6
100
AcDbText
10
310.851
20
182.096
30
0.0
40
6.825
1
13
41
1.143
50
0.000
100
AcDbText
0
TEXT
5
ac2
100
AcDbEntity
8
0-0
62
6
100
AcDbText
10
303.351
20
172.097
30
0.0
40
6.825
1
28
41
1.143
50
0.000
100
AcDbText
0
TEXT
5
ac3
100
AcDbEntity
8
0-0
62
6
100
AcDbText
10
224.351
20
91.559
30
0.0
40
6.825
1
50
41
1.143
50
0.000
100
AcDbText
0
TEXT
5
ac4
100
AcDbEntity
8
0-0
62
6
100
AcDbText
10
224.351
20
356.746
30
0.0
40
6.825
1
50
41
1.143
50
0.000
100
AcDbText
0
TEXT
5
ac5
100
AcDbEntity
8
0-0
62
6
100
AcDbText
10
112.726
20
105.309
30
0.0
40
6.825
1
12
41
1.143
50
90.000
100
AcDbText
0
TEXT
5
ac6
100
AcDbEntity
8
0-0
62
6
100
AcDbText
10
144.726
20
71.059
30
0.0
40
6.825
1
10
41
1.143
50
0.000
100
AcDbText
0
TEXT
5
ac7
100
AcDbEntity
8
0-0
62
6
100
AcDbText
10
148.476
20
81.059
30
0.0
40
6.825
1
7
41
1.143
50
0.000
100
AcDbText
0
TEXT
5
ac8
100
AcDbEntity
8
0-0
62
6
100
AcDbText
10
143.226
20
81.059
30
0.0
40
6.825
1
3
41
1.143
50
0.000
100
AcDbText
0
TEXT
5
ac9
100
AcDbEntity
8
0-0
62
6
100
AcDbText
10
346.101
20
103.809
30
0.0
40
6.825
1
14
41
1.143
50
90.000
100
AcDbText
0
TEXT
5
aca
100
AcDbEntity
8
0-0
62
6
100
AcDbText
10
282.101
20
100.809
30
0.0
40
6.825
1
4
41
1.143
50
90.000
100
AcDbText
0
TEXT
5
acb
100
AcDbEntity
8
0-0
62
6
100
AcDbText
10
294.351
20
81.059
30
0.0
40
6.825
1
10
41
1.143
50
0.000
100
AcDbText
0
TEXT
5
acc
100
AcDbEntity
8
0-0
62
6
100
AcDbText
10
303.851
20
81.059
30
0.0
40
6.825
1
5
41
1.143
50
359.999
100
AcDbText
0
TEXT
5
acd
100
AcDbEntity
8
0-0
62
6
100
AcDbText
10
310.851
20
81.059
30
0.0
40
6.825
1
13
41
1.143
50
0.000
100
AcDbText
0
TEXT
5
ace
100
AcDbEntity
8
0-0
62
6
100
AcDbText
10
303.351
20
71.059
30
0.0
40
6.825
1
28
41
1.143
50
0.000
100
AcDbText
0
TEXT
5
acf
100
AcDbEntity
8
0-0
62
7
100
AcDbText
10
611.241
20
15.334
30
0.0
40
2.925
1
   2021-02-26
41
1.167
50
0.000
100
AcDbText
0
TEXT
5
ad0
100
AcDbEntity
8
0-0
62
7
100
AcDbText
10
611.241
20
604.967
30
0.0
40
2.925
1
   2021-02-26
41
1.167
50
0.000
100
AcDbText
0
TEXT
5
ad1
100
AcDbEntity
8
0-0
62
6
100
AcDbText
10
400.976
20
410.746
30
0.0
40
6.825
1
@161
41
1.143
50
0.000
100
AcDbText
0
TEXT
5
ad2
100
AcDbEntity
8
0-0
62
6
100
AcDbText
10
499.976
20
410.746
30
0.0
40
6.825
1
161
41
1.143
50
0.000
100
AcDbText
0
TEXT
5
ad3
100
AcDbEntity
8
0-0
62
6
100
AcDbText
10
591.976
20
410.746
30
0.0
40
6.825
1
@161
41
1.143
50
0.000
100
AcDbText
0
TEXT
5
ad4
100
AcDbEntity
8
0-0
62
2
100
AcDbText
10
774.222
20
29.844
30
0.0
40
4.875
1
KS-161 / 150
41
1.100
50
0.000
100
AcDbText
0
TEXT
5
ad5
100
AcDbEntity
8
0-0
62
3
100
AcDbText
10
658.767
20
16.546
30
0.0
40
3.900
1
スパンドレル( 161 / 150 )　断面図
41
1.125
50
0.000
100
AcDbText
0
TEXT
5
ad6
100
AcDbEntity
8
0-0
62
6
100
AcDbText
10
93.629
20
865.337
30
0.0
40
6.825
1
ＳＰＲ161（出隅）
41
1.143
50
0.000
100
AcDbText
0
TEXT
5
ad7
100
AcDbEntity
8
0-0
62
6
100
AcDbText
10
268.887
20
865.337
30
0.0
40
6.825
1
ＳＰＲ161（入隅）
41
1.143
50
0.000
100
AcDbText
0
TEXT
5
ad8
100
AcDbEntity
8
0-0
62
2
100
AcDbText
10
774.222
20
619.478
30
0.0
40
4.875
1
KS-161 / 150
41
1.100
50
0.000
100
AcDbText
0
TEXT
5
ad9
100
AcDbEntity
8
0-0
62
6
100
AcDbText
10
140.830
20
1059.111
30
0.0
40
6.825
1
50
41
1.143
50
359.999
100
AcDbText
0
TEXT
5
ada
100
AcDbEntity
8
0-0
62
6
100
AcDbText
10
152.579
20
1026.111
30
0.0
40
6.825
1
9
41
1.143
50
0.000
100
AcDbText
0
TEXT
5
adb
100
AcDbEntity
8
0-0
62
6
100
AcDbText
10
126.330
20
992.111
30
0.0
40
6.825
1
20
41
1.143
50
0.000
100
AcDbText
0
TEXT
5
adc
100
AcDbEntity
8
0-0
62
6
100
AcDbText
10
134.330
20
1007.111
30
0.0
40
6.825
1
8
41
1.143
50
0.000
100
AcDbText
0
TEXT
5
add
100
AcDbEntity
8
0-0
62
6
100
AcDbText
10
226.792
20
1087.686
30
0.0
40
6.825
1
ＳＰ－４００（Ｈ型接続）
41
1.143
50
360.000
100
AcDbText
0
TEXT
5
ade
100
AcDbEntity
8
0-0
62
6
100
AcDbText
10
93.891
20
1087.686
30
0.0
40
6.825
1
ＳＰ－１０１（廻り縁）
41
1.143
50
0.000
100
AcDbText
0
TEXT
5
adf
100
AcDbEntity
8
0-0
62
6
100
AcDbText
10
100.584
20
1034.121
30
0.0
40
6.825
1
23
41
1.143
50
0.000
100
AcDbText
0
TEXT
5
ae0
100
AcDbEntity
8
0-0
62
6
100
AcDbText
10
676.345
20
992.111
30
0.0
40
6.825
1
8
41
1.143
50
359.999
100
AcDbText
0
TEXT
5
ae1
100
AcDbEntity
8
0-0
62
6
100
AcDbText
10
637.406
20
1087.686
30
0.0
40
6.825
1
ＳＰＲ－４００（Ｈ型接続ロール成形品）
41
1.143
50
0.000
100
AcDbText
0
TEXT
5
ae2
100
AcDbEntity
8
0-0
62
6
100
AcDbText
10
688.345
20
992.111
30
0.0
40
6.825
1
12
41
1.143
50
0.000
100
AcDbText
0
TEXT
5
ae3
100
AcDbEntity
8
0-0
62
6
100
AcDbText
10
723.324
20
1018.757
30
0.0
40
6.825
1
17
41
1.143
50
0.000
100
AcDbText
0
TEXT
5
ae4
100
AcDbEntity
8
0-0
62
6
100
AcDbText
10
661.845
20
1044.111
30
0.0
40
6.825
1
12
41
1.143
50
0.000
100
AcDbText
0
TEXT
5
ae5
100
AcDbEntity
8
0-0
62
6
100
AcDbText
10
696.095
20
1044.111
30
0.0
40
6.825
1
27
41
1.143
50
0.000
100
AcDbText
0
TEXT
5
ae6
100
AcDbEntity
8
0-0
62
6
100
AcDbText
10
737.324
20
1018.757
30
0.0
40
6.825
1
22
41
1.143
50
0.000
100
AcDbText
0
TEXT
5
ae7
100
AcDbEntity
8
0-0
62
6
100
AcDbText
10
682.845
20
1059.111
30
0.0
40
6.825
1
54
41
1.143
50
0.000
100
AcDbText
0
TEXT
5
ae8
100
AcDbEntity
8
0-0
62
6
100
AcDbText
10
682.345
20
977.111
30
0.0
40
6.825
1
24
41
1.143
50
0.000
100
AcDbText
0
TEXT
5
ae9
100
AcDbEntity
8
0-0
62
6
100
AcDbText
10
269.231
20
1059.111
30
0.0
40
6.825
1
60
41
1.143
50
0.000
100
AcDbText
0
TEXT
5
aea
100
AcDbEntity
8
0-0
62
6
100
AcDbText
10
270.231
20
998.111
30
0.0
40
6.825
1
30
41
1.143
50
0.000
100
AcDbText
0
TEXT
5
aeb
100
AcDbEntity
8
0-0
62
6
100
AcDbText
10
261.231
20
1013.111
30
0.0
40
6.825
1
8
41
1.143
50
0.000
100
AcDbText
0
TEXT
5
aec
100
AcDbEntity
8
0-0
62
6
100
AcDbText
10
277.231
20
1013.111
30
0.0
40
6.825
1
16
41
1.143
50
0.000
100
AcDbText
0
TEXT
5
aed
100
AcDbEntity
8
0-0
62
6
100
AcDbText
10
313.542
20
1036.944
30
0.0
40
6.825
1
14
41
1.143
50
359.999
100
AcDbText
0
TEXT
5
aee
100
AcDbEntity
8
0-0
62
6
100
AcDbText
10
226.792
20
1077.686
30
0.0
40
6.825
1
Ｌ＝２０００～３０００
41
1.143
50
0.000
100
AcDbText
0
TEXT
5
aef
100
AcDbEntity
8
0-0
62
6
100
AcDbText
10
93.891
20
1077.686
30
0.0
40
6.825
1
Ｌ＝２０００～３０００
41
1.143
50
0.000
100
AcDbText
0
TEXT
5
af0
100
AcDbEntity
8
0-0
62
6
100
AcDbText
10
637.406
20
1077.686
30
0.0
40
6.825
1
Ｌ＝２０００～３０００
41
1.143
50
0.000
100
AcDbText
0
TEXT
5
af1
100
AcDbEntity
8
0-0
62
6
100
AcDbText
10
374.267
20
1034.089
30
0.0
40
6.825
1
50
41
1.143
50
0.000
100
AcDbText
0
TEXT
5
af2
100
AcDbEntity
8
0-0
62
6
100
AcDbText
10
431.964
20
993.611
30
0.0
40
6.825
1
25
41
1.143
50
0.000
100
AcDbText
0
TEXT
5
af3
100
AcDbEntity
8
0-0
62
6
100
AcDbText
10
412.882
20
966.611
30
0.0
40
6.825
1
9
41
1.143
50
0.000
100
AcDbText
0
TEXT
5
af4
100
AcDbEntity
8
0-0
62
6
100
AcDbText
10
404.132
20
1024.611
30
0.0
40
6.825
1
23
41
1.143
50
0.000
100
AcDbText
0
TEXT
5
af5
100
AcDbEntity
8
0-0
62
6
100
AcDbText
10
507.168
20
1034.089
30
0.0
40
6.825
1
50
41
1.143
50
0.000
100
AcDbText
0
TEXT
5
af6
100
AcDbEntity
8
0-0
62
6
100
AcDbText
10
564.865
20
993.611
30
0.0
40
6.825
1
25
41
1.143
50
0.000
100
AcDbText
0
TEXT
5
af7
100
AcDbEntity
8
0-0
62
6
100
AcDbText
10
537.033
20
1024.611
30
0.0
40
6.825
1
23
41
1.143
50
0.000
100
AcDbText
0
TEXT
5
af8
100
AcDbEntity
8
0-0
62
6
100
AcDbText
10
566.843
20
1009.269
30
0.0
40
6.825
1
3
41
1.143
50
0.000
100
AcDbText
0
TEXT
5
af9
100
AcDbEntity
8
0-0
62
6
100
AcDbText
10
531.033
20
967.611
30
0.0
40
6.825
1
35
41
1.143
50
0.000
100
AcDbText
0
TEXT
5
afa
100
AcDbEntity
8
0-0
62
6
100
AcDbText
10
433.942
20
1009.269
30
0.0
40
6.825
1
3
41
1.143
50
0.000
100
AcDbText
0
TEXT
5
afb
100
AcDbEntity
8
0-0
62
6
100
AcDbText
10
503.783
20
986.611
30
0.0
40
6.825
1
9
41
1.143
50
359.999
100
AcDbText
0
TEXT
5
afc
100
AcDbEntity
8
0-0
62
6
100
AcDbText
10
359.693
20
1077.686
30
0.0
40
6.825
1
Ｌ＝２０００～３０００
41
1.143
50
0.000
100
AcDbText
0
TEXT
5
afd
100
AcDbEntity
8
0-0
62
6
100
AcDbText
10
359.693
20
1087.686
30
0.0
40
6.825
1
ＳＰー２０２（中間水切接続）
41
1.143
50
360.000
100
AcDbText
0
TEXT
5
afe
100
AcDbEntity
8
0-0
62
6
100
AcDbText
10
396.707
20
986.151
30
0.0
40
6.825
1
8
41
1.143
50
359.999
100
AcDbText
0
TEXT
5
aff
100
AcDbEntity
8
0-0
62
6
100
AcDbText
10
492.595
20
1077.686
30
0.0
40
6.825
1
Ｌ＝２０００～３０００
41
1.143
50
0.000
100
AcDbText
0
TEXT
5
b00
100
AcDbEntity
8
0-0
62
6
100
AcDbText
10
492.595
20
1087.686
30
0.0
40
6.825
1
ＳＰー２０１（水切）
41
1.143
50
0.000
100
AcDbText
0
TEXT
5
b01
100
AcDbEntity
8
0-0
62
6
100
AcDbText
10
519.533
20
1002.611
30
0.0
40
6.825
1
8
41
1.143
50
0.000
100
AcDbText
0
TEXT
5
b02
100
AcDbEntity
8
0-0
62
6
100
AcDbText
10
151.891
20
1038.445
30
0.0
40
6.825
1
14
41
1.143
50
359.999
100
AcDbText
0
TEXT
5
b03
100
AcDbEntity
8
0-0
62
5
100
AcDbText
10
93.266
20
1114.412
30
0.0
40
9.750
1
スパンドレル役物部材
41
1.100
50
0.000
100
AcDbText
0
TEXT
5
b04
100
AcDbEntity
8
0-0
62
6
100
AcDbText
10
33.829
20
529.382
30
0.0
40
7.800
1
（鋼板材種、薄板厚により凸凹現象発生の懸念があります）
41
1.125
50
0.000
100
AcDbText
0
TEXT
5
b05
100
AcDbEntity
8
0-0
62
6
100
AcDbText
10
33.829
20
264.195
30
0.0
40
7.800
1
（鋼板材種、薄板厚により凸凹現象発生の懸念があります）
41
1.125
50
0.000
100
AcDbText
0
POINT
5
b06
100
AcDbEntity
8
0-0
62
3
100
AcDbPoint
10
575.230000000000
20
500.780000000000
30
0.0
0
POINT
5
b07
100
AcDbEntity
8
0-0
62
3
100
AcDbPoint
10
575.230000000000
20
500.780000000000
30
0.0
0
POINT
5
b08
100
AcDbEntity
8
0-0
62
3
100
AcDbPoint
10
586.230000000000
20
500.780000000000
30
0.0
0
POINT
5
b09
100
AcDbEntity
8
0-0
62
3
100
AcDbPoint
10
586.230000000000
20
510.780000000000
30
0.0
0
POINT
5
b0a
100
AcDbEntity
8
0-0
62
3
100
AcDbPoint
10
414.230000000000
20
500.780000000000
30
0.0
0
POINT
5
b0b
100
AcDbEntity
8
0-0
62
3
100
AcDbPoint
10
425.230000000000
20
500.780000000000
30
0.0
0
POINT
5
b0c
100
AcDbEntity
8
0-0
62
3
100
AcDbPoint
10
425.230000000000
20
510.780000000000
30
0.0
0
POINT
5
b0d
100
AcDbEntity
8
0-0
62
3
100
AcDbPoint
10
153.100000000000
20
500.780000000000
30
0.0
0
POINT
5
b0e
100
AcDbEntity
8
0-0
62
3
100
AcDbPoint
10
303.100000000000
20
500.780000000000
30
0.0
0
POINT
5
b0f
100
AcDbEntity
8
0-0
62
3
100
AcDbPoint
10
425.230000000000
20
399.750000000000
30
0.0
0
POINT
5
b10
100
AcDbEntity
8
0-0
62
3
100
AcDbPoint
10
425.230000000000
20
409.750000000000
30
0.0
0
POINT
5
b11
100
AcDbEntity
8
0-0
62
3
100
AcDbPoint
10
475.230000000000
20
355.750000000000
30
0.0
0
POINT
5
b12
100
AcDbEntity
8
0-0
62
3
100
AcDbPoint
10
525.230000000000
20
355.750000000000
30
0.0
0
POINT
5
b13
100
AcDbEntity
8
0-0
62
3
100
AcDbPoint
10
153.100000000000
20
235.600000000000
30
0.0
0
POINT
5
b14
100
AcDbEntity
8
0-0
62
3
100
AcDbPoint
10
303.100000000000
20
235.600000000000
30
0.0
0
POINT
5
b15
100
AcDbEntity
8
0-0
62
3
100
AcDbPoint
10
425.230000000000
20
235.600000000000
30
0.0
0
POINT
5
b16
100
AcDbEntity
8
0-0
62
3
100
AcDbPoint
10
575.230000000000
20
235.600000000000
30
0.0
0
POINT
5
b17
100
AcDbEntity
8
0-0
62
3
100
AcDbPoint
10
425.230000000000
20
134.560000000000
30
0.0
0
POINT
5
b18
100
AcDbEntity
8
0-0
62
3
100
AcDbPoint
10
575.230000000000
20
134.560000000000
30
0.0
0
POINT
5
b19
100
AcDbEntity
8
0-0
62
3
100
AcDbPoint
10
475.100000000000
20
90.560000000000
30
0.0
0
POINT
5
b1a
100
AcDbEntity
8
0-0
62
3
100
AcDbPoint
10
525.100000000000
20
90.560000000000
30
0.0
0
POINT
5
b1b
100
AcDbEntity
8
0-0
62
3
100
AcDbPoint
10
27.380000000000
20
571.820000000000
30
0.0
0
POINT
5
b1c
100
AcDbEntity
8
0-0
62
3
100
AcDbPoint
10
153.100000000000
20
399.750000000000
30
0.0
0
POINT
5
b1d
100
AcDbEntity
8
0-0
62
3
100
AcDbPoint
10
303.100000000000
20
399.750000000000
30
0.0
0
POINT
5
b1e
100
AcDbEntity
8
0-0
62
3
100
AcDbPoint
10
153.100000000000
20
134.560000000000
30
0.0
0
POINT
5
b1f
100
AcDbEntity
8
0-0
62
3
100
AcDbPoint
10
303.100000000000
20
134.560000000000
30
0.0
0
POINT
5
b20
100
AcDbEntity
8
0-0
62
3
100
AcDbPoint
10
27.380000000000
20
1161.450000000000
30
0.0
0
POINT
5
b21
100
AcDbEntity
8
0-0
62
3
100
AcDbPoint
10
575.230000000000
20
399.750000000000
30
0.0
0
POINT
5
b22
100
AcDbEntity
8
0-0
62
3
100
AcDbPoint
10
575.230000000000
20
399.750000000000
30
0.0
0
POINT
5
b23
100
AcDbEntity
8
0-0
62
3
100
AcDbPoint
10
359.580000000000
20
770.140000000000
30
0.0
0
POINT
5
b24
100
AcDbEntity
8
0-0
62
3
100
AcDbPoint
10
250.580000000000
20
822.140000000000
30
0.0
0
POINT
5
b25
100
AcDbEntity
8
0-0
62
3
100
AcDbPoint
10
250.580000000000
20
802.640000000000
30
0.0
0
POINT
5
b26
100
AcDbEntity
8
0-0
62
3
100
AcDbPoint
10
250.580000000000
20
727.640000000000
30
0.0
0
POINT
5
b27
100
AcDbEntity
8
0-0
62
3
100
AcDbPoint
10
284.580000000000
20
770.140000000000
30
0.0
0
POINT
5
b28
100
AcDbEntity
8
0-0
62
3
100
AcDbPoint
10
172.320000000000
20
822.760000000000
30
0.0
0
POINT
5
b29
100
AcDbEntity
8
0-0
62
3
100
AcDbPoint
10
73.820000000000
20
708.260000000000
30
0.0
0
POINT
5
b2a
100
AcDbEntity
8
0-0
62
3
100
AcDbPoint
10
73.820000000000
20
727.760000000000
30
0.0
0
POINT
5
b2b
100
AcDbEntity
8
0-0
62
3
100
AcDbPoint
10
73.820000000000
20
802.760000000000
30
0.0
0
POINT
5
b2c
100
AcDbEntity
8
0-0
62
3
100
AcDbPoint
10
97.320000000000
20
822.760000000000
30
0.0
0
POINT
5
b2d
100
AcDbEntity
8
0-0
62
3
100
AcDbPoint
10
284.580000000000
20
834.310000000000
30
0.0
0
POINT
5
b2e
100
AcDbEntity
8
0-0
62
3
100
AcDbPoint
10
207.320000000000
20
788.760000000000
30
0.0
0
POINT
5
b2f
100
AcDbEntity
8
0-0
62
3
100
AcDbPoint
10
207.320000000000
20
802.760000000000
30
0.0
0
POINT
5
b30
100
AcDbEntity
8
0-0
62
3
100
AcDbPoint
10
162.320000000000
20
768.760000000000
30
0.0
0
POINT
5
b31
100
AcDbEntity
8
0-0
62
3
100
AcDbPoint
10
172.320000000000
20
768.760000000000
30
0.0
0
POINT
5
b32
100
AcDbEntity
8
0-0
62
3
100
AcDbPoint
10
177.320000000000
20
768.760000000000
30
0.0
0
POINT
5
b33
100
AcDbEntity
8
0-0
62
3
100
AcDbPoint
10
162.320000000000
20
758.760000000000
30
0.0
0
POINT
5
b34
100
AcDbEntity
8
0-0
62
3
100
AcDbPoint
10
152.320000000000
20
788.760000000000
30
0.0
0
POINT
5
b35
100
AcDbEntity
8
0-0
62
3
100
AcDbPoint
10
152.320000000000
20
792.760000000000
30
0.0
0
POINT
5
b36
100
AcDbEntity
8
0-0
62
3
100
AcDbPoint
10
190.320000000000
20
768.760000000000
30
0.0
0
POINT
5
b37
100
AcDbEntity
8
0-0
62
3
100
AcDbPoint
10
190.320000000000
20
758.760000000000
30
0.0
0
POINT
5
b38
100
AcDbEntity
8
0-0
62
3
100
AcDbPoint
10
109.320000000000
20
691.100000000000
30
0.0
0
POINT
5
b39
100
AcDbEntity
8
0-0
62
3
100
AcDbPoint
10
97.320000000000
20
691.100000000000
30
0.0
0
POINT
5
b3a
100
AcDbEntity
8
0-0
62
3
100
AcDbPoint
10
272.580000000000
20
834.310000000000
30
0.0
0
POINT
5
b3b
100
AcDbEntity
8
0-0
62
3
100
AcDbPoint
10
284.580000000000
20
834.310000000000
30
0.0
0
POINT
5
b3c
100
AcDbEntity
8
0-0
62
3
100
AcDbPoint
10
394.580000000000
20
713.640000000000
30
0.0
0
POINT
5
b3d
100
AcDbEntity
8
0-0
62
3
100
AcDbPoint
10
394.580000000000
20
727.640000000000
30
0.0
0
POINT
5
b3e
100
AcDbEntity
8
0-0
62
3
100
AcDbPoint
10
349.580000000000
20
693.640000000000
30
0.0
0
POINT
5
b3f
100
AcDbEntity
8
0-0
62
3
100
AcDbPoint
10
359.580000000000
20
693.640000000000
30
0.0
0
POINT
5
b40
100
AcDbEntity
8
0-0
62
3
100
AcDbPoint
10
364.580000000000
20
693.640000000000
30
0.0
0
POINT
5
b41
100
AcDbEntity
8
0-0
62
3
100
AcDbPoint
10
349.580000000000
20
683.640000000000
30
0.0
0
POINT
5
b42
100
AcDbEntity
8
0-0
62
3
100
AcDbPoint
10
339.580000000000
20
713.640000000000
30
0.0
0
POINT
5
b43
100
AcDbEntity
8
0-0
62
3
100
AcDbPoint
10
339.580000000000
20
717.640000000000
30
0.0
0
POINT
5
b44
100
AcDbEntity
8
0-0
62
3
100
AcDbPoint
10
377.580000000000
20
693.640000000000
30
0.0
0
POINT
5
b45
100
AcDbEntity
8
0-0
62
3
100
AcDbPoint
10
377.580000000000
20
683.640000000000
30
0.0
0
POINT
5
b46
100
AcDbEntity
8
0-0
62
3
100
AcDbPoint
10
736.830000000000
20
748.140000000000
30
0.0
0
POINT
5
b47
100
AcDbEntity
8
0-0
62
3
100
AcDbPoint
10
627.830000000000
20
802.640000000000
30
0.0
0
POINT
5
b48
100
AcDbEntity
8
0-0
62
3
100
AcDbPoint
10
627.830000000000
20
727.640000000000
30
0.0
0
POINT
5
b49
100
AcDbEntity
8
0-0
62
3
100
AcDbPoint
10
661.830000000000
20
748.140000000000
30
0.0
0
POINT
5
b4a
100
AcDbEntity
8
0-0
62
3
100
AcDbPoint
10
539.580000000000
20
822.760000000000
30
0.0
0
POINT
5
b4b
100
AcDbEntity
8
0-0
62
3
100
AcDbPoint
10
441.080000000000
20
727.640000000000
30
0.0
0
POINT
5
b4c
100
AcDbEntity
8
0-0
62
3
100
AcDbPoint
10
441.080000000000
20
802.640000000000
30
0.0
0
POINT
5
b4d
100
AcDbEntity
8
0-0
62
3
100
AcDbPoint
10
464.580000000000
20
822.760000000000
30
0.0
0
POINT
5
b4e
100
AcDbEntity
8
0-0
62
3
100
AcDbPoint
10
627.830000000000
20
812.640000000000
30
0.0
0
POINT
5
b4f
100
AcDbEntity
8
0-0
62
3
100
AcDbPoint
10
627.830000000000
20
802.640000000000
30
0.0
0
POINT
5
b50
100
AcDbEntity
8
0-0
62
3
100
AcDbPoint
10
627.830000000000
20
809.640000000000
30
0.0
0
POINT
5
b51
100
AcDbEntity
8
0-0
62
3
100
AcDbPoint
10
617.840000000000
20
812.640000000000
30
0.0
0
POINT
5
b52
100
AcDbEntity
8
0-0
62
3
100
AcDbPoint
10
617.840000000000
20
802.640000000000
30
0.0
0
POINT
5
b53
100
AcDbEntity
8
0-0
62
3
100
AcDbPoint
10
431.080000000000
20
727.640000000000
30
0.0
0
POINT
5
b54
100
AcDbEntity
8
0-0
62
3
100
AcDbPoint
10
464.580000000000
20
694.030000000000
30
0.0
0
POINT
5
b55
100
AcDbEntity
8
0-0
62
3
100
AcDbPoint
10
476.580000000000
20
694.030000000000
30
0.0
0
POINT
5
b56
100
AcDbEntity
8
0-0
62
3
100
AcDbPoint
10
431.080000000000
20
717.640000000000
30
0.0
0
POINT
5
b57
100
AcDbEntity
8
0-0
62
3
100
AcDbPoint
10
441.080000000000
20
717.640000000000
30
0.0
0
POINT
5
b58
100
AcDbEntity
8
0-0
62
3
100
AcDbPoint
10
441.080000000000
20
720.640000000000
30
0.0
0
POINT
5
b59
100
AcDbEntity
8
0-0
62
3
100
AcDbPoint
10
574.580000000000
20
788.760000000000
30
0.0
0
POINT
5
b5a
100
AcDbEntity
8
0-0
62
3
100
AcDbPoint
10
574.580000000000
20
802.760000000000
30
0.0
0
POINT
5
b5b
100
AcDbEntity
8
0-0
62
3
100
AcDbPoint
10
529.580000000000
20
768.760000000000
30
0.0
0
POINT
5
b5c
100
AcDbEntity
8
0-0
62
3
100
AcDbPoint
10
539.580000000000
20
768.760000000000
30
0.0
0
POINT
5
b5d
100
AcDbEntity
8
0-0
62
3
100
AcDbPoint
10
544.580000000000
20
768.760000000000
30
0.0
0
POINT
5
b5e
100
AcDbEntity
8
0-0
62
3
100
AcDbPoint
10
529.580000000000
20
758.760000000000
30
0.0
0
POINT
5
b5f
100
AcDbEntity
8
0-0
62
3
100
AcDbPoint
10
519.580000000000
20
788.760000000000
30
0.0
0
POINT
5
b60
100
AcDbEntity
8
0-0
62
3
100
AcDbPoint
10
519.580000000000
20
792.760000000000
30
0.0
0
POINT
5
b61
100
AcDbEntity
8
0-0
62
3
100
AcDbPoint
10
557.580000000000
20
768.760000000000
30
0.0
0
POINT
5
b62
100
AcDbEntity
8
0-0
62
3
100
AcDbPoint
10
557.580000000000
20
758.760000000000
30
0.0
0
POINT
5
b63
100
AcDbEntity
8
0-0
62
3
100
AcDbPoint
10
771.830000000000
20
714.140000000000
30
0.0
0
POINT
5
b64
100
AcDbEntity
8
0-0
62
3
100
AcDbPoint
10
771.830000000000
20
728.140000000000
30
0.0
0
POINT
5
b65
100
AcDbEntity
8
0-0
62
3
100
AcDbPoint
10
726.840000000000
20
694.140000000000
30
0.0
0
POINT
5
b66
100
AcDbEntity
8
0-0
62
3
100
AcDbPoint
10
736.840000000000
20
694.140000000000
30
0.0
0
POINT
5
b67
100
AcDbEntity
8
0-0
62
3
100
AcDbPoint
10
741.840000000000
20
694.140000000000
30
0.0
0
POINT
5
b68
100
AcDbEntity
8
0-0
62
3
100
AcDbPoint
10
726.840000000000
20
684.140000000000
30
0.0
0
POINT
5
b69
100
AcDbEntity
8
0-0
62
3
100
AcDbPoint
10
716.830000000000
20
714.140000000000
30
0.0
0
POINT
5
b6a
100
AcDbEntity
8
0-0
62
3
100
AcDbPoint
10
716.830000000000
20
718.140000000000
30
0.0
0
POINT
5
b6b
100
AcDbEntity
8
0-0
62
3
100
AcDbPoint
10
754.830000000000
20
694.140000000000
30
0.0
0
POINT
5
b6c
100
AcDbEntity
8
0-0
62
3
100
AcDbPoint
10
754.830000000000
20
684.140000000000
30
0.0
0
POINT
5
b6d
100
AcDbEntity
8
0-0
62
3
100
AcDbPoint
10
661.830000000000
20
824.810000000000
30
0.0
0
POINT
5
b6e
100
AcDbEntity
8
0-0
62
3
100
AcDbPoint
10
649.830000000000
20
824.810000000000
30
0.0
0
POINT
5
b6f
100
AcDbEntity
8
0-0
62
3
100
AcDbPoint
10
661.830000000000
20
824.810000000000
30
0.0
0
POINT
5
b70
100
AcDbEntity
8
0-0
62
3
100
AcDbPoint
10
153.100000000000
20
500.780000000000
30
0.0
0
POINT
5
b71
100
AcDbEntity
8
0-0
62
3
100
AcDbPoint
10
113.600000000000
20
468.780000000000
30
0.0
0
POINT
5
b72
100
AcDbEntity
8
0-0
62
3
100
AcDbPoint
10
113.600000000000
20
468.780000000000
30
0.0
0
POINT
5
b73
100
AcDbEntity
8
0-0
62
3
100
AcDbPoint
10
113.600000000000
20
480.780000000000
30
0.0
0
POINT
5
b74
100
AcDbEntity
8
0-0
62
3
100
AcDbPoint
10
132.980000000000
20
446.780000000000
30
0.0
0
POINT
5
b75
100
AcDbEntity
8
0-0
62
3
100
AcDbPoint
10
153.600000000000
20
446.780000000000
30
0.0
0
POINT
5
b76
100
AcDbEntity
8
0-0
62
3
100
AcDbPoint
10
132.980000000000
20
436.780000000000
30
0.0
0
POINT
5
b77
100
AcDbEntity
8
0-0
62
3
100
AcDbPoint
10
153.600000000000
20
436.780000000000
30
0.0
0
POINT
5
b78
100
AcDbEntity
8
0-0
62
3
100
AcDbPoint
10
136.480000000000
20
446.780000000000
30
0.0
0
POINT
5
b79
100
AcDbEntity
8
0-0
62
3
100
AcDbPoint
10
303.100000000000
20
500.780000000000
30
0.0
0
POINT
5
b7a
100
AcDbEntity
8
0-0
62
3
100
AcDbPoint
10
338.100000000000
20
466.780000000000
30
0.0
0
POINT
5
b7b
100
AcDbEntity
8
0-0
62
3
100
AcDbPoint
10
338.100000000000
20
480.780000000000
30
0.0
0
POINT
5
b7c
100
AcDbEntity
8
0-0
62
3
100
AcDbPoint
10
293.100000000000
20
446.780000000000
30
0.0
0
POINT
5
b7d
100
AcDbEntity
8
0-0
62
3
100
AcDbPoint
10
303.100000000000
20
446.780000000000
30
0.0
0
POINT
5
b7e
100
AcDbEntity
8
0-0
62
3
100
AcDbPoint
10
308.100000000000
20
446.780000000000
30
0.0
0
POINT
5
b7f
100
AcDbEntity
8
0-0
62
3
100
AcDbPoint
10
293.100000000000
20
436.780000000000
30
0.0
0
POINT
5
b80
100
AcDbEntity
8
0-0
62
3
100
AcDbPoint
10
283.100000000000
20
466.780000000000
30
0.0
0
POINT
5
b81
100
AcDbEntity
8
0-0
62
3
100
AcDbPoint
10
283.100000000000
20
470.780000000000
30
0.0
0
POINT
5
b82
100
AcDbEntity
8
0-0
62
3
100
AcDbPoint
10
321.100000000000
20
446.780000000000
30
0.0
0
POINT
5
b83
100
AcDbEntity
8
0-0
62
3
100
AcDbPoint
10
321.100000000000
20
436.780000000000
30
0.0
0
POINT
5
b84
100
AcDbEntity
8
0-0
62
3
100
AcDbPoint
10
113.600000000000
20
367.750000000000
30
0.0
0
POINT
5
b85
100
AcDbEntity
8
0-0
62
3
100
AcDbPoint
10
113.600000000000
20
367.750000000000
30
0.0
0
POINT
5
b86
100
AcDbEntity
8
0-0
62
3
100
AcDbPoint
10
113.600000000000
20
379.750000000000
30
0.0
0
POINT
5
b87
100
AcDbEntity
8
0-0
62
3
100
AcDbPoint
10
132.980000000000
20
345.750000000000
30
0.0
0
POINT
5
b88
100
AcDbEntity
8
0-0
62
3
100
AcDbPoint
10
153.600000000000
20
345.750000000000
30
0.0
0
POINT
5
b89
100
AcDbEntity
8
0-0
62
3
100
AcDbPoint
10
132.980000000000
20
335.750000000000
30
0.0
0
POINT
5
b8a
100
AcDbEntity
8
0-0
62
3
100
AcDbPoint
10
153.600000000000
20
335.750000000000
30
0.0
0
POINT
5
b8b
100
AcDbEntity
8
0-0
62
3
100
AcDbPoint
10
136.480000000000
20
345.750000000000
30
0.0
0
POINT
5
b8c
100
AcDbEntity
8
0-0
62
3
100
AcDbPoint
10
338.100000000000
20
365.750000000000
30
0.0
0
POINT
5
b8d
100
AcDbEntity
8
0-0
62
3
100
AcDbPoint
10
338.100000000000
20
379.750000000000
30
0.0
0
POINT
5
b8e
100
AcDbEntity
8
0-0
62
3
100
AcDbPoint
10
293.100000000000
20
345.750000000000
30
0.0
0
POINT
5
b8f
100
AcDbEntity
8
0-0
62
3
100
AcDbPoint
10
303.100000000000
20
345.750000000000
30
0.0
0
POINT
5
b90
100
AcDbEntity
8
0-0
62
3
100
AcDbPoint
10
308.100000000000
20
345.750000000000
30
0.0
0
POINT
5
b91
100
AcDbEntity
8
0-0
62
3
100
AcDbPoint
10
293.100000000000
20
335.750000000000
30
0.0
0
POINT
5
b92
100
AcDbEntity
8
0-0
62
3
100
AcDbPoint
10
283.100000000000
20
365.750000000000
30
0.0
0
POINT
5
b93
100
AcDbEntity
8
0-0
62
3
100
AcDbPoint
10
283.100000000000
20
369.750000000000
30
0.0
0
POINT
5
b94
100
AcDbEntity
8
0-0
62
3
100
AcDbPoint
10
321.100000000000
20
345.750000000000
30
0.0
0
POINT
5
b95
100
AcDbEntity
8
0-0
62
3
100
AcDbPoint
10
321.100000000000
20
335.750000000000
30
0.0
0
POINT
5
b96
100
AcDbEntity
8
0-0
62
3
100
AcDbPoint
10
414.230000000000
20
399.750000000000
30
0.0
0
POINT
5
b97
100
AcDbEntity
8
0-0
62
3
100
AcDbPoint
10
586.230000000000
20
399.750000000000
30
0.0
0
POINT
5
b98
100
AcDbEntity
8
0-0
62
3
100
AcDbPoint
10
586.230000000000
20
409.750000000000
30
0.0
0
POINT
5
b99
100
AcDbEntity
8
0-0
62
3
100
AcDbPoint
10
113.730000000000
20
203.600000000000
30
0.0
0
POINT
5
b9a
100
AcDbEntity
8
0-0
62
3
100
AcDbPoint
10
113.730000000000
20
203.600000000000
30
0.0
0
POINT
5
b9b
100
AcDbEntity
8
0-0
62
3
100
AcDbPoint
10
113.730000000000
20
215.600000000000
30
0.0
0
POINT
5
b9c
100
AcDbEntity
8
0-0
62
3
100
AcDbPoint
10
143.230000000000
20
181.600000000000
30
0.0
0
POINT
5
b9d
100
AcDbEntity
8
0-0
62
3
100
AcDbPoint
10
153.730000000000
20
181.600000000000
30
0.0
0
POINT
5
b9e
100
AcDbEntity
8
0-0
62
3
100
AcDbPoint
10
143.230000000000
20
171.600000000000
30
0.0
0
POINT
5
b9f
100
AcDbEntity
8
0-0
62
3
100
AcDbPoint
10
153.730000000000
20
171.600000000000
30
0.0
0
POINT
5
ba0
100
AcDbEntity
8
0-0
62
3
100
AcDbPoint
10
146.730000000000
20
181.600000000000
30
0.0
0
POINT
5
ba1
100
AcDbEntity
8
0-0
62
3
100
AcDbPoint
10
338.100000000000
20
201.600000000000
30
0.0
0
POINT
5
ba2
100
AcDbEntity
8
0-0
62
3
100
AcDbPoint
10
338.100000000000
20
215.600000000000
30
0.0
0
POINT
5
ba3
100
AcDbEntity
8
0-0
62
3
100
AcDbPoint
10
293.100000000000
20
181.600000000000
30
0.0
0
POINT
5
ba4
100
AcDbEntity
8
0-0
62
3
100
AcDbPoint
10
303.100000000000
20
181.600000000000
30
0.0
0
POINT
5
ba5
100
AcDbEntity
8
0-0
62
3
100
AcDbPoint
10
308.100000000000
20
181.600000000000
30
0.0
0
POINT
5
ba6
100
AcDbEntity
8
0-0
62
3
100
AcDbPoint
10
293.100000000000
20
171.600000000000
30
0.0
0
POINT
5
ba7
100
AcDbEntity
8
0-0
62
3
100
AcDbPoint
10
283.100000000000
20
201.600000000000
30
0.0
0
POINT
5
ba8
100
AcDbEntity
8
0-0
62
3
100
AcDbPoint
10
283.100000000000
20
205.600000000000
30
0.0
0
POINT
5
ba9
100
AcDbEntity
8
0-0
62
3
100
AcDbPoint
10
321.100000000000
20
181.600000000000
30
0.0
0
POINT
5
baa
100
AcDbEntity
8
0-0
62
3
100
AcDbPoint
10
321.100000000000
20
171.600000000000
30
0.0
0
POINT
5
bab
100
AcDbEntity
8
0-0
62
3
100
AcDbPoint
10
203.100000000000
20
90.560000000000
30
0.0
0
POINT
5
bac
100
AcDbEntity
8
0-0
62
3
100
AcDbPoint
10
253.100000000000
20
90.560000000000
30
0.0
0
POINT
5
bad
100
AcDbEntity
8
0-0
62
3
100
AcDbPoint
10
203.100000000000
20
355.750000000000
30
0.0
0
POINT
5
bae
100
AcDbEntity
8
0-0
62
3
100
AcDbPoint
10
253.100000000000
20
355.750000000000
30
0.0
0
POINT
5
baf
100
AcDbEntity
8
0-0
62
3
100
AcDbPoint
10
113.730000000000
20
102.560000000000
30
0.0
0
POINT
5
bb0
100
AcDbEntity
8
0-0
62
3
100
AcDbPoint
10
113.730000000000
20
102.560000000000
30
0.0
0
POINT
5
bb1
100
AcDbEntity
8
0-0
62
3
100
AcDbPoint
10
113.730000000000
20
114.560000000000
30
0.0
0
POINT
5
bb2
100
AcDbEntity
8
0-0
62
3
100
AcDbPoint
10
143.230000000000
20
80.560000000000
30
0.0
0
POINT
5
bb3
100
AcDbEntity
8
0-0
62
3
100
AcDbPoint
10
153.730000000000
20
80.560000000000
30
0.0
0
POINT
5
bb4
100
AcDbEntity
8
0-0
62
3
100
AcDbPoint
10
143.230000000000
20
70.560000000000
30
0.0
0
POINT
5
bb5
100
AcDbEntity
8
0-0
62
3
100
AcDbPoint
10
153.730000000000
20
70.560000000000
30
0.0
0
POINT
5
bb6
100
AcDbEntity
8
0-0
62
3
100
AcDbPoint
10
146.730000000000
20
80.560000000000
30
0.0
0
POINT
5
bb7
100
AcDbEntity
8
0-0
62
3
100
AcDbPoint
10
338.100000000000
20
100.560000000000
30
0.0
0
POINT
5
bb8
100
AcDbEntity
8
0-0
62
3
100
AcDbPoint
10
338.100000000000
20
114.560000000000
30
0.0
0
POINT
5
bb9
100
AcDbEntity
8
0-0
62
3
100
AcDbPoint
10
293.100000000000
20
80.560000000000
30
0.0
0
POINT
5
bba
100
AcDbEntity
8
0-0
62
3
100
AcDbPoint
10
303.100000000000
20
80.560000000000
30
0.0
0
POINT
5
bbb
100
AcDbEntity
8
0-0
62
3
100
AcDbPoint
10
308.100000000000
20
80.560000000000
30
0.0
0
POINT
5
bbc
100
AcDbEntity
8
0-0
62
3
100
AcDbPoint
10
293.100000000000
20
70.560000000000
30
0.0
0
POINT
5
bbd
100
AcDbEntity
8
0-0
62
3
100
AcDbPoint
10
283.100000000000
20
100.560000000000
30
0.0
0
POINT
5
bbe
100
AcDbEntity
8
0-0
62
3
100
AcDbPoint
10
283.100000000000
20
104.560000000000
30
0.0
0
POINT
5
bbf
100
AcDbEntity
8
0-0
62
3
100
AcDbPoint
10
321.100000000000
20
80.560000000000
30
0.0
0
POINT
5
bc0
100
AcDbEntity
8
0-0
62
3
100
AcDbPoint
10
321.100000000000
20
70.560000000000
30
0.0
0
POINT
5
bc1
100
AcDbEntity
8
0-0
62
3
100
AcDbPoint
10
120.080000000000
20
1058.110000000000
30
0.0
0
POINT
5
bc2
100
AcDbEntity
8
0-0
62
3
100
AcDbPoint
10
120.080000000000
20
1058.110000000000
30
0.0
0
POINT
5
bc3
100
AcDbEntity
8
0-0
62
3
100
AcDbPoint
10
170.080000000000
20
1058.110000000000
30
0.0
0
POINT
5
bc4
100
AcDbEntity
8
0-0
62
3
100
AcDbPoint
10
132.080000000000
20
1015.110000000000
30
0.0
0
POINT
5
bc5
100
AcDbEntity
8
0-0
62
3
100
AcDbPoint
10
140.080000000000
20
1015.110000000000
30
0.0
0
POINT
5
bc6
100
AcDbEntity
8
0-0
62
3
100
AcDbPoint
10
110.080000000000
20
1048.110000000000
30
0.0
0
POINT
5
bc7
100
AcDbEntity
8
0-0
62
3
100
AcDbPoint
10
110.080000000000
20
1025.110000000000
30
0.0
0
POINT
5
bc8
100
AcDbEntity
8
0-0
62
3
100
AcDbPoint
10
150.080000000000
20
1034.110000000000
30
0.0
0
POINT
5
bc9
100
AcDbEntity
8
0-0
62
3
100
AcDbPoint
10
150.080000000000
20
1025.110000000000
30
0.0
0
POINT
5
bca
100
AcDbEntity
8
0-0
62
3
100
AcDbPoint
10
120.080000000000
20
1000.110000000000
30
0.0
0
POINT
5
bcb
100
AcDbEntity
8
0-0
62
3
100
AcDbPoint
10
140.080000000000
20
1000.110000000000
30
0.0
0
POINT
5
bcc
100
AcDbEntity
8
0-0
62
3
100
AcDbPoint
10
671.600000000000
20
1043.110000000000
30
0.0
0
POINT
5
bcd
100
AcDbEntity
8
0-0
62
3
100
AcDbPoint
10
713.600000000000
20
1043.110000000000
30
0.0
0
POINT
5
bce
100
AcDbEntity
8
0-0
62
3
100
AcDbPoint
10
722.350000000000
20
1030.150000000000
30
0.0
0
POINT
5
bcf
100
AcDbEntity
8
0-0
62
3
100
AcDbPoint
10
722.350000000000
20
1013.150000000000
30
0.0
0
POINT
5
bd0
100
AcDbEntity
8
0-0
62
3
100
AcDbPoint
10
674.100000000000
20
1000.110000000000
30
0.0
0
POINT
5
bd1
100
AcDbEntity
8
0-0
62
3
100
AcDbPoint
10
698.100000000000
20
1000.110000000000
30
0.0
0
POINT
5
bd2
100
AcDbEntity
8
0-0
62
3
100
AcDbPoint
10
698.100000000000
20
985.110000000000
30
0.0
0
POINT
5
bd3
100
AcDbEntity
8
0-0
62
3
100
AcDbPoint
10
674.100000000000
20
985.110000000000
30
0.0
0
POINT
5
bd4
100
AcDbEntity
8
0-0
62
3
100
AcDbPoint
10
682.090000000000
20
1000.110000000000
30
0.0
0
POINT
5
bd5
100
AcDbEntity
8
0-0
62
3
100
AcDbPoint
10
686.100000000000
20
1000.110000000000
30
0.0
0
POINT
5
bd6
100
AcDbEntity
8
0-0
62
3
100
AcDbPoint
10
659.600000000000
20
1043.110000000000
30
0.0
0
POINT
5
bd7
100
AcDbEntity
8
0-0
62
3
100
AcDbPoint
10
686.100000000000
20
1043.110000000000
30
0.0
0
POINT
5
bd8
100
AcDbEntity
8
0-0
62
3
100
AcDbPoint
10
659.600000000000
20
1058.110000000000
30
0.0
0
POINT
5
bd9
100
AcDbEntity
8
0-0
62
3
100
AcDbPoint
10
713.600000000000
20
1058.110000000000
30
0.0
0
POINT
5
bda
100
AcDbEntity
8
0-0
62
3
100
AcDbPoint
10
736.350000000000
20
1033.110000000000
30
0.0
0
POINT
5
bdb
100
AcDbEntity
8
0-0
62
3
100
AcDbPoint
10
736.350000000000
20
1011.110000000000
30
0.0
0
POINT
5
bdc
100
AcDbEntity
8
0-0
62
3
100
AcDbPoint
10
242.980000000000
20
1058.110000000000
30
0.0
0
POINT
5
bdd
100
AcDbEntity
8
0-0
62
3
100
AcDbPoint
10
302.980000000000
20
1058.110000000000
30
0.0
0
POINT
5
bde
100
AcDbEntity
8
0-0
62
3
100
AcDbPoint
10
311.730000000000
20
1046.610000000000
30
0.0
0
POINT
5
bdf
100
AcDbEntity
8
0-0
62
3
100
AcDbPoint
10
311.730000000000
20
1032.610000000000
30
0.0
0
POINT
5
be0
100
AcDbEntity
8
0-0
62
3
100
AcDbPoint
10
258.980000000000
20
1021.110000000000
30
0.0
0
POINT
5
be1
100
AcDbEntity
8
0-0
62
3
100
AcDbPoint
10
288.980000000000
20
1021.110000000000
30
0.0
0
POINT
5
be2
100
AcDbEntity
8
0-0
62
3
100
AcDbPoint
10
288.980000000000
20
1006.110000000000
30
0.0
0
POINT
5
be3
100
AcDbEntity
8
0-0
62
3
100
AcDbPoint
10
258.980000000000
20
1006.110000000000
30
0.0
0
POINT
5
be4
100
AcDbEntity
8
0-0
62
3
100
AcDbPoint
10
266.980000000000
20
1021.110000000000
30
0.0
0
POINT
5
be5
100
AcDbEntity
8
0-0
62
3
100
AcDbPoint
10
272.980000000000
20
1021.110000000000
30
0.0
0
POINT
5
be6
100
AcDbEntity
8
0-0
62
3
100
AcDbPoint
10
385.880000000000
20
1013.110000000000
30
0.0
0
POINT
5
be7
100
AcDbEntity
8
0-0
62
3
100
AcDbPoint
10
385.880000000000
20
1063.110000000000
30
0.0
0
POINT
5
be8
100
AcDbEntity
8
0-0
62
3
100
AcDbPoint
10
402.880000000000
20
993.610000000000
30
0.0
0
POINT
5
be9
100
AcDbEntity
8
0-0
62
3
100
AcDbPoint
10
402.880000000000
20
985.610000000000
30
0.0
0
POINT
5
bea
100
AcDbEntity
8
0-0
62
3
100
AcDbPoint
10
429.380000000000
20
1010.610000000000
30
0.0
0
POINT
5
beb
100
AcDbEntity
8
0-0
62
3
100
AcDbPoint
10
429.380000000000
20
985.610000000000
30
0.0
0
POINT
5
bec
100
AcDbEntity
8
0-0
62
3
100
AcDbPoint
10
396.380000000000
20
1023.610000000000
30
0.0
0
POINT
5
bed
100
AcDbEntity
8
0-0
62
3
100
AcDbPoint
10
419.380000000000
20
1023.610000000000
30
0.0
0
POINT
5
bee
100
AcDbEntity
8
0-0
62
3
100
AcDbPoint
10
410.380000000000
20
975.610000000000
30
0.0
0
POINT
5
bef
100
AcDbEntity
8
0-0
62
3
100
AcDbPoint
10
419.380000000000
20
975.610000000000
30
0.0
0
POINT
5
bf0
100
AcDbEntity
8
0-0
62
3
100
AcDbPoint
10
518.780000000000
20
1013.110000000000
30
0.0
0
POINT
5
bf1
100
AcDbEntity
8
0-0
62
3
100
AcDbPoint
10
518.780000000000
20
1063.110000000000
30
0.0
0
POINT
5
bf2
100
AcDbEntity
8
0-0
62
3
100
AcDbPoint
10
509.780000000000
20
994.610000000000
30
0.0
0
POINT
5
bf3
100
AcDbEntity
8
0-0
62
3
100
AcDbPoint
10
509.780000000000
20
985.610000000000
30
0.0
0
POINT
5
bf4
100
AcDbEntity
8
0-0
62
3
100
AcDbPoint
10
562.280000000000
20
1010.610000000000
30
0.0
0
POINT
5
bf5
100
AcDbEntity
8
0-0
62
3
100
AcDbPoint
10
562.280000000000
20
985.610000000000
30
0.0
0
POINT
5
bf6
100
AcDbEntity
8
0-0
62
3
100
AcDbPoint
10
529.280000000000
20
1023.610000000000
30
0.0
0
POINT
5
bf7
100
AcDbEntity
8
0-0
62
3
100
AcDbPoint
10
552.280000000000
20
1023.610000000000
30
0.0
0
POINT
5
bf8
100
AcDbEntity
8
0-0
62
3
100
AcDbPoint
10
517.280000000000
20
975.610000000000
30
0.0
0
POINT
5
bf9
100
AcDbEntity
8
0-0
62
3
100
AcDbPoint
10
552.280000000000
20
975.610000000000
30
0.0
0
POINT
5
bfa
100
AcDbEntity
8
0-0
62
3
100
AcDbPoint
10
562.280000000000
20
1013.610000000000
30
0.0
0
POINT
5
bfb
100
AcDbEntity
8
0-0
62
3
100
AcDbPoint
10
429.380000000000
20
1013.610000000000
30
0.0
0
POINT
5
bfc
100
AcDbEntity
8
0-0
62
3
100
AcDbPoint
10
525.280000000000
20
1002.110000000000
30
0.0
0
POINT
5
bfd
100
AcDbEntity
8
0-0
62
3
100
AcDbPoint
10
517.280000000000
20
1002.110000000000
30
0.0
0
POINT
5
bfe
100
AcDbEntity
8
0-0
62
3
100
AcDbPoint
10
150.080000000000
20
1048.110000000000
30
0.0
0
POINT
5
bff
100
AcDbEntity
8
0-0
62
3
100
AcDbPoint
10
150.080000000000
20
1034.110000000000
30
0.0
0
ENDSEC
0
EOF
