0
SECTION
2
HEADER
9
$ACADVER
1
AC1009
9
$DWGCODEPAGE
3
ANSI_932
9
$EXTMIN
10
0.000
20
0.000
30
0.0
9
$EXTMAX
10
1682.000
20
1188.000
30
0.0
9
$LTSCALE
40
2.000
9
$PDMODE
70
0
9
$PDSIZE
40
40.0
0
ENDSEC
0
SECTION
2
TABLES
0
TABLE
2
LTYPE
70
9
0
LTYPE
5
1f4
2
CONTINUOUS
70
64
3
SolidLine
72
65
73
0
40
0.0
0
LTYPE
5
1f5
2
DOT
70
64
3
--  --  --  --  --  --  --  --     
72
65
73
2
40
3.000
49
1.000
49
-2.000
0
LTYPE
5
1f6
2
DASHED
70
64
3
----    ----    ----    ----    
72
65
73
2
40
5.000
49
2.000
49
-3.000
0
LTYPE
5
1f7
2
DASHED2
70
64
3
------  ------  ------  ------ 
72
65
73
2
40
10.000
49
4.000
49
-6.000
0
LTYPE
5
1f8
2
CENTER
70
64
3
----- - ----- - ----- - ----- - 
72
65
73
4
40
10.000
49
6.000
49
-3.000
49
1.000
49
-3.000
0
LTYPE
5
1f9
2
CENTER2
70
64
3
----------  --  ----------  -- 
72
65
73
4
40
17.000
49
12.000
49
-5.000
49
2.000
49
-5.000
0
LTYPE
5
1fa
2
PHANTOM
70
64
3
--- - - --- - - --- - - --- - -
72
65
73
6
40
13.000
49
5.000
49
-3.000
49
1.000
49
-3.000
49
1.000
49
-3.000
0
LTYPE
5
1fb
2
PHANTOM2
70
64
3
--------  -  -  --------  -  -
72
65
73
6
40
20.000
49
6.000
49
-5.000
49
2.000
49
-5.000
49
2.000
49
-5.000
0
LTYPE
5
1fc
2
HIDDEN
70
64
3
-   -   -   -   -   -   -   -   
72
65
73
2
40
3.000
49
0.500
49
-2.500
0
ENDTAB
0
TABLE
2
STYLE
70
1
0
STYLE
5
1fd
100
AcDbSymbolTableRecord
100
AcDbTextStyleTableRecord
2
STANDARD
70
0
40
0.0
41
1.0
50
0.0
71
0
42
0.0
3
txt.shx
4
extfont.shx
0
STYLE
5
1fe
100
AcDbSymbolTableRecord
100
AcDbTextStyleTableRecord
2
TATEGAKI
70
4
40
0.0
41
1.0
50
0.0
71
0
42
0.0
3
txt.shx
4
extfont.shx
0
STYLE
5
1ff
100
AcDbSymbolTableRecord
100
AcDbTextStyleTableRecord
2
DIM
70
0
40
0.0
41
0.75
50
0.0
71
0
42
0.0
3
txt.shx
4
extfont.shx
0
STYLE
5
200
100
AcDbSymbolTableRecord
100
AcDbTextStyleTableRecord
2
_Gothic__
70
0
40
0.0
41
1.0
50
0.0
71
0
42
0.0
3
MS Gothic
4

0
STYLE
5
201
100
AcDbSymbolTableRecord
100
AcDbTextStyleTableRecord
2
_TateGothic_
70
4
40
0.0
41
1.0
50
0.0
71
0
42
0.0
3
@MS Gothic
4

0
ENDTAB
0
TABLE
2
LAYER
5
403
100
AcDbSymbolTable
70
10
0
LAYER
5
404
100
AcDbSymbolTableRecord
100
AcDbLayerTableRecord
2
0-000
70
0
62
7
6
CONTINUOUS
0
LAYER
5
405
100
AcDbSymbolTableRecord
100
AcDbLayerTableRecord
2
0-202
70
0
62
7
6
CONTINUOUS
0
LAYER
5
406
100
AcDbSymbolTableRecord
100
AcDbLayerTableRecord
2
F-F_J_ADD
70
0
62
-7
6
CONTINUOUS
0
ENDTAB
0
ENDSEC
0
SECTION
2
ENTITIES
0
LINE
5
407
100
AcDbEntity
8
0-202
6
CONTINUOUS
62
2
100
AcDbLine
10
54.760000000000
20
23.630000000000
30
0.0
11
54.760000000000
21
1143.640000000000
31
0.0
0
LINE
5
408
100
AcDbEntity
8
0-202
6
CONTINUOUS
62
2
100
AcDbLine
10
54.760000000000
20
23.630000000000
30
0.0
11
54.760000000000
21
23.630000000000
31
0.0
0
LINE
5
409
100
AcDbEntity
8
0-202
6
CONTINUOUS
62
2
100
AcDbLine
10
1284.760000000000
20
82.890000000000
30
0.0
11
1284.760000000000
21
23.630000000000
31
0.0
0
LINE
5
40a
100
AcDbEntity
8
0-202
6
CONTINUOUS
62
2
100
AcDbLine
10
1214.540000000000
20
82.890000000000
30
0.0
11
1214.540000000000
21
23.630000000000
31
0.0
0
LINE
5
40b
100
AcDbEntity
8
0-202
6
CONTINUOUS
62
2
100
AcDbLine
10
1537.120000000000
20
23.630000000000
30
0.0
11
1537.120000000000
21
82.890000000000
31
0.0
0
LINE
5
40c
100
AcDbEntity
8
0-202
6
CONTINUOUS
62
2
100
AcDbLine
10
806.890000000000
20
82.890000000000
30
0.0
11
806.890000000000
21
23.630000000000
31
0.0
0
LINE
5
40d
100
AcDbEntity
8
0-202
6
CONTINUOUS
62
2
100
AcDbLine
10
1009.740000000000
20
82.890000000000
30
0.0
11
1009.740000000000
21
23.630000000000
31
0.0
0
LINE
5
40e
100
AcDbEntity
8
0-202
6
CONTINUOUS
62
2
100
AcDbLine
10
806.890000000000
20
63.140000000000
30
0.0
11
369.760000000000
21
63.140000000000
31
0.0
0
LINE
5
40f
100
AcDbEntity
8
0-202
6
CONTINUOUS
62
2
100
AcDbLine
10
806.890000000000
20
43.390000000000
30
0.0
11
369.760000000000
21
43.390000000000
31
0.0
0
LINE
5
410
100
AcDbEntity
8
0-202
6
CONTINUOUS
62
2
100
AcDbLine
10
806.890000000000
20
33.510000000000
30
0.0
11
369.760000000000
21
33.510000000000
31
0.0
0
LINE
5
411
100
AcDbEntity
8
0-202
6
CONTINUOUS
62
2
100
AcDbLine
10
806.890000000000
20
73.020000000000
30
0.0
11
369.760000000000
21
73.020000000000
31
0.0
0
LINE
5
412
100
AcDbEntity
8
0-202
6
CONTINUOUS
62
2
100
AcDbLine
10
422.420000000000
20
82.890000000000
30
0.0
11
422.420000000000
21
23.630000000000
31
0.0
0
LINE
5
413
100
AcDbEntity
8
0-202
6
CONTINUOUS
62
2
100
AcDbLine
10
369.760000000000
20
82.890000000000
30
0.0
11
369.760000000000
21
23.630000000000
31
0.0
0
LINE
5
414
100
AcDbEntity
8
0-202
6
CONTINUOUS
62
2
100
AcDbLine
10
1631.650000000000
20
23.630000000000
30
0.0
11
1631.650000000000
21
1143.640000000000
31
0.0
0
LINE
5
415
100
AcDbEntity
8
0-202
6
CONTINUOUS
62
2
100
AcDbLine
10
54.760000000000
20
1143.640000000000
30
0.0
11
1631.650000000000
21
1143.640000000000
31
0.0
0
LINE
5
416
100
AcDbEntity
8
0-202
6
CONTINUOUS
62
2
100
AcDbLine
10
54.760000000000
20
23.630000000000
30
0.0
11
1631.650000000000
21
23.630000000000
31
0.0
0
LINE
5
417
100
AcDbEntity
8
0-202
6
CONTINUOUS
62
2
100
AcDbLine
10
1631.650000000000
20
82.890000000000
30
0.0
11
54.760000000000
21
82.890000000000
31
0.0
0
LINE
5
418
100
AcDbEntity
8
0-202
6
CONTINUOUS
62
2
100
AcDbLine
10
369.760000000000
20
53.260000000000
30
0.0
11
1631.650000000000
21
53.260000000000
31
0.0
0
LINE
5
419
100
AcDbEntity
8
0-000
6
CONTINUOUS
62
3
100
AcDbLine
10
550.230000000000
20
617.430000000000
30
0.0
11
568.590000000000
21
617.430000000000
31
0.0
0
LINE
5
41a
100
AcDbEntity
8
0-000
6
CONTINUOUS
62
3
100
AcDbLine
10
549.250000000000
20
616.630000000000
30
0.0
11
544.740000000000
21
594.040000000000
31
0.0
0
LINE
5
41b
100
AcDbEntity
8
0-000
6
CONTINUOUS
62
3
100
AcDbLine
10
542.770000000000
20
593.430000000000
30
0.0
11
523.590000000000
21
593.430000000000
31
0.0
0
LINE
5
41c
100
AcDbEntity
8
0-000
6
CONTINUOUS
62
3
100
AcDbLine
10
542.770000000000
20
592.430000000000
30
0.0
11
523.590000000000
21
592.430000000000
31
0.0
0
LINE
5
41d
100
AcDbEntity
8
0-000
6
CONTINUOUS
62
3
100
AcDbLine
10
550.230000000000
20
618.430000000000
30
0.0
11
568.590000000000
21
618.430000000000
31
0.0
0
LINE
5
41e
100
AcDbEntity
8
0-000
6
CONTINUOUS
62
3
100
AcDbLine
10
543.750000000000
20
594.230000000000
30
0.0
11
548.270000000000
21
616.820000000000
31
0.0
0
LINE
5
41f
100
AcDbEntity
8
0-000
6
CONTINUOUS
62
3
100
AcDbLine
10
496.950000000000
20
617.430000000000
30
0.0
11
478.590000000000
21
617.430000000000
31
0.0
0
LINE
5
420
100
AcDbEntity
8
0-000
6
CONTINUOUS
62
3
100
AcDbLine
10
497.930000000000
20
616.630000000000
30
0.0
11
502.450000000000
21
594.040000000000
31
0.0
0
LINE
5
421
100
AcDbEntity
8
0-000
6
CONTINUOUS
62
3
100
AcDbLine
10
504.410000000000
20
593.430000000000
30
0.0
11
523.590000000000
21
593.430000000000
31
0.0
0
LINE
5
422
100
AcDbEntity
8
0-000
6
CONTINUOUS
62
3
100
AcDbLine
10
504.410000000000
20
592.430000000000
30
0.0
11
523.590000000000
21
592.430000000000
31
0.0
0
LINE
5
423
100
AcDbEntity
8
0-000
6
CONTINUOUS
62
3
100
AcDbLine
10
496.950000000000
20
618.430000000000
30
0.0
11
478.590000000000
21
618.430000000000
31
0.0
0
LINE
5
424
100
AcDbEntity
8
0-000
6
CONTINUOUS
62
3
100
AcDbLine
10
503.430000000000
20
594.230000000000
30
0.0
11
498.920000000000
21
616.820000000000
31
0.0
0
LINE
5
425
100
AcDbEntity
8
0-000
6
CONTINUOUS
62
3
100
AcDbLine
10
550.230000000000
20
617.430000000000
30
0.0
11
568.590000000000
21
617.430000000000
31
0.0
0
LINE
5
426
100
AcDbEntity
8
0-000
6
CONTINUOUS
62
3
100
AcDbLine
10
549.250000000000
20
616.630000000000
30
0.0
11
544.740000000000
21
594.040000000000
31
0.0
0
LINE
5
427
100
AcDbEntity
8
0-000
6
CONTINUOUS
62
3
100
AcDbLine
10
542.770000000000
20
593.430000000000
30
0.0
11
523.590000000000
21
593.430000000000
31
0.0
0
LINE
5
428
100
AcDbEntity
8
0-000
6
CONTINUOUS
62
3
100
AcDbLine
10
542.770000000000
20
592.430000000000
30
0.0
11
523.590000000000
21
592.430000000000
31
0.0
0
LINE
5
429
100
AcDbEntity
8
0-000
6
CONTINUOUS
62
3
100
AcDbLine
10
550.230000000000
20
618.430000000000
30
0.0
11
568.590000000000
21
618.430000000000
31
0.0
0
LINE
5
42a
100
AcDbEntity
8
0-000
6
CONTINUOUS
62
3
100
AcDbLine
10
543.750000000000
20
594.230000000000
30
0.0
11
548.270000000000
21
616.820000000000
31
0.0
0
LINE
5
42b
100
AcDbEntity
8
0-000
6
CONTINUOUS
62
3
100
AcDbLine
10
460.230000000000
20
617.430000000000
30
0.0
11
478.590000000000
21
617.430000000000
31
0.0
0
LINE
5
42c
100
AcDbEntity
8
0-000
6
CONTINUOUS
62
3
100
AcDbLine
10
459.250000000000
20
616.630000000000
30
0.0
11
454.730000000000
21
594.040000000000
31
0.0
0
LINE
5
42d
100
AcDbEntity
8
0-000
6
CONTINUOUS
62
3
100
AcDbLine
10
460.230000000000
20
618.430000000000
30
0.0
11
478.590000000000
21
618.430000000000
31
0.0
0
LINE
5
42e
100
AcDbEntity
8
0-000
6
CONTINUOUS
62
3
100
AcDbLine
10
453.750000000000
20
594.230000000000
30
0.0
11
458.270000000000
21
616.820000000000
31
0.0
0
LINE
5
42f
100
AcDbEntity
8
0-000
6
CONTINUOUS
62
3
100
AcDbLine
10
586.950000000000
20
617.430000000000
30
0.0
11
568.590000000000
21
617.430000000000
31
0.0
0
LINE
5
430
100
AcDbEntity
8
0-000
6
CONTINUOUS
62
3
100
AcDbLine
10
587.930000000000
20
616.630000000000
30
0.0
11
592.450000000000
21
594.040000000000
31
0.0
0
LINE
5
431
100
AcDbEntity
8
0-000
6
CONTINUOUS
62
3
100
AcDbLine
10
594.410000000000
20
593.430000000000
30
0.0
11
613.590000000000
21
593.430000000000
31
0.0
0
LINE
5
432
100
AcDbEntity
8
0-000
6
CONTINUOUS
62
3
100
AcDbLine
10
594.410000000000
20
592.430000000000
30
0.0
11
613.590000000000
21
592.430000000000
31
0.0
0
LINE
5
433
100
AcDbEntity
8
0-000
6
CONTINUOUS
62
3
100
AcDbLine
10
586.950000000000
20
618.430000000000
30
0.0
11
568.590000000000
21
618.430000000000
31
0.0
0
LINE
5
434
100
AcDbEntity
8
0-000
6
CONTINUOUS
62
3
100
AcDbLine
10
593.430000000000
20
594.230000000000
30
0.0
11
588.920000000000
21
616.820000000000
31
0.0
0
LINE
5
435
100
AcDbEntity
8
0-000
6
CONTINUOUS
62
3
100
AcDbLine
10
640.230000000000
20
617.430000000000
30
0.0
11
658.590000000000
21
617.430000000000
31
0.0
0
LINE
5
436
100
AcDbEntity
8
0-000
6
CONTINUOUS
62
3
100
AcDbLine
10
639.250000000000
20
616.630000000000
30
0.0
11
634.730000000000
21
594.040000000000
31
0.0
0
LINE
5
437
100
AcDbEntity
8
0-000
6
CONTINUOUS
62
3
100
AcDbLine
10
632.770000000000
20
593.430000000000
30
0.0
11
613.590000000000
21
593.430000000000
31
0.0
0
LINE
5
438
100
AcDbEntity
8
0-000
6
CONTINUOUS
62
3
100
AcDbLine
10
632.770000000000
20
592.430000000000
30
0.0
11
613.590000000000
21
592.430000000000
31
0.0
0
LINE
5
439
100
AcDbEntity
8
0-000
6
CONTINUOUS
62
3
100
AcDbLine
10
640.230000000000
20
618.430000000000
30
0.0
11
658.590000000000
21
618.430000000000
31
0.0
0
LINE
5
43a
100
AcDbEntity
8
0-000
6
CONTINUOUS
62
3
100
AcDbLine
10
633.750000000000
20
594.230000000000
30
0.0
11
638.270000000000
21
616.820000000000
31
0.0
0
LINE
5
43b
100
AcDbEntity
8
0-000
6
CONTINUOUS
62
3
100
AcDbLine
10
586.950000000000
20
617.430000000000
30
0.0
11
568.590000000000
21
617.430000000000
31
0.0
0
LINE
5
43c
100
AcDbEntity
8
0-000
6
CONTINUOUS
62
3
100
AcDbLine
10
587.930000000000
20
616.630000000000
30
0.0
11
592.450000000000
21
594.040000000000
31
0.0
0
LINE
5
43d
100
AcDbEntity
8
0-000
6
CONTINUOUS
62
3
100
AcDbLine
10
594.410000000000
20
593.430000000000
30
0.0
11
613.590000000000
21
593.430000000000
31
0.0
0
LINE
5
43e
100
AcDbEntity
8
0-000
6
CONTINUOUS
62
3
100
AcDbLine
10
594.410000000000
20
592.430000000000
30
0.0
11
613.590000000000
21
592.430000000000
31
0.0
0
LINE
5
43f
100
AcDbEntity
8
0-000
6
CONTINUOUS
62
3
100
AcDbLine
10
586.950000000000
20
618.430000000000
30
0.0
11
568.590000000000
21
618.430000000000
31
0.0
0
LINE
5
440
100
AcDbEntity
8
0-000
6
CONTINUOUS
62
3
100
AcDbLine
10
593.430000000000
20
594.230000000000
30
0.0
11
588.920000000000
21
616.820000000000
31
0.0
0
LINE
5
441
100
AcDbEntity
8
0-000
6
CONTINUOUS
62
3
100
AcDbLine
10
766.950000000000
20
617.430000000000
30
0.0
11
748.590000000000
21
617.430000000000
31
0.0
0
LINE
5
442
100
AcDbEntity
8
0-000
6
CONTINUOUS
62
3
100
AcDbLine
10
767.930000000000
20
616.630000000000
30
0.0
11
772.450000000000
21
594.040000000000
31
0.0
0
LINE
5
443
100
AcDbEntity
8
0-000
6
CONTINUOUS
62
3
100
AcDbLine
10
774.410000000000
20
593.430000000000
30
0.0
11
793.590000000000
21
593.430000000000
31
0.0
0
LINE
5
444
100
AcDbEntity
8
0-000
6
CONTINUOUS
62
3
100
AcDbLine
10
774.410000000000
20
592.430000000000
30
0.0
11
793.590000000000
21
592.430000000000
31
0.0
0
LINE
5
445
100
AcDbEntity
8
0-000
6
CONTINUOUS
62
3
100
AcDbLine
10
766.950000000000
20
618.430000000000
30
0.0
11
748.590000000000
21
618.430000000000
31
0.0
0
LINE
5
446
100
AcDbEntity
8
0-000
6
CONTINUOUS
62
3
100
AcDbLine
10
773.430000000000
20
594.230000000000
30
0.0
11
768.920000000000
21
616.820000000000
31
0.0
0
LINE
5
447
100
AcDbEntity
8
0-000
6
CONTINUOUS
62
3
100
AcDbLine
10
820.230000000000
20
617.430000000000
30
0.0
11
838.590000000000
21
617.430000000000
31
0.0
0
LINE
5
448
100
AcDbEntity
8
0-000
6
CONTINUOUS
62
3
100
AcDbLine
10
819.250000000000
20
616.630000000000
30
0.0
11
814.740000000000
21
594.040000000000
31
0.0
0
LINE
5
449
100
AcDbEntity
8
0-000
6
CONTINUOUS
62
3
100
AcDbLine
10
812.770000000000
20
593.430000000000
30
0.0
11
793.590000000000
21
593.430000000000
31
0.0
0
LINE
5
44a
100
AcDbEntity
8
0-000
6
CONTINUOUS
62
3
100
AcDbLine
10
812.770000000000
20
592.430000000000
30
0.0
11
793.590000000000
21
592.430000000000
31
0.0
0
LINE
5
44b
100
AcDbEntity
8
0-000
6
CONTINUOUS
62
3
100
AcDbLine
10
820.230000000000
20
618.430000000000
30
0.0
11
838.590000000000
21
618.430000000000
31
0.0
0
LINE
5
44c
100
AcDbEntity
8
0-000
6
CONTINUOUS
62
3
100
AcDbLine
10
813.750000000000
20
594.230000000000
30
0.0
11
818.270000000000
21
616.820000000000
31
0.0
0
LINE
5
44d
100
AcDbEntity
8
0-000
6
CONTINUOUS
62
3
100
AcDbLine
10
766.950000000000
20
617.430000000000
30
0.0
11
748.590000000000
21
617.430000000000
31
0.0
0
LINE
5
44e
100
AcDbEntity
8
0-000
6
CONTINUOUS
62
3
100
AcDbLine
10
767.930000000000
20
616.630000000000
30
0.0
11
772.450000000000
21
594.040000000000
31
0.0
0
LINE
5
44f
100
AcDbEntity
8
0-000
6
CONTINUOUS
62
3
100
AcDbLine
10
774.410000000000
20
593.430000000000
30
0.0
11
793.590000000000
21
593.430000000000
31
0.0
0
LINE
5
450
100
AcDbEntity
8
0-000
6
CONTINUOUS
62
3
100
AcDbLine
10
774.410000000000
20
592.430000000000
30
0.0
11
793.590000000000
21
592.430000000000
31
0.0
0
LINE
5
451
100
AcDbEntity
8
0-000
6
CONTINUOUS
62
3
100
AcDbLine
10
766.950000000000
20
618.430000000000
30
0.0
11
748.590000000000
21
618.430000000000
31
0.0
0
LINE
5
452
100
AcDbEntity
8
0-000
6
CONTINUOUS
62
3
100
AcDbLine
10
773.430000000000
20
594.230000000000
30
0.0
11
768.920000000000
21
616.820000000000
31
0.0
0
LINE
5
453
100
AcDbEntity
8
0-000
6
CONTINUOUS
62
3
100
AcDbLine
10
730.230000000000
20
617.430000000000
30
0.0
11
748.590000000000
21
617.430000000000
31
0.0
0
LINE
5
454
100
AcDbEntity
8
0-000
6
CONTINUOUS
62
3
100
AcDbLine
10
729.250000000000
20
616.630000000000
30
0.0
11
724.740000000000
21
594.040000000000
31
0.0
0
LINE
5
455
100
AcDbEntity
8
0-000
6
CONTINUOUS
62
3
100
AcDbLine
10
722.770000000000
20
593.430000000000
30
0.0
11
703.590000000000
21
593.430000000000
31
0.0
0
LINE
5
456
100
AcDbEntity
8
0-000
6
CONTINUOUS
62
3
100
AcDbLine
10
722.770000000000
20
592.430000000000
30
0.0
11
703.590000000000
21
592.430000000000
31
0.0
0
LINE
5
457
100
AcDbEntity
8
0-000
6
CONTINUOUS
62
3
100
AcDbLine
10
730.230000000000
20
618.430000000000
30
0.0
11
748.590000000000
21
618.430000000000
31
0.0
0
LINE
5
458
100
AcDbEntity
8
0-000
6
CONTINUOUS
62
3
100
AcDbLine
10
723.750000000000
20
594.230000000000
30
0.0
11
728.270000000000
21
616.820000000000
31
0.0
0
LINE
5
459
100
AcDbEntity
8
0-000
6
CONTINUOUS
62
3
100
AcDbLine
10
676.950000000000
20
617.430000000000
30
0.0
11
658.590000000000
21
617.430000000000
31
0.0
0
LINE
5
45a
100
AcDbEntity
8
0-000
6
CONTINUOUS
62
3
100
AcDbLine
10
677.930000000000
20
616.630000000000
30
0.0
11
682.450000000000
21
594.040000000000
31
0.0
0
LINE
5
45b
100
AcDbEntity
8
0-000
6
CONTINUOUS
62
3
100
AcDbLine
10
684.410000000000
20
593.430000000000
30
0.0
11
703.590000000000
21
593.430000000000
31
0.0
0
LINE
5
45c
100
AcDbEntity
8
0-000
6
CONTINUOUS
62
3
100
AcDbLine
10
684.410000000000
20
592.430000000000
30
0.0
11
703.590000000000
21
592.430000000000
31
0.0
0
LINE
5
45d
100
AcDbEntity
8
0-000
6
CONTINUOUS
62
3
100
AcDbLine
10
676.950000000000
20
618.430000000000
30
0.0
11
658.590000000000
21
618.430000000000
31
0.0
0
LINE
5
45e
100
AcDbEntity
8
0-000
6
CONTINUOUS
62
3
100
AcDbLine
10
683.430000000000
20
594.230000000000
30
0.0
11
678.920000000000
21
616.820000000000
31
0.0
0
LINE
5
45f
100
AcDbEntity
8
0-000
6
CONTINUOUS
62
3
100
AcDbLine
10
730.230000000000
20
617.430000000000
30
0.0
11
748.590000000000
21
617.430000000000
31
0.0
0
LINE
5
460
100
AcDbEntity
8
0-000
6
CONTINUOUS
62
3
100
AcDbLine
10
729.250000000000
20
616.630000000000
30
0.0
11
724.740000000000
21
594.040000000000
31
0.0
0
LINE
5
461
100
AcDbEntity
8
0-000
6
CONTINUOUS
62
3
100
AcDbLine
10
722.770000000000
20
593.430000000000
30
0.0
11
703.590000000000
21
593.430000000000
31
0.0
0
LINE
5
462
100
AcDbEntity
8
0-000
6
CONTINUOUS
62
3
100
AcDbLine
10
722.770000000000
20
592.430000000000
30
0.0
11
703.590000000000
21
592.430000000000
31
0.0
0
LINE
5
463
100
AcDbEntity
8
0-000
6
CONTINUOUS
62
3
100
AcDbLine
10
730.230000000000
20
618.430000000000
30
0.0
11
748.590000000000
21
618.430000000000
31
0.0
0
LINE
5
464
100
AcDbEntity
8
0-000
6
CONTINUOUS
62
3
100
AcDbLine
10
723.750000000000
20
594.230000000000
30
0.0
11
728.270000000000
21
616.820000000000
31
0.0
0
LINE
5
465
100
AcDbEntity
8
0-000
6
CONTINUOUS
62
3
100
AcDbLine
10
910.230000000000
20
617.430000000000
30
0.0
11
928.590000000000
21
617.430000000000
31
0.0
0
LINE
5
466
100
AcDbEntity
8
0-000
6
CONTINUOUS
62
3
100
AcDbLine
10
909.250000000000
20
616.630000000000
30
0.0
11
904.740000000000
21
594.040000000000
31
0.0
0
LINE
5
467
100
AcDbEntity
8
0-000
6
CONTINUOUS
62
3
100
AcDbLine
10
902.770000000000
20
593.430000000000
30
0.0
11
883.590000000000
21
593.430000000000
31
0.0
0
LINE
5
468
100
AcDbEntity
8
0-000
6
CONTINUOUS
62
3
100
AcDbLine
10
902.770000000000
20
592.430000000000
30
0.0
11
883.590000000000
21
592.430000000000
31
0.0
0
LINE
5
469
100
AcDbEntity
8
0-000
6
CONTINUOUS
62
3
100
AcDbLine
10
910.230000000000
20
618.430000000000
30
0.0
11
928.590000000000
21
618.430000000000
31
0.0
0
LINE
5
46a
100
AcDbEntity
8
0-000
6
CONTINUOUS
62
3
100
AcDbLine
10
903.750000000000
20
594.230000000000
30
0.0
11
908.270000000000
21
616.820000000000
31
0.0
0
LINE
5
46b
100
AcDbEntity
8
0-000
6
CONTINUOUS
62
3
100
AcDbLine
10
856.950000000000
20
617.430000000000
30
0.0
11
838.590000000000
21
617.430000000000
31
0.0
0
LINE
5
46c
100
AcDbEntity
8
0-000
6
CONTINUOUS
62
3
100
AcDbLine
10
857.930000000000
20
616.630000000000
30
0.0
11
862.450000000000
21
594.040000000000
31
0.0
0
LINE
5
46d
100
AcDbEntity
8
0-000
6
CONTINUOUS
62
3
100
AcDbLine
10
864.410000000000
20
593.430000000000
30
0.0
11
883.590000000000
21
593.430000000000
31
0.0
0
LINE
5
46e
100
AcDbEntity
8
0-000
6
CONTINUOUS
62
3
100
AcDbLine
10
864.410000000000
20
592.430000000000
30
0.0
11
883.590000000000
21
592.430000000000
31
0.0
0
LINE
5
46f
100
AcDbEntity
8
0-000
6
CONTINUOUS
62
3
100
AcDbLine
10
856.950000000000
20
618.430000000000
30
0.0
11
838.590000000000
21
618.430000000000
31
0.0
0
LINE
5
470
100
AcDbEntity
8
0-000
6
CONTINUOUS
62
3
100
AcDbLine
10
863.430000000000
20
594.230000000000
30
0.0
11
858.920000000000
21
616.820000000000
31
0.0
0
LINE
5
471
100
AcDbEntity
8
0-000
6
CONTINUOUS
62
3
100
AcDbLine
10
910.230000000000
20
617.430000000000
30
0.0
11
928.590000000000
21
617.430000000000
31
0.0
0
LINE
5
472
100
AcDbEntity
8
0-000
6
CONTINUOUS
62
3
100
AcDbLine
10
909.250000000000
20
616.630000000000
30
0.0
11
904.740000000000
21
594.040000000000
31
0.0
0
LINE
5
473
100
AcDbEntity
8
0-000
6
CONTINUOUS
62
3
100
AcDbLine
10
902.770000000000
20
593.430000000000
30
0.0
11
883.590000000000
21
593.430000000000
31
0.0
0
LINE
5
474
100
AcDbEntity
8
0-000
6
CONTINUOUS
62
3
100
AcDbLine
10
902.770000000000
20
592.430000000000
30
0.0
11
883.590000000000
21
592.430000000000
31
0.0
0
LINE
5
475
100
AcDbEntity
8
0-000
6
CONTINUOUS
62
3
100
AcDbLine
10
910.230000000000
20
618.430000000000
30
0.0
11
928.590000000000
21
618.430000000000
31
0.0
0
LINE
5
476
100
AcDbEntity
8
0-000
6
CONTINUOUS
62
3
100
AcDbLine
10
903.750000000000
20
594.230000000000
30
0.0
11
908.270000000000
21
616.820000000000
31
0.0
0
LINE
5
477
100
AcDbEntity
8
0-000
6
CONTINUOUS
62
3
100
AcDbLine
10
946.950000000000
20
617.430000000000
30
0.0
11
928.590000000000
21
617.430000000000
31
0.0
0
LINE
5
478
100
AcDbEntity
8
0-000
6
CONTINUOUS
62
3
100
AcDbLine
10
947.930000000000
20
616.630000000000
30
0.0
11
952.450000000000
21
594.040000000000
31
0.0
0
LINE
5
479
100
AcDbEntity
8
0-000
6
CONTINUOUS
62
3
100
AcDbLine
10
954.410000000000
20
593.430000000000
30
0.0
11
973.590000000000
21
593.430000000000
31
0.0
0
LINE
5
47a
100
AcDbEntity
8
0-000
6
CONTINUOUS
62
3
100
AcDbLine
10
954.410000000000
20
592.430000000000
30
0.0
11
973.590000000000
21
592.430000000000
31
0.0
0
LINE
5
47b
100
AcDbEntity
8
0-000
6
CONTINUOUS
62
3
100
AcDbLine
10
946.950000000000
20
618.430000000000
30
0.0
11
928.590000000000
21
618.430000000000
31
0.0
0
LINE
5
47c
100
AcDbEntity
8
0-000
6
CONTINUOUS
62
3
100
AcDbLine
10
953.430000000000
20
594.230000000000
30
0.0
11
948.920000000000
21
616.820000000000
31
0.0
0
LINE
5
47d
100
AcDbEntity
8
0-000
6
CONTINUOUS
62
3
100
AcDbLine
10
1000.230000000000
20
617.430000000000
30
0.0
11
1018.590000000000
21
617.430000000000
31
0.0
0
LINE
5
47e
100
AcDbEntity
8
0-000
6
CONTINUOUS
62
3
100
AcDbLine
10
999.250000000000
20
616.630000000000
30
0.0
11
994.740000000000
21
594.040000000000
31
0.0
0
LINE
5
47f
100
AcDbEntity
8
0-000
6
CONTINUOUS
62
3
100
AcDbLine
10
992.770000000000
20
593.430000000000
30
0.0
11
973.590000000000
21
593.430000000000
31
0.0
0
LINE
5
480
100
AcDbEntity
8
0-000
6
CONTINUOUS
62
3
100
AcDbLine
10
992.770000000000
20
592.430000000000
30
0.0
11
973.590000000000
21
592.430000000000
31
0.0
0
LINE
5
481
100
AcDbEntity
8
0-000
6
CONTINUOUS
62
3
100
AcDbLine
10
1000.230000000000
20
618.430000000000
30
0.0
11
1018.590000000000
21
618.430000000000
31
0.0
0
LINE
5
482
100
AcDbEntity
8
0-000
6
CONTINUOUS
62
3
100
AcDbLine
10
993.750000000000
20
594.230000000000
30
0.0
11
998.270000000000
21
616.820000000000
31
0.0
0
LINE
5
483
100
AcDbEntity
8
0-000
6
CONTINUOUS
62
3
100
AcDbLine
10
946.950000000000
20
617.430000000000
30
0.0
11
928.590000000000
21
617.430000000000
31
0.0
0
LINE
5
484
100
AcDbEntity
8
0-000
6
CONTINUOUS
62
3
100
AcDbLine
10
947.930000000000
20
616.630000000000
30
0.0
11
952.450000000000
21
594.040000000000
31
0.0
0
LINE
5
485
100
AcDbEntity
8
0-000
6
CONTINUOUS
62
3
100
AcDbLine
10
954.410000000000
20
593.430000000000
30
0.0
11
973.590000000000
21
593.430000000000
31
0.0
0
LINE
5
486
100
AcDbEntity
8
0-000
6
CONTINUOUS
62
3
100
AcDbLine
10
954.410000000000
20
592.430000000000
30
0.0
11
973.590000000000
21
592.430000000000
31
0.0
0
LINE
5
487
100
AcDbEntity
8
0-000
6
CONTINUOUS
62
3
100
AcDbLine
10
946.950000000000
20
618.430000000000
30
0.0
11
928.590000000000
21
618.430000000000
31
0.0
0
LINE
5
488
100
AcDbEntity
8
0-000
6
CONTINUOUS
62
3
100
AcDbLine
10
953.430000000000
20
594.230000000000
30
0.0
11
948.920000000000
21
616.820000000000
31
0.0
0
LINE
5
489
100
AcDbEntity
8
0-000
6
CONTINUOUS
62
3
100
AcDbLine
10
1036.950000000000
20
617.430000000000
30
0.0
11
1018.590000000000
21
617.430000000000
31
0.0
0
LINE
5
48a
100
AcDbEntity
8
0-000
6
CONTINUOUS
62
3
100
AcDbLine
10
1037.930000000000
20
616.630000000000
30
0.0
11
1042.450000000000
21
594.040000000000
31
0.0
0
LINE
5
48b
100
AcDbEntity
8
0-000
6
CONTINUOUS
62
3
100
AcDbLine
10
1044.410000000000
20
593.430000000000
30
0.0
11
1063.590000000000
21
593.430000000000
31
0.0
0
LINE
5
48c
100
AcDbEntity
8
0-000
6
CONTINUOUS
62
3
100
AcDbLine
10
1036.950000000000
20
618.430000000000
30
0.0
11
1018.590000000000
21
618.430000000000
31
0.0
0
LINE
5
48d
100
AcDbEntity
8
0-000
6
CONTINUOUS
62
3
100
AcDbLine
10
1043.430000000000
20
594.230000000000
30
0.0
11
1038.920000000000
21
616.820000000000
31
0.0
0
LINE
5
48e
100
AcDbEntity
8
0-000
6
CONTINUOUS
62
3
100
AcDbLine
10
417.590000000000
20
593.430000000000
30
0.0
11
417.590000000000
21
592.430000000000
31
0.0
0
LINE
5
48f
100
AcDbEntity
8
0-000
6
CONTINUOUS
62
3
100
AcDbLine
10
1080.090000000000
20
593.430000000000
30
0.0
11
1080.090000000000
21
592.430000000000
31
0.0
0
LINE
5
490
100
AcDbEntity
8
0-000
6
CONTINUOUS
62
3
100
AcDbLine
10
550.230000000000
20
369.430000000000
30
0.0
11
568.590000000000
21
369.430000000000
31
0.0
0
LINE
5
491
100
AcDbEntity
8
0-000
6
CONTINUOUS
62
3
100
AcDbLine
10
549.250000000000
20
368.630000000000
30
0.0
11
544.740000000000
21
346.040000000000
31
0.0
0
LINE
5
492
100
AcDbEntity
8
0-000
6
CONTINUOUS
62
3
100
AcDbLine
10
542.770000000000
20
345.430000000000
30
0.0
11
523.590000000000
21
345.430000000000
31
0.0
0
LINE
5
493
100
AcDbEntity
8
0-000
6
CONTINUOUS
62
3
100
AcDbLine
10
542.770000000000
20
344.430000000000
30
0.0
11
523.590000000000
21
344.430000000000
31
0.0
0
LINE
5
494
100
AcDbEntity
8
0-000
6
CONTINUOUS
62
3
100
AcDbLine
10
550.230000000000
20
370.430000000000
30
0.0
11
568.590000000000
21
370.430000000000
31
0.0
0
LINE
5
495
100
AcDbEntity
8
0-000
6
CONTINUOUS
62
3
100
AcDbLine
10
543.750000000000
20
346.230000000000
30
0.0
11
548.270000000000
21
368.820000000000
31
0.0
0
LINE
5
496
100
AcDbEntity
8
0-000
6
CONTINUOUS
62
3
100
AcDbLine
10
496.950000000000
20
369.430000000000
30
0.0
11
478.590000000000
21
369.430000000000
31
0.0
0
LINE
5
497
100
AcDbEntity
8
0-000
6
CONTINUOUS
62
3
100
AcDbLine
10
497.930000000000
20
368.630000000000
30
0.0
11
502.450000000000
21
346.040000000000
31
0.0
0
LINE
5
498
100
AcDbEntity
8
0-000
6
CONTINUOUS
62
3
100
AcDbLine
10
504.410000000000
20
345.430000000000
30
0.0
11
523.590000000000
21
345.430000000000
31
0.0
0
LINE
5
499
100
AcDbEntity
8
0-000
6
CONTINUOUS
62
3
100
AcDbLine
10
504.410000000000
20
344.430000000000
30
0.0
11
523.590000000000
21
344.430000000000
31
0.0
0
LINE
5
49a
100
AcDbEntity
8
0-000
6
CONTINUOUS
62
3
100
AcDbLine
10
496.950000000000
20
370.430000000000
30
0.0
11
478.590000000000
21
370.430000000000
31
0.0
0
LINE
5
49b
100
AcDbEntity
8
0-000
6
CONTINUOUS
62
3
100
AcDbLine
10
503.430000000000
20
346.230000000000
30
0.0
11
498.920000000000
21
368.820000000000
31
0.0
0
LINE
5
49c
100
AcDbEntity
8
0-000
6
CONTINUOUS
62
3
100
AcDbLine
10
550.230000000000
20
369.430000000000
30
0.0
11
568.590000000000
21
369.430000000000
31
0.0
0
LINE
5
49d
100
AcDbEntity
8
0-000
6
CONTINUOUS
62
3
100
AcDbLine
10
549.250000000000
20
368.630000000000
30
0.0
11
544.740000000000
21
346.040000000000
31
0.0
0
LINE
5
49e
100
AcDbEntity
8
0-000
6
CONTINUOUS
62
3
100
AcDbLine
10
542.770000000000
20
345.430000000000
30
0.0
11
523.590000000000
21
345.430000000000
31
0.0
0
LINE
5
49f
100
AcDbEntity
8
0-000
6
CONTINUOUS
62
3
100
AcDbLine
10
550.230000000000
20
370.430000000000
30
0.0
11
568.590000000000
21
370.430000000000
31
0.0
0
LINE
5
4a0
100
AcDbEntity
8
0-000
6
CONTINUOUS
62
3
100
AcDbLine
10
543.750000000000
20
346.230000000000
30
0.0
11
548.270000000000
21
368.820000000000
31
0.0
0
LINE
5
4a1
100
AcDbEntity
8
0-000
6
CONTINUOUS
62
3
100
AcDbLine
10
460.230000000000
20
369.430000000000
30
0.0
11
478.590000000000
21
369.430000000000
31
0.0
0
LINE
5
4a2
100
AcDbEntity
8
0-000
6
CONTINUOUS
62
3
100
AcDbLine
10
460.230000000000
20
370.430000000000
30
0.0
11
478.590000000000
21
370.430000000000
31
0.0
0
LINE
5
4a3
100
AcDbEntity
8
0-000
6
CONTINUOUS
62
3
100
AcDbLine
10
586.950000000000
20
369.430000000000
30
0.0
11
568.590000000000
21
369.430000000000
31
0.0
0
LINE
5
4a4
100
AcDbEntity
8
0-000
6
CONTINUOUS
62
3
100
AcDbLine
10
587.930000000000
20
368.630000000000
30
0.0
11
592.450000000000
21
346.040000000000
31
0.0
0
LINE
5
4a5
100
AcDbEntity
8
0-000
6
CONTINUOUS
62
3
100
AcDbLine
10
594.410000000000
20
345.430000000000
30
0.0
11
613.590000000000
21
345.430000000000
31
0.0
0
LINE
5
4a6
100
AcDbEntity
8
0-000
6
CONTINUOUS
62
3
100
AcDbLine
10
594.410000000000
20
344.430000000000
30
0.0
11
613.590000000000
21
344.430000000000
31
0.0
0
LINE
5
4a7
100
AcDbEntity
8
0-000
6
CONTINUOUS
62
3
100
AcDbLine
10
586.950000000000
20
370.430000000000
30
0.0
11
568.590000000000
21
370.430000000000
31
0.0
0
LINE
5
4a8
100
AcDbEntity
8
0-000
6
CONTINUOUS
62
3
100
AcDbLine
10
593.430000000000
20
346.230000000000
30
0.0
11
588.920000000000
21
368.820000000000
31
0.0
0
LINE
5
4a9
100
AcDbEntity
8
0-000
6
CONTINUOUS
62
3
100
AcDbLine
10
640.230000000000
20
369.430000000000
30
0.0
11
658.590000000000
21
369.430000000000
31
0.0
0
LINE
5
4aa
100
AcDbEntity
8
0-000
6
CONTINUOUS
62
3
100
AcDbLine
10
639.250000000000
20
368.630000000000
30
0.0
11
634.730000000000
21
346.040000000000
31
0.0
0
LINE
5
4ab
100
AcDbEntity
8
0-000
6
CONTINUOUS
62
3
100
AcDbLine
10
632.770000000000
20
345.430000000000
30
0.0
11
613.590000000000
21
345.430000000000
31
0.0
0
LINE
5
4ac
100
AcDbEntity
8
0-000
6
CONTINUOUS
62
3
100
AcDbLine
10
632.770000000000
20
344.430000000000
30
0.0
11
613.590000000000
21
344.430000000000
31
0.0
0
LINE
5
4ad
100
AcDbEntity
8
0-000
6
CONTINUOUS
62
3
100
AcDbLine
10
640.230000000000
20
370.430000000000
30
0.0
11
658.590000000000
21
370.430000000000
31
0.0
0
LINE
5
4ae
100
AcDbEntity
8
0-000
6
CONTINUOUS
62
3
100
AcDbLine
10
633.750000000000
20
346.230000000000
30
0.0
11
638.270000000000
21
368.820000000000
31
0.0
0
LINE
5
4af
100
AcDbEntity
8
0-000
6
CONTINUOUS
62
3
100
AcDbLine
10
586.950000000000
20
369.430000000000
30
0.0
11
568.590000000000
21
369.430000000000
31
0.0
0
LINE
5
4b0
100
AcDbEntity
8
0-000
6
CONTINUOUS
62
3
100
AcDbLine
10
587.930000000000
20
368.630000000000
30
0.0
11
592.450000000000
21
346.040000000000
31
0.0
0
LINE
5
4b1
100
AcDbEntity
8
0-000
6
CONTINUOUS
62
3
100
AcDbLine
10
594.410000000000
20
345.430000000000
30
0.0
11
613.590000000000
21
345.430000000000
31
0.0
0
LINE
5
4b2
100
AcDbEntity
8
0-000
6
CONTINUOUS
62
3
100
AcDbLine
10
594.410000000000
20
344.430000000000
30
0.0
11
613.590000000000
21
344.430000000000
31
0.0
0
LINE
5
4b3
100
AcDbEntity
8
0-000
6
CONTINUOUS
62
3
100
AcDbLine
10
586.950000000000
20
370.430000000000
30
0.0
11
568.590000000000
21
370.430000000000
31
0.0
0
LINE
5
4b4
100
AcDbEntity
8
0-000
6
CONTINUOUS
62
3
100
AcDbLine
10
593.430000000000
20
346.230000000000
30
0.0
11
588.920000000000
21
368.820000000000
31
0.0
0
LINE
5
4b5
100
AcDbEntity
8
0-000
6
CONTINUOUS
62
3
100
AcDbLine
10
766.950000000000
20
369.430000000000
30
0.0
11
748.590000000000
21
369.430000000000
31
0.0
0
LINE
5
4b6
100
AcDbEntity
8
0-000
6
CONTINUOUS
62
3
100
AcDbLine
10
767.930000000000
20
368.630000000000
30
0.0
11
772.450000000000
21
346.040000000000
31
0.0
0
LINE
5
4b7
100
AcDbEntity
8
0-000
6
CONTINUOUS
62
3
100
AcDbLine
10
774.410000000000
20
345.430000000000
30
0.0
11
793.590000000000
21
345.430000000000
31
0.0
0
LINE
5
4b8
100
AcDbEntity
8
0-000
6
CONTINUOUS
62
3
100
AcDbLine
10
774.410000000000
20
344.430000000000
30
0.0
11
793.590000000000
21
344.430000000000
31
0.0
0
LINE
5
4b9
100
AcDbEntity
8
0-000
6
CONTINUOUS
62
3
100
AcDbLine
10
766.950000000000
20
370.430000000000
30
0.0
11
748.590000000000
21
370.430000000000
31
0.0
0
LINE
5
4ba
100
AcDbEntity
8
0-000
6
CONTINUOUS
62
3
100
AcDbLine
10
773.430000000000
20
346.230000000000
30
0.0
11
768.920000000000
21
368.820000000000
31
0.0
0
LINE
5
4bb
100
AcDbEntity
8
0-000
6
CONTINUOUS
62
3
100
AcDbLine
10
820.230000000000
20
369.430000000000
30
0.0
11
838.590000000000
21
369.430000000000
31
0.0
0
LINE
5
4bc
100
AcDbEntity
8
0-000
6
CONTINUOUS
62
3
100
AcDbLine
10
819.250000000000
20
368.630000000000
30
0.0
11
814.740000000000
21
346.040000000000
31
0.0
0
LINE
5
4bd
100
AcDbEntity
8
0-000
6
CONTINUOUS
62
3
100
AcDbLine
10
812.770000000000
20
345.430000000000
30
0.0
11
793.590000000000
21
345.430000000000
31
0.0
0
LINE
5
4be
100
AcDbEntity
8
0-000
6
CONTINUOUS
62
3
100
AcDbLine
10
812.770000000000
20
344.430000000000
30
0.0
11
793.590000000000
21
344.430000000000
31
0.0
0
LINE
5
4bf
100
AcDbEntity
8
0-000
6
CONTINUOUS
62
3
100
AcDbLine
10
820.230000000000
20
370.430000000000
30
0.0
11
838.590000000000
21
370.430000000000
31
0.0
0
LINE
5
4c0
100
AcDbEntity
8
0-000
6
CONTINUOUS
62
3
100
AcDbLine
10
813.750000000000
20
346.230000000000
30
0.0
11
818.270000000000
21
368.820000000000
31
0.0
0
LINE
5
4c1
100
AcDbEntity
8
0-000
6
CONTINUOUS
62
3
100
AcDbLine
10
766.950000000000
20
369.430000000000
30
0.0
11
748.590000000000
21
369.430000000000
31
0.0
0
LINE
5
4c2
100
AcDbEntity
8
0-000
6
CONTINUOUS
62
3
100
AcDbLine
10
767.930000000000
20
368.630000000000
30
0.0
11
772.450000000000
21
346.040000000000
31
0.0
0
LINE
5
4c3
100
AcDbEntity
8
0-000
6
CONTINUOUS
62
3
100
AcDbLine
10
774.410000000000
20
345.430000000000
30
0.0
11
793.590000000000
21
345.430000000000
31
0.0
0
LINE
5
4c4
100
AcDbEntity
8
0-000
6
CONTINUOUS
62
3
100
AcDbLine
10
774.410000000000
20
344.430000000000
30
0.0
11
793.590000000000
21
344.430000000000
31
0.0
0
LINE
5
4c5
100
AcDbEntity
8
0-000
6
CONTINUOUS
62
3
100
AcDbLine
10
766.950000000000
20
370.430000000000
30
0.0
11
748.590000000000
21
370.430000000000
31
0.0
0
LINE
5
4c6
100
AcDbEntity
8
0-000
6
CONTINUOUS
62
3
100
AcDbLine
10
773.430000000000
20
346.230000000000
30
0.0
11
768.920000000000
21
368.820000000000
31
0.0
0
LINE
5
4c7
100
AcDbEntity
8
0-000
6
CONTINUOUS
62
3
100
AcDbLine
10
730.230000000000
20
369.430000000000
30
0.0
11
748.590000000000
21
369.430000000000
31
0.0
0
LINE
5
4c8
100
AcDbEntity
8
0-000
6
CONTINUOUS
62
3
100
AcDbLine
10
729.250000000000
20
368.630000000000
30
0.0
11
724.740000000000
21
346.040000000000
31
0.0
0
LINE
5
4c9
100
AcDbEntity
8
0-000
6
CONTINUOUS
62
3
100
AcDbLine
10
722.770000000000
20
345.430000000000
30
0.0
11
703.590000000000
21
345.430000000000
31
0.0
0
LINE
5
4ca
100
AcDbEntity
8
0-000
6
CONTINUOUS
62
3
100
AcDbLine
10
722.770000000000
20
344.430000000000
30
0.0
11
703.590000000000
21
344.430000000000
31
0.0
0
LINE
5
4cb
100
AcDbEntity
8
0-000
6
CONTINUOUS
62
3
100
AcDbLine
10
730.230000000000
20
370.430000000000
30
0.0
11
748.590000000000
21
370.430000000000
31
0.0
0
LINE
5
4cc
100
AcDbEntity
8
0-000
6
CONTINUOUS
62
3
100
AcDbLine
10
723.750000000000
20
346.230000000000
30
0.0
11
728.270000000000
21
368.820000000000
31
0.0
0
LINE
5
4cd
100
AcDbEntity
8
0-000
6
CONTINUOUS
62
3
100
AcDbLine
10
676.950000000000
20
369.430000000000
30
0.0
11
658.590000000000
21
369.430000000000
31
0.0
0
LINE
5
4ce
100
AcDbEntity
8
0-000
6
CONTINUOUS
62
3
100
AcDbLine
10
677.930000000000
20
368.630000000000
30
0.0
11
682.450000000000
21
346.040000000000
31
0.0
0
LINE
5
4cf
100
AcDbEntity
8
0-000
6
CONTINUOUS
62
3
100
AcDbLine
10
684.410000000000
20
345.430000000000
30
0.0
11
703.590000000000
21
345.430000000000
31
0.0
0
LINE
5
4d0
100
AcDbEntity
8
0-000
6
CONTINUOUS
62
3
100
AcDbLine
10
684.410000000000
20
344.430000000000
30
0.0
11
703.590000000000
21
344.430000000000
31
0.0
0
LINE
5
4d1
100
AcDbEntity
8
0-000
6
CONTINUOUS
62
3
100
AcDbLine
10
676.950000000000
20
370.430000000000
30
0.0
11
658.590000000000
21
370.430000000000
31
0.0
0
LINE
5
4d2
100
AcDbEntity
8
0-000
6
CONTINUOUS
62
3
100
AcDbLine
10
683.430000000000
20
346.230000000000
30
0.0
11
678.920000000000
21
368.820000000000
31
0.0
0
LINE
5
4d3
100
AcDbEntity
8
0-000
6
CONTINUOUS
62
3
100
AcDbLine
10
730.230000000000
20
369.430000000000
30
0.0
11
748.590000000000
21
369.430000000000
31
0.0
0
LINE
5
4d4
100
AcDbEntity
8
0-000
6
CONTINUOUS
62
3
100
AcDbLine
10
729.250000000000
20
368.630000000000
30
0.0
11
724.740000000000
21
346.040000000000
31
0.0
0
LINE
5
4d5
100
AcDbEntity
8
0-000
6
CONTINUOUS
62
3
100
AcDbLine
10
722.770000000000
20
345.430000000000
30
0.0
11
703.590000000000
21
345.430000000000
31
0.0
0
LINE
5
4d6
100
AcDbEntity
8
0-000
6
CONTINUOUS
62
3
100
AcDbLine
10
722.770000000000
20
344.430000000000
30
0.0
11
703.590000000000
21
344.430000000000
31
0.0
0
LINE
5
4d7
100
AcDbEntity
8
0-000
6
CONTINUOUS
62
3
100
AcDbLine
10
730.230000000000
20
370.430000000000
30
0.0
11
748.590000000000
21
370.430000000000
31
0.0
0
LINE
5
4d8
100
AcDbEntity
8
0-000
6
CONTINUOUS
62
3
100
AcDbLine
10
723.750000000000
20
346.230000000000
30
0.0
11
728.270000000000
21
368.820000000000
31
0.0
0
LINE
5
4d9
100
AcDbEntity
8
0-000
6
CONTINUOUS
62
3
100
AcDbLine
10
910.230000000000
20
369.430000000000
30
0.0
11
928.590000000000
21
369.430000000000
31
0.0
0
LINE
5
4da
100
AcDbEntity
8
0-000
6
CONTINUOUS
62
3
100
AcDbLine
10
909.250000000000
20
368.630000000000
30
0.0
11
904.740000000000
21
346.040000000000
31
0.0
0
LINE
5
4db
100
AcDbEntity
8
0-000
6
CONTINUOUS
62
3
100
AcDbLine
10
902.770000000000
20
345.430000000000
30
0.0
11
883.590000000000
21
345.430000000000
31
0.0
0
LINE
5
4dc
100
AcDbEntity
8
0-000
6
CONTINUOUS
62
3
100
AcDbLine
10
902.770000000000
20
344.430000000000
30
0.0
11
883.590000000000
21
344.430000000000
31
0.0
0
LINE
5
4dd
100
AcDbEntity
8
0-000
6
CONTINUOUS
62
3
100
AcDbLine
10
910.230000000000
20
370.430000000000
30
0.0
11
928.590000000000
21
370.430000000000
31
0.0
0
LINE
5
4de
100
AcDbEntity
8
0-000
6
CONTINUOUS
62
3
100
AcDbLine
10
903.750000000000
20
346.230000000000
30
0.0
11
908.270000000000
21
368.820000000000
31
0.0
0
LINE
5
4df
100
AcDbEntity
8
0-000
6
CONTINUOUS
62
3
100
AcDbLine
10
856.950000000000
20
369.430000000000
30
0.0
11
838.590000000000
21
369.430000000000
31
0.0
0
LINE
5
4e0
100
AcDbEntity
8
0-000
6
CONTINUOUS
62
3
100
AcDbLine
10
857.930000000000
20
368.630000000000
30
0.0
11
862.450000000000
21
346.040000000000
31
0.0
0
LINE
5
4e1
100
AcDbEntity
8
0-000
6
CONTINUOUS
62
3
100
AcDbLine
10
864.410000000000
20
345.430000000000
30
0.0
11
883.590000000000
21
345.430000000000
31
0.0
0
LINE
5
4e2
100
AcDbEntity
8
0-000
6
CONTINUOUS
62
3
100
AcDbLine
10
864.410000000000
20
344.430000000000
30
0.0
11
883.590000000000
21
344.430000000000
31
0.0
0
LINE
5
4e3
100
AcDbEntity
8
0-000
6
CONTINUOUS
62
3
100
AcDbLine
10
856.950000000000
20
370.430000000000
30
0.0
11
838.590000000000
21
370.430000000000
31
0.0
0
LINE
5
4e4
100
AcDbEntity
8
0-000
6
CONTINUOUS
62
3
100
AcDbLine
10
863.430000000000
20
346.230000000000
30
0.0
11
858.920000000000
21
368.820000000000
31
0.0
0
LINE
5
4e5
100
AcDbEntity
8
0-000
6
CONTINUOUS
62
3
100
AcDbLine
10
910.230000000000
20
369.430000000000
30
0.0
11
928.590000000000
21
369.430000000000
31
0.0
0
LINE
5
4e6
100
AcDbEntity
8
0-000
6
CONTINUOUS
62
3
100
AcDbLine
10
909.250000000000
20
368.630000000000
30
0.0
11
904.740000000000
21
346.040000000000
31
0.0
0
LINE
5
4e7
100
AcDbEntity
8
0-000
6
CONTINUOUS
62
3
100
AcDbLine
10
902.770000000000
20
345.430000000000
30
0.0
11
883.590000000000
21
345.430000000000
31
0.0
0
LINE
5
4e8
100
AcDbEntity
8
0-000
6
CONTINUOUS
62
3
100
AcDbLine
10
902.770000000000
20
344.430000000000
30
0.0
11
883.590000000000
21
344.430000000000
31
0.0
0
LINE
5
4e9
100
AcDbEntity
8
0-000
6
CONTINUOUS
62
3
100
AcDbLine
10
910.230000000000
20
370.430000000000
30
0.0
11
928.590000000000
21
370.430000000000
31
0.0
0
LINE
5
4ea
100
AcDbEntity
8
0-000
6
CONTINUOUS
62
3
100
AcDbLine
10
903.750000000000
20
346.230000000000
30
0.0
11
908.270000000000
21
368.820000000000
31
0.0
0
LINE
5
4eb
100
AcDbEntity
8
0-000
6
CONTINUOUS
62
3
100
AcDbLine
10
946.950000000000
20
369.430000000000
30
0.0
11
928.590000000000
21
369.430000000000
31
0.0
0
LINE
5
4ec
100
AcDbEntity
8
0-000
6
CONTINUOUS
62
3
100
AcDbLine
10
947.930000000000
20
368.630000000000
30
0.0
11
952.450000000000
21
346.040000000000
31
0.0
0
LINE
5
4ed
100
AcDbEntity
8
0-000
6
CONTINUOUS
62
3
100
AcDbLine
10
946.950000000000
20
370.430000000000
30
0.0
11
928.590000000000
21
370.430000000000
31
0.0
0
LINE
5
4ee
100
AcDbEntity
8
0-000
6
CONTINUOUS
62
3
100
AcDbLine
10
946.950000000000
20
369.430000000000
30
0.0
11
928.590000000000
21
369.430000000000
31
0.0
0
LINE
5
4ef
100
AcDbEntity
8
0-000
6
CONTINUOUS
62
3
100
AcDbLine
10
947.930000000000
20
368.630000000000
30
0.0
11
952.450000000000
21
346.040000000000
31
0.0
0
LINE
5
4f0
100
AcDbEntity
8
0-000
6
CONTINUOUS
62
3
100
AcDbLine
10
946.950000000000
20
370.430000000000
30
0.0
11
928.590000000000
21
370.430000000000
31
0.0
0
LINE
5
4f1
100
AcDbEntity
8
0-000
6
CONTINUOUS
62
3
100
AcDbLine
10
953.430000000000
20
346.230000000000
30
0.0
11
948.920000000000
21
368.820000000000
31
0.0
0
LINE
5
4f2
100
AcDbEntity
8
0-000
6
CONTINUOUS
62
3
100
AcDbLine
10
453.350000000000
20
344.230000000000
30
0.0
11
458.270000000000
21
368.820000000000
31
0.0
0
LINE
5
4f3
100
AcDbEntity
8
0-000
6
CONTINUOUS
62
3
100
AcDbLine
10
459.250000000000
20
368.630000000000
30
0.0
11
454.340000000000
21
344.040000000000
31
0.0
0
LINE
5
4f4
100
AcDbEntity
8
0-000
6
CONTINUOUS
62
3
100
AcDbLine
10
417.590000000000
20
343.430000000000
30
0.0
11
417.590000000000
21
342.430000000000
31
0.0
0
LINE
5
4f5
100
AcDbEntity
8
0-000
6
CONTINUOUS
62
3
100
AcDbLine
10
1080.090000000000
20
347.430000000000
30
0.0
11
1080.090000000000
21
346.430000000000
31
0.0
0
LINE
5
4f6
100
AcDbEntity
8
0-000
6
CONTINUOUS
62
3
100
AcDbLine
10
1036.950000000000
20
371.430000000000
30
0.0
11
1018.590000000000
21
371.430000000000
31
0.0
0
LINE
5
4f7
100
AcDbEntity
8
0-000
6
CONTINUOUS
62
3
100
AcDbLine
10
1036.950000000000
20
372.430000000000
30
0.0
11
1018.590000000000
21
372.430000000000
31
0.0
0
LINE
5
4f8
100
AcDbEntity
8
0-000
6
CONTINUOUS
62
3
100
AcDbLine
10
1045.070000000000
20
348.230000000000
30
0.0
11
1040.880000000000
21
369.210000000000
31
0.0
0
LINE
5
4f9
100
AcDbEntity
8
0-000
6
CONTINUOUS
62
3
100
AcDbLine
10
1046.050000000000
20
347.430000000000
30
0.0
11
1063.590000000000
21
347.430000000000
31
0.0
0
LINE
5
4fa
100
AcDbEntity
8
0-000
6
CONTINUOUS
62
3
100
AcDbLine
10
1046.050000000000
20
346.430000000000
30
0.0
11
1063.590000000000
21
346.430000000000
31
0.0
0
LINE
5
4fb
100
AcDbEntity
8
0-000
6
CONTINUOUS
62
3
100
AcDbLine
10
1044.090000000000
20
348.040000000000
30
0.0
11
1039.900000000000
21
369.020000000000
31
0.0
0
LINE
5
4fc
100
AcDbEntity
8
0-000
6
CONTINUOUS
62
3
100
AcDbLine
10
1000.230000000000
20
371.430000000000
30
0.0
11
1018.590000000000
21
371.430000000000
31
0.0
0
LINE
5
4fd
100
AcDbEntity
8
0-000
6
CONTINUOUS
62
3
100
AcDbLine
10
1000.230000000000
20
372.430000000000
30
0.0
11
1018.590000000000
21
372.430000000000
31
0.0
0
LINE
5
4fe
100
AcDbEntity
8
0-000
6
CONTINUOUS
62
3
100
AcDbLine
10
990.730000000000
20
345.430000000000
30
0.0
11
973.590000000000
21
345.430000000000
31
0.0
0
LINE
5
4ff
100
AcDbEntity
8
0-000
6
CONTINUOUS
62
3
100
AcDbLine
10
991.720000000000
20
346.230000000000
30
0.0
11
996.310000000000
21
369.210000000000
31
0.0
0
LINE
5
500
100
AcDbEntity
8
0-000
6
CONTINUOUS
62
3
100
AcDbLine
10
992.700000000000
20
346.040000000000
30
0.0
11
997.290000000000
21
369.020000000000
31
0.0
0
LINE
5
501
100
AcDbEntity
8
0-000
6
CONTINUOUS
62
3
100
AcDbLine
10
990.730000000000
20
344.430000000000
30
0.0
11
973.590000000000
21
344.430000000000
31
0.0
0
LINE
5
502
100
AcDbEntity
8
0-000
6
CONTINUOUS
62
3
100
AcDbLine
10
953.430000000000
20
346.230000000000
30
0.0
11
948.920000000000
21
368.820000000000
31
0.0
0
LINE
5
503
100
AcDbEntity
8
0-000
6
CONTINUOUS
62
3
100
AcDbLine
10
954.410000000000
20
345.430000000000
30
0.0
11
973.590000000000
21
345.430000000000
31
0.0
0
LINE
5
504
100
AcDbEntity
8
0-000
6
CONTINUOUS
62
3
100
AcDbLine
10
954.410000000000
20
344.430000000000
30
0.0
11
973.590000000000
21
344.430000000000
31
0.0
0
LINE
5
505
100
AcDbEntity
8
0-000
6
CONTINUOUS
62
3
100
AcDbLine
10
550.230000000000
20
867.430000000000
30
0.0
11
568.590000000000
21
867.430000000000
31
0.0
0
LINE
5
506
100
AcDbEntity
8
0-000
6
CONTINUOUS
62
3
100
AcDbLine
10
549.250000000000
20
866.630000000000
30
0.0
11
544.740000000000
21
844.040000000000
31
0.0
0
LINE
5
507
100
AcDbEntity
8
0-000
6
CONTINUOUS
62
3
100
AcDbLine
10
542.770000000000
20
843.430000000000
30
0.0
11
523.590000000000
21
843.430000000000
31
0.0
0
LINE
5
508
100
AcDbEntity
8
0-000
6
CONTINUOUS
62
3
100
AcDbLine
10
542.770000000000
20
842.430000000000
30
0.0
11
523.590000000000
21
842.430000000000
31
0.0
0
LINE
5
509
100
AcDbEntity
8
0-000
6
CONTINUOUS
62
3
100
AcDbLine
10
550.230000000000
20
868.430000000000
30
0.0
11
568.590000000000
21
868.430000000000
31
0.0
0
LINE
5
50a
100
AcDbEntity
8
0-000
6
CONTINUOUS
62
3
100
AcDbLine
10
543.750000000000
20
844.230000000000
30
0.0
11
548.270000000000
21
866.820000000000
31
0.0
0
LINE
5
50b
100
AcDbEntity
8
0-000
6
CONTINUOUS
62
3
100
AcDbLine
10
496.950000000000
20
867.430000000000
30
0.0
11
478.590000000000
21
867.430000000000
31
0.0
0
LINE
5
50c
100
AcDbEntity
8
0-000
6
CONTINUOUS
62
3
100
AcDbLine
10
497.930000000000
20
866.630000000000
30
0.0
11
502.450000000000
21
844.040000000000
31
0.0
0
LINE
5
50d
100
AcDbEntity
8
0-000
6
CONTINUOUS
62
3
100
AcDbLine
10
504.410000000000
20
843.430000000000
30
0.0
11
523.590000000000
21
843.430000000000
31
0.0
0
LINE
5
50e
100
AcDbEntity
8
0-000
6
CONTINUOUS
62
3
100
AcDbLine
10
504.410000000000
20
842.430000000000
30
0.0
11
523.590000000000
21
842.430000000000
31
0.0
0
LINE
5
50f
100
AcDbEntity
8
0-000
6
CONTINUOUS
62
3
100
AcDbLine
10
496.950000000000
20
868.430000000000
30
0.0
11
478.590000000000
21
868.430000000000
31
0.0
0
LINE
5
510
100
AcDbEntity
8
0-000
6
CONTINUOUS
62
3
100
AcDbLine
10
503.430000000000
20
844.230000000000
30
0.0
11
498.920000000000
21
866.820000000000
31
0.0
0
LINE
5
511
100
AcDbEntity
8
0-000
6
CONTINUOUS
62
3
100
AcDbLine
10
550.230000000000
20
867.430000000000
30
0.0
11
568.590000000000
21
867.430000000000
31
0.0
0
LINE
5
512
100
AcDbEntity
8
0-000
6
CONTINUOUS
62
3
100
AcDbLine
10
549.250000000000
20
866.630000000000
30
0.0
11
544.740000000000
21
844.040000000000
31
0.0
0
LINE
5
513
100
AcDbEntity
8
0-000
6
CONTINUOUS
62
3
100
AcDbLine
10
542.770000000000
20
843.430000000000
30
0.0
11
523.590000000000
21
843.430000000000
31
0.0
0
LINE
5
514
100
AcDbEntity
8
0-000
6
CONTINUOUS
62
3
100
AcDbLine
10
542.770000000000
20
842.430000000000
30
0.0
11
523.590000000000
21
842.430000000000
31
0.0
0
LINE
5
515
100
AcDbEntity
8
0-000
6
CONTINUOUS
62
3
100
AcDbLine
10
550.230000000000
20
868.430000000000
30
0.0
11
568.590000000000
21
868.430000000000
31
0.0
0
LINE
5
516
100
AcDbEntity
8
0-000
6
CONTINUOUS
62
3
100
AcDbLine
10
543.750000000000
20
844.230000000000
30
0.0
11
548.270000000000
21
866.820000000000
31
0.0
0
LINE
5
517
100
AcDbEntity
8
0-000
6
CONTINUOUS
62
3
100
AcDbLine
10
460.230000000000
20
867.430000000000
30
0.0
11
478.590000000000
21
867.430000000000
31
0.0
0
LINE
5
518
100
AcDbEntity
8
0-000
6
CONTINUOUS
62
3
100
AcDbLine
10
459.250000000000
20
866.630000000000
30
0.0
11
454.730000000000
21
844.040000000000
31
0.0
0
LINE
5
519
100
AcDbEntity
8
0-000
6
CONTINUOUS
62
3
100
AcDbLine
10
460.230000000000
20
868.430000000000
30
0.0
11
478.590000000000
21
868.430000000000
31
0.0
0
LINE
5
51a
100
AcDbEntity
8
0-000
6
CONTINUOUS
62
3
100
AcDbLine
10
453.750000000000
20
844.230000000000
30
0.0
11
458.270000000000
21
866.820000000000
31
0.0
0
LINE
5
51b
100
AcDbEntity
8
0-000
6
CONTINUOUS
62
3
100
AcDbLine
10
586.950000000000
20
867.430000000000
30
0.0
11
568.590000000000
21
867.430000000000
31
0.0
0
LINE
5
51c
100
AcDbEntity
8
0-000
6
CONTINUOUS
62
3
100
AcDbLine
10
587.930000000000
20
866.630000000000
30
0.0
11
592.450000000000
21
844.040000000000
31
0.0
0
LINE
5
51d
100
AcDbEntity
8
0-000
6
CONTINUOUS
62
3
100
AcDbLine
10
594.410000000000
20
843.430000000000
30
0.0
11
613.590000000000
21
843.430000000000
31
0.0
0
LINE
5
51e
100
AcDbEntity
8
0-000
6
CONTINUOUS
62
3
100
AcDbLine
10
594.410000000000
20
842.430000000000
30
0.0
11
613.590000000000
21
842.430000000000
31
0.0
0
LINE
5
51f
100
AcDbEntity
8
0-000
6
CONTINUOUS
62
3
100
AcDbLine
10
586.950000000000
20
868.430000000000
30
0.0
11
568.590000000000
21
868.430000000000
31
0.0
0
LINE
5
520
100
AcDbEntity
8
0-000
6
CONTINUOUS
62
3
100
AcDbLine
10
593.430000000000
20
844.230000000000
30
0.0
11
588.920000000000
21
866.820000000000
31
0.0
0
LINE
5
521
100
AcDbEntity
8
0-000
6
CONTINUOUS
62
3
100
AcDbLine
10
640.230000000000
20
867.430000000000
30
0.0
11
658.590000000000
21
867.430000000000
31
0.0
0
LINE
5
522
100
AcDbEntity
8
0-000
6
CONTINUOUS
62
3
100
AcDbLine
10
639.250000000000
20
866.630000000000
30
0.0
11
634.730000000000
21
844.040000000000
31
0.0
0
LINE
5
523
100
AcDbEntity
8
0-000
6
CONTINUOUS
62
3
100
AcDbLine
10
632.770000000000
20
843.430000000000
30
0.0
11
613.590000000000
21
843.430000000000
31
0.0
0
LINE
5
524
100
AcDbEntity
8
0-000
6
CONTINUOUS
62
3
100
AcDbLine
10
632.770000000000
20
842.430000000000
30
0.0
11
613.590000000000
21
842.430000000000
31
0.0
0
LINE
5
525
100
AcDbEntity
8
0-000
6
CONTINUOUS
62
3
100
AcDbLine
10
640.230000000000
20
868.430000000000
30
0.0
11
658.590000000000
21
868.430000000000
31
0.0
0
LINE
5
526
100
AcDbEntity
8
0-000
6
CONTINUOUS
62
3
100
AcDbLine
10
633.750000000000
20
844.230000000000
30
0.0
11
638.270000000000
21
866.820000000000
31
0.0
0
LINE
5
527
100
AcDbEntity
8
0-000
6
CONTINUOUS
62
3
100
AcDbLine
10
586.950000000000
20
867.430000000000
30
0.0
11
568.590000000000
21
867.430000000000
31
0.0
0
LINE
5
528
100
AcDbEntity
8
0-000
6
CONTINUOUS
62
3
100
AcDbLine
10
587.930000000000
20
866.630000000000
30
0.0
11
592.450000000000
21
844.040000000000
31
0.0
0
LINE
5
529
100
AcDbEntity
8
0-000
6
CONTINUOUS
62
3
100
AcDbLine
10
594.410000000000
20
843.430000000000
30
0.0
11
613.590000000000
21
843.430000000000
31
0.0
0
LINE
5
52a
100
AcDbEntity
8
0-000
6
CONTINUOUS
62
3
100
AcDbLine
10
594.410000000000
20
842.430000000000
30
0.0
11
613.590000000000
21
842.430000000000
31
0.0
0
LINE
5
52b
100
AcDbEntity
8
0-000
6
CONTINUOUS
62
3
100
AcDbLine
10
586.950000000000
20
868.430000000000
30
0.0
11
568.590000000000
21
868.430000000000
31
0.0
0
LINE
5
52c
100
AcDbEntity
8
0-000
6
CONTINUOUS
62
3
100
AcDbLine
10
593.430000000000
20
844.230000000000
30
0.0
11
588.920000000000
21
866.820000000000
31
0.0
0
LINE
5
52d
100
AcDbEntity
8
0-000
6
CONTINUOUS
62
3
100
AcDbLine
10
766.950000000000
20
867.430000000000
30
0.0
11
748.590000000000
21
867.430000000000
31
0.0
0
LINE
5
52e
100
AcDbEntity
8
0-000
6
CONTINUOUS
62
3
100
AcDbLine
10
767.930000000000
20
866.630000000000
30
0.0
11
772.450000000000
21
844.040000000000
31
0.0
0
LINE
5
52f
100
AcDbEntity
8
0-000
6
CONTINUOUS
62
3
100
AcDbLine
10
774.410000000000
20
843.430000000000
30
0.0
11
793.590000000000
21
843.430000000000
31
0.0
0
LINE
5
530
100
AcDbEntity
8
0-000
6
CONTINUOUS
62
3
100
AcDbLine
10
774.410000000000
20
842.430000000000
30
0.0
11
793.590000000000
21
842.430000000000
31
0.0
0
LINE
5
531
100
AcDbEntity
8
0-000
6
CONTINUOUS
62
3
100
AcDbLine
10
766.950000000000
20
868.430000000000
30
0.0
11
748.590000000000
21
868.430000000000
31
0.0
0
LINE
5
532
100
AcDbEntity
8
0-000
6
CONTINUOUS
62
3
100
AcDbLine
10
773.430000000000
20
844.230000000000
30
0.0
11
768.920000000000
21
866.820000000000
31
0.0
0
LINE
5
533
100
AcDbEntity
8
0-000
6
CONTINUOUS
62
3
100
AcDbLine
10
820.230000000000
20
867.430000000000
30
0.0
11
838.590000000000
21
867.430000000000
31
0.0
0
LINE
5
534
100
AcDbEntity
8
0-000
6
CONTINUOUS
62
3
100
AcDbLine
10
819.250000000000
20
866.630000000000
30
0.0
11
814.740000000000
21
844.040000000000
31
0.0
0
LINE
5
535
100
AcDbEntity
8
0-000
6
CONTINUOUS
62
3
100
AcDbLine
10
812.770000000000
20
843.430000000000
30
0.0
11
793.590000000000
21
843.430000000000
31
0.0
0
LINE
5
536
100
AcDbEntity
8
0-000
6
CONTINUOUS
62
3
100
AcDbLine
10
812.770000000000
20
842.430000000000
30
0.0
11
793.590000000000
21
842.430000000000
31
0.0
0
LINE
5
537
100
AcDbEntity
8
0-000
6
CONTINUOUS
62
3
100
AcDbLine
10
820.230000000000
20
868.430000000000
30
0.0
11
838.590000000000
21
868.430000000000
31
0.0
0
LINE
5
538
100
AcDbEntity
8
0-000
6
CONTINUOUS
62
3
100
AcDbLine
10
813.750000000000
20
844.230000000000
30
0.0
11
818.270000000000
21
866.820000000000
31
0.0
0
LINE
5
539
100
AcDbEntity
8
0-000
6
CONTINUOUS
62
3
100
AcDbLine
10
766.950000000000
20
867.430000000000
30
0.0
11
748.590000000000
21
867.430000000000
31
0.0
0
LINE
5
53a
100
AcDbEntity
8
0-000
6
CONTINUOUS
62
3
100
AcDbLine
10
767.930000000000
20
866.630000000000
30
0.0
11
772.450000000000
21
844.040000000000
31
0.0
0
LINE
5
53b
100
AcDbEntity
8
0-000
6
CONTINUOUS
62
3
100
AcDbLine
10
774.410000000000
20
843.430000000000
30
0.0
11
793.590000000000
21
843.430000000000
31
0.0
0
LINE
5
53c
100
AcDbEntity
8
0-000
6
CONTINUOUS
62
3
100
AcDbLine
10
774.410000000000
20
842.430000000000
30
0.0
11
793.590000000000
21
842.430000000000
31
0.0
0
LINE
5
53d
100
AcDbEntity
8
0-000
6
CONTINUOUS
62
3
100
AcDbLine
10
766.950000000000
20
868.430000000000
30
0.0
11
748.590000000000
21
868.430000000000
31
0.0
0
LINE
5
53e
100
AcDbEntity
8
0-000
6
CONTINUOUS
62
3
100
AcDbLine
10
773.430000000000
20
844.230000000000
30
0.0
11
768.920000000000
21
866.820000000000
31
0.0
0
LINE
5
53f
100
AcDbEntity
8
0-000
6
CONTINUOUS
62
3
100
AcDbLine
10
730.230000000000
20
867.430000000000
30
0.0
11
748.590000000000
21
867.430000000000
31
0.0
0
LINE
5
540
100
AcDbEntity
8
0-000
6
CONTINUOUS
62
3
100
AcDbLine
10
729.250000000000
20
866.630000000000
30
0.0
11
724.740000000000
21
844.040000000000
31
0.0
0
LINE
5
541
100
AcDbEntity
8
0-000
6
CONTINUOUS
62
3
100
AcDbLine
10
722.770000000000
20
843.430000000000
30
0.0
11
703.590000000000
21
843.430000000000
31
0.0
0
LINE
5
542
100
AcDbEntity
8
0-000
6
CONTINUOUS
62
3
100
AcDbLine
10
722.770000000000
20
842.430000000000
30
0.0
11
703.590000000000
21
842.430000000000
31
0.0
0
LINE
5
543
100
AcDbEntity
8
0-000
6
CONTINUOUS
62
3
100
AcDbLine
10
730.230000000000
20
868.430000000000
30
0.0
11
748.590000000000
21
868.430000000000
31
0.0
0
LINE
5
544
100
AcDbEntity
8
0-000
6
CONTINUOUS
62
3
100
AcDbLine
10
723.750000000000
20
844.230000000000
30
0.0
11
728.270000000000
21
866.820000000000
31
0.0
0
LINE
5
545
100
AcDbEntity
8
0-000
6
CONTINUOUS
62
3
100
AcDbLine
10
676.950000000000
20
867.430000000000
30
0.0
11
658.590000000000
21
867.430000000000
31
0.0
0
LINE
5
546
100
AcDbEntity
8
0-000
6
CONTINUOUS
62
3
100
AcDbLine
10
677.930000000000
20
866.630000000000
30
0.0
11
682.450000000000
21
844.040000000000
31
0.0
0
LINE
5
547
100
AcDbEntity
8
0-000
6
CONTINUOUS
62
3
100
AcDbLine
10
684.410000000000
20
843.430000000000
30
0.0
11
703.590000000000
21
843.430000000000
31
0.0
0
LINE
5
548
100
AcDbEntity
8
0-000
6
CONTINUOUS
62
3
100
AcDbLine
10
684.410000000000
20
842.430000000000
30
0.0
11
703.590000000000
21
842.430000000000
31
0.0
0
LINE
5
549
100
AcDbEntity
8
0-000
6
CONTINUOUS
62
3
100
AcDbLine
10
676.950000000000
20
868.430000000000
30
0.0
11
658.590000000000
21
868.430000000000
31
0.0
0
LINE
5
54a
100
AcDbEntity
8
0-000
6
CONTINUOUS
62
3
100
AcDbLine
10
683.430000000000
20
844.230000000000
30
0.0
11
678.920000000000
21
866.820000000000
31
0.0
0
LINE
5
54b
100
AcDbEntity
8
0-000
6
CONTINUOUS
62
3
100
AcDbLine
10
730.230000000000
20
867.430000000000
30
0.0
11
748.590000000000
21
867.430000000000
31
0.0
0
LINE
5
54c
100
AcDbEntity
8
0-000
6
CONTINUOUS
62
3
100
AcDbLine
10
729.250000000000
20
866.630000000000
30
0.0
11
724.740000000000
21
844.040000000000
31
0.0
0
LINE
5
54d
100
AcDbEntity
8
0-000
6
CONTINUOUS
62
3
100
AcDbLine
10
722.770000000000
20
843.430000000000
30
0.0
11
703.590000000000
21
843.430000000000
31
0.0
0
LINE
5
54e
100
AcDbEntity
8
0-000
6
CONTINUOUS
62
3
100
AcDbLine
10
722.770000000000
20
842.430000000000
30
0.0
11
703.590000000000
21
842.430000000000
31
0.0
0
LINE
5
54f
100
AcDbEntity
8
0-000
6
CONTINUOUS
62
3
100
AcDbLine
10
730.230000000000
20
868.430000000000
30
0.0
11
748.590000000000
21
868.430000000000
31
0.0
0
LINE
5
550
100
AcDbEntity
8
0-000
6
CONTINUOUS
62
3
100
AcDbLine
10
723.750000000000
20
844.230000000000
30
0.0
11
728.270000000000
21
866.820000000000
31
0.0
0
LINE
5
551
100
AcDbEntity
8
0-000
6
CONTINUOUS
62
3
100
AcDbLine
10
910.230000000000
20
867.430000000000
30
0.0
11
928.590000000000
21
867.430000000000
31
0.0
0
LINE
5
552
100
AcDbEntity
8
0-000
6
CONTINUOUS
62
3
100
AcDbLine
10
909.250000000000
20
866.630000000000
30
0.0
11
904.740000000000
21
844.040000000000
31
0.0
0
LINE
5
553
100
AcDbEntity
8
0-000
6
CONTINUOUS
62
3
100
AcDbLine
10
902.770000000000
20
843.430000000000
30
0.0
11
883.590000000000
21
843.430000000000
31
0.0
0
LINE
5
554
100
AcDbEntity
8
0-000
6
CONTINUOUS
62
3
100
AcDbLine
10
902.770000000000
20
842.430000000000
30
0.0
11
883.590000000000
21
842.430000000000
31
0.0
0
LINE
5
555
100
AcDbEntity
8
0-000
6
CONTINUOUS
62
3
100
AcDbLine
10
910.230000000000
20
868.430000000000
30
0.0
11
928.590000000000
21
868.430000000000
31
0.0
0
LINE
5
556
100
AcDbEntity
8
0-000
6
CONTINUOUS
62
3
100
AcDbLine
10
903.750000000000
20
844.230000000000
30
0.0
11
908.270000000000
21
866.820000000000
31
0.0
0
LINE
5
557
100
AcDbEntity
8
0-000
6
CONTINUOUS
62
3
100
AcDbLine
10
856.950000000000
20
867.430000000000
30
0.0
11
838.590000000000
21
867.430000000000
31
0.0
0
LINE
5
558
100
AcDbEntity
8
0-000
6
CONTINUOUS
62
3
100
AcDbLine
10
857.930000000000
20
866.630000000000
30
0.0
11
862.450000000000
21
844.040000000000
31
0.0
0
LINE
5
559
100
AcDbEntity
8
0-000
6
CONTINUOUS
62
3
100
AcDbLine
10
864.410000000000
20
843.430000000000
30
0.0
11
883.590000000000
21
843.430000000000
31
0.0
0
LINE
5
55a
100
AcDbEntity
8
0-000
6
CONTINUOUS
62
3
100
AcDbLine
10
864.410000000000
20
842.430000000000
30
0.0
11
883.590000000000
21
842.430000000000
31
0.0
0
LINE
5
55b
100
AcDbEntity
8
0-000
6
CONTINUOUS
62
3
100
AcDbLine
10
856.950000000000
20
868.430000000000
30
0.0
11
838.590000000000
21
868.430000000000
31
0.0
0
LINE
5
55c
100
AcDbEntity
8
0-000
6
CONTINUOUS
62
3
100
AcDbLine
10
863.430000000000
20
844.230000000000
30
0.0
11
858.920000000000
21
866.820000000000
31
0.0
0
LINE
5
55d
100
AcDbEntity
8
0-000
6
CONTINUOUS
62
3
100
AcDbLine
10
910.230000000000
20
867.430000000000
30
0.0
11
928.590000000000
21
867.430000000000
31
0.0
0
LINE
5
55e
100
AcDbEntity
8
0-000
6
CONTINUOUS
62
3
100
AcDbLine
10
909.250000000000
20
866.630000000000
30
0.0
11
904.740000000000
21
844.040000000000
31
0.0
0
LINE
5
55f
100
AcDbEntity
8
0-000
6
CONTINUOUS
62
3
100
AcDbLine
10
902.770000000000
20
843.430000000000
30
0.0
11
883.590000000000
21
843.430000000000
31
0.0
0
LINE
5
560
100
AcDbEntity
8
0-000
6
CONTINUOUS
62
3
100
AcDbLine
10
902.770000000000
20
842.430000000000
30
0.0
11
883.590000000000
21
842.430000000000
31
0.0
0
LINE
5
561
100
AcDbEntity
8
0-000
6
CONTINUOUS
62
3
100
AcDbLine
10
910.230000000000
20
868.430000000000
30
0.0
11
928.590000000000
21
868.430000000000
31
0.0
0
LINE
5
562
100
AcDbEntity
8
0-000
6
CONTINUOUS
62
3
100
AcDbLine
10
903.750000000000
20
844.230000000000
30
0.0
11
908.270000000000
21
866.820000000000
31
0.0
0
LINE
5
563
100
AcDbEntity
8
0-000
6
CONTINUOUS
62
3
100
AcDbLine
10
946.950000000000
20
867.430000000000
30
0.0
11
928.590000000000
21
867.430000000000
31
0.0
0
LINE
5
564
100
AcDbEntity
8
0-000
6
CONTINUOUS
62
3
100
AcDbLine
10
947.930000000000
20
866.630000000000
30
0.0
11
952.450000000000
21
844.040000000000
31
0.0
0
LINE
5
565
100
AcDbEntity
8
0-000
6
CONTINUOUS
62
3
100
AcDbLine
10
954.410000000000
20
843.430000000000
30
0.0
11
973.590000000000
21
843.430000000000
31
0.0
0
LINE
5
566
100
AcDbEntity
8
0-000
6
CONTINUOUS
62
3
100
AcDbLine
10
954.410000000000
20
842.430000000000
30
0.0
11
973.590000000000
21
842.430000000000
31
0.0
0
LINE
5
567
100
AcDbEntity
8
0-000
6
CONTINUOUS
62
3
100
AcDbLine
10
946.950000000000
20
868.430000000000
30
0.0
11
928.590000000000
21
868.430000000000
31
0.0
0
LINE
5
568
100
AcDbEntity
8
0-000
6
CONTINUOUS
62
3
100
AcDbLine
10
953.430000000000
20
844.230000000000
30
0.0
11
948.920000000000
21
866.820000000000
31
0.0
0
LINE
5
569
100
AcDbEntity
8
0-000
6
CONTINUOUS
62
3
100
AcDbLine
10
1000.230000000000
20
867.430000000000
30
0.0
11
1018.590000000000
21
867.430000000000
31
0.0
0
LINE
5
56a
100
AcDbEntity
8
0-000
6
CONTINUOUS
62
3
100
AcDbLine
10
999.250000000000
20
866.630000000000
30
0.0
11
994.740000000000
21
844.040000000000
31
0.0
0
LINE
5
56b
100
AcDbEntity
8
0-000
6
CONTINUOUS
62
3
100
AcDbLine
10
992.770000000000
20
843.430000000000
30
0.0
11
973.590000000000
21
843.430000000000
31
0.0
0
LINE
5
56c
100
AcDbEntity
8
0-000
6
CONTINUOUS
62
3
100
AcDbLine
10
992.770000000000
20
842.430000000000
30
0.0
11
973.590000000000
21
842.430000000000
31
0.0
0
LINE
5
56d
100
AcDbEntity
8
0-000
6
CONTINUOUS
62
3
100
AcDbLine
10
1000.230000000000
20
868.430000000000
30
0.0
11
1018.590000000000
21
868.430000000000
31
0.0
0
LINE
5
56e
100
AcDbEntity
8
0-000
6
CONTINUOUS
62
3
100
AcDbLine
10
993.750000000000
20
844.230000000000
30
0.0
11
998.270000000000
21
866.820000000000
31
0.0
0
LINE
5
56f
100
AcDbEntity
8
0-000
6
CONTINUOUS
62
3
100
AcDbLine
10
946.950000000000
20
867.430000000000
30
0.0
11
928.590000000000
21
867.430000000000
31
0.0
0
LINE
5
570
100
AcDbEntity
8
0-000
6
CONTINUOUS
62
3
100
AcDbLine
10
947.930000000000
20
866.630000000000
30
0.0
11
952.450000000000
21
844.040000000000
31
0.0
0
LINE
5
571
100
AcDbEntity
8
0-000
6
CONTINUOUS
62
3
100
AcDbLine
10
954.410000000000
20
843.430000000000
30
0.0
11
973.590000000000
21
843.430000000000
31
0.0
0
LINE
5
572
100
AcDbEntity
8
0-000
6
CONTINUOUS
62
3
100
AcDbLine
10
954.410000000000
20
842.430000000000
30
0.0
11
973.590000000000
21
842.430000000000
31
0.0
0
LINE
5
573
100
AcDbEntity
8
0-000
6
CONTINUOUS
62
3
100
AcDbLine
10
946.950000000000
20
868.430000000000
30
0.0
11
928.590000000000
21
868.430000000000
31
0.0
0
LINE
5
574
100
AcDbEntity
8
0-000
6
CONTINUOUS
62
3
100
AcDbLine
10
953.430000000000
20
844.230000000000
30
0.0
11
948.920000000000
21
866.820000000000
31
0.0
0
LINE
5
575
100
AcDbEntity
8
0-000
6
CONTINUOUS
62
3
100
AcDbLine
10
1036.950000000000
20
867.430000000000
30
0.0
11
1018.590000000000
21
867.430000000000
31
0.0
0
LINE
5
576
100
AcDbEntity
8
0-000
6
CONTINUOUS
62
3
100
AcDbLine
10
1037.930000000000
20
866.630000000000
30
0.0
11
1042.450000000000
21
844.040000000000
31
0.0
0
LINE
5
577
100
AcDbEntity
8
0-000
6
CONTINUOUS
62
3
100
AcDbLine
10
1044.410000000000
20
843.430000000000
30
0.0
11
1063.590000000000
21
843.430000000000
31
0.0
0
LINE
5
578
100
AcDbEntity
8
0-000
6
CONTINUOUS
62
3
100
AcDbLine
10
1044.410000000000
20
842.430000000000
30
0.0
11
1063.590000000000
21
842.430000000000
31
0.0
0
LINE
5
579
100
AcDbEntity
8
0-000
6
CONTINUOUS
62
3
100
AcDbLine
10
1036.950000000000
20
868.430000000000
30
0.0
11
1018.590000000000
21
868.430000000000
31
0.0
0
LINE
5
57a
100
AcDbEntity
8
0-000
6
CONTINUOUS
62
3
100
AcDbLine
10
1043.430000000000
20
844.230000000000
30
0.0
11
1038.920000000000
21
866.820000000000
31
0.0
0
LINE
5
57b
100
AcDbEntity
8
0-000
6
CONTINUOUS
62
3
100
AcDbLine
10
417.590000000000
20
843.430000000000
30
0.0
11
417.590000000000
21
842.430000000000
31
0.0
0
LINE
5
57c
100
AcDbEntity
8
0-000
6
CONTINUOUS
62
3
100
AcDbLine
10
1080.090000000000
20
843.430000000000
30
0.0
11
1080.090000000000
21
842.430000000000
31
0.0
0
LINE
5
57d
100
AcDbEntity
8
0-000
6
CONTINUOUS
62
7
100
AcDbLine
10
453.590000000000
20
818.130000000000
30
0.0
11
503.590000000000
21
818.130000000000
31
0.0
0
LINE
5
57e
100
AcDbEntity
8
0-000
6
CONTINUOUS
62
7
100
AcDbLine
10
503.590000000000
20
818.130000000000
30
0.0
11
543.590000000000
21
818.130000000000
31
0.0
0
LINE
5
57f
100
AcDbEntity
8
0-000
6
CONTINUOUS
62
7
100
AcDbLine
10
543.590000000000
20
818.130000000000
30
0.0
11
593.590000000000
21
818.130000000000
31
0.0
0
LINE
5
580
100
AcDbEntity
8
0-000
6
CONTINUOUS
62
7
100
AcDbLine
10
633.590000000000
20
868.430000000000
30
0.0
11
613.590000000000
21
868.430000000000
31
0.0
0
LINE
5
581
100
AcDbEntity
8
0-000
6
CONTINUOUS
62
7
100
AcDbLine
10
613.590000000000
20
843.430000000000
30
0.0
11
613.590000000000
21
868.430000000000
31
0.0
0
LINE
5
582
100
AcDbEntity
8
0-000
6
CONTINUOUS
62
7
100
AcDbLine
10
453.590000000000
20
838.130000000000
30
0.0
11
453.590000000000
21
818.130000000000
31
0.0
0
LINE
5
583
100
AcDbEntity
8
0-000
6
CONTINUOUS
62
7
100
AcDbLine
10
503.590000000000
20
838.130000000000
30
0.0
11
503.590000000000
21
818.130000000000
31
0.0
0
LINE
5
584
100
AcDbEntity
8
0-000
6
CONTINUOUS
62
7
100
AcDbLine
10
543.590000000000
20
838.130000000000
30
0.0
11
543.590000000000
21
818.130000000000
31
0.0
0
LINE
5
585
100
AcDbEntity
8
0-000
6
CONTINUOUS
62
7
100
AcDbLine
10
593.590000000000
20
838.130000000000
30
0.0
11
593.590000000000
21
818.130000000000
31
0.0
0
LINE
5
586
100
AcDbEntity
8
0-000
6
CONTINUOUS
62
7
100
AcDbLine
10
1043.590000000000
20
838.130000000000
30
0.0
11
1043.590000000000
21
818.130000000000
31
0.0
0
LINE
5
587
100
AcDbEntity
8
0-000
6
CONTINUOUS
62
7
100
AcDbLine
10
498.590000000000
20
893.730000000000
30
0.0
11
548.590000000000
21
893.730000000000
31
0.0
0
LINE
5
588
100
AcDbEntity
8
0-000
6
CONTINUOUS
62
7
100
AcDbLine
10
458.590000000000
20
873.730000000000
30
0.0
11
458.590000000000
21
893.730000000000
31
0.0
0
LINE
5
589
100
AcDbEntity
8
0-000
6
CONTINUOUS
62
7
100
AcDbLine
10
548.590000000000
20
893.730000000000
30
0.0
11
588.590000000000
21
893.730000000000
31
0.0
0
LINE
5
58a
100
AcDbEntity
8
0-000
6
CONTINUOUS
62
7
100
AcDbLine
10
588.590000000000
20
873.730000000000
30
0.0
11
588.590000000000
21
893.730000000000
31
0.0
0
LINE
5
58b
100
AcDbEntity
8
0-000
6
CONTINUOUS
62
7
100
AcDbLine
10
458.590000000000
20
893.730000000000
30
0.0
11
498.590000000000
21
893.730000000000
31
0.0
0
LINE
5
58c
100
AcDbEntity
8
0-000
6
CONTINUOUS
62
7
100
AcDbLine
10
498.590000000000
20
873.730000000000
30
0.0
11
498.590000000000
21
893.730000000000
31
0.0
0
LINE
5
58d
100
AcDbEntity
8
0-000
6
CONTINUOUS
62
7
100
AcDbLine
10
548.590000000000
20
873.730000000000
30
0.0
11
548.590000000000
21
893.730000000000
31
0.0
0
LINE
5
58e
100
AcDbEntity
8
0-000
6
CONTINUOUS
62
7
100
AcDbLine
10
433.590000000000
20
643.730000000000
30
0.0
11
1063.590000000000
21
643.730000000000
31
0.0
0
LINE
5
58f
100
AcDbEntity
8
0-000
6
CONTINUOUS
62
7
100
AcDbLine
10
433.590000000000
20
623.730000000000
30
0.0
11
433.590000000000
21
643.730000000000
31
0.0
0
LINE
5
590
100
AcDbEntity
8
0-000
6
CONTINUOUS
62
7
100
AcDbLine
10
1063.590000000000
20
623.730000000000
30
0.0
11
1063.590000000000
21
643.730000000000
31
0.0
0
LINE
5
591
100
AcDbEntity
8
0-000
6
CONTINUOUS
62
7
100
AcDbLine
10
433.590000000000
20
393.730000000000
30
0.0
11
973.590000000000
21
393.730000000000
31
0.0
0
LINE
5
592
100
AcDbEntity
8
0-000
6
CONTINUOUS
62
7
100
AcDbLine
10
433.590000000000
20
373.730000000000
30
0.0
11
433.590000000000
21
393.730000000000
31
0.0
0
LINE
5
593
100
AcDbEntity
8
0-000
6
CONTINUOUS
62
7
100
AcDbLine
10
973.590000000000
20
373.730000000000
30
0.0
11
973.590000000000
21
393.730000000000
31
0.0
0
LINE
5
594
100
AcDbEntity
8
0-000
6
CONTINUOUS
62
7
100
AcDbLine
10
417.590000000000
20
893.730000000000
30
0.0
11
417.590000000000
21
913.730000000000
31
0.0
0
LINE
5
595
100
AcDbEntity
8
0-000
6
CONTINUOUS
62
7
100
AcDbLine
10
417.590000000000
20
838.130000000000
30
0.0
11
417.590000000000
21
818.130000000000
31
0.0
0
LINE
5
596
100
AcDbEntity
8
0-202
6
CONTINUOUS
62
3
100
AcDbLine
10
71.720000000000
20
59.100000000000
30
0.0
11
71.720000000000
21
75.100000000000
31
0.0
0
LINE
5
597
100
AcDbEntity
8
0-202
6
CONTINUOUS
62
3
100
AcDbLine
10
71.720000000000
20
75.100000000000
30
0.0
11
87.720000000000
21
75.100000000000
31
0.0
0
LINE
5
598
100
AcDbEntity
8
0-202
6
CONTINUOUS
62
3
100
AcDbLine
10
87.720000000000
20
75.100000000000
30
0.0
11
87.720000000000
21
59.100000000000
31
0.0
0
LINE
5
599
100
AcDbEntity
8
0-202
6
CONTINUOUS
62
3
100
AcDbLine
10
87.720000000000
20
59.100000000000
30
0.0
11
71.720000000000
21
59.100000000000
31
0.0
0
LINE
5
59a
100
AcDbEntity
8
0-202
6
CONTINUOUS
62
3
100
AcDbLine
10
73.320000000000
20
61.260000000000
30
0.0
11
73.320000000000
21
73.500000000000
31
0.0
0
LINE
5
59b
100
AcDbEntity
8
0-202
6
CONTINUOUS
62
3
100
AcDbLine
10
86.120000000000
20
60.700000000000
30
0.0
11
73.880000000000
21
60.700000000000
31
0.0
0
LINE
5
59c
100
AcDbEntity
8
0-202
6
CONTINUOUS
62
3
100
AcDbLine
10
73.320000000000
20
73.500000000000
30
0.0
11
85.550000000000
21
73.500000000000
31
0.0
0
LINE
5
59d
100
AcDbEntity
8
0-202
6
CONTINUOUS
62
3
100
AcDbLine
10
85.550000000000
20
73.500000000000
30
0.0
11
73.320000000000
21
61.260000000000
31
0.0
0
LINE
5
59e
100
AcDbEntity
8
0-202
6
CONTINUOUS
62
3
100
AcDbLine
10
86.120000000000
20
72.930000000000
30
0.0
11
73.880000000000
21
60.700000000000
31
0.0
0
LINE
5
59f
100
AcDbEntity
8
0-202
6
CONTINUOUS
62
3
100
AcDbLine
10
86.120000000000
20
72.930000000000
30
0.0
11
86.120000000000
21
60.700000000000
31
0.0
0
LINE
5
5a0
100
AcDbEntity
8
0-202
6
CONTINUOUS
62
4
100
AcDbLine
10
71.720000000000
20
74.940000000000
30
0.0
11
87.720000000000
21
74.940000000000
31
0.0
0
LINE
5
5a1
100
AcDbEntity
8
0-202
6
CONTINUOUS
62
4
100
AcDbLine
10
71.720000000000
20
74.620000000000
30
0.0
11
87.720000000000
21
74.620000000000
31
0.0
0
LINE
5
5a2
100
AcDbEntity
8
0-202
6
CONTINUOUS
62
4
100
AcDbLine
10
71.720000000000
20
74.300000000000
30
0.0
11
87.720000000000
21
74.300000000000
31
0.0
0
LINE
5
5a3
100
AcDbEntity
8
0-202
6
CONTINUOUS
62
4
100
AcDbLine
10
71.720000000000
20
73.980000000000
30
0.0
11
87.720000000000
21
73.980000000000
31
0.0
0
LINE
5
5a4
100
AcDbEntity
8
0-202
6
CONTINUOUS
62
4
100
AcDbLine
10
71.720000000000
20
73.660000000000
30
0.0
11
87.720000000000
21
73.660000000000
31
0.0
0
LINE
5
5a5
100
AcDbEntity
8
0-202
6
CONTINUOUS
62
4
100
AcDbLine
10
71.720000000000
20
60.540000000000
30
0.0
11
87.720000000000
21
60.540000000000
31
0.0
0
LINE
5
5a6
100
AcDbEntity
8
0-202
6
CONTINUOUS
62
4
100
AcDbLine
10
71.720000000000
20
60.220000000000
30
0.0
11
87.720000000000
21
60.220000000000
31
0.0
0
LINE
5
5a7
100
AcDbEntity
8
0-202
6
CONTINUOUS
62
4
100
AcDbLine
10
71.720000000000
20
59.900000000000
30
0.0
11
87.720000000000
21
59.900000000000
31
0.0
0
LINE
5
5a8
100
AcDbEntity
8
0-202
6
CONTINUOUS
62
4
100
AcDbLine
10
71.720000000000
20
59.580000000000
30
0.0
11
87.720000000000
21
59.580000000000
31
0.0
0
LINE
5
5a9
100
AcDbEntity
8
0-202
6
CONTINUOUS
62
4
100
AcDbLine
10
71.720000000000
20
59.260000000000
30
0.0
11
87.720000000000
21
59.260000000000
31
0.0
0
LINE
5
5aa
100
AcDbEntity
8
0-202
6
CONTINUOUS
62
4
100
AcDbLine
10
71.720000000000
20
61.500000000000
30
0.0
11
73.320000000000
21
61.500000000000
31
0.0
0
LINE
5
5ab
100
AcDbEntity
8
0-202
6
CONTINUOUS
62
4
100
AcDbLine
10
71.720000000000
20
61.820000000000
30
0.0
11
73.320000000000
21
61.820000000000
31
0.0
0
LINE
5
5ac
100
AcDbEntity
8
0-202
6
CONTINUOUS
62
4
100
AcDbLine
10
71.720000000000
20
62.140000000000
30
0.0
11
73.320000000000
21
62.140000000000
31
0.0
0
LINE
5
5ad
100
AcDbEntity
8
0-202
6
CONTINUOUS
62
4
100
AcDbLine
10
71.720000000000
20
62.460000000000
30
0.0
11
73.320000000000
21
62.460000000000
31
0.0
0
LINE
5
5ae
100
AcDbEntity
8
0-202
6
CONTINUOUS
62
4
100
AcDbLine
10
71.720000000000
20
62.780000000000
30
0.0
11
73.320000000000
21
62.780000000000
31
0.0
0
LINE
5
5af
100
AcDbEntity
8
0-202
6
CONTINUOUS
62
4
100
AcDbLine
10
71.720000000000
20
63.100000000000
30
0.0
11
73.320000000000
21
63.100000000000
31
0.0
0
LINE
5
5b0
100
AcDbEntity
8
0-202
6
CONTINUOUS
62
4
100
AcDbLine
10
71.720000000000
20
63.420000000000
30
0.0
11
73.320000000000
21
63.420000000000
31
0.0
0
LINE
5
5b1
100
AcDbEntity
8
0-202
6
CONTINUOUS
62
4
100
AcDbLine
10
71.720000000000
20
63.740000000000
30
0.0
11
73.320000000000
21
63.740000000000
31
0.0
0
LINE
5
5b2
100
AcDbEntity
8
0-202
6
CONTINUOUS
62
4
100
AcDbLine
10
71.720000000000
20
64.060000000000
30
0.0
11
73.320000000000
21
64.060000000000
31
0.0
0
LINE
5
5b3
100
AcDbEntity
8
0-202
6
CONTINUOUS
62
4
100
AcDbLine
10
71.720000000000
20
64.380000000000
30
0.0
11
73.320000000000
21
64.380000000000
31
0.0
0
LINE
5
5b4
100
AcDbEntity
8
0-202
6
CONTINUOUS
62
4
100
AcDbLine
10
71.720000000000
20
64.700000000000
30
0.0
11
73.320000000000
21
64.700000000000
31
0.0
0
LINE
5
5b5
100
AcDbEntity
8
0-202
6
CONTINUOUS
62
4
100
AcDbLine
10
71.720000000000
20
65.020000000000
30
0.0
11
73.320000000000
21
65.020000000000
31
0.0
0
LINE
5
5b6
100
AcDbEntity
8
0-202
6
CONTINUOUS
62
4
100
AcDbLine
10
71.720000000000
20
65.340000000000
30
0.0
11
73.320000000000
21
65.340000000000
31
0.0
0
LINE
5
5b7
100
AcDbEntity
8
0-202
6
CONTINUOUS
62
4
100
AcDbLine
10
71.720000000000
20
65.660000000000
30
0.0
11
73.320000000000
21
65.660000000000
31
0.0
0
LINE
5
5b8
100
AcDbEntity
8
0-202
6
CONTINUOUS
62
4
100
AcDbLine
10
71.720000000000
20
65.980000000000
30
0.0
11
73.320000000000
21
65.980000000000
31
0.0
0
LINE
5
5b9
100
AcDbEntity
8
0-202
6
CONTINUOUS
62
4
100
AcDbLine
10
71.720000000000
20
66.300000000000
30
0.0
11
73.320000000000
21
66.300000000000
31
0.0
0
LINE
5
5ba
100
AcDbEntity
8
0-202
6
CONTINUOUS
62
4
100
AcDbLine
10
71.720000000000
20
66.620000000000
30
0.0
11
73.320000000000
21
66.620000000000
31
0.0
0
LINE
5
5bb
100
AcDbEntity
8
0-202
6
CONTINUOUS
62
4
100
AcDbLine
10
71.720000000000
20
66.940000000000
30
0.0
11
73.320000000000
21
66.940000000000
31
0.0
0
LINE
5
5bc
100
AcDbEntity
8
0-202
6
CONTINUOUS
62
4
100
AcDbLine
10
71.720000000000
20
67.260000000000
30
0.0
11
73.320000000000
21
67.260000000000
31
0.0
0
LINE
5
5bd
100
AcDbEntity
8
0-202
6
CONTINUOUS
62
4
100
AcDbLine
10
71.720000000000
20
67.580000000000
30
0.0
11
73.320000000000
21
67.580000000000
31
0.0
0
LINE
5
5be
100
AcDbEntity
8
0-202
6
CONTINUOUS
62
4
100
AcDbLine
10
71.720000000000
20
67.900000000000
30
0.0
11
73.320000000000
21
67.900000000000
31
0.0
0
LINE
5
5bf
100
AcDbEntity
8
0-202
6
CONTINUOUS
62
4
100
AcDbLine
10
71.720000000000
20
68.220000000000
30
0.0
11
73.320000000000
21
68.220000000000
31
0.0
0
LINE
5
5c0
100
AcDbEntity
8
0-202
6
CONTINUOUS
62
4
100
AcDbLine
10
71.720000000000
20
68.540000000000
30
0.0
11
73.320000000000
21
68.540000000000
31
0.0
0
LINE
5
5c1
100
AcDbEntity
8
0-202
6
CONTINUOUS
62
4
100
AcDbLine
10
71.720000000000
20
68.860000000000
30
0.0
11
73.320000000000
21
68.860000000000
31
0.0
0
LINE
5
5c2
100
AcDbEntity
8
0-202
6
CONTINUOUS
62
4
100
AcDbLine
10
71.720000000000
20
69.820000000000
30
0.0
11
73.320000000000
21
69.820000000000
31
0.0
0
LINE
5
5c3
100
AcDbEntity
8
0-202
6
CONTINUOUS
62
4
100
AcDbLine
10
71.720000000000
20
70.780000000000
30
0.0
11
73.320000000000
21
70.780000000000
31
0.0
0
LINE
5
5c4
100
AcDbEntity
8
0-202
6
CONTINUOUS
62
4
100
AcDbLine
10
71.720000000000
20
71.100000000000
30
0.0
11
73.320000000000
21
71.100000000000
31
0.0
0
LINE
5
5c5
100
AcDbEntity
8
0-202
6
CONTINUOUS
62
4
100
AcDbLine
10
71.720000000000
20
71.420000000000
30
0.0
11
73.320000000000
21
71.420000000000
31
0.0
0
LINE
5
5c6
100
AcDbEntity
8
0-202
6
CONTINUOUS
62
4
100
AcDbLine
10
71.720000000000
20
71.740000000000
30
0.0
11
73.320000000000
21
71.740000000000
31
0.0
0
LINE
5
5c7
100
AcDbEntity
8
0-202
6
CONTINUOUS
62
4
100
AcDbLine
10
71.720000000000
20
73.340000000000
30
0.0
11
73.320000000000
21
73.340000000000
31
0.0
0
LINE
5
5c8
100
AcDbEntity
8
0-202
6
CONTINUOUS
62
4
100
AcDbLine
10
71.720000000000
20
73.020000000000
30
0.0
11
73.320000000000
21
73.020000000000
31
0.0
0
LINE
5
5c9
100
AcDbEntity
8
0-202
6
CONTINUOUS
62
4
100
AcDbLine
10
71.720000000000
20
72.700000000000
30
0.0
11
73.320000000000
21
72.700000000000
31
0.0
0
LINE
5
5ca
100
AcDbEntity
8
0-202
6
CONTINUOUS
62
4
100
AcDbLine
10
71.720000000000
20
72.380000000000
30
0.0
11
73.320000000000
21
72.380000000000
31
0.0
0
LINE
5
5cb
100
AcDbEntity
8
0-202
6
CONTINUOUS
62
4
100
AcDbLine
10
71.720000000000
20
72.060000000000
30
0.0
11
73.320000000000
21
72.060000000000
31
0.0
0
LINE
5
5cc
100
AcDbEntity
8
0-202
6
CONTINUOUS
62
4
100
AcDbLine
10
71.720000000000
20
70.140000000000
30
0.0
11
73.320000000000
21
70.140000000000
31
0.0
0
LINE
5
5cd
100
AcDbEntity
8
0-202
6
CONTINUOUS
62
4
100
AcDbLine
10
71.720000000000
20
70.460000000000
30
0.0
11
73.320000000000
21
70.460000000000
31
0.0
0
LINE
5
5ce
100
AcDbEntity
8
0-202
6
CONTINUOUS
62
4
100
AcDbLine
10
71.720000000000
20
69.500000000000
30
0.0
11
73.320000000000
21
69.500000000000
31
0.0
0
LINE
5
5cf
100
AcDbEntity
8
0-202
6
CONTINUOUS
62
4
100
AcDbLine
10
71.720000000000
20
69.180000000000
30
0.0
11
73.320000000000
21
69.180000000000
31
0.0
0
LINE
5
5d0
100
AcDbEntity
8
0-202
6
CONTINUOUS
62
4
100
AcDbLine
10
73.870000000000
20
61.820000000000
30
0.0
11
75.000000000000
21
61.820000000000
31
0.0
0
LINE
5
5d1
100
AcDbEntity
8
0-202
6
CONTINUOUS
62
4
100
AcDbLine
10
73.550000000000
20
61.500000000000
30
0.0
11
74.680000000000
21
61.500000000000
31
0.0
0
LINE
5
5d2
100
AcDbEntity
8
0-202
6
CONTINUOUS
62
4
100
AcDbLine
10
71.720000000000
20
61.180000000000
30
0.0
11
74.360000000000
21
61.180000000000
31
0.0
0
LINE
5
5d3
100
AcDbEntity
8
0-202
6
CONTINUOUS
62
4
100
AcDbLine
10
71.720000000000
20
60.860000000000
30
0.0
11
74.040000000000
21
60.860000000000
31
0.0
0
LINE
5
5d4
100
AcDbEntity
8
0-202
6
CONTINUOUS
62
4
100
AcDbLine
10
75.790000000000
20
63.740000000000
30
0.0
11
76.920000000000
21
63.740000000000
31
0.0
0
LINE
5
5d5
100
AcDbEntity
8
0-202
6
CONTINUOUS
62
4
100
AcDbLine
10
75.470000000000
20
63.420000000000
30
0.0
11
76.600000000000
21
63.420000000000
31
0.0
0
LINE
5
5d6
100
AcDbEntity
8
0-202
6
CONTINUOUS
62
4
100
AcDbLine
10
75.150000000000
20
63.100000000000
30
0.0
11
76.280000000000
21
63.100000000000
31
0.0
0
LINE
5
5d7
100
AcDbEntity
8
0-202
6
CONTINUOUS
62
4
100
AcDbLine
10
74.830000000000
20
62.780000000000
30
0.0
11
75.960000000000
21
62.780000000000
31
0.0
0
LINE
5
5d8
100
AcDbEntity
8
0-202
6
CONTINUOUS
62
4
100
AcDbLine
10
74.510000000000
20
62.460000000000
30
0.0
11
75.640000000000
21
62.460000000000
31
0.0
0
LINE
5
5d9
100
AcDbEntity
8
0-202
6
CONTINUOUS
62
4
100
AcDbLine
10
74.190000000000
20
62.140000000000
30
0.0
11
75.320000000000
21
62.140000000000
31
0.0
0
LINE
5
5da
100
AcDbEntity
8
0-202
6
CONTINUOUS
62
4
100
AcDbLine
10
73.320000000000
20
73.500000000000
30
0.0
11
73.320000000000
21
73.820000000000
31
0.0
0
LINE
5
5db
100
AcDbEntity
8
0-202
6
CONTINUOUS
62
4
100
AcDbLine
10
86.120000000000
20
61.500000000000
30
0.0
11
87.720000000000
21
61.500000000000
31
0.0
0
LINE
5
5dc
100
AcDbEntity
8
0-202
6
CONTINUOUS
62
4
100
AcDbLine
10
86.120000000000
20
61.820000000000
30
0.0
11
87.720000000000
21
61.820000000000
31
0.0
0
LINE
5
5dd
100
AcDbEntity
8
0-202
6
CONTINUOUS
62
4
100
AcDbLine
10
86.120000000000
20
62.140000000000
30
0.0
11
87.720000000000
21
62.140000000000
31
0.0
0
LINE
5
5de
100
AcDbEntity
8
0-202
6
CONTINUOUS
62
4
100
AcDbLine
10
86.120000000000
20
62.460000000000
30
0.0
11
87.720000000000
21
62.460000000000
31
0.0
0
LINE
5
5df
100
AcDbEntity
8
0-202
6
CONTINUOUS
62
4
100
AcDbLine
10
86.120000000000
20
62.780000000000
30
0.0
11
87.720000000000
21
62.780000000000
31
0.0
0
LINE
5
5e0
100
AcDbEntity
8
0-202
6
CONTINUOUS
62
4
100
AcDbLine
10
86.120000000000
20
63.100000000000
30
0.0
11
87.720000000000
21
63.100000000000
31
0.0
0
LINE
5
5e1
100
AcDbEntity
8
0-202
6
CONTINUOUS
62
4
100
AcDbLine
10
86.120000000000
20
63.420000000000
30
0.0
11
87.720000000000
21
63.420000000000
31
0.0
0
LINE
5
5e2
100
AcDbEntity
8
0-202
6
CONTINUOUS
62
4
100
AcDbLine
10
86.120000000000
20
63.740000000000
30
0.0
11
87.720000000000
21
63.740000000000
31
0.0
0
LINE
5
5e3
100
AcDbEntity
8
0-202
6
CONTINUOUS
62
4
100
AcDbLine
10
86.120000000000
20
64.060000000000
30
0.0
11
87.720000000000
21
64.060000000000
31
0.0
0
LINE
5
5e4
100
AcDbEntity
8
0-202
6
CONTINUOUS
62
4
100
AcDbLine
10
86.120000000000
20
64.380000000000
30
0.0
11
87.720000000000
21
64.380000000000
31
0.0
0
LINE
5
5e5
100
AcDbEntity
8
0-202
6
CONTINUOUS
62
4
100
AcDbLine
10
86.120000000000
20
64.700000000000
30
0.0
11
87.720000000000
21
64.700000000000
31
0.0
0
LINE
5
5e6
100
AcDbEntity
8
0-202
6
CONTINUOUS
62
4
100
AcDbLine
10
86.120000000000
20
65.020000000000
30
0.0
11
87.720000000000
21
65.020000000000
31
0.0
0
LINE
5
5e7
100
AcDbEntity
8
0-202
6
CONTINUOUS
62
4
100
AcDbLine
10
86.120000000000
20
65.340000000000
30
0.0
11
87.720000000000
21
65.340000000000
31
0.0
0
LINE
5
5e8
100
AcDbEntity
8
0-202
6
CONTINUOUS
62
4
100
AcDbLine
10
86.120000000000
20
65.980000000000
30
0.0
11
87.720000000000
21
65.980000000000
31
0.0
0
LINE
5
5e9
100
AcDbEntity
8
0-202
6
CONTINUOUS
62
4
100
AcDbLine
10
86.120000000000
20
66.300000000000
30
0.0
11
87.720000000000
21
66.300000000000
31
0.0
0
LINE
5
5ea
100
AcDbEntity
8
0-202
6
CONTINUOUS
62
4
100
AcDbLine
10
86.120000000000
20
66.620000000000
30
0.0
11
87.720000000000
21
66.620000000000
31
0.0
0
LINE
5
5eb
100
AcDbEntity
8
0-202
6
CONTINUOUS
62
4
100
AcDbLine
10
86.120000000000
20
66.940000000000
30
0.0
11
87.720000000000
21
66.940000000000
31
0.0
0
LINE
5
5ec
100
AcDbEntity
8
0-202
6
CONTINUOUS
62
4
100
AcDbLine
10
86.120000000000
20
67.260000000000
30
0.0
11
87.720000000000
21
67.260000000000
31
0.0
0
LINE
5
5ed
100
AcDbEntity
8
0-202
6
CONTINUOUS
62
4
100
AcDbLine
10
86.120000000000
20
67.580000000000
30
0.0
11
87.720000000000
21
67.580000000000
31
0.0
0
LINE
5
5ee
100
AcDbEntity
8
0-202
6
CONTINUOUS
62
4
100
AcDbLine
10
86.120000000000
20
67.900000000000
30
0.0
11
87.720000000000
21
67.900000000000
31
0.0
0
LINE
5
5ef
100
AcDbEntity
8
0-202
6
CONTINUOUS
62
4
100
AcDbLine
10
86.120000000000
20
68.220000000000
30
0.0
11
87.720000000000
21
68.220000000000
31
0.0
0
LINE
5
5f0
100
AcDbEntity
8
0-202
6
CONTINUOUS
62
4
100
AcDbLine
10
86.120000000000
20
68.540000000000
30
0.0
11
87.720000000000
21
68.540000000000
31
0.0
0
LINE
5
5f1
100
AcDbEntity
8
0-202
6
CONTINUOUS
62
4
100
AcDbLine
10
86.120000000000
20
68.860000000000
30
0.0
11
87.720000000000
21
68.860000000000
31
0.0
0
LINE
5
5f2
100
AcDbEntity
8
0-202
6
CONTINUOUS
62
4
100
AcDbLine
10
86.120000000000
20
69.820000000000
30
0.0
11
87.720000000000
21
69.820000000000
31
0.0
0
LINE
5
5f3
100
AcDbEntity
8
0-202
6
CONTINUOUS
62
4
100
AcDbLine
10
86.120000000000
20
70.780000000000
30
0.0
11
87.720000000000
21
70.780000000000
31
0.0
0
LINE
5
5f4
100
AcDbEntity
8
0-202
6
CONTINUOUS
62
4
100
AcDbLine
10
86.120000000000
20
71.100000000000
30
0.0
11
87.720000000000
21
71.100000000000
31
0.0
0
LINE
5
5f5
100
AcDbEntity
8
0-202
6
CONTINUOUS
62
4
100
AcDbLine
10
86.120000000000
20
71.420000000000
30
0.0
11
87.720000000000
21
71.420000000000
31
0.0
0
LINE
5
5f6
100
AcDbEntity
8
0-202
6
CONTINUOUS
62
4
100
AcDbLine
10
86.120000000000
20
71.740000000000
30
0.0
11
87.720000000000
21
71.740000000000
31
0.0
0
LINE
5
5f7
100
AcDbEntity
8
0-202
6
CONTINUOUS
62
4
100
AcDbLine
10
86.120000000000
20
72.700000000000
30
0.0
11
87.720000000000
21
72.700000000000
31
0.0
0
LINE
5
5f8
100
AcDbEntity
8
0-202
6
CONTINUOUS
62
4
100
AcDbLine
10
86.120000000000
20
72.380000000000
30
0.0
11
87.720000000000
21
72.380000000000
31
0.0
0
LINE
5
5f9
100
AcDbEntity
8
0-202
6
CONTINUOUS
62
4
100
AcDbLine
10
86.120000000000
20
72.060000000000
30
0.0
11
87.720000000000
21
72.060000000000
31
0.0
0
LINE
5
5fa
100
AcDbEntity
8
0-202
6
CONTINUOUS
62
4
100
AcDbLine
10
86.120000000000
20
70.140000000000
30
0.0
11
87.720000000000
21
70.140000000000
31
0.0
0
LINE
5
5fb
100
AcDbEntity
8
0-202
6
CONTINUOUS
62
4
100
AcDbLine
10
86.120000000000
20
70.460000000000
30
0.0
11
87.720000000000
21
70.460000000000
31
0.0
0
LINE
5
5fc
100
AcDbEntity
8
0-202
6
CONTINUOUS
62
4
100
AcDbLine
10
86.120000000000
20
69.500000000000
30
0.0
11
87.720000000000
21
69.500000000000
31
0.0
0
LINE
5
5fd
100
AcDbEntity
8
0-202
6
CONTINUOUS
62
4
100
AcDbLine
10
86.120000000000
20
69.180000000000
30
0.0
11
87.720000000000
21
69.180000000000
31
0.0
0
LINE
5
5fe
100
AcDbEntity
8
0-202
6
CONTINUOUS
62
4
100
AcDbLine
10
86.120000000000
20
60.860000000000
30
0.0
11
87.720000000000
21
60.860000000000
31
0.0
0
LINE
5
5ff
100
AcDbEntity
8
0-202
6
CONTINUOUS
62
4
100
AcDbLine
10
86.120000000000
20
61.180000000000
30
0.0
11
87.720000000000
21
61.180000000000
31
0.0
0
LINE
5
600
100
AcDbEntity
8
0-202
6
CONTINUOUS
62
4
100
AcDbLine
10
85.390000000000
20
73.340000000000
30
0.0
11
87.720000000000
21
73.340000000000
31
0.0
0
LINE
5
601
100
AcDbEntity
8
0-202
6
CONTINUOUS
62
4
100
AcDbLine
10
85.070000000000
20
73.020000000000
30
0.0
11
87.720000000000
21
73.020000000000
31
0.0
0
LINE
5
602
100
AcDbEntity
8
0-202
6
CONTINUOUS
62
4
100
AcDbLine
10
77.070000000000
20
65.020000000000
30
0.0
11
78.200000000000
21
65.020000000000
31
0.0
0
LINE
5
603
100
AcDbEntity
8
0-202
6
CONTINUOUS
62
4
100
AcDbLine
10
76.750000000000
20
64.700000000000
30
0.0
11
77.880000000000
21
64.700000000000
31
0.0
0
LINE
5
604
100
AcDbEntity
8
0-202
6
CONTINUOUS
62
4
100
AcDbLine
10
76.430000000000
20
64.380000000000
30
0.0
11
77.560000000000
21
64.380000000000
31
0.0
0
LINE
5
605
100
AcDbEntity
8
0-202
6
CONTINUOUS
62
4
100
AcDbLine
10
76.110000000000
20
64.060000000000
30
0.0
11
77.240000000000
21
64.060000000000
31
0.0
0
LINE
5
606
100
AcDbEntity
8
0-202
6
CONTINUOUS
62
4
100
AcDbLine
10
78.350000000000
20
66.300000000000
30
0.0
11
79.480000000000
21
66.300000000000
31
0.0
0
LINE
5
607
100
AcDbEntity
8
0-202
6
CONTINUOUS
62
4
100
AcDbLine
10
78.030000000000
20
65.980000000000
30
0.0
11
79.160000000000
21
65.980000000000
31
0.0
0
LINE
5
608
100
AcDbEntity
8
0-202
6
CONTINUOUS
62
4
100
AcDbLine
10
77.710000000000
20
65.660000000000
30
0.0
11
78.840000000000
21
65.660000000000
31
0.0
0
LINE
5
609
100
AcDbEntity
8
0-202
6
CONTINUOUS
62
4
100
AcDbLine
10
77.390000000000
20
65.340000000000
30
0.0
11
78.520000000000
21
65.340000000000
31
0.0
0
LINE
5
60a
100
AcDbEntity
8
0-202
6
CONTINUOUS
62
4
100
AcDbLine
10
79.630000000000
20
67.580000000000
30
0.0
11
80.760000000000
21
67.580000000000
31
0.0
0
LINE
5
60b
100
AcDbEntity
8
0-202
6
CONTINUOUS
62
4
100
AcDbLine
10
79.310000000000
20
67.260000000000
30
0.0
11
80.440000000000
21
67.260000000000
31
0.0
0
LINE
5
60c
100
AcDbEntity
8
0-202
6
CONTINUOUS
62
4
100
AcDbLine
10
78.990000000000
20
66.940000000000
30
0.0
11
80.120000000000
21
66.940000000000
31
0.0
0
LINE
5
60d
100
AcDbEntity
8
0-202
6
CONTINUOUS
62
4
100
AcDbLine
10
78.670000000000
20
66.620000000000
30
0.0
11
79.800000000000
21
66.620000000000
31
0.0
0
LINE
5
60e
100
AcDbEntity
8
0-202
6
CONTINUOUS
62
4
100
AcDbLine
10
80.910000000000
20
68.860000000000
30
0.0
11
82.040000000000
21
68.860000000000
31
0.0
0
LINE
5
60f
100
AcDbEntity
8
0-202
6
CONTINUOUS
62
4
100
AcDbLine
10
80.590000000000
20
68.540000000000
30
0.0
11
81.720000000000
21
68.540000000000
31
0.0
0
LINE
5
610
100
AcDbEntity
8
0-202
6
CONTINUOUS
62
4
100
AcDbLine
10
80.270000000000
20
68.220000000000
30
0.0
11
81.400000000000
21
68.220000000000
31
0.0
0
LINE
5
611
100
AcDbEntity
8
0-202
6
CONTINUOUS
62
4
100
AcDbLine
10
79.950000000000
20
67.900000000000
30
0.0
11
81.080000000000
21
67.900000000000
31
0.0
0
LINE
5
612
100
AcDbEntity
8
0-202
6
CONTINUOUS
62
4
100
AcDbLine
10
82.190000000000
20
70.140000000000
30
0.0
11
83.320000000000
21
70.140000000000
31
0.0
0
LINE
5
613
100
AcDbEntity
8
0-202
6
CONTINUOUS
62
4
100
AcDbLine
10
81.870000000000
20
69.820000000000
30
0.0
11
83.000000000000
21
69.820000000000
31
0.0
0
LINE
5
614
100
AcDbEntity
8
0-202
6
CONTINUOUS
62
4
100
AcDbLine
10
81.550000000000
20
69.500000000000
30
0.0
11
82.680000000000
21
69.500000000000
31
0.0
0
LINE
5
615
100
AcDbEntity
8
0-202
6
CONTINUOUS
62
4
100
AcDbLine
10
81.230000000000
20
69.180000000000
30
0.0
11
82.360000000000
21
69.180000000000
31
0.0
0
LINE
5
616
100
AcDbEntity
8
0-202
6
CONTINUOUS
62
4
100
AcDbLine
10
83.470000000000
20
71.420000000000
30
0.0
11
84.600000000000
21
71.420000000000
31
0.0
0
LINE
5
617
100
AcDbEntity
8
0-202
6
CONTINUOUS
62
4
100
AcDbLine
10
83.150000000000
20
71.100000000000
30
0.0
11
84.280000000000
21
71.100000000000
31
0.0
0
LINE
5
618
100
AcDbEntity
8
0-202
6
CONTINUOUS
62
4
100
AcDbLine
10
82.830000000000
20
70.780000000000
30
0.0
11
83.960000000000
21
70.780000000000
31
0.0
0
LINE
5
619
100
AcDbEntity
8
0-202
6
CONTINUOUS
62
4
100
AcDbLine
10
82.510000000000
20
70.460000000000
30
0.0
11
83.640000000000
21
70.460000000000
31
0.0
0
LINE
5
61a
100
AcDbEntity
8
0-202
6
CONTINUOUS
62
4
100
AcDbLine
10
84.750000000000
20
72.700000000000
30
0.0
11
85.880000000000
21
72.700000000000
31
0.0
0
LINE
5
61b
100
AcDbEntity
8
0-202
6
CONTINUOUS
62
4
100
AcDbLine
10
84.430000000000
20
72.380000000000
30
0.0
11
85.560000000000
21
72.380000000000
31
0.0
0
LINE
5
61c
100
AcDbEntity
8
0-202
6
CONTINUOUS
62
4
100
AcDbLine
10
84.110000000000
20
72.060000000000
30
0.0
11
85.240000000000
21
72.060000000000
31
0.0
0
LINE
5
61d
100
AcDbEntity
8
0-202
6
CONTINUOUS
62
4
100
AcDbLine
10
83.790000000000
20
71.740000000000
30
0.0
11
84.920000000000
21
71.740000000000
31
0.0
0
LINE
5
61e
100
AcDbEntity
8
0-202
6
CONTINUOUS
62
4
100
AcDbLine
10
86.120000000000
20
65.660000000000
30
0.0
11
87.720000000000
21
65.660000000000
31
0.0
0
LINE
5
61f
100
AcDbEntity
8
0-202
6
CONTINUOUS
62
2
100
AcDbLine
10
1224.220000000000
20
1143.640000000000
30
0.0
11
1224.220000000000
21
977.430000000000
31
0.0
0
LINE
5
620
100
AcDbEntity
8
0-202
6
CONTINUOUS
62
2
100
AcDbLine
10
1224.220000000000
20
977.430000000000
30
0.0
11
1631.650000000000
21
977.430000000000
31
0.0
0
LINE
5
621
100
AcDbEntity
8
0-000
6
CONTINUOUS
62
3
100
AcDbLine
10
1310.770000000000
20
617.430000000000
30
0.0
11
1329.130000000000
21
617.430000000000
31
0.0
0
LINE
5
622
100
AcDbEntity
8
0-000
6
CONTINUOUS
62
3
100
AcDbLine
10
1309.790000000000
20
616.630000000000
30
0.0
11
1305.270000000000
21
594.040000000000
31
0.0
0
LINE
5
623
100
AcDbEntity
8
0-000
6
CONTINUOUS
62
3
100
AcDbLine
10
1303.310000000000
20
593.430000000000
30
0.0
11
1284.130000000000
21
593.430000000000
31
0.0
0
LINE
5
624
100
AcDbEntity
8
0-000
6
CONTINUOUS
62
3
100
AcDbLine
10
1303.310000000000
20
592.430000000000
30
0.0
11
1284.130000000000
21
592.430000000000
31
0.0
0
LINE
5
625
100
AcDbEntity
8
0-000
6
CONTINUOUS
62
3
100
AcDbLine
10
1310.770000000000
20
618.430000000000
30
0.0
11
1329.130000000000
21
618.430000000000
31
0.0
0
LINE
5
626
100
AcDbEntity
8
0-000
6
CONTINUOUS
62
3
100
AcDbLine
10
1304.290000000000
20
594.230000000000
30
0.0
11
1308.810000000000
21
616.820000000000
31
0.0
0
LINE
5
627
100
AcDbEntity
8
0-000
6
CONTINUOUS
62
3
100
AcDbLine
10
1347.490000000000
20
617.430000000000
30
0.0
11
1329.130000000000
21
617.430000000000
31
0.0
0
LINE
5
628
100
AcDbEntity
8
0-000
6
CONTINUOUS
62
3
100
AcDbLine
10
1348.470000000000
20
616.630000000000
30
0.0
11
1352.990000000000
21
594.040000000000
31
0.0
0
LINE
5
629
100
AcDbEntity
8
0-000
6
CONTINUOUS
62
3
100
AcDbLine
10
1354.950000000000
20
593.430000000000
30
0.0
11
1374.130000000000
21
593.430000000000
31
0.0
0
LINE
5
62a
100
AcDbEntity
8
0-000
6
CONTINUOUS
62
3
100
AcDbLine
10
1354.950000000000
20
592.430000000000
30
0.0
11
1374.130000000000
21
592.430000000000
31
0.0
0
LINE
5
62b
100
AcDbEntity
8
0-000
6
CONTINUOUS
62
3
100
AcDbLine
10
1347.490000000000
20
618.430000000000
30
0.0
11
1329.130000000000
21
618.430000000000
31
0.0
0
LINE
5
62c
100
AcDbEntity
8
0-000
6
CONTINUOUS
62
3
100
AcDbLine
10
1353.970000000000
20
594.230000000000
30
0.0
11
1349.450000000000
21
616.820000000000
31
0.0
0
LINE
5
62d
100
AcDbEntity
8
0-000
6
CONTINUOUS
62
3
100
AcDbLine
10
1390.130000000000
20
593.430000000000
30
0.0
11
1390.130000000000
21
592.430000000000
31
0.0
0
LINE
5
62e
100
AcDbEntity
8
0-000
6
CONTINUOUS
62
3
100
AcDbLine
10
1400.770000000000
20
615.430000000000
30
0.0
11
1419.130000000000
21
615.430000000000
31
0.0
0
LINE
5
62f
100
AcDbEntity
8
0-000
6
CONTINUOUS
62
3
100
AcDbLine
10
1399.790000000000
20
614.630000000000
30
0.0
11
1395.270000000000
21
592.040000000000
31
0.0
0
LINE
5
630
100
AcDbEntity
8
0-000
6
CONTINUOUS
62
3
100
AcDbLine
10
1394.290000000000
20
592.230000000000
30
0.0
11
1398.810000000000
21
614.820000000000
31
0.0
0
LINE
5
631
100
AcDbEntity
8
0-000
6
CONTINUOUS
62
3
100
AcDbLine
10
1358.130000000000
20
591.430000000000
30
0.0
11
1358.130000000000
21
590.430000000000
31
0.0
0
LINE
5
632
100
AcDbEntity
8
0-000
6
CONTINUOUS
62
3
100
AcDbLine
10
1400.770000000000
20
616.430000000000
30
0.0
11
1419.130000000000
21
616.430000000000
31
0.0
0
LINE
5
633
100
AcDbEntity
8
0-000
6
CONTINUOUS
62
3
100
AcDbLine
10
1438.470000000000
20
614.630000000000
30
0.0
11
1442.990000000000
21
592.040000000000
31
0.0
0
LINE
5
634
100
AcDbEntity
8
0-000
6
CONTINUOUS
62
3
100
AcDbLine
10
1443.970000000000
20
592.230000000000
30
0.0
11
1439.450000000000
21
614.820000000000
31
0.0
0
LINE
5
635
100
AcDbEntity
8
0-000
6
CONTINUOUS
62
3
100
AcDbLine
10
1437.490000000000
20
615.430000000000
30
0.0
11
1419.130000000000
21
615.430000000000
31
0.0
0
LINE
5
636
100
AcDbEntity
8
0-000
6
CONTINUOUS
62
3
100
AcDbLine
10
1437.490000000000
20
616.430000000000
30
0.0
11
1419.130000000000
21
616.430000000000
31
0.0
0
LINE
5
637
100
AcDbEntity
8
0-000
6
CONTINUOUS
62
3
100
AcDbLine
10
1444.950000000000
20
591.430000000000
30
0.0
11
1464.130000000000
21
591.430000000000
31
0.0
0
LINE
5
638
100
AcDbEntity
8
0-000
6
CONTINUOUS
62
3
100
AcDbLine
10
1444.950000000000
20
590.430000000000
30
0.0
11
1464.130000000000
21
590.430000000000
31
0.0
0
LINE
5
639
100
AcDbEntity
8
0-000
6
CONTINUOUS
62
3
100
AcDbLine
10
1445.770000000000
20
369.430000000000
30
0.0
11
1464.130000000000
21
369.430000000000
31
0.0
0
LINE
5
63a
100
AcDbEntity
8
0-000
6
CONTINUOUS
62
3
100
AcDbLine
10
1444.790000000000
20
368.630000000000
30
0.0
11
1440.270000000000
21
346.040000000000
31
0.0
0
LINE
5
63b
100
AcDbEntity
8
0-000
6
CONTINUOUS
62
3
100
AcDbLine
10
1438.310000000000
20
345.430000000000
30
0.0
11
1419.130000000000
21
345.430000000000
31
0.0
0
LINE
5
63c
100
AcDbEntity
8
0-000
6
CONTINUOUS
62
3
100
AcDbLine
10
1438.310000000000
20
344.430000000000
30
0.0
11
1419.130000000000
21
344.430000000000
31
0.0
0
LINE
5
63d
100
AcDbEntity
8
0-000
6
CONTINUOUS
62
3
100
AcDbLine
10
1445.770000000000
20
370.430000000000
30
0.0
11
1464.130000000000
21
370.430000000000
31
0.0
0
LINE
5
63e
100
AcDbEntity
8
0-000
6
CONTINUOUS
62
3
100
AcDbLine
10
1439.290000000000
20
346.230000000000
30
0.0
11
1443.810000000000
21
368.820000000000
31
0.0
0
LINE
5
63f
100
AcDbEntity
8
0-000
6
CONTINUOUS
62
3
100
AcDbLine
10
1392.490000000000
20
369.430000000000
30
0.0
11
1374.130000000000
21
369.430000000000
31
0.0
0
LINE
5
640
100
AcDbEntity
8
0-000
6
CONTINUOUS
62
3
100
AcDbLine
10
1393.470000000000
20
368.630000000000
30
0.0
11
1397.990000000000
21
346.040000000000
31
0.0
0
LINE
5
641
100
AcDbEntity
8
0-000
6
CONTINUOUS
62
3
100
AcDbLine
10
1399.950000000000
20
345.430000000000
30
0.0
11
1419.130000000000
21
345.430000000000
31
0.0
0
LINE
5
642
100
AcDbEntity
8
0-000
6
CONTINUOUS
62
3
100
AcDbLine
10
1399.950000000000
20
344.430000000000
30
0.0
11
1419.130000000000
21
344.430000000000
31
0.0
0
LINE
5
643
100
AcDbEntity
8
0-000
6
CONTINUOUS
62
3
100
AcDbLine
10
1392.490000000000
20
370.430000000000
30
0.0
11
1374.130000000000
21
370.430000000000
31
0.0
0
LINE
5
644
100
AcDbEntity
8
0-000
6
CONTINUOUS
62
3
100
AcDbLine
10
1398.970000000000
20
346.230000000000
30
0.0
11
1394.460000000000
21
368.820000000000
31
0.0
0
LINE
5
645
100
AcDbEntity
8
0-000
6
CONTINUOUS
62
3
100
AcDbLine
10
1445.770000000000
20
369.430000000000
30
0.0
11
1464.130000000000
21
369.430000000000
31
0.0
0
LINE
5
646
100
AcDbEntity
8
0-000
6
CONTINUOUS
62
3
100
AcDbLine
10
1444.790000000000
20
368.630000000000
30
0.0
11
1440.270000000000
21
346.040000000000
31
0.0
0
LINE
5
647
100
AcDbEntity
8
0-000
6
CONTINUOUS
62
3
100
AcDbLine
10
1438.310000000000
20
345.430000000000
30
0.0
11
1419.130000000000
21
345.430000000000
31
0.0
0
LINE
5
648
100
AcDbEntity
8
0-000
6
CONTINUOUS
62
3
100
AcDbLine
10
1438.310000000000
20
344.430000000000
30
0.0
11
1419.130000000000
21
344.430000000000
31
0.0
0
LINE
5
649
100
AcDbEntity
8
0-000
6
CONTINUOUS
62
3
100
AcDbLine
10
1445.770000000000
20
370.430000000000
30
0.0
11
1464.130000000000
21
370.430000000000
31
0.0
0
LINE
5
64a
100
AcDbEntity
8
0-000
6
CONTINUOUS
62
3
100
AcDbLine
10
1439.290000000000
20
346.230000000000
30
0.0
11
1443.810000000000
21
368.820000000000
31
0.0
0
LINE
5
64b
100
AcDbEntity
8
0-000
6
CONTINUOUS
62
3
100
AcDbLine
10
1355.770000000000
20
369.430000000000
30
0.0
11
1374.130000000000
21
369.430000000000
31
0.0
0
LINE
5
64c
100
AcDbEntity
8
0-000
6
CONTINUOUS
62
3
100
AcDbLine
10
1355.770000000000
20
370.430000000000
30
0.0
11
1374.130000000000
21
370.430000000000
31
0.0
0
LINE
5
64d
100
AcDbEntity
8
0-000
6
CONTINUOUS
62
3
100
AcDbLine
10
1435.130000000000
20
347.430000000000
30
0.0
11
1435.130000000000
21
346.430000000000
31
0.0
0
LINE
5
64e
100
AcDbEntity
8
0-000
6
CONTINUOUS
62
3
100
AcDbLine
10
1392.490000000000
20
371.430000000000
30
0.0
11
1374.130000000000
21
371.430000000000
31
0.0
0
LINE
5
64f
100
AcDbEntity
8
0-000
6
CONTINUOUS
62
3
100
AcDbLine
10
1392.490000000000
20
372.430000000000
30
0.0
11
1374.130000000000
21
372.430000000000
31
0.0
0
LINE
5
650
100
AcDbEntity
8
0-000
6
CONTINUOUS
62
3
100
AcDbLine
10
1400.610000000000
20
348.230000000000
30
0.0
11
1396.420000000000
21
369.210000000000
31
0.0
0
LINE
5
651
100
AcDbEntity
8
0-000
6
CONTINUOUS
62
3
100
AcDbLine
10
1401.590000000000
20
347.430000000000
30
0.0
11
1419.130000000000
21
347.430000000000
31
0.0
0
LINE
5
652
100
AcDbEntity
8
0-000
6
CONTINUOUS
62
3
100
AcDbLine
10
1401.590000000000
20
346.430000000000
30
0.0
11
1419.130000000000
21
346.430000000000
31
0.0
0
LINE
5
653
100
AcDbEntity
8
0-000
6
CONTINUOUS
62
3
100
AcDbLine
10
1399.630000000000
20
348.040000000000
30
0.0
11
1395.440000000000
21
369.020000000000
31
0.0
0
LINE
5
654
100
AcDbEntity
8
0-000
6
CONTINUOUS
62
3
100
AcDbLine
10
1355.770000000000
20
371.430000000000
30
0.0
11
1374.130000000000
21
371.430000000000
31
0.0
0
LINE
5
655
100
AcDbEntity
8
0-000
6
CONTINUOUS
62
3
100
AcDbLine
10
1355.770000000000
20
372.430000000000
30
0.0
11
1374.130000000000
21
372.430000000000
31
0.0
0
LINE
5
656
100
AcDbEntity
8
0-000
6
CONTINUOUS
62
3
100
AcDbLine
10
1348.890000000000
20
344.230000000000
30
0.0
11
1353.810000000000
21
368.820000000000
31
0.0
0
LINE
5
657
100
AcDbEntity
8
0-000
6
CONTINUOUS
62
3
100
AcDbLine
10
1354.790000000000
20
368.630000000000
30
0.0
11
1349.870000000000
21
344.040000000000
31
0.0
0
LINE
5
658
100
AcDbEntity
8
0-000
6
CONTINUOUS
62
3
100
AcDbLine
10
1346.270000000000
20
345.430000000000
30
0.0
11
1329.130000000000
21
345.430000000000
31
0.0
0
LINE
5
659
100
AcDbEntity
8
0-000
6
CONTINUOUS
62
3
100
AcDbLine
10
1347.250000000000
20
346.230000000000
30
0.0
11
1351.850000000000
21
369.210000000000
31
0.0
0
LINE
5
65a
100
AcDbEntity
8
0-000
6
CONTINUOUS
62
3
100
AcDbLine
10
1348.230000000000
20
346.040000000000
30
0.0
11
1352.830000000000
21
369.020000000000
31
0.0
0
LINE
5
65b
100
AcDbEntity
8
0-000
6
CONTINUOUS
62
3
100
AcDbLine
10
1346.270000000000
20
344.430000000000
30
0.0
11
1329.130000000000
21
344.430000000000
31
0.0
0
LINE
5
65c
100
AcDbEntity
8
0-000
6
CONTINUOUS
62
3
100
AcDbLine
10
1313.130000000000
20
343.430000000000
30
0.0
11
1313.130000000000
21
342.430000000000
31
0.0
0
LINE
5
65d
100
AcDbEntity
8
0-000
6
CONTINUOUS
62
3
100
AcDbLine
10
1483.470000000000
20
368.630000000000
30
0.0
11
1487.990000000000
21
346.040000000000
31
0.0
0
LINE
5
65e
100
AcDbEntity
8
0-000
6
CONTINUOUS
62
3
100
AcDbLine
10
1488.970000000000
20
346.230000000000
30
0.0
11
1484.450000000000
21
368.820000000000
31
0.0
0
LINE
5
65f
100
AcDbEntity
8
0-000
6
CONTINUOUS
62
3
100
AcDbLine
10
1482.490000000000
20
369.430000000000
30
0.0
11
1464.130000000000
21
369.430000000000
31
0.0
0
LINE
5
660
100
AcDbEntity
8
0-000
6
CONTINUOUS
62
3
100
AcDbLine
10
1482.490000000000
20
370.430000000000
30
0.0
11
1464.130000000000
21
370.430000000000
31
0.0
0
LINE
5
661
100
AcDbEntity
8
0-000
6
CONTINUOUS
62
3
100
AcDbLine
10
1489.950000000000
20
345.430000000000
30
0.0
11
1509.130000000000
21
345.430000000000
31
0.0
0
LINE
5
662
100
AcDbEntity
8
0-000
6
CONTINUOUS
62
3
100
AcDbLine
10
1489.950000000000
20
344.430000000000
30
0.0
11
1509.130000000000
21
344.430000000000
31
0.0
0
LINE
5
663
100
AcDbEntity
8
0-000
6
CONTINUOUS
62
3
100
AcDbLine
10
1302.490000000000
20
369.430000000000
30
0.0
11
1284.130000000000
21
369.430000000000
31
0.0
0
LINE
5
664
100
AcDbEntity
8
0-000
6
CONTINUOUS
62
3
100
AcDbLine
10
1303.470000000000
20
368.630000000000
30
0.0
11
1307.990000000000
21
346.040000000000
31
0.0
0
LINE
5
665
100
AcDbEntity
8
0-000
6
CONTINUOUS
62
3
100
AcDbLine
10
1302.490000000000
20
370.430000000000
30
0.0
11
1284.130000000000
21
370.430000000000
31
0.0
0
LINE
5
666
100
AcDbEntity
8
0-000
6
CONTINUOUS
62
3
100
AcDbLine
10
1302.490000000000
20
369.430000000000
30
0.0
11
1284.130000000000
21
369.430000000000
31
0.0
0
LINE
5
667
100
AcDbEntity
8
0-000
6
CONTINUOUS
62
3
100
AcDbLine
10
1303.470000000000
20
368.630000000000
30
0.0
11
1307.990000000000
21
346.040000000000
31
0.0
0
LINE
5
668
100
AcDbEntity
8
0-000
6
CONTINUOUS
62
3
100
AcDbLine
10
1302.490000000000
20
370.430000000000
30
0.0
11
1284.130000000000
21
370.430000000000
31
0.0
0
LINE
5
669
100
AcDbEntity
8
0-000
6
CONTINUOUS
62
3
100
AcDbLine
10
1308.970000000000
20
346.230000000000
30
0.0
11
1304.450000000000
21
368.820000000000
31
0.0
0
LINE
5
66a
100
AcDbEntity
8
0-000
6
CONTINUOUS
62
3
100
AcDbLine
10
1308.970000000000
20
346.230000000000
30
0.0
11
1304.450000000000
21
368.820000000000
31
0.0
0
LINE
5
66b
100
AcDbEntity
8
0-000
6
CONTINUOUS
62
3
100
AcDbLine
10
1309.950000000000
20
345.430000000000
30
0.0
11
1329.130000000000
21
345.430000000000
31
0.0
0
LINE
5
66c
100
AcDbEntity
8
0-000
6
CONTINUOUS
62
3
100
AcDbLine
10
1309.950000000000
20
344.430000000000
30
0.0
11
1329.130000000000
21
344.430000000000
31
0.0
0
LINE
5
66d
100
AcDbEntity
8
0-000
6
CONTINUOUS
62
7
100
AcDbLine
10
1354.130000000000
20
565.430000000000
30
0.0
11
1354.130000000000
21
580.430000000000
31
0.0
0
LINE
5
66e
100
AcDbEntity
8
0-000
6
CONTINUOUS
62
7
100
AcDbLine
10
1394.130000000000
20
565.430000000000
30
0.0
11
1394.130000000000
21
580.430000000000
31
0.0
0
LINE
5
66f
100
AcDbEntity
8
0-000
6
CONTINUOUS
62
3
100
AcDbLine
10
1349.130000000000
20
628.430000000000
30
0.0
11
1349.130000000000
21
643.430000000000
31
0.0
0
LINE
5
670
100
AcDbEntity
8
0-000
6
CONTINUOUS
62
7
100
AcDbLine
10
1399.130000000000
20
628.430000000000
30
0.0
11
1399.130000000000
21
643.430000000000
31
0.0
0
LINE
5
671
100
AcDbEntity
8
0-000
6
CONTINUOUS
62
7
100
AcDbLine
10
1444.130000000000
20
565.430000000000
30
0.0
11
1444.130000000000
21
580.430000000000
31
0.0
0
LINE
5
672
100
AcDbEntity
8
0-000
6
CONTINUOUS
62
7
100
AcDbLine
10
1309.130000000000
20
628.430000000000
30
0.0
11
1309.130000000000
21
643.430000000000
31
0.0
0
LINE
5
673
100
AcDbEntity
8
0-000
6
CONTINUOUS
62
7
100
AcDbLine
10
1309.130000000000
20
643.430000000000
30
0.0
11
1349.130000000000
21
643.430000000000
31
0.0
0
LINE
5
674
100
AcDbEntity
8
0-000
6
CONTINUOUS
62
7
100
AcDbLine
10
1349.130000000000
20
643.430000000000
30
0.0
11
1399.130000000000
21
643.430000000000
31
0.0
0
LINE
5
675
100
AcDbEntity
8
0-000
6
CONTINUOUS
62
7
100
AcDbLine
10
1354.130000000000
20
565.430000000000
30
0.0
11
1394.130000000000
21
565.430000000000
31
0.0
0
LINE
5
676
100
AcDbEntity
8
0-000
6
CONTINUOUS
62
7
100
AcDbLine
10
1394.130000000000
20
565.430000000000
30
0.0
11
1444.130000000000
21
565.430000000000
31
0.0
0
LINE
5
677
100
AcDbEntity
8
0-000
6
CONTINUOUS
62
7
100
AcDbLine
10
1354.130000000000
20
397.430000000000
30
0.0
11
1354.130000000000
21
382.430000000000
31
0.0
0
LINE
5
678
100
AcDbEntity
8
0-000
6
CONTINUOUS
62
7
100
AcDbLine
10
1394.130000000000
20
397.430000000000
30
0.0
11
1394.130000000000
21
382.430000000000
31
0.0
0
LINE
5
679
100
AcDbEntity
8
0-000
6
CONTINUOUS
62
7
100
AcDbLine
10
1444.130000000000
20
397.430000000000
30
0.0
11
1444.130000000000
21
382.430000000000
31
0.0
0
LINE
5
67a
100
AcDbEntity
8
0-000
6
CONTINUOUS
62
7
100
AcDbLine
10
1354.130000000000
20
397.430000000000
30
0.0
11
1394.130000000000
21
397.430000000000
31
0.0
0
LINE
5
67b
100
AcDbEntity
8
0-000
6
CONTINUOUS
62
7
100
AcDbLine
10
1394.130000000000
20
397.430000000000
30
0.0
11
1444.130000000000
21
397.430000000000
31
0.0
0
LINE
5
67c
100
AcDbEntity
8
0-000
6
CONTINUOUS
62
7
100
AcDbLine
10
1349.130000000000
20
334.430000000000
30
0.0
11
1349.130000000000
21
319.430000000000
31
0.0
0
LINE
5
67d
100
AcDbEntity
8
0-000
6
CONTINUOUS
62
7
100
AcDbLine
10
1399.130000000000
20
334.430000000000
30
0.0
11
1399.130000000000
21
319.430000000000
31
0.0
0
LINE
5
67e
100
AcDbEntity
8
0-000
6
CONTINUOUS
62
7
100
AcDbLine
10
1309.130000000000
20
334.430000000000
30
0.0
11
1309.130000000000
21
319.430000000000
31
0.0
0
LINE
5
67f
100
AcDbEntity
8
0-000
6
CONTINUOUS
62
7
100
AcDbLine
10
1309.130000000000
20
319.430000000000
30
0.0
11
1349.130000000000
21
319.430000000000
31
0.0
0
LINE
5
680
100
AcDbEntity
8
0-000
6
CONTINUOUS
62
7
100
AcDbLine
10
1349.130000000000
20
319.430000000000
30
0.0
11
1399.130000000000
21
319.430000000000
31
0.0
0
LINE
5
681
100
AcDbEntity
8
0-000
6
CONTINUOUS
62
7
100
AcDbLine
10
1304.130000000000
20
618.430000000000
30
0.0
11
1284.130000000000
21
618.430000000000
31
0.0
0
LINE
5
682
100
AcDbEntity
8
0-000
6
CONTINUOUS
62
7
100
AcDbLine
10
1284.130000000000
20
593.430000000000
30
0.0
11
1284.130000000000
21
618.430000000000
31
0.0
0
LINE
5
683
100
AcDbEntity
8
0-000
6
CONTINUOUS
62
7
100
AcDbLine
10
1489.130000000000
20
370.430000000000
30
0.0
11
1509.130000000000
21
370.430000000000
31
0.0
0
LINE
5
684
100
AcDbEntity
8
0-000
6
CONTINUOUS
62
7
100
AcDbLine
10
1509.130000000000
20
345.430000000000
30
0.0
11
1509.130000000000
21
370.430000000000
31
0.0
0
LINE
5
685
100
AcDbEntity
8
0-000
6
CONTINUOUS
62
3
100
AcDbLine
10
452.770000000000
20
593.430000000000
30
0.0
11
417.590000000000
21
593.430000000000
31
0.0
0
LINE
5
686
100
AcDbEntity
8
0-000
6
CONTINUOUS
62
3
100
AcDbLine
10
452.770000000000
20
592.430000000000
30
0.0
11
417.590000000000
21
592.430000000000
31
0.0
0
LINE
5
687
100
AcDbEntity
8
0-000
6
CONTINUOUS
62
3
100
AcDbLine
10
452.770000000000
20
842.430000000000
30
0.0
11
417.590000000000
21
842.430000000000
31
0.0
0
LINE
5
688
100
AcDbEntity
8
0-000
6
CONTINUOUS
62
3
100
AcDbLine
10
452.770000000000
20
843.430000000000
30
0.0
11
417.590000000000
21
843.430000000000
31
0.0
0
LINE
5
689
100
AcDbEntity
8
0-000
6
CONTINUOUS
62
7
100
AcDbLine
10
417.590000000000
20
818.130000000000
30
0.0
11
453.590000000000
21
818.130000000000
31
0.0
0
LINE
5
68a
100
AcDbEntity
8
0-000
6
CONTINUOUS
62
3
100
AcDbLine
10
452.370000000000
20
343.430000000000
30
0.0
11
417.590000000000
21
343.430000000000
31
0.0
0
LINE
5
68b
100
AcDbEntity
8
0-000
6
CONTINUOUS
62
3
100
AcDbLine
10
452.370000000000
20
342.430000000000
30
0.0
11
417.590000000000
21
342.430000000000
31
0.0
0
LINE
5
68c
100
AcDbEntity
8
0-000
6
CONTINUOUS
62
7
100
AcDbLine
10
1080.090000000000
20
893.730000000000
30
0.0
11
1080.090000000000
21
913.730000000000
31
0.0
0
LINE
5
68d
100
AcDbEntity
8
0-000
6
CONTINUOUS
62
7
100
AcDbLine
10
1043.590000000000
20
818.130000000000
30
0.0
11
1080.090000000000
21
818.130000000000
31
0.0
0
LINE
5
68e
100
AcDbEntity
8
0-000
6
CONTINUOUS
62
7
100
AcDbLine
10
1080.090000000000
20
838.130000000000
30
0.0
11
1080.090000000000
21
818.130000000000
31
0.0
0
LINE
5
68f
100
AcDbEntity
8
0-000
6
CONTINUOUS
62
3
100
AcDbLine
10
1063.590000000000
20
842.430000000000
30
0.0
11
1080.090000000000
21
842.430000000000
31
0.0
0
LINE
5
690
100
AcDbEntity
8
0-000
6
CONTINUOUS
62
3
100
AcDbLine
10
1063.590000000000
20
843.430000000000
30
0.0
11
1080.090000000000
21
843.430000000000
31
0.0
0
LINE
5
691
100
AcDbEntity
8
0-000
6
CONTINUOUS
62
7
100
AcDbLine
10
417.590000000000
20
913.730000000000
30
0.0
11
1080.090000000000
21
913.730000000000
31
0.0
0
LINE
5
692
100
AcDbEntity
8
0-000
6
CONTINUOUS
62
3
100
AcDbLine
10
1063.590000000000
20
593.430000000000
30
0.0
11
1080.090000000000
21
593.430000000000
31
0.0
0
LINE
5
693
100
AcDbEntity
8
0-000
6
CONTINUOUS
62
3
100
AcDbLine
10
1044.410000000000
20
592.430000000000
30
0.0
11
1080.090000000000
21
592.430000000000
31
0.0
0
LINE
5
694
100
AcDbEntity
8
0-000
6
CONTINUOUS
62
3
100
AcDbLine
10
1063.590000000000
20
592.430000000000
30
0.0
11
1080.090000000000
21
592.430000000000
31
0.0
0
LINE
5
695
100
AcDbEntity
8
0-000
6
CONTINUOUS
62
3
100
AcDbLine
10
1063.590000000000
20
347.430000000000
30
0.0
11
1080.090000000000
21
347.430000000000
31
0.0
0
LINE
5
696
100
AcDbEntity
8
0-000
6
CONTINUOUS
62
3
100
AcDbLine
10
1063.590000000000
20
346.430000000000
30
0.0
11
1080.090000000000
21
346.430000000000
31
0.0
0
LINE
5
697
100
AcDbEntity
8
0-000
6
CONTINUOUS
62
3
100
AcDbLine
10
1393.310000000000
20
590.430000000000
30
0.0
11
1358.130000000000
21
590.430000000000
31
0.0
0
LINE
5
698
100
AcDbEntity
8
0-000
6
CONTINUOUS
62
3
100
AcDbLine
10
1393.310000000000
20
591.430000000000
30
0.0
11
1358.130000000000
21
591.430000000000
31
0.0
0
LINE
5
699
100
AcDbEntity
8
0-000
6
CONTINUOUS
62
3
100
AcDbLine
10
1374.130000000000
20
593.430000000000
30
0.0
11
1390.130000000000
21
593.430000000000
31
0.0
0
LINE
5
69a
100
AcDbEntity
8
0-000
6
CONTINUOUS
62
3
100
AcDbLine
10
1374.130000000000
20
592.430000000000
30
0.0
11
1390.130000000000
21
592.430000000000
31
0.0
0
LINE
5
69b
100
AcDbEntity
8
0-000
6
CONTINUOUS
62
3
100
AcDbLine
10
1419.130000000000
20
347.430000000000
30
0.0
11
1435.130000000000
21
347.430000000000
31
0.0
0
LINE
5
69c
100
AcDbEntity
8
0-000
6
CONTINUOUS
62
3
100
AcDbLine
10
1419.130000000000
20
346.430000000000
30
0.0
11
1435.130000000000
21
346.430000000000
31
0.0
0
LINE
5
69d
100
AcDbEntity
8
0-000
6
CONTINUOUS
62
3
100
AcDbLine
10
1347.910000000000
20
342.430000000000
30
0.0
11
1313.130000000000
21
342.430000000000
31
0.0
0
LINE
5
69e
100
AcDbEntity
8
0-000
6
CONTINUOUS
62
3
100
AcDbLine
10
1347.910000000000
20
343.430000000000
30
0.0
11
1313.130000000000
21
343.430000000000
31
0.0
0
ARC
5
69f
100
AcDbEntity
8
0-000
6
CONTINUOUS
62
3
100
AcDbCircle
10
550.230000000000
20
616.430000000000
30
0.0
40
0.999999984825
100
AcDbArc
50
90.000000000000
51
168.690628051758
0
ARC
5
6a0
100
AcDbEntity
8
0-000
6
CONTINUOUS
62
3
100
AcDbCircle
10
550.230000000000
20
616.430000000000
30
0.0
40
0.999999984825
100
AcDbArc
50
90.000000000000
51
168.690628051758
0
ARC
5
6a1
100
AcDbEntity
8
0-000
6
CONTINUOUS
62
3
100
AcDbCircle
10
550.230000000000
20
616.430000000000
30
0.0
40
1.999999969650
100
AcDbArc
50
90.000000000000
51
168.690628051758
0
ARC
5
6a2
100
AcDbEntity
8
0-000
6
CONTINUOUS
62
3
100
AcDbCircle
10
542.770000000000
20
594.430000000000
30
0.0
40
0.999999984825
100
AcDbArc
50
270.000000000000
51
348.690628051758
0
ARC
5
6a3
100
AcDbEntity
8
0-000
6
CONTINUOUS
62
3
100
AcDbCircle
10
542.770000000000
20
594.430000000000
30
0.0
40
1.999999969650
100
AcDbArc
50
270.000000000000
51
348.690628051758
0
ARC
5
6a4
100
AcDbEntity
8
0-000
6
CONTINUOUS
62
3
100
AcDbCircle
10
496.950000000000
20
616.430000000000
30
0.0
40
0.999999984825
100
AcDbArc
50
11.309371948242
51
90.000000000000
0
ARC
5
6a5
100
AcDbEntity
8
0-000
6
CONTINUOUS
62
3
100
AcDbCircle
10
496.950000000000
20
616.430000000000
30
0.0
40
1.999999969650
100
AcDbArc
50
11.309371948242
51
90.000000000000
0
ARC
5
6a6
100
AcDbEntity
8
0-000
6
CONTINUOUS
62
3
100
AcDbCircle
10
504.410000000000
20
594.430000000000
30
0.0
40
0.999999984825
100
AcDbArc
50
191.309371948242
51
270.000000000000
0
ARC
5
6a7
100
AcDbEntity
8
0-000
6
CONTINUOUS
62
3
100
AcDbCircle
10
504.410000000000
20
594.430000000000
30
0.0
40
1.999999969650
100
AcDbArc
50
191.309371948242
51
270.000000000000
0
ARC
5
6a8
100
AcDbEntity
8
0-000
6
CONTINUOUS
62
3
100
AcDbCircle
10
550.230000000000
20
616.430000000000
30
0.0
40
0.999999984825
100
AcDbArc
50
90.000000000000
51
168.690628051758
0
ARC
5
6a9
100
AcDbEntity
8
0-000
6
CONTINUOUS
62
3
100
AcDbCircle
10
550.230000000000
20
616.430000000000
30
0.0
40
1.999999969650
100
AcDbArc
50
90.000000000000
51
168.690628051758
0
ARC
5
6aa
100
AcDbEntity
8
0-000
6
CONTINUOUS
62
3
100
AcDbCircle
10
542.770000000000
20
594.430000000000
30
0.0
40
0.999999984825
100
AcDbArc
50
270.000000000000
51
348.690628051758
0
ARC
5
6ab
100
AcDbEntity
8
0-000
6
CONTINUOUS
62
3
100
AcDbCircle
10
542.770000000000
20
594.430000000000
30
0.0
40
1.999999969650
100
AcDbArc
50
270.000000000000
51
348.690628051758
0
ARC
5
6ac
100
AcDbEntity
8
0-000
6
CONTINUOUS
62
3
100
AcDbCircle
10
460.230000000000
20
616.430000000000
30
0.0
40
0.999999984825
100
AcDbArc
50
90.000000000000
51
168.690628051758
0
ARC
5
6ad
100
AcDbEntity
8
0-000
6
CONTINUOUS
62
3
100
AcDbCircle
10
460.230000000000
20
616.430000000000
30
0.0
40
1.999999969650
100
AcDbArc
50
90.000000000000
51
168.690628051758
0
ARC
5
6ae
100
AcDbEntity
8
0-000
6
CONTINUOUS
62
3
100
AcDbCircle
10
452.770000000000
20
594.430000000000
30
0.0
40
0.999999984825
100
AcDbArc
50
270.000000000000
51
348.690628051758
0
ARC
5
6af
100
AcDbEntity
8
0-000
6
CONTINUOUS
62
3
100
AcDbCircle
10
452.770000000000
20
594.430000000000
30
0.0
40
1.999999969650
100
AcDbArc
50
270.000000000000
51
348.690628051758
0
ARC
5
6b0
100
AcDbEntity
8
0-000
6
CONTINUOUS
62
3
100
AcDbCircle
10
586.950000000000
20
616.430000000000
30
0.0
40
0.999999984825
100
AcDbArc
50
11.309371948242
51
90.000000000000
0
ARC
5
6b1
100
AcDbEntity
8
0-000
6
CONTINUOUS
62
3
100
AcDbCircle
10
586.950000000000
20
616.430000000000
30
0.0
40
1.999999969650
100
AcDbArc
50
11.309371948242
51
90.000000000000
0
ARC
5
6b2
100
AcDbEntity
8
0-000
6
CONTINUOUS
62
3
100
AcDbCircle
10
594.410000000000
20
594.430000000000
30
0.0
40
0.999999984825
100
AcDbArc
50
191.309371948242
51
270.000000000000
0
ARC
5
6b3
100
AcDbEntity
8
0-000
6
CONTINUOUS
62
3
100
AcDbCircle
10
594.410000000000
20
594.430000000000
30
0.0
40
1.999999969650
100
AcDbArc
50
191.309371948242
51
270.000000000000
0
ARC
5
6b4
100
AcDbEntity
8
0-000
6
CONTINUOUS
62
3
100
AcDbCircle
10
640.230000000000
20
616.430000000000
30
0.0
40
0.999999984825
100
AcDbArc
50
90.000000000000
51
168.690628051758
0
ARC
5
6b5
100
AcDbEntity
8
0-000
6
CONTINUOUS
62
3
100
AcDbCircle
10
640.230000000000
20
616.430000000000
30
0.0
40
1.999999969650
100
AcDbArc
50
90.000000000000
51
168.690628051758
0
ARC
5
6b6
100
AcDbEntity
8
0-000
6
CONTINUOUS
62
3
100
AcDbCircle
10
632.770000000000
20
594.430000000000
30
0.0
40
0.999999984825
100
AcDbArc
50
270.000000000000
51
348.690628051758
0
ARC
5
6b7
100
AcDbEntity
8
0-000
6
CONTINUOUS
62
3
100
AcDbCircle
10
632.770000000000
20
594.430000000000
30
0.0
40
1.999999969650
100
AcDbArc
50
270.000000000000
51
348.690628051758
0
ARC
5
6b8
100
AcDbEntity
8
0-000
6
CONTINUOUS
62
3
100
AcDbCircle
10
586.950000000000
20
616.430000000000
30
0.0
40
0.999999984825
100
AcDbArc
50
11.309371948242
51
90.000000000000
0
ARC
5
6b9
100
AcDbEntity
8
0-000
6
CONTINUOUS
62
3
100
AcDbCircle
10
586.950000000000
20
616.430000000000
30
0.0
40
1.999999969650
100
AcDbArc
50
11.309371948242
51
90.000000000000
0
ARC
5
6ba
100
AcDbEntity
8
0-000
6
CONTINUOUS
62
3
100
AcDbCircle
10
594.410000000000
20
594.430000000000
30
0.0
40
0.999999984825
100
AcDbArc
50
191.309371948242
51
270.000000000000
0
ARC
5
6bb
100
AcDbEntity
8
0-000
6
CONTINUOUS
62
3
100
AcDbCircle
10
594.410000000000
20
594.430000000000
30
0.0
40
1.999999969650
100
AcDbArc
50
191.309371948242
51
270.000000000000
0
ARC
5
6bc
100
AcDbEntity
8
0-000
6
CONTINUOUS
62
3
100
AcDbCircle
10
766.950000000000
20
616.430000000000
30
0.0
40
0.999999984825
100
AcDbArc
50
11.309371948242
51
90.000000000000
0
ARC
5
6bd
100
AcDbEntity
8
0-000
6
CONTINUOUS
62
3
100
AcDbCircle
10
766.950000000000
20
616.430000000000
30
0.0
40
1.999999969650
100
AcDbArc
50
11.309371948242
51
90.000000000000
0
ARC
5
6be
100
AcDbEntity
8
0-000
6
CONTINUOUS
62
3
100
AcDbCircle
10
774.410000000000
20
594.430000000000
30
0.0
40
0.999999984825
100
AcDbArc
50
191.309371948242
51
270.000000000000
0
ARC
5
6bf
100
AcDbEntity
8
0-000
6
CONTINUOUS
62
3
100
AcDbCircle
10
774.410000000000
20
594.430000000000
30
0.0
40
1.999999969650
100
AcDbArc
50
191.309371948242
51
270.000000000000
0
ARC
5
6c0
100
AcDbEntity
8
0-000
6
CONTINUOUS
62
3
100
AcDbCircle
10
820.230000000000
20
616.430000000000
30
0.0
40
0.999999984825
100
AcDbArc
50
90.000000000000
51
168.690628051758
0
ARC
5
6c1
100
AcDbEntity
8
0-000
6
CONTINUOUS
62
3
100
AcDbCircle
10
820.230000000000
20
616.430000000000
30
0.0
40
1.999999969650
100
AcDbArc
50
90.000000000000
51
168.690628051758
0
ARC
5
6c2
100
AcDbEntity
8
0-000
6
CONTINUOUS
62
3
100
AcDbCircle
10
812.770000000000
20
594.430000000000
30
0.0
40
0.999999984825
100
AcDbArc
50
270.000000000000
51
348.690628051758
0
ARC
5
6c3
100
AcDbEntity
8
0-000
6
CONTINUOUS
62
3
100
AcDbCircle
10
812.770000000000
20
594.430000000000
30
0.0
40
1.999999969650
100
AcDbArc
50
270.000000000000
51
348.690628051758
0
ARC
5
6c4
100
AcDbEntity
8
0-000
6
CONTINUOUS
62
3
100
AcDbCircle
10
766.950000000000
20
616.430000000000
30
0.0
40
0.999999984825
100
AcDbArc
50
11.309371948242
51
90.000000000000
0
ARC
5
6c5
100
AcDbEntity
8
0-000
6
CONTINUOUS
62
3
100
AcDbCircle
10
766.950000000000
20
616.430000000000
30
0.0
40
1.999999969650
100
AcDbArc
50
11.309371948242
51
90.000000000000
0
ARC
5
6c6
100
AcDbEntity
8
0-000
6
CONTINUOUS
62
3
100
AcDbCircle
10
774.410000000000
20
594.430000000000
30
0.0
40
0.999999984825
100
AcDbArc
50
191.309371948242
51
270.000000000000
0
ARC
5
6c7
100
AcDbEntity
8
0-000
6
CONTINUOUS
62
3
100
AcDbCircle
10
774.410000000000
20
594.430000000000
30
0.0
40
1.999999969650
100
AcDbArc
50
191.309371948242
51
270.000000000000
0
ARC
5
6c8
100
AcDbEntity
8
0-000
6
CONTINUOUS
62
3
100
AcDbCircle
10
730.230000000000
20
616.430000000000
30
0.0
40
0.999999984825
100
AcDbArc
50
90.000000000000
51
168.690628051758
0
ARC
5
6c9
100
AcDbEntity
8
0-000
6
CONTINUOUS
62
3
100
AcDbCircle
10
730.230000000000
20
616.430000000000
30
0.0
40
1.999999969650
100
AcDbArc
50
90.000000000000
51
168.690628051758
0
ARC
5
6ca
100
AcDbEntity
8
0-000
6
CONTINUOUS
62
3
100
AcDbCircle
10
722.770000000000
20
594.430000000000
30
0.0
40
0.999999984825
100
AcDbArc
50
270.000000000000
51
348.690628051758
0
ARC
5
6cb
100
AcDbEntity
8
0-000
6
CONTINUOUS
62
3
100
AcDbCircle
10
722.770000000000
20
594.430000000000
30
0.0
40
1.999999969650
100
AcDbArc
50
270.000000000000
51
348.690628051758
0
ARC
5
6cc
100
AcDbEntity
8
0-000
6
CONTINUOUS
62
3
100
AcDbCircle
10
676.950000000000
20
616.430000000000
30
0.0
40
0.999999984825
100
AcDbArc
50
11.309371948242
51
90.000000000000
0
ARC
5
6cd
100
AcDbEntity
8
0-000
6
CONTINUOUS
62
3
100
AcDbCircle
10
676.950000000000
20
616.430000000000
30
0.0
40
1.999999969650
100
AcDbArc
50
11.309371948242
51
90.000000000000
0
ARC
5
6ce
100
AcDbEntity
8
0-000
6
CONTINUOUS
62
3
100
AcDbCircle
10
684.410000000000
20
594.430000000000
30
0.0
40
0.999999984825
100
AcDbArc
50
191.309371948242
51
270.000000000000
0
ARC
5
6cf
100
AcDbEntity
8
0-000
6
CONTINUOUS
62
3
100
AcDbCircle
10
684.410000000000
20
594.430000000000
30
0.0
40
1.999999969650
100
AcDbArc
50
191.309371948242
51
270.000000000000
0
ARC
5
6d0
100
AcDbEntity
8
0-000
6
CONTINUOUS
62
3
100
AcDbCircle
10
730.230000000000
20
616.430000000000
30
0.0
40
0.999999984825
100
AcDbArc
50
90.000000000000
51
168.690628051758
0
ARC
5
6d1
100
AcDbEntity
8
0-000
6
CONTINUOUS
62
3
100
AcDbCircle
10
730.230000000000
20
616.430000000000
30
0.0
40
1.999999969650
100
AcDbArc
50
90.000000000000
51
168.690628051758
0
ARC
5
6d2
100
AcDbEntity
8
0-000
6
CONTINUOUS
62
3
100
AcDbCircle
10
722.770000000000
20
594.430000000000
30
0.0
40
0.999999984825
100
AcDbArc
50
270.000000000000
51
348.690628051758
0
ARC
5
6d3
100
AcDbEntity
8
0-000
6
CONTINUOUS
62
3
100
AcDbCircle
10
722.770000000000
20
594.430000000000
30
0.0
40
1.999999969650
100
AcDbArc
50
270.000000000000
51
348.690628051758
0
ARC
5
6d4
100
AcDbEntity
8
0-000
6
CONTINUOUS
62
3
100
AcDbCircle
10
910.230000000000
20
616.430000000000
30
0.0
40
0.999999984825
100
AcDbArc
50
90.000000000000
51
168.690628051758
0
ARC
5
6d5
100
AcDbEntity
8
0-000
6
CONTINUOUS
62
3
100
AcDbCircle
10
910.230000000000
20
616.430000000000
30
0.0
40
1.999999969650
100
AcDbArc
50
90.000000000000
51
168.690628051758
0
ARC
5
6d6
100
AcDbEntity
8
0-000
6
CONTINUOUS
62
3
100
AcDbCircle
10
902.770000000000
20
594.430000000000
30
0.0
40
0.999999984825
100
AcDbArc
50
270.000000000000
51
348.690628051758
0
ARC
5
6d7
100
AcDbEntity
8
0-000
6
CONTINUOUS
62
3
100
AcDbCircle
10
902.770000000000
20
594.430000000000
30
0.0
40
1.999999969650
100
AcDbArc
50
270.000000000000
51
348.690628051758
0
ARC
5
6d8
100
AcDbEntity
8
0-000
6
CONTINUOUS
62
3
100
AcDbCircle
10
856.950000000000
20
616.430000000000
30
0.0
40
0.999999984825
100
AcDbArc
50
11.309371948242
51
90.000000000000
0
ARC
5
6d9
100
AcDbEntity
8
0-000
6
CONTINUOUS
62
3
100
AcDbCircle
10
856.950000000000
20
616.430000000000
30
0.0
40
1.999999969650
100
AcDbArc
50
11.309371948242
51
90.000000000000
0
ARC
5
6da
100
AcDbEntity
8
0-000
6
CONTINUOUS
62
3
100
AcDbCircle
10
864.410000000000
20
594.430000000000
30
0.0
40
0.999999984825
100
AcDbArc
50
191.309371948242
51
270.000000000000
0
ARC
5
6db
100
AcDbEntity
8
0-000
6
CONTINUOUS
62
3
100
AcDbCircle
10
864.410000000000
20
594.430000000000
30
0.0
40
1.999999969650
100
AcDbArc
50
191.309371948242
51
270.000000000000
0
ARC
5
6dc
100
AcDbEntity
8
0-000
6
CONTINUOUS
62
3
100
AcDbCircle
10
910.230000000000
20
616.430000000000
30
0.0
40
0.999999984825
100
AcDbArc
50
90.000000000000
51
168.690628051758
0
ARC
5
6dd
100
AcDbEntity
8
0-000
6
CONTINUOUS
62
3
100
AcDbCircle
10
910.230000000000
20
616.430000000000
30
0.0
40
1.999999969650
100
AcDbArc
50
90.000000000000
51
168.690628051758
0
ARC
5
6de
100
AcDbEntity
8
0-000
6
CONTINUOUS
62
3
100
AcDbCircle
10
902.770000000000
20
594.430000000000
30
0.0
40
0.999999984825
100
AcDbArc
50
270.000000000000
51
348.690628051758
0
ARC
5
6df
100
AcDbEntity
8
0-000
6
CONTINUOUS
62
3
100
AcDbCircle
10
902.770000000000
20
594.430000000000
30
0.0
40
1.999999969650
100
AcDbArc
50
270.000000000000
51
348.690628051758
0
ARC
5
6e0
100
AcDbEntity
8
0-000
6
CONTINUOUS
62
3
100
AcDbCircle
10
946.950000000000
20
616.430000000000
30
0.0
40
0.999999984825
100
AcDbArc
50
11.309371948242
51
90.000000000000
0
ARC
5
6e1
100
AcDbEntity
8
0-000
6
CONTINUOUS
62
3
100
AcDbCircle
10
946.950000000000
20
616.430000000000
30
0.0
40
1.999999969650
100
AcDbArc
50
11.309371948242
51
90.000000000000
0
ARC
5
6e2
100
AcDbEntity
8
0-000
6
CONTINUOUS
62
3
100
AcDbCircle
10
954.410000000000
20
594.430000000000
30
0.0
40
0.999999984825
100
AcDbArc
50
191.309371948242
51
270.000000000000
0
ARC
5
6e3
100
AcDbEntity
8
0-000
6
CONTINUOUS
62
3
100
AcDbCircle
10
954.410000000000
20
594.430000000000
30
0.0
40
1.999999969650
100
AcDbArc
50
191.309371948242
51
270.000000000000
0
ARC
5
6e4
100
AcDbEntity
8
0-000
6
CONTINUOUS
62
3
100
AcDbCircle
10
1000.230000000000
20
616.430000000000
30
0.0
40
0.999999984825
100
AcDbArc
50
90.000000000000
51
168.690628051758
0
ARC
5
6e5
100
AcDbEntity
8
0-000
6
CONTINUOUS
62
3
100
AcDbCircle
10
1000.230000000000
20
616.430000000000
30
0.0
40
1.999999969650
100
AcDbArc
50
90.000000000000
51
168.690628051758
0
ARC
5
6e6
100
AcDbEntity
8
0-000
6
CONTINUOUS
62
3
100
AcDbCircle
10
992.770000000000
20
594.430000000000
30
0.0
40
0.999999984825
100
AcDbArc
50
270.000000000000
51
348.690628051758
0
ARC
5
6e7
100
AcDbEntity
8
0-000
6
CONTINUOUS
62
3
100
AcDbCircle
10
992.770000000000
20
594.430000000000
30
0.0
40
1.999999969650
100
AcDbArc
50
270.000000000000
51
348.690628051758
0
ARC
5
6e8
100
AcDbEntity
8
0-000
6
CONTINUOUS
62
3
100
AcDbCircle
10
946.950000000000
20
616.430000000000
30
0.0
40
0.999999984825
100
AcDbArc
50
11.309371948242
51
90.000000000000
0
ARC
5
6e9
100
AcDbEntity
8
0-000
6
CONTINUOUS
62
3
100
AcDbCircle
10
946.950000000000
20
616.430000000000
30
0.0
40
1.999999969650
100
AcDbArc
50
11.309371948242
51
90.000000000000
0
ARC
5
6ea
100
AcDbEntity
8
0-000
6
CONTINUOUS
62
3
100
AcDbCircle
10
954.410000000000
20
594.430000000000
30
0.0
40
0.999999984825
100
AcDbArc
50
191.309371948242
51
270.000000000000
0
ARC
5
6eb
100
AcDbEntity
8
0-000
6
CONTINUOUS
62
3
100
AcDbCircle
10
954.410000000000
20
594.430000000000
30
0.0
40
1.999999969650
100
AcDbArc
50
191.309371948242
51
270.000000000000
0
ARC
5
6ec
100
AcDbEntity
8
0-000
6
CONTINUOUS
62
3
100
AcDbCircle
10
1036.950000000000
20
616.430000000000
30
0.0
40
0.999999984825
100
AcDbArc
50
11.309371948242
51
90.000000000000
0
ARC
5
6ed
100
AcDbEntity
8
0-000
6
CONTINUOUS
62
3
100
AcDbCircle
10
1036.950000000000
20
616.430000000000
30
0.0
40
1.999999969650
100
AcDbArc
50
11.309371948242
51
90.000000000000
0
ARC
5
6ee
100
AcDbEntity
8
0-000
6
CONTINUOUS
62
3
100
AcDbCircle
10
1044.410000000000
20
594.430000000000
30
0.0
40
0.999999984825
100
AcDbArc
50
191.309371948242
51
270.000000000000
0
ARC
5
6ef
100
AcDbEntity
8
0-000
6
CONTINUOUS
62
3
100
AcDbCircle
10
1044.410000000000
20
594.430000000000
30
0.0
40
1.999999969650
100
AcDbArc
50
191.309371948242
51
270.000000000000
0
ARC
5
6f0
100
AcDbEntity
8
0-000
6
CONTINUOUS
62
3
100
AcDbCircle
10
550.230000000000
20
368.430000000000
30
0.0
40
0.999999984825
100
AcDbArc
50
90.000000000000
51
168.690628051758
0
ARC
5
6f1
100
AcDbEntity
8
0-000
6
CONTINUOUS
62
3
100
AcDbCircle
10
550.230000000000
20
368.430000000000
30
0.0
40
1.999999969650
100
AcDbArc
50
90.000000000000
51
168.690628051758
0
ARC
5
6f2
100
AcDbEntity
8
0-000
6
CONTINUOUS
62
3
100
AcDbCircle
10
542.770000000000
20
346.430000000000
30
0.0
40
0.999999984825
100
AcDbArc
50
270.000000000000
51
348.690628051758
0
ARC
5
6f3
100
AcDbEntity
8
0-000
6
CONTINUOUS
62
3
100
AcDbCircle
10
542.770000000000
20
346.430000000000
30
0.0
40
1.999999969650
100
AcDbArc
50
270.000000000000
51
348.690628051758
0
ARC
5
6f4
100
AcDbEntity
8
0-000
6
CONTINUOUS
62
3
100
AcDbCircle
10
496.950000000000
20
368.430000000000
30
0.0
40
0.999999984825
100
AcDbArc
50
11.309371948242
51
90.000000000000
0
ARC
5
6f5
100
AcDbEntity
8
0-000
6
CONTINUOUS
62
3
100
AcDbCircle
10
496.950000000000
20
368.430000000000
30
0.0
40
1.999999969650
100
AcDbArc
50
11.309371948242
51
90.000000000000
0
ARC
5
6f6
100
AcDbEntity
8
0-000
6
CONTINUOUS
62
3
100
AcDbCircle
10
504.410000000000
20
346.430000000000
30
0.0
40
0.999999984825
100
AcDbArc
50
191.309371948242
51
270.000000000000
0
ARC
5
6f7
100
AcDbEntity
8
0-000
6
CONTINUOUS
62
3
100
AcDbCircle
10
504.410000000000
20
346.430000000000
30
0.0
40
1.999999969650
100
AcDbArc
50
191.309371948242
51
270.000000000000
0
ARC
5
6f8
100
AcDbEntity
8
0-000
6
CONTINUOUS
62
3
100
AcDbCircle
10
550.230000000000
20
368.430000000000
30
0.0
40
0.999999984825
100
AcDbArc
50
90.000000000000
51
168.690628051758
0
ARC
5
6f9
100
AcDbEntity
8
0-000
6
CONTINUOUS
62
3
100
AcDbCircle
10
550.230000000000
20
368.430000000000
30
0.0
40
1.999999969650
100
AcDbArc
50
90.000000000000
51
168.690628051758
0
ARC
5
6fa
100
AcDbEntity
8
0-000
6
CONTINUOUS
62
3
100
AcDbCircle
10
542.770000000000
20
346.430000000000
30
0.0
40
0.999999984825
100
AcDbArc
50
270.000000000000
51
348.690628051758
0
ARC
5
6fb
100
AcDbEntity
8
0-000
6
CONTINUOUS
62
3
100
AcDbCircle
10
542.770000000000
20
346.430000000000
30
0.0
40
1.999999969650
100
AcDbArc
50
270.000000000000
51
348.690628051758
0
ARC
5
6fc
100
AcDbEntity
8
0-000
6
CONTINUOUS
62
3
100
AcDbCircle
10
460.230000000000
20
368.430000000000
30
0.0
40
0.999999984825
100
AcDbArc
50
90.000000000000
51
168.690628051758
0
ARC
5
6fd
100
AcDbEntity
8
0-000
6
CONTINUOUS
62
3
100
AcDbCircle
10
460.230000000000
20
368.430000000000
30
0.0
40
1.999999969650
100
AcDbArc
50
90.000000000000
51
168.690628051758
0
ARC
5
6fe
100
AcDbEntity
8
0-000
6
CONTINUOUS
62
3
100
AcDbCircle
10
586.950000000000
20
368.430000000000
30
0.0
40
0.999999984825
100
AcDbArc
50
11.309371948242
51
90.000000000000
0
ARC
5
6ff
100
AcDbEntity
8
0-000
6
CONTINUOUS
62
3
100
AcDbCircle
10
586.950000000000
20
368.430000000000
30
0.0
40
1.999999969650
100
AcDbArc
50
11.309371948242
51
90.000000000000
0
ARC
5
700
100
AcDbEntity
8
0-000
6
CONTINUOUS
62
3
100
AcDbCircle
10
594.410000000000
20
346.430000000000
30
0.0
40
0.999999984825
100
AcDbArc
50
191.309371948242
51
270.000000000000
0
ARC
5
701
100
AcDbEntity
8
0-000
6
CONTINUOUS
62
3
100
AcDbCircle
10
594.410000000000
20
346.430000000000
30
0.0
40
1.999999969650
100
AcDbArc
50
191.309371948242
51
270.000000000000
0
ARC
5
702
100
AcDbEntity
8
0-000
6
CONTINUOUS
62
3
100
AcDbCircle
10
640.230000000000
20
368.430000000000
30
0.0
40
0.999999984825
100
AcDbArc
50
90.000000000000
51
168.690628051758
0
ARC
5
703
100
AcDbEntity
8
0-000
6
CONTINUOUS
62
3
100
AcDbCircle
10
640.230000000000
20
368.430000000000
30
0.0
40
1.999999969650
100
AcDbArc
50
90.000000000000
51
168.690628051758
0
ARC
5
704
100
AcDbEntity
8
0-000
6
CONTINUOUS
62
3
100
AcDbCircle
10
632.770000000000
20
346.430000000000
30
0.0
40
0.999999984825
100
AcDbArc
50
270.000000000000
51
348.690628051758
0
ARC
5
705
100
AcDbEntity
8
0-000
6
CONTINUOUS
62
3
100
AcDbCircle
10
632.770000000000
20
346.430000000000
30
0.0
40
1.999999969650
100
AcDbArc
50
270.000000000000
51
348.690628051758
0
ARC
5
706
100
AcDbEntity
8
0-000
6
CONTINUOUS
62
3
100
AcDbCircle
10
586.950000000000
20
368.430000000000
30
0.0
40
0.999999984825
100
AcDbArc
50
11.309371948242
51
90.000000000000
0
ARC
5
707
100
AcDbEntity
8
0-000
6
CONTINUOUS
62
3
100
AcDbCircle
10
586.950000000000
20
368.430000000000
30
0.0
40
1.999999969650
100
AcDbArc
50
11.309371948242
51
90.000000000000
0
ARC
5
708
100
AcDbEntity
8
0-000
6
CONTINUOUS
62
3
100
AcDbCircle
10
594.410000000000
20
346.430000000000
30
0.0
40
0.999999984825
100
AcDbArc
50
191.309371948242
51
270.000000000000
0
ARC
5
709
100
AcDbEntity
8
0-000
6
CONTINUOUS
62
3
100
AcDbCircle
10
594.410000000000
20
346.430000000000
30
0.0
40
1.999999969650
100
AcDbArc
50
191.309371948242
51
270.000000000000
0
ARC
5
70a
100
AcDbEntity
8
0-000
6
CONTINUOUS
62
3
100
AcDbCircle
10
766.950000000000
20
368.430000000000
30
0.0
40
0.999999984825
100
AcDbArc
50
11.309371948242
51
90.000000000000
0
ARC
5
70b
100
AcDbEntity
8
0-000
6
CONTINUOUS
62
3
100
AcDbCircle
10
766.950000000000
20
368.430000000000
30
0.0
40
1.999999969650
100
AcDbArc
50
11.309371948242
51
90.000000000000
0
ARC
5
70c
100
AcDbEntity
8
0-000
6
CONTINUOUS
62
3
100
AcDbCircle
10
774.410000000000
20
346.430000000000
30
0.0
40
0.999999984825
100
AcDbArc
50
191.309371948242
51
270.000000000000
0
ARC
5
70d
100
AcDbEntity
8
0-000
6
CONTINUOUS
62
3
100
AcDbCircle
10
774.410000000000
20
346.430000000000
30
0.0
40
1.999999969650
100
AcDbArc
50
191.309371948242
51
270.000000000000
0
ARC
5
70e
100
AcDbEntity
8
0-000
6
CONTINUOUS
62
3
100
AcDbCircle
10
820.230000000000
20
368.430000000000
30
0.0
40
0.999999984825
100
AcDbArc
50
90.000000000000
51
168.690628051758
0
ARC
5
70f
100
AcDbEntity
8
0-000
6
CONTINUOUS
62
3
100
AcDbCircle
10
820.230000000000
20
368.430000000000
30
0.0
40
1.999999969650
100
AcDbArc
50
90.000000000000
51
168.690628051758
0
ARC
5
710
100
AcDbEntity
8
0-000
6
CONTINUOUS
62
3
100
AcDbCircle
10
812.770000000000
20
346.430000000000
30
0.0
40
0.999999984825
100
AcDbArc
50
270.000000000000
51
348.690628051758
0
ARC
5
711
100
AcDbEntity
8
0-000
6
CONTINUOUS
62
3
100
AcDbCircle
10
812.770000000000
20
346.430000000000
30
0.0
40
1.999999969650
100
AcDbArc
50
270.000000000000
51
348.690628051758
0
ARC
5
712
100
AcDbEntity
8
0-000
6
CONTINUOUS
62
3
100
AcDbCircle
10
766.950000000000
20
368.430000000000
30
0.0
40
0.999999984825
100
AcDbArc
50
11.309371948242
51
90.000000000000
0
ARC
5
713
100
AcDbEntity
8
0-000
6
CONTINUOUS
62
3
100
AcDbCircle
10
766.950000000000
20
368.430000000000
30
0.0
40
1.999999969650
100
AcDbArc
50
11.309371948242
51
90.000000000000
0
ARC
5
714
100
AcDbEntity
8
0-000
6
CONTINUOUS
62
3
100
AcDbCircle
10
774.410000000000
20
346.430000000000
30
0.0
40
0.999999984825
100
AcDbArc
50
191.309371948242
51
270.000000000000
0
ARC
5
715
100
AcDbEntity
8
0-000
6
CONTINUOUS
62
3
100
AcDbCircle
10
774.410000000000
20
346.430000000000
30
0.0
40
1.999999969650
100
AcDbArc
50
191.309371948242
51
270.000000000000
0
ARC
5
716
100
AcDbEntity
8
0-000
6
CONTINUOUS
62
3
100
AcDbCircle
10
730.230000000000
20
368.430000000000
30
0.0
40
0.999999984825
100
AcDbArc
50
90.000000000000
51
168.690628051758
0
ARC
5
717
100
AcDbEntity
8
0-000
6
CONTINUOUS
62
3
100
AcDbCircle
10
730.230000000000
20
368.430000000000
30
0.0
40
1.999999969650
100
AcDbArc
50
90.000000000000
51
168.690628051758
0
ARC
5
718
100
AcDbEntity
8
0-000
6
CONTINUOUS
62
3
100
AcDbCircle
10
722.770000000000
20
346.430000000000
30
0.0
40
0.999999984825
100
AcDbArc
50
270.000000000000
51
348.690628051758
0
ARC
5
719
100
AcDbEntity
8
0-000
6
CONTINUOUS
62
3
100
AcDbCircle
10
722.770000000000
20
346.430000000000
30
0.0
40
1.999999969650
100
AcDbArc
50
270.000000000000
51
348.690628051758
0
ARC
5
71a
100
AcDbEntity
8
0-000
6
CONTINUOUS
62
3
100
AcDbCircle
10
676.950000000000
20
368.430000000000
30
0.0
40
0.999999984825
100
AcDbArc
50
11.309371948242
51
90.000000000000
0
ARC
5
71b
100
AcDbEntity
8
0-000
6
CONTINUOUS
62
3
100
AcDbCircle
10
676.950000000000
20
368.430000000000
30
0.0
40
1.999999969650
100
AcDbArc
50
11.309371948242
51
90.000000000000
0
ARC
5
71c
100
AcDbEntity
8
0-000
6
CONTINUOUS
62
3
100
AcDbCircle
10
684.410000000000
20
346.430000000000
30
0.0
40
0.999999984825
100
AcDbArc
50
191.309371948242
51
270.000000000000
0
ARC
5
71d
100
AcDbEntity
8
0-000
6
CONTINUOUS
62
3
100
AcDbCircle
10
684.410000000000
20
346.430000000000
30
0.0
40
1.999999969650
100
AcDbArc
50
191.309371948242
51
270.000000000000
0
ARC
5
71e
100
AcDbEntity
8
0-000
6
CONTINUOUS
62
3
100
AcDbCircle
10
730.230000000000
20
368.430000000000
30
0.0
40
0.999999984825
100
AcDbArc
50
90.000000000000
51
168.690628051758
0
ARC
5
71f
100
AcDbEntity
8
0-000
6
CONTINUOUS
62
3
100
AcDbCircle
10
730.230000000000
20
368.430000000000
30
0.0
40
1.999999969650
100
AcDbArc
50
90.000000000000
51
168.690628051758
0
ARC
5
720
100
AcDbEntity
8
0-000
6
CONTINUOUS
62
3
100
AcDbCircle
10
722.770000000000
20
346.430000000000
30
0.0
40
0.999999984825
100
AcDbArc
50
270.000000000000
51
348.690628051758
0
ARC
5
721
100
AcDbEntity
8
0-000
6
CONTINUOUS
62
3
100
AcDbCircle
10
722.770000000000
20
346.430000000000
30
0.0
40
1.999999969650
100
AcDbArc
50
270.000000000000
51
348.690628051758
0
ARC
5
722
100
AcDbEntity
8
0-000
6
CONTINUOUS
62
3
100
AcDbCircle
10
910.230000000000
20
368.430000000000
30
0.0
40
0.999999984825
100
AcDbArc
50
90.000000000000
51
168.690628051758
0
ARC
5
723
100
AcDbEntity
8
0-000
6
CONTINUOUS
62
3
100
AcDbCircle
10
910.230000000000
20
368.430000000000
30
0.0
40
1.999999969650
100
AcDbArc
50
90.000000000000
51
168.690628051758
0
ARC
5
724
100
AcDbEntity
8
0-000
6
CONTINUOUS
62
3
100
AcDbCircle
10
902.770000000000
20
346.430000000000
30
0.0
40
0.999999984825
100
AcDbArc
50
270.000000000000
51
348.690628051758
0
ARC
5
725
100
AcDbEntity
8
0-000
6
CONTINUOUS
62
3
100
AcDbCircle
10
902.770000000000
20
346.430000000000
30
0.0
40
1.999999969650
100
AcDbArc
50
270.000000000000
51
348.690628051758
0
ARC
5
726
100
AcDbEntity
8
0-000
6
CONTINUOUS
62
3
100
AcDbCircle
10
856.950000000000
20
368.430000000000
30
0.0
40
0.999999984825
100
AcDbArc
50
11.309371948242
51
90.000000000000
0
ARC
5
727
100
AcDbEntity
8
0-000
6
CONTINUOUS
62
3
100
AcDbCircle
10
856.950000000000
20
368.430000000000
30
0.0
40
1.999999969650
100
AcDbArc
50
11.309371948242
51
90.000000000000
0
ARC
5
728
100
AcDbEntity
8
0-000
6
CONTINUOUS
62
3
100
AcDbCircle
10
864.410000000000
20
346.430000000000
30
0.0
40
0.999999984825
100
AcDbArc
50
191.309371948242
51
270.000000000000
0
ARC
5
729
100
AcDbEntity
8
0-000
6
CONTINUOUS
62
3
100
AcDbCircle
10
864.410000000000
20
346.430000000000
30
0.0
40
1.999999969650
100
AcDbArc
50
191.309371948242
51
270.000000000000
0
ARC
5
72a
100
AcDbEntity
8
0-000
6
CONTINUOUS
62
3
100
AcDbCircle
10
910.230000000000
20
368.430000000000
30
0.0
40
0.999999984825
100
AcDbArc
50
90.000000000000
51
168.690628051758
0
ARC
5
72b
100
AcDbEntity
8
0-000
6
CONTINUOUS
62
3
100
AcDbCircle
10
910.230000000000
20
368.430000000000
30
0.0
40
1.999999969650
100
AcDbArc
50
90.000000000000
51
168.690628051758
0
ARC
5
72c
100
AcDbEntity
8
0-000
6
CONTINUOUS
62
3
100
AcDbCircle
10
902.770000000000
20
346.430000000000
30
0.0
40
0.999999984825
100
AcDbArc
50
270.000000000000
51
348.690628051758
0
ARC
5
72d
100
AcDbEntity
8
0-000
6
CONTINUOUS
62
3
100
AcDbCircle
10
902.770000000000
20
346.430000000000
30
0.0
40
1.999999969650
100
AcDbArc
50
270.000000000000
51
348.690628051758
0
ARC
5
72e
100
AcDbEntity
8
0-000
6
CONTINUOUS
62
3
100
AcDbCircle
10
946.950000000000
20
368.430000000000
30
0.0
40
0.999999984825
100
AcDbArc
50
11.309371948242
51
90.000000000000
0
ARC
5
72f
100
AcDbEntity
8
0-000
6
CONTINUOUS
62
3
100
AcDbCircle
10
946.950000000000
20
368.430000000000
30
0.0
40
1.999999969650
100
AcDbArc
50
11.309371948242
51
90.000000000000
0
ARC
5
730
100
AcDbEntity
8
0-000
6
CONTINUOUS
62
3
100
AcDbCircle
10
946.950000000000
20
368.430000000000
30
0.0
40
0.999999984825
100
AcDbArc
50
11.309371948242
51
90.000000000000
0
ARC
5
731
100
AcDbEntity
8
0-000
6
CONTINUOUS
62
3
100
AcDbCircle
10
946.950000000000
20
368.430000000000
30
0.0
40
1.999999969650
100
AcDbArc
50
11.309371948242
51
90.000000000000
0
ARC
5
732
100
AcDbEntity
8
0-000
6
CONTINUOUS
62
3
100
AcDbCircle
10
452.370000000000
20
344.430000000000
30
0.0
40
0.999999984825
100
AcDbArc
50
270.000000000000
51
348.690628051758
0
ARC
5
733
100
AcDbEntity
8
0-000
6
CONTINUOUS
62
3
100
AcDbCircle
10
452.370000000000
20
344.430000000000
30
0.0
40
1.999999969650
100
AcDbArc
50
270.000000000000
51
348.690628051758
0
ARC
5
734
100
AcDbEntity
8
0-000
6
CONTINUOUS
62
3
100
AcDbCircle
10
1036.950000000000
20
368.430000000000
30
0.0
40
3.000000148017
100
AcDbArc
50
11.309371948242
51
90.000000000000
0
ARC
5
735
100
AcDbEntity
8
0-000
6
CONTINUOUS
62
3
100
AcDbCircle
10
1036.950000000000
20
368.430000000000
30
0.0
40
3.999999939299
100
AcDbArc
50
11.309371948242
51
90.000000000000
0
ARC
5
736
100
AcDbEntity
8
0-000
6
CONTINUOUS
62
3
100
AcDbCircle
10
1046.050000000000
20
348.430000000000
30
0.0
40
0.999999984825
100
AcDbArc
50
191.309371948242
51
270.000000000000
0
ARC
5
737
100
AcDbEntity
8
0-000
6
CONTINUOUS
62
3
100
AcDbCircle
10
1046.050000000000
20
348.430000000000
30
0.0
40
1.999999969650
100
AcDbArc
50
191.309371948242
51
270.000000000000
0
ARC
5
738
100
AcDbEntity
8
0-000
6
CONTINUOUS
62
3
100
AcDbCircle
10
1000.230000000000
20
368.430000000000
30
0.0
40
3.000000148017
100
AcDbArc
50
90.000000000000
51
168.690628051758
0
ARC
5
739
100
AcDbEntity
8
0-000
6
CONTINUOUS
62
3
100
AcDbCircle
10
1000.230000000000
20
368.430000000000
30
0.0
40
3.999999939299
100
AcDbArc
50
90.000000000000
51
168.690628051758
0
ARC
5
73a
100
AcDbEntity
8
0-000
6
CONTINUOUS
62
3
100
AcDbCircle
10
990.730000000000
20
346.430000000000
30
0.0
40
0.999999984825
100
AcDbArc
50
270.000000000000
51
348.690628051758
0
ARC
5
73b
100
AcDbEntity
8
0-000
6
CONTINUOUS
62
3
100
AcDbCircle
10
990.730000000000
20
346.430000000000
30
0.0
40
1.999999969650
100
AcDbArc
50
270.000000000000
51
348.690628051758
0
ARC
5
73c
100
AcDbEntity
8
0-000
6
CONTINUOUS
62
3
100
AcDbCircle
10
954.410000000000
20
346.430000000000
30
0.0
40
0.999999984825
100
AcDbArc
50
191.308822631836
51
270.000000000000
0
ARC
5
73d
100
AcDbEntity
8
0-000
6
CONTINUOUS
62
3
100
AcDbCircle
10
954.410000000000
20
346.430000000000
30
0.0
40
1.999999969650
100
AcDbArc
50
191.308822631836
51
270.000000000000
0
ARC
5
73e
100
AcDbEntity
8
0-000
6
CONTINUOUS
62
3
100
AcDbCircle
10
550.230000000000
20
866.430000000000
30
0.0
40
0.999999984825
100
AcDbArc
50
90.000000000000
51
168.690628051758
0
ARC
5
73f
100
AcDbEntity
8
0-000
6
CONTINUOUS
62
3
100
AcDbCircle
10
550.230000000000
20
866.430000000000
30
0.0
40
1.999999969650
100
AcDbArc
50
90.000000000000
51
168.690628051758
0
ARC
5
740
100
AcDbEntity
8
0-000
6
CONTINUOUS
62
3
100
AcDbCircle
10
542.770000000000
20
844.430000000000
30
0.0
40
0.999999984825
100
AcDbArc
50
270.000000000000
51
348.690628051758
0
ARC
5
741
100
AcDbEntity
8
0-000
6
CONTINUOUS
62
3
100
AcDbCircle
10
542.770000000000
20
844.430000000000
30
0.0
40
1.999999969650
100
AcDbArc
50
270.000000000000
51
348.690628051758
0
ARC
5
742
100
AcDbEntity
8
0-000
6
CONTINUOUS
62
3
100
AcDbCircle
10
496.950000000000
20
866.430000000000
30
0.0
40
0.999999984825
100
AcDbArc
50
11.309371948242
51
90.000000000000
0
ARC
5
743
100
AcDbEntity
8
0-000
6
CONTINUOUS
62
3
100
AcDbCircle
10
496.950000000000
20
866.430000000000
30
0.0
40
1.999999969650
100
AcDbArc
50
11.309371948242
51
90.000000000000
0
ARC
5
744
100
AcDbEntity
8
0-000
6
CONTINUOUS
62
3
100
AcDbCircle
10
504.410000000000
20
844.430000000000
30
0.0
40
0.999999984825
100
AcDbArc
50
191.309371948242
51
270.000000000000
0
ARC
5
745
100
AcDbEntity
8
0-000
6
CONTINUOUS
62
3
100
AcDbCircle
10
504.410000000000
20
844.430000000000
30
0.0
40
1.999999969650
100
AcDbArc
50
191.309371948242
51
270.000000000000
0
ARC
5
746
100
AcDbEntity
8
0-000
6
CONTINUOUS
62
3
100
AcDbCircle
10
550.230000000000
20
866.430000000000
30
0.0
40
0.999999984825
100
AcDbArc
50
90.000000000000
51
168.690628051758
0
ARC
5
747
100
AcDbEntity
8
0-000
6
CONTINUOUS
62
3
100
AcDbCircle
10
550.230000000000
20
866.430000000000
30
0.0
40
1.999999969650
100
AcDbArc
50
90.000000000000
51
168.690628051758
0
ARC
5
748
100
AcDbEntity
8
0-000
6
CONTINUOUS
62
3
100
AcDbCircle
10
542.770000000000
20
844.430000000000
30
0.0
40
0.999999984825
100
AcDbArc
50
270.000000000000
51
348.690628051758
0
ARC
5
749
100
AcDbEntity
8
0-000
6
CONTINUOUS
62
3
100
AcDbCircle
10
542.770000000000
20
844.430000000000
30
0.0
40
1.999999969650
100
AcDbArc
50
270.000000000000
51
348.690628051758
0
ARC
5
74a
100
AcDbEntity
8
0-000
6
CONTINUOUS
62
3
100
AcDbCircle
10
460.230000000000
20
866.430000000000
30
0.0
40
0.999999984825
100
AcDbArc
50
90.000000000000
51
168.690628051758
0
ARC
5
74b
100
AcDbEntity
8
0-000
6
CONTINUOUS
62
3
100
AcDbCircle
10
460.230000000000
20
866.430000000000
30
0.0
40
1.999999969650
100
AcDbArc
50
90.000000000000
51
168.690628051758
0
ARC
5
74c
100
AcDbEntity
8
0-000
6
CONTINUOUS
62
3
100
AcDbCircle
10
452.770000000000
20
844.430000000000
30
0.0
40
0.999999984825
100
AcDbArc
50
270.000000000000
51
348.690628051758
0
ARC
5
74d
100
AcDbEntity
8
0-000
6
CONTINUOUS
62
3
100
AcDbCircle
10
452.770000000000
20
844.430000000000
30
0.0
40
1.999999969650
100
AcDbArc
50
270.000000000000
51
348.690628051758
0
ARC
5
74e
100
AcDbEntity
8
0-000
6
CONTINUOUS
62
3
100
AcDbCircle
10
586.950000000000
20
866.430000000000
30
0.0
40
0.999999984825
100
AcDbArc
50
11.309371948242
51
90.000000000000
0
ARC
5
74f
100
AcDbEntity
8
0-000
6
CONTINUOUS
62
3
100
AcDbCircle
10
586.950000000000
20
866.430000000000
30
0.0
40
1.999999969650
100
AcDbArc
50
11.309371948242
51
90.000000000000
0
ARC
5
750
100
AcDbEntity
8
0-000
6
CONTINUOUS
62
3
100
AcDbCircle
10
594.410000000000
20
844.430000000000
30
0.0
40
0.999999984825
100
AcDbArc
50
191.309371948242
51
270.000000000000
0
ARC
5
751
100
AcDbEntity
8
0-000
6
CONTINUOUS
62
3
100
AcDbCircle
10
594.410000000000
20
844.430000000000
30
0.0
40
1.999999969650
100
AcDbArc
50
191.309371948242
51
270.000000000000
0
ARC
5
752
100
AcDbEntity
8
0-000
6
CONTINUOUS
62
3
100
AcDbCircle
10
640.230000000000
20
866.430000000000
30
0.0
40
0.999999984825
100
AcDbArc
50
90.000000000000
51
168.690628051758
0
ARC
5
753
100
AcDbEntity
8
0-000
6
CONTINUOUS
62
3
100
AcDbCircle
10
640.230000000000
20
866.430000000000
30
0.0
40
1.999999969650
100
AcDbArc
50
90.000000000000
51
168.690628051758
0
ARC
5
754
100
AcDbEntity
8
0-000
6
CONTINUOUS
62
3
100
AcDbCircle
10
632.770000000000
20
844.430000000000
30
0.0
40
0.999999984825
100
AcDbArc
50
270.000000000000
51
348.690628051758
0
ARC
5
755
100
AcDbEntity
8
0-000
6
CONTINUOUS
62
3
100
AcDbCircle
10
632.770000000000
20
844.430000000000
30
0.0
40
1.999999969650
100
AcDbArc
50
270.000000000000
51
348.690628051758
0
ARC
5
756
100
AcDbEntity
8
0-000
6
CONTINUOUS
62
3
100
AcDbCircle
10
586.950000000000
20
866.430000000000
30
0.0
40
0.999999984825
100
AcDbArc
50
11.309371948242
51
90.000000000000
0
ARC
5
757
100
AcDbEntity
8
0-000
6
CONTINUOUS
62
3
100
AcDbCircle
10
586.950000000000
20
866.430000000000
30
0.0
40
1.999999969650
100
AcDbArc
50
11.309371948242
51
90.000000000000
0
ARC
5
758
100
AcDbEntity
8
0-000
6
CONTINUOUS
62
3
100
AcDbCircle
10
594.410000000000
20
844.430000000000
30
0.0
40
0.999999984825
100
AcDbArc
50
191.309371948242
51
270.000000000000
0
ARC
5
759
100
AcDbEntity
8
0-000
6
CONTINUOUS
62
3
100
AcDbCircle
10
594.410000000000
20
844.430000000000
30
0.0
40
1.999999969650
100
AcDbArc
50
191.309371948242
51
270.000000000000
0
ARC
5
75a
100
AcDbEntity
8
0-000
6
CONTINUOUS
62
3
100
AcDbCircle
10
766.950000000000
20
866.430000000000
30
0.0
40
0.999999984825
100
AcDbArc
50
11.309371948242
51
90.000000000000
0
ARC
5
75b
100
AcDbEntity
8
0-000
6
CONTINUOUS
62
3
100
AcDbCircle
10
766.950000000000
20
866.430000000000
30
0.0
40
1.999999969650
100
AcDbArc
50
11.309371948242
51
90.000000000000
0
ARC
5
75c
100
AcDbEntity
8
0-000
6
CONTINUOUS
62
3
100
AcDbCircle
10
774.410000000000
20
844.430000000000
30
0.0
40
0.999999984825
100
AcDbArc
50
191.309371948242
51
270.000000000000
0
ARC
5
75d
100
AcDbEntity
8
0-000
6
CONTINUOUS
62
3
100
AcDbCircle
10
774.410000000000
20
844.430000000000
30
0.0
40
1.999999969650
100
AcDbArc
50
191.309371948242
51
270.000000000000
0
ARC
5
75e
100
AcDbEntity
8
0-000
6
CONTINUOUS
62
3
100
AcDbCircle
10
820.230000000000
20
866.430000000000
30
0.0
40
0.999999984825
100
AcDbArc
50
90.000000000000
51
168.690628051758
0
ARC
5
75f
100
AcDbEntity
8
0-000
6
CONTINUOUS
62
3
100
AcDbCircle
10
820.230000000000
20
866.430000000000
30
0.0
40
1.999999969650
100
AcDbArc
50
90.000000000000
51
168.690628051758
0
ARC
5
760
100
AcDbEntity
8
0-000
6
CONTINUOUS
62
3
100
AcDbCircle
10
812.770000000000
20
844.430000000000
30
0.0
40
0.999999984825
100
AcDbArc
50
270.000000000000
51
348.690628051758
0
ARC
5
761
100
AcDbEntity
8
0-000
6
CONTINUOUS
62
3
100
AcDbCircle
10
812.770000000000
20
844.430000000000
30
0.0
40
1.999999969650
100
AcDbArc
50
270.000000000000
51
348.690628051758
0
ARC
5
762
100
AcDbEntity
8
0-000
6
CONTINUOUS
62
3
100
AcDbCircle
10
766.950000000000
20
866.430000000000
30
0.0
40
0.999999984825
100
AcDbArc
50
11.309371948242
51
90.000000000000
0
ARC
5
763
100
AcDbEntity
8
0-000
6
CONTINUOUS
62
3
100
AcDbCircle
10
766.950000000000
20
866.430000000000
30
0.0
40
1.999999969650
100
AcDbArc
50
11.309371948242
51
90.000000000000
0
ARC
5
764
100
AcDbEntity
8
0-000
6
CONTINUOUS
62
3
100
AcDbCircle
10
774.410000000000
20
844.430000000000
30
0.0
40
0.999999984825
100
AcDbArc
50
191.309371948242
51
270.000000000000
0
ARC
5
765
100
AcDbEntity
8
0-000
6
CONTINUOUS
62
3
100
AcDbCircle
10
774.410000000000
20
844.430000000000
30
0.0
40
1.999999969650
100
AcDbArc
50
191.309371948242
51
270.000000000000
0
ARC
5
766
100
AcDbEntity
8
0-000
6
CONTINUOUS
62
3
100
AcDbCircle
10
730.230000000000
20
866.430000000000
30
0.0
40
0.999999984825
100
AcDbArc
50
90.000000000000
51
168.690628051758
0
ARC
5
767
100
AcDbEntity
8
0-000
6
CONTINUOUS
62
3
100
AcDbCircle
10
730.230000000000
20
866.430000000000
30
0.0
40
1.999999969650
100
AcDbArc
50
90.000000000000
51
168.690628051758
0
ARC
5
768
100
AcDbEntity
8
0-000
6
CONTINUOUS
62
3
100
AcDbCircle
10
722.770000000000
20
844.430000000000
30
0.0
40
0.999999984825
100
AcDbArc
50
270.000000000000
51
348.690628051758
0
ARC
5
769
100
AcDbEntity
8
0-000
6
CONTINUOUS
62
3
100
AcDbCircle
10
722.770000000000
20
844.430000000000
30
0.0
40
1.999999969650
100
AcDbArc
50
270.000000000000
51
348.690628051758
0
ARC
5
76a
100
AcDbEntity
8
0-000
6
CONTINUOUS
62
3
100
AcDbCircle
10
676.950000000000
20
866.430000000000
30
0.0
40
0.999999984825
100
AcDbArc
50
11.309371948242
51
90.000000000000
0
ARC
5
76b
100
AcDbEntity
8
0-000
6
CONTINUOUS
62
3
100
AcDbCircle
10
676.950000000000
20
866.430000000000
30
0.0
40
1.999999969650
100
AcDbArc
50
11.309371948242
51
90.000000000000
0
ARC
5
76c
100
AcDbEntity
8
0-000
6
CONTINUOUS
62
3
100
AcDbCircle
10
684.410000000000
20
844.430000000000
30
0.0
40
0.999999984825
100
AcDbArc
50
191.309371948242
51
270.000000000000
0
ARC
5
76d
100
AcDbEntity
8
0-000
6
CONTINUOUS
62
3
100
AcDbCircle
10
684.410000000000
20
844.430000000000
30
0.0
40
1.999999969650
100
AcDbArc
50
191.309371948242
51
270.000000000000
0
ARC
5
76e
100
AcDbEntity
8
0-000
6
CONTINUOUS
62
3
100
AcDbCircle
10
730.230000000000
20
866.430000000000
30
0.0
40
0.999999984825
100
AcDbArc
50
90.000000000000
51
168.690628051758
0
ARC
5
76f
100
AcDbEntity
8
0-000
6
CONTINUOUS
62
3
100
AcDbCircle
10
730.230000000000
20
866.430000000000
30
0.0
40
1.999999969650
100
AcDbArc
50
90.000000000000
51
168.690628051758
0
ARC
5
770
100
AcDbEntity
8
0-000
6
CONTINUOUS
62
3
100
AcDbCircle
10
722.770000000000
20
844.430000000000
30
0.0
40
0.999999984825
100
AcDbArc
50
270.000000000000
51
348.690628051758
0
ARC
5
771
100
AcDbEntity
8
0-000
6
CONTINUOUS
62
3
100
AcDbCircle
10
722.770000000000
20
844.430000000000
30
0.0
40
1.999999969650
100
AcDbArc
50
270.000000000000
51
348.690628051758
0
ARC
5
772
100
AcDbEntity
8
0-000
6
CONTINUOUS
62
3
100
AcDbCircle
10
910.230000000000
20
866.430000000000
30
0.0
40
0.999999984825
100
AcDbArc
50
90.000000000000
51
168.690628051758
0
ARC
5
773
100
AcDbEntity
8
0-000
6
CONTINUOUS
62
3
100
AcDbCircle
10
910.230000000000
20
866.430000000000
30
0.0
40
1.999999969650
100
AcDbArc
50
90.000000000000
51
168.690628051758
0
ARC
5
774
100
AcDbEntity
8
0-000
6
CONTINUOUS
62
3
100
AcDbCircle
10
902.770000000000
20
844.430000000000
30
0.0
40
0.999999984825
100
AcDbArc
50
270.000000000000
51
348.690628051758
0
ARC
5
775
100
AcDbEntity
8
0-000
6
CONTINUOUS
62
3
100
AcDbCircle
10
902.770000000000
20
844.430000000000
30
0.0
40
1.999999969650
100
AcDbArc
50
270.000000000000
51
348.690628051758
0
ARC
5
776
100
AcDbEntity
8
0-000
6
CONTINUOUS
62
3
100
AcDbCircle
10
856.950000000000
20
866.430000000000
30
0.0
40
0.999999984825
100
AcDbArc
50
11.309371948242
51
90.000000000000
0
ARC
5
777
100
AcDbEntity
8
0-000
6
CONTINUOUS
62
3
100
AcDbCircle
10
856.950000000000
20
866.430000000000
30
0.0
40
1.999999969650
100
AcDbArc
50
11.309371948242
51
90.000000000000
0
ARC
5
778
100
AcDbEntity
8
0-000
6
CONTINUOUS
62
3
100
AcDbCircle
10
864.410000000000
20
844.430000000000
30
0.0
40
0.999999984825
100
AcDbArc
50
191.309371948242
51
270.000000000000
0
ARC
5
779
100
AcDbEntity
8
0-000
6
CONTINUOUS
62
3
100
AcDbCircle
10
864.410000000000
20
844.430000000000
30
0.0
40
1.999999969650
100
AcDbArc
50
191.309371948242
51
270.000000000000
0
ARC
5
77a
100
AcDbEntity
8
0-000
6
CONTINUOUS
62
3
100
AcDbCircle
10
910.230000000000
20
866.430000000000
30
0.0
40
0.999999984825
100
AcDbArc
50
90.000000000000
51
168.690628051758
0
ARC
5
77b
100
AcDbEntity
8
0-000
6
CONTINUOUS
62
3
100
AcDbCircle
10
910.230000000000
20
866.430000000000
30
0.0
40
1.999999969650
100
AcDbArc
50
90.000000000000
51
168.690628051758
0
ARC
5
77c
100
AcDbEntity
8
0-000
6
CONTINUOUS
62
3
100
AcDbCircle
10
902.770000000000
20
844.430000000000
30
0.0
40
0.999999984825
100
AcDbArc
50
270.000000000000
51
348.690628051758
0
ARC
5
77d
100
AcDbEntity
8
0-000
6
CONTINUOUS
62
3
100
AcDbCircle
10
902.770000000000
20
844.430000000000
30
0.0
40
1.999999969650
100
AcDbArc
50
270.000000000000
51
348.690628051758
0
ARC
5
77e
100
AcDbEntity
8
0-000
6
CONTINUOUS
62
3
100
AcDbCircle
10
946.950000000000
20
866.430000000000
30
0.0
40
0.999999984825
100
AcDbArc
50
11.309371948242
51
90.000000000000
0
ARC
5
77f
100
AcDbEntity
8
0-000
6
CONTINUOUS
62
3
100
AcDbCircle
10
946.950000000000
20
866.430000000000
30
0.0
40
1.999999969650
100
AcDbArc
50
11.309371948242
51
90.000000000000
0
ARC
5
780
100
AcDbEntity
8
0-000
6
CONTINUOUS
62
3
100
AcDbCircle
10
954.410000000000
20
844.430000000000
30
0.0
40
0.999999984825
100
AcDbArc
50
191.309371948242
51
270.000000000000
0
ARC
5
781
100
AcDbEntity
8
0-000
6
CONTINUOUS
62
3
100
AcDbCircle
10
954.410000000000
20
844.430000000000
30
0.0
40
1.999999969650
100
AcDbArc
50
191.309371948242
51
270.000000000000
0
ARC
5
782
100
AcDbEntity
8
0-000
6
CONTINUOUS
62
3
100
AcDbCircle
10
1000.230000000000
20
866.430000000000
30
0.0
40
0.999999984825
100
AcDbArc
50
90.000000000000
51
168.690628051758
0
ARC
5
783
100
AcDbEntity
8
0-000
6
CONTINUOUS
62
3
100
AcDbCircle
10
1000.230000000000
20
866.430000000000
30
0.0
40
1.999999969650
100
AcDbArc
50
90.000000000000
51
168.690628051758
0
ARC
5
784
100
AcDbEntity
8
0-000
6
CONTINUOUS
62
3
100
AcDbCircle
10
992.770000000000
20
844.430000000000
30
0.0
40
0.999999984825
100
AcDbArc
50
270.000000000000
51
348.690628051758
0
ARC
5
785
100
AcDbEntity
8
0-000
6
CONTINUOUS
62
3
100
AcDbCircle
10
992.770000000000
20
844.430000000000
30
0.0
40
1.999999969650
100
AcDbArc
50
270.000000000000
51
348.690628051758
0
ARC
5
786
100
AcDbEntity
8
0-000
6
CONTINUOUS
62
3
100
AcDbCircle
10
946.950000000000
20
866.430000000000
30
0.0
40
0.999999984825
100
AcDbArc
50
11.309371948242
51
90.000000000000
0
ARC
5
787
100
AcDbEntity
8
0-000
6
CONTINUOUS
62
3
100
AcDbCircle
10
946.950000000000
20
866.430000000000
30
0.0
40
1.999999969650
100
AcDbArc
50
11.309371948242
51
90.000000000000
0
ARC
5
788
100
AcDbEntity
8
0-000
6
CONTINUOUS
62
3
100
AcDbCircle
10
954.410000000000
20
844.430000000000
30
0.0
40
0.999999984825
100
AcDbArc
50
191.309371948242
51
270.000000000000
0
ARC
5
789
100
AcDbEntity
8
0-000
6
CONTINUOUS
62
3
100
AcDbCircle
10
954.410000000000
20
844.430000000000
30
0.0
40
1.999999969650
100
AcDbArc
50
191.309371948242
51
270.000000000000
0
ARC
5
78a
100
AcDbEntity
8
0-000
6
CONTINUOUS
62
3
100
AcDbCircle
10
1036.950000000000
20
866.430000000000
30
0.0
40
0.999999984825
100
AcDbArc
50
11.309371948242
51
90.000000000000
0
ARC
5
78b
100
AcDbEntity
8
0-000
6
CONTINUOUS
62
3
100
AcDbCircle
10
1036.950000000000
20
866.430000000000
30
0.0
40
1.999999969650
100
AcDbArc
50
11.309371948242
51
90.000000000000
0
ARC
5
78c
100
AcDbEntity
8
0-000
6
CONTINUOUS
62
3
100
AcDbCircle
10
1044.410000000000
20
844.430000000000
30
0.0
40
0.999999984825
100
AcDbArc
50
191.309371948242
51
270.000000000000
0
ARC
5
78d
100
AcDbEntity
8
0-000
6
CONTINUOUS
62
3
100
AcDbCircle
10
1044.410000000000
20
844.430000000000
30
0.0
40
1.999999969650
100
AcDbArc
50
191.309371948242
51
270.000000000000
0
CIRCLE
5
78e
100
AcDbEntity
8
0-202
6
CONTINUOUS
62
3
100
AcDbCircle
10
79.720000000000
20
67.100000000000
30
0.0
40
11.313799562926
0
CIRCLE
5
78f
100
AcDbEntity
8
0-202
6
CONTINUOUS
62
3
100
AcDbCircle
10
79.720000000000
20
67.100000000000
30
0.0
40
12.913799848314
0
CIRCLE
5
790
100
AcDbEntity
8
0-202
6
CONTINUOUS
62
4
100
AcDbCircle
10
79.720000000000
20
67.100000000000
30
0.0
40
11.473799591465
0
CIRCLE
5
791
100
AcDbEntity
8
0-202
6
CONTINUOUS
62
4
100
AcDbCircle
10
79.720000000000
20
67.100000000000
30
0.0
40
11.793800422712
0
CIRCLE
5
792
100
AcDbEntity
8
0-202
6
CONTINUOUS
62
4
100
AcDbCircle
10
79.720000000000
20
67.100000000000
30
0.0
40
12.113800479790
0
CIRCLE
5
793
100
AcDbEntity
8
0-202
6
CONTINUOUS
62
4
100
AcDbCircle
10
79.720000000000
20
67.100000000000
30
0.0
40
12.433800536867
0
CIRCLE
5
794
100
AcDbEntity
8
0-202
6
CONTINUOUS
62
4
100
AcDbCircle
10
79.720000000000
20
67.100000000000
30
0.0
40
12.753799819775
0
ARC
5
795
100
AcDbEntity
8
0-000
6
CONTINUOUS
62
3
100
AcDbCircle
10
1310.770000000000
20
616.430000000000
30
0.0
40
0.999999984825
100
AcDbArc
50
90.000000000000
51
168.690628051758
0
ARC
5
796
100
AcDbEntity
8
0-000
6
CONTINUOUS
62
3
100
AcDbCircle
10
1310.770000000000
20
616.430000000000
30
0.0
40
1.999999969650
100
AcDbArc
50
90.000000000000
51
168.690628051758
0
ARC
5
797
100
AcDbEntity
8
0-000
6
CONTINUOUS
62
3
100
AcDbCircle
10
1303.310000000000
20
594.430000000000
30
0.0
40
0.999999984825
100
AcDbArc
50
270.000000000000
51
348.690628051758
0
ARC
5
798
100
AcDbEntity
8
0-000
6
CONTINUOUS
62
3
100
AcDbCircle
10
1303.310000000000
20
594.430000000000
30
0.0
40
1.999999969650
100
AcDbArc
50
270.000000000000
51
348.690628051758
0
ARC
5
799
100
AcDbEntity
8
0-000
6
CONTINUOUS
62
3
100
AcDbCircle
10
1347.490000000000
20
616.430000000000
30
0.0
40
0.999999984825
100
AcDbArc
50
11.309371948242
51
90.000000000000
0
ARC
5
79a
100
AcDbEntity
8
0-000
6
CONTINUOUS
62
3
100
AcDbCircle
10
1347.490000000000
20
616.430000000000
30
0.0
40
1.999999969650
100
AcDbArc
50
11.309371948242
51
90.000000000000
0
ARC
5
79b
100
AcDbEntity
8
0-000
6
CONTINUOUS
62
3
100
AcDbCircle
10
1354.950000000000
20
594.430000000000
30
0.0
40
0.999999984825
100
AcDbArc
50
191.309371948242
51
270.000000000000
0
ARC
5
79c
100
AcDbEntity
8
0-000
6
CONTINUOUS
62
3
100
AcDbCircle
10
1354.950000000000
20
594.430000000000
30
0.0
40
1.999999969650
100
AcDbArc
50
191.309371948242
51
270.000000000000
0
ARC
5
79d
100
AcDbEntity
8
0-000
6
CONTINUOUS
62
3
100
AcDbCircle
10
1400.770000000000
20
614.430000000000
30
0.0
40
0.999999984825
100
AcDbArc
50
90.000000000000
51
168.690628051758
0
ARC
5
79e
100
AcDbEntity
8
0-000
6
CONTINUOUS
62
3
100
AcDbCircle
10
1400.770000000000
20
614.430000000000
30
0.0
40
1.999999969650
100
AcDbArc
50
90.000000000000
51
168.690628051758
0
ARC
5
79f
100
AcDbEntity
8
0-000
6
CONTINUOUS
62
3
100
AcDbCircle
10
1393.310000000000
20
592.430000000000
30
0.0
40
0.999999984825
100
AcDbArc
50
270.000000000000
51
348.690628051758
0
ARC
5
7a0
100
AcDbEntity
8
0-000
6
CONTINUOUS
62
3
100
AcDbCircle
10
1393.310000000000
20
592.430000000000
30
0.0
40
1.999999969650
100
AcDbArc
50
270.000000000000
51
348.690628051758
0
ARC
5
7a1
100
AcDbEntity
8
0-000
6
CONTINUOUS
62
3
100
AcDbCircle
10
1437.490000000000
20
614.430000000000
30
0.0
40
0.999999984825
100
AcDbArc
50
11.309371948242
51
90.000000000000
0
ARC
5
7a2
100
AcDbEntity
8
0-000
6
CONTINUOUS
62
3
100
AcDbCircle
10
1437.490000000000
20
614.430000000000
30
0.0
40
1.999999969650
100
AcDbArc
50
11.309371948242
51
90.000000000000
0
ARC
5
7a3
100
AcDbEntity
8
0-000
6
CONTINUOUS
62
3
100
AcDbCircle
10
1437.490000000000
20
614.430000000000
30
0.0
40
0.999999984825
100
AcDbArc
50
11.309371948242
51
90.000000000000
0
ARC
5
7a4
100
AcDbEntity
8
0-000
6
CONTINUOUS
62
3
100
AcDbCircle
10
1437.490000000000
20
614.430000000000
30
0.0
40
1.999999969650
100
AcDbArc
50
11.309371948242
51
90.000000000000
0
ARC
5
7a5
100
AcDbEntity
8
0-000
6
CONTINUOUS
62
3
100
AcDbCircle
10
1444.950000000000
20
592.430000000000
30
0.0
40
0.999999984825
100
AcDbArc
50
191.309371948242
51
270.000000000000
0
ARC
5
7a6
100
AcDbEntity
8
0-000
6
CONTINUOUS
62
3
100
AcDbCircle
10
1444.950000000000
20
592.430000000000
30
0.0
40
1.999999969650
100
AcDbArc
50
191.309371948242
51
270.000000000000
0
ARC
5
7a7
100
AcDbEntity
8
0-000
6
CONTINUOUS
62
3
100
AcDbCircle
10
1445.770000000000
20
368.430000000000
30
0.0
40
0.999999984825
100
AcDbArc
50
90.000000000000
51
168.690628051758
0
ARC
5
7a8
100
AcDbEntity
8
0-000
6
CONTINUOUS
62
3
100
AcDbCircle
10
1445.770000000000
20
368.430000000000
30
0.0
40
1.999999969650
100
AcDbArc
50
90.000000000000
51
168.690628051758
0
ARC
5
7a9
100
AcDbEntity
8
0-000
6
CONTINUOUS
62
3
100
AcDbCircle
10
1438.310000000000
20
346.430000000000
30
0.0
40
0.999999984825
100
AcDbArc
50
270.000000000000
51
348.690628051758
0
ARC
5
7aa
100
AcDbEntity
8
0-000
6
CONTINUOUS
62
3
100
AcDbCircle
10
1438.310000000000
20
346.430000000000
30
0.0
40
1.999999969650
100
AcDbArc
50
270.000000000000
51
348.690628051758
0
ARC
5
7ab
100
AcDbEntity
8
0-000
6
CONTINUOUS
62
3
100
AcDbCircle
10
1392.490000000000
20
368.430000000000
30
0.0
40
0.999999984825
100
AcDbArc
50
11.309371948242
51
90.000000000000
0
ARC
5
7ac
100
AcDbEntity
8
0-000
6
CONTINUOUS
62
3
100
AcDbCircle
10
1392.490000000000
20
368.430000000000
30
0.0
40
1.999999969650
100
AcDbArc
50
11.309371948242
51
90.000000000000
0
ARC
5
7ad
100
AcDbEntity
8
0-000
6
CONTINUOUS
62
3
100
AcDbCircle
10
1399.950000000000
20
346.430000000000
30
0.0
40
0.999999984825
100
AcDbArc
50
191.309371948242
51
270.000000000000
0
ARC
5
7ae
100
AcDbEntity
8
0-000
6
CONTINUOUS
62
3
100
AcDbCircle
10
1399.950000000000
20
346.430000000000
30
0.0
40
1.999999969650
100
AcDbArc
50
191.309371948242
51
270.000000000000
0
ARC
5
7af
100
AcDbEntity
8
0-000
6
CONTINUOUS
62
3
100
AcDbCircle
10
1445.770000000000
20
368.430000000000
30
0.0
40
0.999999984825
100
AcDbArc
50
90.000000000000
51
168.690628051758
0
ARC
5
7b0
100
AcDbEntity
8
0-000
6
CONTINUOUS
62
3
100
AcDbCircle
10
1445.770000000000
20
368.430000000000
30
0.0
40
1.999999969650
100
AcDbArc
50
90.000000000000
51
168.690628051758
0
ARC
5
7b1
100
AcDbEntity
8
0-000
6
CONTINUOUS
62
3
100
AcDbCircle
10
1438.310000000000
20
346.430000000000
30
0.0
40
0.999999984825
100
AcDbArc
50
270.000000000000
51
348.690628051758
0
ARC
5
7b2
100
AcDbEntity
8
0-000
6
CONTINUOUS
62
3
100
AcDbCircle
10
1438.310000000000
20
346.430000000000
30
0.0
40
1.999999969650
100
AcDbArc
50
270.000000000000
51
348.690628051758
0
ARC
5
7b3
100
AcDbEntity
8
0-000
6
CONTINUOUS
62
3
100
AcDbCircle
10
1355.770000000000
20
368.430000000000
30
0.0
40
0.999999984825
100
AcDbArc
50
90.000000000000
51
168.690628051758
0
ARC
5
7b4
100
AcDbEntity
8
0-000
6
CONTINUOUS
62
3
100
AcDbCircle
10
1355.770000000000
20
368.430000000000
30
0.0
40
1.999999969650
100
AcDbArc
50
90.000000000000
51
168.690628051758
0
ARC
5
7b5
100
AcDbEntity
8
0-000
6
CONTINUOUS
62
3
100
AcDbCircle
10
1392.490000000000
20
368.430000000000
30
0.0
40
3.000000148017
100
AcDbArc
50
11.309371948242
51
90.000000000000
0
ARC
5
7b6
100
AcDbEntity
8
0-000
6
CONTINUOUS
62
3
100
AcDbCircle
10
1392.490000000000
20
368.430000000000
30
0.0
40
3.999999939299
100
AcDbArc
50
11.309371948242
51
90.000000000000
0
ARC
5
7b7
100
AcDbEntity
8
0-000
6
CONTINUOUS
62
3
100
AcDbCircle
10
1401.590000000000
20
348.430000000000
30
0.0
40
0.999999984825
100
AcDbArc
50
191.309371948242
51
270.000000000000
0
ARC
5
7b8
100
AcDbEntity
8
0-000
6
CONTINUOUS
62
3
100
AcDbCircle
10
1401.590000000000
20
348.430000000000
30
0.0
40
1.999999969650
100
AcDbArc
50
191.309371948242
51
270.000000000000
0
ARC
5
7b9
100
AcDbEntity
8
0-000
6
CONTINUOUS
62
3
100
AcDbCircle
10
1355.770000000000
20
368.430000000000
30
0.0
40
3.000000148017
100
AcDbArc
50
90.000000000000
51
168.690628051758
0
ARC
5
7ba
100
AcDbEntity
8
0-000
6
CONTINUOUS
62
3
100
AcDbCircle
10
1355.770000000000
20
368.430000000000
30
0.0
40
3.999999939299
100
AcDbArc
50
90.000000000000
51
168.690628051758
0
ARC
5
7bb
100
AcDbEntity
8
0-000
6
CONTINUOUS
62
3
100
AcDbCircle
10
1347.910000000000
20
344.430000000000
30
0.0
40
0.999999984825
100
AcDbArc
50
270.000000000000
51
348.690628051758
0
ARC
5
7bc
100
AcDbEntity
8
0-000
6
CONTINUOUS
62
3
100
AcDbCircle
10
1347.910000000000
20
344.430000000000
30
0.0
40
1.999999969650
100
AcDbArc
50
270.000000000000
51
348.690628051758
0
ARC
5
7bd
100
AcDbEntity
8
0-000
6
CONTINUOUS
62
3
100
AcDbCircle
10
1346.270000000000
20
346.430000000000
30
0.0
40
0.999999984825
100
AcDbArc
50
270.000000000000
51
348.690628051758
0
ARC
5
7be
100
AcDbEntity
8
0-000
6
CONTINUOUS
62
3
100
AcDbCircle
10
1346.270000000000
20
346.430000000000
30
0.0
40
1.999999969650
100
AcDbArc
50
270.000000000000
51
348.690628051758
0
ARC
5
7bf
100
AcDbEntity
8
0-000
6
CONTINUOUS
62
3
100
AcDbCircle
10
1482.490000000000
20
368.430000000000
30
0.0
40
0.999999984825
100
AcDbArc
50
11.309371948242
51
90.000000000000
0
ARC
5
7c0
100
AcDbEntity
8
0-000
6
CONTINUOUS
62
3
100
AcDbCircle
10
1482.490000000000
20
368.430000000000
30
0.0
40
1.999999969650
100
AcDbArc
50
11.309371948242
51
90.000000000000
0
ARC
5
7c1
100
AcDbEntity
8
0-000
6
CONTINUOUS
62
3
100
AcDbCircle
10
1482.490000000000
20
368.430000000000
30
0.0
40
0.999999984825
100
AcDbArc
50
11.309371948242
51
90.000000000000
0
ARC
5
7c2
100
AcDbEntity
8
0-000
6
CONTINUOUS
62
3
100
AcDbCircle
10
1482.490000000000
20
368.430000000000
30
0.0
40
1.999999969650
100
AcDbArc
50
11.309371948242
51
90.000000000000
0
ARC
5
7c3
100
AcDbEntity
8
0-000
6
CONTINUOUS
62
3
100
AcDbCircle
10
1489.950000000000
20
346.430000000000
30
0.0
40
0.999999984825
100
AcDbArc
50
191.309371948242
51
270.000000000000
0
ARC
5
7c4
100
AcDbEntity
8
0-000
6
CONTINUOUS
62
3
100
AcDbCircle
10
1489.950000000000
20
346.430000000000
30
0.0
40
1.999999969650
100
AcDbArc
50
191.309371948242
51
270.000000000000
0
ARC
5
7c5
100
AcDbEntity
8
0-000
6
CONTINUOUS
62
3
100
AcDbCircle
10
1302.490000000000
20
368.430000000000
30
0.0
40
0.999999984825
100
AcDbArc
50
11.309371948242
51
90.000000000000
0
ARC
5
7c6
100
AcDbEntity
8
0-000
6
CONTINUOUS
62
3
100
AcDbCircle
10
1302.490000000000
20
368.430000000000
30
0.0
40
1.999999969650
100
AcDbArc
50
11.309371948242
51
90.000000000000
0
ARC
5
7c7
100
AcDbEntity
8
0-000
6
CONTINUOUS
62
3
100
AcDbCircle
10
1302.490000000000
20
368.430000000000
30
0.0
40
0.999999984825
100
AcDbArc
50
11.309371948242
51
90.000000000000
0
ARC
5
7c8
100
AcDbEntity
8
0-000
6
CONTINUOUS
62
3
100
AcDbCircle
10
1302.490000000000
20
368.430000000000
30
0.0
40
1.999999969650
100
AcDbArc
50
11.309371948242
51
90.000000000000
0
ARC
5
7c9
100
AcDbEntity
8
0-000
6
CONTINUOUS
62
3
100
AcDbCircle
10
1309.950000000000
20
346.430000000000
30
0.0
40
0.999999984825
100
AcDbArc
50
191.308822631836
51
270.000000000000
0
ARC
5
7ca
100
AcDbEntity
8
0-000
6
CONTINUOUS
62
3
100
AcDbCircle
10
1309.950000000000
20
346.430000000000
30
0.0
40
1.999999969650
100
AcDbArc
50
191.308822631836
51
270.000000000000
0
TEXT
5
7cb
100
AcDbEntity
8
0-202
62
7
100
AcDbText
10
531.856
20
74.854
30
0.0
40
5.850
1
変　　　　　　更　　　　　　記　　　　　　事
41
1.167
50
0.000
100
AcDbText
0
TEXT
5
7cc
100
AcDbEntity
8
0-202
62
7
100
AcDbText
10
815.591
20
74.054
30
0.0
40
5.850
1
受領　　日附
41
1.167
50
0.000
100
AcDbText
0
TEXT
5
7cd
100
AcDbEntity
8
0-202
62
7
100
AcDbText
10
1013.808
20
44.622
30
0.0
40
5.850
1
施工者
41
1.167
50
0.000
100
AcDbText
0
TEXT
5
7ce
100
AcDbEntity
8
0-202
62
7
100
AcDbText
10
1013.808
20
74.252
30
0.0
40
5.850
1
設計者
41
1.167
50
0.000
100
AcDbText
0
TEXT
5
7cf
100
AcDbEntity
8
0-202
62
7
100
AcDbText
10
1219.291
20
44.079
30
0.0
40
5.850
1
作図
41
1.167
50
0.000
100
AcDbText
0
TEXT
5
7d0
100
AcDbEntity
8
0-202
62
7
100
AcDbText
10
1291.118
20
44.610
30
0.0
40
5.850
1
図面名
41
1.167
50
0.000
100
AcDbText
0
TEXT
5
7d1
100
AcDbEntity
8
0-202
62
7
100
AcDbText
10
1219.291
20
73.709
30
0.0
40
5.850
1
日附
41
1.167
50
0.000
100
AcDbText
0
TEXT
5
7d2
100
AcDbEntity
8
0-202
62
7
100
AcDbText
10
1291.118
20
74.239
30
0.0
40
5.850
1
工事件名
41
1.167
50
0.000
100
AcDbText
0
TEXT
5
7d3
100
AcDbEntity
8
0-202
62
7
100
AcDbText
10
1241.427
20
73.457
30
0.0
40
5.850
1
年　月　日
41
1.167
50
0.000
100
AcDbText
0
TEXT
5
7d4
100
AcDbEntity
8
0-202
62
7
100
AcDbText
10
1241.427
20
43.828
30
0.0
40
5.850
1
年　月　日
41
1.167
50
0.000
100
AcDbText
0
TEXT
5
7d5
100
AcDbEntity
8
0-202
62
7
100
AcDbText
10
1543.461
20
74.239
30
0.0
40
5.850
1
設計番号
41
1.167
50
0.000
100
AcDbText
0
TEXT
5
7d6
100
AcDbEntity
8
0-202
62
7
100
AcDbText
10
386.778
20
67.470
30
0.0
40
5.850
1
. 　.　 
41
1.167
50
0.000
100
AcDbText
0
TEXT
5
7d7
100
AcDbEntity
8
0-202
62
7
100
AcDbText
10
386.778
20
57.594
30
0.0
40
5.850
1
. 　.　 
41
1.167
50
0.000
100
AcDbText
0
TEXT
5
7d8
100
AcDbEntity
8
0-202
62
7
100
AcDbText
10
386.778
20
47.717
30
0.0
40
5.850
1
. 　.　 
41
1.167
50
0.000
100
AcDbText
0
TEXT
5
7d9
100
AcDbEntity
8
0-202
62
7
100
AcDbText
10
386.778
20
37.840
30
0.0
40
5.850
1
. 　.　 
41
1.167
50
0.000
100
AcDbText
0
TEXT
5
7da
100
AcDbEntity
8
0-202
62
7
100
AcDbText
10
386.778
20
27.963
30
0.0
40
5.850
1
. 　.　 
41
1.167
50
0.000
100
AcDbText
0
TEXT
5
7db
100
AcDbEntity
8
0-202
62
3
100
AcDbText
10
1034.071
20
61.176
30
0.0
40
7.800
1
　　　　　　　　　　
41
1.125
50
0.000
100
AcDbText
0
TEXT
5
7dc
100
AcDbEntity
8
0-202
62
3
100
AcDbText
10
1034.071
20
31.546
30
0.0
40
7.800
1
　　　　　　　　　　
41
1.125
50
0.000
100
AcDbText
0
TEXT
5
7dd
100
AcDbEntity
8
0-202
62
3
100
AcDbText
10
1317.534
20
62.723
30
0.0
40
7.800
1
　　　　　　　　　　　　　
41
1.125
50
0.000
100
AcDbText
0
TEXT
5
7de
100
AcDbEntity
8
0-202
62
7
100
AcDbText
10
377.806
20
74.789
30
0.0
40
5.850
1
年　月　日
41
1.167
50
0.000
100
AcDbText
0
TEXT
5
7df
100
AcDbEntity
8
0-202
62
7
100
AcDbText
10
872.762
20
73.470
30
0.0
40
5.850
1
年　　月　　日
41
1.167
50
0.000
100
AcDbText
0
TEXT
5
7e0
100
AcDbEntity
8
0-202
62
7
100
AcDbText
10
885.314
20
63.047
30
0.0
40
5.850
1
.　 　.
41
1.167
50
0.000
100
AcDbText
0
TEXT
5
7e1
100
AcDbEntity
8
0-202
62
7
100
AcDbText
10
815.591
20
44.425
30
0.0
40
5.850
1
受領　　日附
41
1.167
50
0.000
100
AcDbText
0
TEXT
5
7e2
100
AcDbEntity
8
0-202
62
7
100
AcDbText
10
872.762
20
43.840
30
0.0
40
5.850
1
年　　月　　日
41
1.167
50
0.000
100
AcDbText
0
TEXT
5
7e3
100
AcDbEntity
8
0-202
62
7
100
AcDbText
10
885.314
20
33.418
30
0.0
40
5.850
1
.　 　.
41
1.167
50
0.000
100
AcDbText
0
TEXT
5
7e4
100
AcDbEntity
8
0-202
62
7
100
AcDbText
10
1248.199
20
61.334
30
0.0
40
5.850
1
.　　.　
41
1.167
50
0.000
100
AcDbText
0
TEXT
5
7e5
100
AcDbEntity
8
0-202
62
7
100
AcDbText
10
1543.461
20
44.610
30
0.0
40
5.850
1
縮　尺
41
1.167
50
0.000
100
AcDbText
0
TEXT
5
7e6
100
AcDbEntity
8
0-202
62
3
100
AcDbText
10
166.356
20
27.570
30
0.0
40
7.800
1
電話（０５４）２６３－２２８０（代表）
41
1.125
50
0.000
100
AcDbText
0
TEXT
5
7e7
100
AcDbEntity
8
0-202
62
6
100
AcDbText
10
122.146
20
58.763
30
0.0
40
15.600
1
小　池　弥　太　郎　商　店
41
1.125
50
0.000
100
AcDbText
0
TEXT
5
7e8
100
AcDbEntity
8
0-202
62
3
100
AcDbText
10
166.352
20
42.403
30
0.0
40
7.800
1
静岡県静岡市葵区流通センター１６番
41
1.125
50
0.000
100
AcDbText
0
TEXT
5
7e9
100
AcDbEntity
8
0-202
62
7
100
AcDbText
10
99.901
20
67.352
30
0.0
40
5.850
1
株
41
1.167
50
0.000
100
AcDbText
0
TEXT
5
7ea
100
AcDbEntity
8
0-202
62
7
100
AcDbText
10
107.051
20
60.102
30
0.0
40
5.850
1
社
41
1.167
50
0.000
100
AcDbText
0
TEXT
5
7eb
100
AcDbEntity
8
0-202
62
7
100
AcDbText
10
99.851
20
60.102
30
0.0
40
5.850
1
会
41
1.167
50
0.000
100
AcDbText
0
TEXT
5
7ec
100
AcDbEntity
8
0-202
62
7
100
AcDbText
10
106.651
20
67.152
30
0.0
40
5.850
1
式
41
1.167
50
0.000
100
AcDbText
0
TEXT
5
7ed
100
AcDbEntity
8
0-202
62
6
100
AcDbText
10
1274.221
20
1110.534
30
0.0
40
15.600
1
製　品　名
41
1.125
50
0.000
100
AcDbText
0
TEXT
5
7ee
100
AcDbEntity
8
0-202
62
6
100
AcDbText
10
1274.221
20
1060.534
30
0.0
40
15.600
1
各種鋼板　０.５ｍｍ ～ １.２ｍｍ
41
1.125
50
0.000
100
AcDbText
0
TEXT
5
7ef
100
AcDbEntity
8
0-202
62
6
100
AcDbText
10
1274.221
20
1035.534
30
0.0
40
15.600
1
板幅　：　６３０ｍｍ
41
1.125
50
0.000
100
AcDbText
0
TEXT
5
7f0
100
AcDbEntity
8
0-000
62
2
100
AcDbText
10
472.344
20
820.127
30
0.0
40
11.700
1
50
41
1.167
50
0.000
100
AcDbText
0
TEXT
5
7f1
100
AcDbEntity
8
0-000
62
2
100
AcDbText
10
517.344
20
820.127
30
0.0
40
11.700
1
40
41
1.167
50
0.000
100
AcDbText
0
TEXT
5
7f2
100
AcDbEntity
8
0-000
62
2
100
AcDbText
10
562.344
20
820.127
30
0.0
40
11.700
1
50
41
1.167
50
0.000
100
AcDbText
0
TEXT
5
7f3
100
AcDbEntity
8
0-000
62
2
100
AcDbText
10
472.344
20
895.733
30
0.0
40
11.700
1
40
41
1.167
50
0.000
100
AcDbText
0
TEXT
5
7f4
100
AcDbEntity
8
0-000
62
2
100
AcDbText
10
517.344
20
895.733
30
0.0
40
11.700
1
50
41
1.167
50
0.000
100
AcDbText
0
TEXT
5
7f5
100
AcDbEntity
8
0-000
62
2
100
AcDbText
10
562.344
20
895.733
30
0.0
40
11.700
1
40
41
1.167
50
0.000
100
AcDbText
0
TEXT
5
7f6
100
AcDbEntity
8
0-000
62
6
100
AcDbText
10
735.594
20
645.733
30
0.0
40
15.600
1
630
41
1.125
50
0.000
100
AcDbText
0
TEXT
5
7f7
100
AcDbEntity
8
0-000
62
6
100
AcDbText
10
690.594
20
395.733
30
0.0
40
15.600
1
540
41
1.125
50
0.000
100
AcDbText
0
TEXT
5
7f8
100
AcDbEntity
8
0-000
62
6
100
AcDbText
10
266.963
20
643.733
30
0.0
40
15.600
1
（重ね無し）
41
1.125
50
0.000
100
AcDbText
0
TEXT
5
7f9
100
AcDbEntity
8
0-000
62
6
100
AcDbText
10
266.963
20
393.733
30
0.0
40
15.600
1
（１山重ね）
41
1.125
50
0.000
100
AcDbText
0
TEXT
5
7fa
100
AcDbEntity
8
0-202
62
3
100
AcDbText
10
1566.700
20
40.449
30
0.0
40
7.800
1
Ａ１－１／２　
41
1.125
50
0.000
100
AcDbText
0
TEXT
5
7fb
100
AcDbEntity
8
0-202
62
3
100
AcDbText
10
1566.700
20
25.634
30
0.0
40
7.800
1
Ａ３－１／４　
41
1.125
50
0.000
100
AcDbText
0
TEXT
5
7fc
100
AcDbEntity
8
0-000
62
2
100
AcDbText
10
1322.883
20
645.430
30
0.0
40
11.700
1
40
41
1.167
50
0.000
100
AcDbText
0
TEXT
5
7fd
100
AcDbEntity
8
0-000
62
2
100
AcDbText
10
1367.883
20
645.430
30
0.0
40
11.700
1
50
41
1.167
50
0.000
100
AcDbText
0
TEXT
5
7fe
100
AcDbEntity
8
0-000
62
2
100
AcDbText
10
1367.883
20
567.430
30
0.0
40
11.700
1
40
41
1.167
50
0.000
100
AcDbText
0
TEXT
5
7ff
100
AcDbEntity
8
0-000
62
2
100
AcDbText
10
1412.883
20
567.430
30
0.0
40
11.700
1
50
41
1.167
50
0.000
100
AcDbText
0
TEXT
5
800
100
AcDbEntity
8
0-000
62
2
100
AcDbText
10
1367.883
20
399.430
30
0.0
40
11.700
1
40
41
1.167
50
0.000
100
AcDbText
0
TEXT
5
801
100
AcDbEntity
8
0-000
62
2
100
AcDbText
10
1412.883
20
399.430
30
0.0
40
11.700
1
50
41
1.167
50
0.000
100
AcDbText
0
TEXT
5
802
100
AcDbEntity
8
0-000
62
2
100
AcDbText
10
1322.883
20
321.430
30
0.0
40
11.700
1
40
41
1.167
50
0.000
100
AcDbText
0
TEXT
5
803
100
AcDbEntity
8
0-000
62
2
100
AcDbText
10
1367.883
20
321.430
30
0.0
40
11.700
1
50
41
1.167
50
0.000
100
AcDbText
0
TEXT
5
804
100
AcDbEntity
8
0-202
62
6
100
AcDbText
10
1274.221
20
1085.534
30
0.0
40
15.600
1
キーストンプレート
41
1.125
50
0.000
100
AcDbText
0
TEXT
5
805
100
AcDbEntity
8
0-000
62
6
100
AcDbText
10
266.963
20
938.733
30
0.0
40
15.600
1
キーストンプレート
41
1.125
50
0.000
100
AcDbText
0
TEXT
5
806
100
AcDbEntity
8
0-000
62
6
100
AcDbText
10
266.963
20
668.733
30
0.0
40
15.600
1
キーストンプレート
41
1.125
50
0.000
100
AcDbText
0
TEXT
5
807
100
AcDbEntity
8
0-000
62
6
100
AcDbText
10
266.963
20
418.733
30
0.0
40
15.600
1
キーストンプレート
41
1.125
50
0.000
100
AcDbText
0
TEXT
5
808
100
AcDbEntity
8
0-202
62
3
100
AcDbText
10
1317.534
20
33.093
30
0.0
40
7.800
1
キーストンプレート　断面図
41
1.125
50
0.000
100
AcDbText
0
TEXT
5
809
100
AcDbEntity
8
0-202
62
2
100
AcDbText
10
1557.079
20
59.689
30
0.0
40
9.750
1
KW-630-01A
41
1.100
50
0.000
100
AcDbText
0
TEXT
5
80a
100
AcDbEntity
8
0-000
62
2
100
AcDbText
10
611.594
20
849.680
30
0.0
40
11.700
1
24
41
1.167
50
90.000
100
AcDbText
0
TEXT
5
80b
100
AcDbEntity
8
0-000
62
2
100
AcDbText
10
429.094
20
819.127
30
0.0
40
11.700
1
36
41
1.167
50
0.000
100
AcDbText
0
TEXT
5
80c
100
AcDbEntity
8
0-000
62
2
100
AcDbText
10
1055.344
20
819.127
30
0.0
40
11.700
1
36
41
1.167
50
0.000
100
AcDbText
0
TEXT
5
80d
100
AcDbEntity
8
0-000
62
2
100
AcDbText
10
1282.133
20
599.680
30
0.0
40
11.700
1
24
41
1.167
50
90.000
100
AcDbText
0
TEXT
5
80e
100
AcDbEntity
8
0-000
62
2
100
AcDbText
10
1523.133
20
351.680
30
0.0
40
11.700
1
24
41
1.167
50
90.000
100
AcDbText
0
TEXT
5
80f
100
AcDbEntity
8
0-000
62
6
100
AcDbText
10
735.594
20
915.733
30
0.0
40
15.600
1
663
41
1.125
50
0.000
100
AcDbText
0
TEXT
5
810
100
AcDbEntity
8
0-202
62
6
100
AcDbText
10
1274.221
20
1010.534
30
0.0
40
15.600
1
原板幅：　８７５ｍｍ
41
1.125
50
0.000
100
AcDbText
0
TEXT
5
811
100
AcDbEntity
8
0-202
62
7
100
AcDbText
10
1222.482
20
30.668
30
0.0
40
5.850
1
MA 2021-08-26
41
1.167
50
0.000
100
AcDbText
0
POINT
5
812
100
AcDbEntity
8
0-202
62
3
100
AcDbPoint
10
54.760000000000
20
1143.640000000000
30
0.0
0
POINT
5
813
100
AcDbEntity
8
0-202
62
3
100
AcDbPoint
10
54.760000000000
20
1143.640000000000
30
0.0
0
POINT
5
814
100
AcDbEntity
8
0-000
62
3
100
AcDbPoint
10
417.590000000000
20
818.130000000000
30
0.0
0
POINT
5
815
100
AcDbEntity
8
0-000
62
3
100
AcDbPoint
10
453.590000000000
20
818.130000000000
30
0.0
0
POINT
5
816
100
AcDbEntity
8
0-000
62
3
100
AcDbPoint
10
503.590000000000
20
818.130000000000
30
0.0
0
POINT
5
817
100
AcDbEntity
8
0-000
62
3
100
AcDbPoint
10
543.590000000000
20
818.130000000000
30
0.0
0
POINT
5
818
100
AcDbEntity
8
0-000
62
3
100
AcDbPoint
10
593.590000000000
20
818.130000000000
30
0.0
0
POINT
5
819
100
AcDbEntity
8
0-000
62
3
100
AcDbPoint
10
613.590000000000
20
843.430000000000
30
0.0
0
POINT
5
81a
100
AcDbEntity
8
0-000
62
3
100
AcDbPoint
10
613.590000000000
20
868.430000000000
30
0.0
0
POINT
5
81b
100
AcDbEntity
8
0-000
62
3
100
AcDbPoint
10
1043.590000000000
20
818.130000000000
30
0.0
0
POINT
5
81c
100
AcDbEntity
8
0-000
62
3
100
AcDbPoint
10
1080.090000000000
20
818.130000000000
30
0.0
0
POINT
5
81d
100
AcDbEntity
8
0-000
62
3
100
AcDbPoint
10
458.590000000000
20
893.730000000000
30
0.0
0
POINT
5
81e
100
AcDbEntity
8
0-000
62
3
100
AcDbPoint
10
548.590000000000
20
893.730000000000
30
0.0
0
POINT
5
81f
100
AcDbEntity
8
0-000
62
3
100
AcDbPoint
10
588.590000000000
20
893.730000000000
30
0.0
0
POINT
5
820
100
AcDbEntity
8
0-000
62
3
100
AcDbPoint
10
498.590000000000
20
893.730000000000
30
0.0
0
POINT
5
821
100
AcDbEntity
8
0-000
62
3
100
AcDbPoint
10
433.590000000000
20
643.730000000000
30
0.0
0
POINT
5
822
100
AcDbEntity
8
0-000
62
3
100
AcDbPoint
10
1063.590000000000
20
643.730000000000
30
0.0
0
POINT
5
823
100
AcDbEntity
8
0-000
62
3
100
AcDbPoint
10
433.590000000000
20
393.730000000000
30
0.0
0
POINT
5
824
100
AcDbEntity
8
0-000
62
3
100
AcDbPoint
10
973.590000000000
20
393.730000000000
30
0.0
0
POINT
5
825
100
AcDbEntity
8
0-000
62
3
100
AcDbPoint
10
417.590000000000
20
913.730000000000
30
0.0
0
POINT
5
826
100
AcDbEntity
8
0-000
62
3
100
AcDbPoint
10
1080.090000000000
20
913.730000000000
30
0.0
0
POINT
5
827
100
AcDbEntity
8
0-000
62
3
100
AcDbPoint
10
1309.130000000000
20
643.430000000000
30
0.0
0
POINT
5
828
100
AcDbEntity
8
0-000
62
3
100
AcDbPoint
10
1349.130000000000
20
643.430000000000
30
0.0
0
POINT
5
829
100
AcDbEntity
8
0-000
62
3
100
AcDbPoint
10
1399.130000000000
20
643.430000000000
30
0.0
0
POINT
5
82a
100
AcDbEntity
8
0-000
62
3
100
AcDbPoint
10
1354.130000000000
20
565.430000000000
30
0.0
0
POINT
5
82b
100
AcDbEntity
8
0-000
62
3
100
AcDbPoint
10
1394.130000000000
20
565.430000000000
30
0.0
0
POINT
5
82c
100
AcDbEntity
8
0-000
62
3
100
AcDbPoint
10
1444.130000000000
20
565.430000000000
30
0.0
0
POINT
5
82d
100
AcDbEntity
8
0-000
62
3
100
AcDbPoint
10
1354.130000000000
20
397.430000000000
30
0.0
0
POINT
5
82e
100
AcDbEntity
8
0-000
62
3
100
AcDbPoint
10
1394.130000000000
20
397.430000000000
30
0.0
0
POINT
5
82f
100
AcDbEntity
8
0-000
62
3
100
AcDbPoint
10
1444.130000000000
20
397.430000000000
30
0.0
0
POINT
5
830
100
AcDbEntity
8
0-000
62
3
100
AcDbPoint
10
1309.130000000000
20
319.430000000000
30
0.0
0
POINT
5
831
100
AcDbEntity
8
0-000
62
3
100
AcDbPoint
10
1349.130000000000
20
319.430000000000
30
0.0
0
POINT
5
832
100
AcDbEntity
8
0-000
62
3
100
AcDbPoint
10
1399.130000000000
20
319.430000000000
30
0.0
0
POINT
5
833
100
AcDbEntity
8
0-000
62
3
100
AcDbPoint
10
1284.130000000000
20
593.430000000000
30
0.0
0
POINT
5
834
100
AcDbEntity
8
0-000
62
3
100
AcDbPoint
10
1284.130000000000
20
618.430000000000
30
0.0
0
POINT
5
835
100
AcDbEntity
8
0-000
62
3
100
AcDbPoint
10
1509.130000000000
20
345.430000000000
30
0.0
0
POINT
5
836
100
AcDbEntity
8
0-000
62
3
100
AcDbPoint
10
1509.130000000000
20
370.430000000000
30
0.0
0
ENDSEC
0
EOF
