0
SECTION
2
HEADER
9
$ACADVER
1
AC1015
9
$ACADMAINTVER
 70
6
9
$DWGCODEPAGE
3
ANSI_932
9
$EXTMIN
10
0.000
20
0.000
30
0.0
9
$EXTMAX
10
1682.000
20
1188.000
30
0.0
9
$LIMMIN
10
0.000
20
0.000
9
$LIMMAX
10
1682.000
20
1188.000
9
$DIMSCALE
40
2.000000
9
$LTSCALE
40
2.000
9
$PDMODE
70
0
9
$PDSIZE
40
40.0
9
$HANDSEED
5
61c84
9
$UNITMODE
70
0
9
$VISRETAIN
70
0
9
$PLINEGEN
70
0
9
$PSLTSCALE
70
1
9
$TREEDEPTH
70
3020
9
$CMLSTYLE
2
STANDARD
9
$CMLJUST
70
0
9
$CMLSCALE
40
1.0
9
$PROXYGRAPHICS
70
1
9
$MEASUREMENT
70
0
9
$CELWEIGHT
370
-1
9
$ENDCAPS
280
0
9
$JOINSTYLE
280
0
9
$LWDISPLAY
290
0
9
$INSUNITS
70
0
9
$HYPERLINKBASE
1

9
$STYLESHEET
1

9
$XEDIT
290
1
9
$CEPSNTYPE
380
0
9
$PSTYLEMODE
290
1
9
$FINGERPRINTGUID
2
{5F082321-0195-11D3-BDFB-0060B0CD5109}
9
$VERSIONGUID
2
{12943756-294D-11D3-98C2-0060B087942D}
9
$EXTNAMES
290
1
9
$PSVPSCALE
40
0.0
9
$OLESTARTUP
290
0
0
ENDSEC
0
SECTION
  2
CLASSES
0
ENDSEC
0
SECTION
2
TABLES
0
TABLE
2
VPORT
5
190
100
AcDbSymbolTable
70
2
0
VPORT
5
191
100
AcDbSymbolTableRecord
100
AcDbViewportTableRecord
2
*ACTIVE
70
0
10
0.0
20
0.0
11
1.0
21
1.0
12
841.000
22
594.000
13
0.0
23
0.0
14
1.0
24
1.0
15
0.0
25
0.0
16
0.0
26
0.0
36
1.0
17
0.0
27
0.0
37
0.0
40
1218.841
41
2.0
42
50.0
43
0.0
44
0.0
50
0.0
51
0.0
71
0
72
1000
73
1
74
1
75
0
76
0
77
0
78
0
0
ENDTAB
0
TABLE
2
LTYPE
5
1f4
100
AcDbSymbolTable
70
9
0
LTYPE
5
1f5
100
AcDbSymbolTableRecord
100
AcDbLinetypeTableRecord
2
BYBLOCK
70
 64
3

72
 65
73
  0
40
0.0
0
LTYPE
5
1f6
100
AcDbSymbolTableRecord
100
AcDbLinetypeTableRecord
2
BYLAYER
70
 64
3

72
 65
73
  0
40
0.0
0
LTYPE
5
1f7
100
AcDbSymbolTableRecord
100
AcDbLinetypeTableRecord
2
CONTINUOUS
70
64
3
SolidLine
72
65
73
0
40
0.0
0
LTYPE
5
1f8
100
AcDbSymbolTableRecord
100
AcDbLinetypeTableRecord
2
DOT
70
64
3
--  --  --  --  --  --  --  --     
72
65
73
2
40
3.000
49
1.000
74
0
49
-2.000
74
0
0
LTYPE
5
1f9
100
AcDbSymbolTableRecord
100
AcDbLinetypeTableRecord
2
DASHED
70
64
3
----    ----    ----    ----    
72
65
73
2
40
5.000
49
2.000
74
0
49
-3.000
74
0
0
LTYPE
5
1fa
100
AcDbSymbolTableRecord
100
AcDbLinetypeTableRecord
2
DASHED2
70
64
3
------  ------  ------  ------ 
72
65
73
2
40
10.000
49
4.000
74
0
49
-6.000
74
0
0
LTYPE
5
1fb
100
AcDbSymbolTableRecord
100
AcDbLinetypeTableRecord
2
CENTER
70
64
3
----- - ----- - ----- - ----- - 
72
65
73
4
40
10.000
49
6.000
74
0
49
-3.000
74
0
49
1.000
74
0
49
-3.000
74
0
0
LTYPE
5
1fc
100
AcDbSymbolTableRecord
100
AcDbLinetypeTableRecord
2
CENTER2
70
64
3
----------  --  ----------  -- 
72
65
73
4
40
17.000
49
12.000
74
0
49
-5.000
74
0
49
2.000
74
0
49
-5.000
74
0
0
LTYPE
5
1fd
100
AcDbSymbolTableRecord
100
AcDbLinetypeTableRecord
2
PHANTOM
70
64
3
--- - - --- - - --- - - --- - -
72
65
73
6
40
13.000
49
5.000
74
0
49
-3.000
74
0
49
1.000
74
0
49
-3.000
74
0
49
1.000
74
0
49
-3.000
74
0
0
LTYPE
5
1fe
100
AcDbSymbolTableRecord
100
AcDbLinetypeTableRecord
2
PHANTOM2
70
64
3
--------  -  -  --------  -  -
72
65
73
6
40
20.000
49
6.000
74
0
49
-5.000
74
0
49
2.000
74
0
49
-5.000
74
0
49
2.000
74
0
49
-5.000
74
0
0
LTYPE
5
1ff
100
AcDbSymbolTableRecord
100
AcDbLinetypeTableRecord
2
HIDDEN
70
64
3
-   -   -   -   -   -   -   -   
72
65
73
2
40
3.000
49
0.500
74
0
49
-2.500
74
0
0
ENDTAB
0
TABLE
2
STYLE
5
200
100
AcDbSymbolTable
70
1
0
STYLE
5
201
100
AcDbSymbolTableRecord
100
AcDbTextStyleTableRecord
2
STANDARD
70
0
40
0.0
41
1.0
50
0.0
71
0
42
0.0
3
txt.shx
4
extfont.shx
0
STYLE
5
202
100
AcDbSymbolTableRecord
100
AcDbTextStyleTableRecord
2
TATEGAKI
70
4
40
0.0
41
1.0
50
0.0
71
0
42
0.0
3
txt.shx
4
extfont.shx
0
STYLE
5
203
100
AcDbSymbolTableRecord
100
AcDbTextStyleTableRecord
2
DIM
70
0
40
0.0
41
0.75
50
0.0
71
0
42
0.0
3
txt.shx
4
extfont.shx
0
STYLE
5
204
100
AcDbSymbolTableRecord
100
AcDbTextStyleTableRecord
2
_Gothic_
70
0
40
1.0
41
1.0
50
0.0
71
0
42
10.0
3

4

1001
ACAD
1000
MS Gothic
1071
32817
0
STYLE
5
205
100
AcDbSymbolTableRecord
100
AcDbTextStyleTableRecord
2
_TateGothic_
70
4
40
0.0
41
1.0
50
0.0
71
0
42
0.0
3
@MS Gothic
4

0
ENDTAB
0
TABLE
2
VIEW
5
206
100
AcDbSymbolTable
70
0
0
ENDTAB
0
TABLE
2
UCS
5
207
100
AcDbSymbolTable
70
0
0
ENDTAB
0
TABLE
2
APPID
5
208
100
AcDbSymbolTable
70
1
0
APPID
5
209
100
AcDbSymbolTableRecord
100
AcDbRegAppTableRecord
2
ACAD
70
0
0
ENDTAB
0
TABLE
2
DIMSTYLE
5
403
330
0
100
AcDbSymbolTable
70
1
100
AcDbDimStyleTable
71
0
0
DIMSTYLE
105
404
330
402
100
AcDbSymbolTableRecord
100
AcDbDimStyleTableRecord
2
JAC_DIM
70
0
41
4.000
42
0.000
44
0.0
73
0
74
0
77
1
78
8
79
2
140
0.000
170
0
171
2
172
0
173
0
174
0
175
0
176
0
177
0
178
0
270
2
271
0
272
0
273
2
274
2
340
201
275
0
280
0
281
0
282
0
283
0
284
0
285
0
286
0
287
3
288
0
0
ENDTAB
0
TABLE
2
BLOCK_RECORD
5
405
100
AcDbSymbolTable
70
0
0
BLOCK_RECORD
5
406
100
AcDbSymbolTableRecord
100
AcDbBlockTableRecord
2
*MODEL_SPACE
0
BLOCK_RECORD
5
407
100
AcDbSymbolTableRecord
100
AcDbBlockTableRecord
2
*PAPER_SPACE
0
BLOCK_RECORD
5
408
100
AcDbSymbolTableRecord
100
AcDbBlockTableRecord
2
_JACCONVERT_
0
ENDTAB
0
TABLE
2
LAYER
5
409
100
AcDbSymbolTable
70
10
0
LAYER
5
40a
100
AcDbSymbolTableRecord
100
AcDbLayerTableRecord
2
0
70
0
62
7
6
CONTINUOUS
370
-3
390
14
0
LAYER
5
40b
100
AcDbSymbolTableRecord
100
AcDbLayerTableRecord
2
0-0
70
0
62
7
6
CONTINUOUS
370
-3
390
14
0
LAYER
5
40c
100
AcDbSymbolTableRecord
100
AcDbLayerTableRecord
2
F-E_J_ADD
70
0
62
-7
6
CONTINUOUS
290
0
370
-3
390
14
0
LAYER
5
40d
100
AcDbSymbolTableRecord
100
AcDbLayerTableRecord
2
F-F
70
0
62
7
6
CONTINUOUS
370
-3
390
14
0
ENDTAB
0
ENDSEC
0
SECTION
2
BLOCKS
0
BLOCK
5
40e
100
AcDbEntity
67
1
8
0
100
AcDbBlockBegin
2
*MODEL_SPACE
70
0
10
0.0
20
0.0
30
0.0
3
*MODEL_SPACE
1

0
ENDBLK
5
40f
100
AcDbEntity
8
0
100
AcDbBlockEnd
0
BLOCK
5
410
100
AcDbEntity
67
1
8
0
100
AcDbBlockBegin
2
*PAPER_SPACE
70
0
10
0.0
20
0.0
30
0.0
3
*PAPER_SPACE
1

0
ENDBLK
5
411
100
AcDbEntity
67
1
8
0
100
AcDbBlockEnd
0
BLOCK
5
412
100
AcDbEntity
8
0
100
AcDbBlockBegin
2
_JACCONVERT_
70
2
10
0.0
20
0.0
30
0.0
3
_JACCONVERT_
1
_JACCONVERT_
0
ATTDEF
5
413
100
AcDbEntity
8
0
62
0
100
AcDbText
10
0.0
20
0.0
30
0.0
40
1.0
1
User:460950EB0890EC0964308A
100
AcDbAttributeDefinition
3

2
USER
70
8
0
ATTDEF
5
414
100
AcDbEntity
8
0
62
0
100
AcDbText
10
0.0
20
2.0
30
0.0
40
1.0
1
Date:15/06/04 16:17
100
AcDbAttributeDefinition
3

2
REVDATE
70
8
0
ATTDEF
5
415
100
AcDbEntity
8
0
62
0
100
AcDbText
10
0.0
20
4.0
30
0.0
40
1.0
1
File:成型スレート小波　断面図.dxf
100
AcDbAttributeDefinition
3

2
FNAME
70
8
0
ATTDEF
5
416
100
AcDbEntity
8
0
62
0
100
AcDbText
10
0.0
20
6.0
30
0.0
40
1.0
1
JacConvert Version3.09 copyright (c) 2001-2013 K.Nakahara
100
AcDbAttributeDefinition
3

2
VER
70
8
0
ENDBLK
5
417
100
AcDbEntity
67
1
8
0
100
AcDbBlockEnd
0
ENDSEC
0
SECTION
2
ENTITIES
0
LINE
5
418
100
AcDbEntity
8
F-F
6
CONTINUOUS
62
2
100
AcDbLine
10
54.760000000000
20
23.630000000000
30
0.0
11
54.760000000000
21
1143.640000000000
31
0.0
0
LINE
5
419
100
AcDbEntity
8
F-F
6
CONTINUOUS
62
2
100
AcDbLine
10
1284.760000000000
20
82.890000000000
30
0.0
11
1284.760000000000
21
23.630000000000
31
0.0
0
LINE
5
41a
100
AcDbEntity
8
F-F
6
CONTINUOUS
62
2
100
AcDbLine
10
1214.540000000000
20
82.890000000000
30
0.0
11
1214.540000000000
21
23.630000000000
31
0.0
0
LINE
5
41b
100
AcDbEntity
8
F-F
6
CONTINUOUS
62
2
100
AcDbLine
10
1537.120000000000
20
23.630000000000
30
0.0
11
1537.120000000000
21
82.890000000000
31
0.0
0
LINE
5
41c
100
AcDbEntity
8
F-F
6
CONTINUOUS
62
2
100
AcDbLine
10
806.890000000000
20
82.890000000000
30
0.0
11
806.890000000000
21
23.630000000000
31
0.0
0
LINE
5
41d
100
AcDbEntity
8
F-F
6
CONTINUOUS
62
2
100
AcDbLine
10
1009.740000000000
20
82.890000000000
30
0.0
11
1009.740000000000
21
23.630000000000
31
0.0
0
LINE
5
41e
100
AcDbEntity
8
F-F
6
CONTINUOUS
62
2
100
AcDbLine
10
806.890000000000
20
63.140000000000
30
0.0
11
369.760000000000
21
63.140000000000
31
0.0
0
LINE
5
41f
100
AcDbEntity
8
F-F
6
CONTINUOUS
62
2
100
AcDbLine
10
806.890000000000
20
43.390000000000
30
0.0
11
369.760000000000
21
43.390000000000
31
0.0
0
LINE
5
420
100
AcDbEntity
8
F-F
6
CONTINUOUS
62
2
100
AcDbLine
10
806.890000000000
20
33.510000000000
30
0.0
11
369.760000000000
21
33.510000000000
31
0.0
0
LINE
5
421
100
AcDbEntity
8
F-F
6
CONTINUOUS
62
2
100
AcDbLine
10
806.890000000000
20
73.020000000000
30
0.0
11
369.760000000000
21
73.020000000000
31
0.0
0
LINE
5
422
100
AcDbEntity
8
F-F
6
CONTINUOUS
62
2
100
AcDbLine
10
422.420000000000
20
82.890000000000
30
0.0
11
422.420000000000
21
23.630000000000
31
0.0
0
LINE
5
423
100
AcDbEntity
8
F-F
6
CONTINUOUS
62
2
100
AcDbLine
10
369.760000000000
20
82.890000000000
30
0.0
11
369.760000000000
21
23.630000000000
31
0.0
0
LINE
5
424
100
AcDbEntity
8
F-F
6
CONTINUOUS
62
2
100
AcDbLine
10
1631.650000000000
20
23.630000000000
30
0.0
11
1631.650000000000
21
1143.640000000000
31
0.0
0
LINE
5
425
100
AcDbEntity
8
F-F
6
CONTINUOUS
62
2
100
AcDbLine
10
54.760000000000
20
1143.640000000000
30
0.0
11
1631.650000000000
21
1143.640000000000
31
0.0
0
LINE
5
426
100
AcDbEntity
8
F-F
6
CONTINUOUS
62
2
100
AcDbLine
10
54.760000000000
20
23.630000000000
30
0.0
11
1631.650000000000
21
23.630000000000
31
0.0
0
LINE
5
427
100
AcDbEntity
8
F-F
6
CONTINUOUS
62
2
100
AcDbLine
10
1631.650000000000
20
82.890000000000
30
0.0
11
54.760000000000
21
82.890000000000
31
0.0
0
LINE
5
428
100
AcDbEntity
8
F-F
6
CONTINUOUS
62
2
100
AcDbLine
10
369.760000000000
20
53.260000000000
30
0.0
11
1631.650000000000
21
53.260000000000
31
0.0
0
LINE
5
429
100
AcDbEntity
8
0-0
6
CONTINUOUS
62
7
100
AcDbLine
10
431.000000000000
20
594.330000000000
30
0.0
11
411.000000000000
21
594.330000000000
31
0.0
0
LINE
5
42a
100
AcDbEntity
8
0-0
6
CONTINUOUS
62
7
100
AcDbLine
10
482.800000000000
20
672.330000000000
30
0.0
11
482.800000000000
21
637.330000000000
31
0.0
0
LINE
5
42b
100
AcDbEntity
8
0-0
6
CONTINUOUS
62
3
100
AcDbLine
10
589.510000000000
20
598.330000000000
30
0.0
11
599.500000000000
21
606.330000000000
31
0.0
0
LINE
5
42c
100
AcDbEntity
8
0-0
6
CONTINUOUS
62
3
100
AcDbLine
10
588.710000000000
20
598.330000000000
30
0.0
11
598.700000000000
21
606.330000000000
31
0.0
0
LINE
5
42d
100
AcDbEntity
8
0-0
6
CONTINUOUS
62
3
100
AcDbLine
10
630.490000000000
20
598.330000000000
30
0.0
11
620.500000000000
21
606.330000000000
31
0.0
0
LINE
5
42e
100
AcDbEntity
8
0-0
6
CONTINUOUS
62
3
100
AcDbLine
10
631.290000000000
20
598.330000000000
30
0.0
11
621.300000000000
21
606.330000000000
31
0.0
0
LINE
5
42f
100
AcDbEntity
8
0-0
6
CONTINUOUS
62
3
100
AcDbLine
10
780.310000000000
20
598.330000000000
30
0.0
11
790.300000000000
21
606.330000000000
31
0.0
0
LINE
5
430
100
AcDbEntity
8
0-0
6
CONTINUOUS
62
3
100
AcDbLine
10
779.510000000000
20
598.330000000000
30
0.0
11
789.500000000000
21
606.330000000000
31
0.0
0
LINE
5
431
100
AcDbEntity
8
0-0
6
CONTINUOUS
62
3
100
AcDbLine
10
757.690000000000
20
598.330000000000
30
0.0
11
747.700000000000
21
606.330000000000
31
0.0
0
LINE
5
432
100
AcDbEntity
8
0-0
6
CONTINUOUS
62
3
100
AcDbLine
10
758.490000000000
20
598.330000000000
30
0.0
11
748.500000000000
21
606.330000000000
31
0.0
0
LINE
5
433
100
AcDbEntity
8
0-0
6
CONTINUOUS
62
3
100
AcDbLine
10
821.290000000000
20
598.330000000000
30
0.0
11
811.300000000000
21
606.330000000000
31
0.0
0
LINE
5
434
100
AcDbEntity
8
0-0
6
CONTINUOUS
62
3
100
AcDbLine
10
822.090000000000
20
598.330000000000
30
0.0
11
812.100000000000
21
606.330000000000
31
0.0
0
LINE
5
435
100
AcDbEntity
8
0-0
6
CONTINUOUS
62
3
100
AcDbLine
10
694.090000000000
20
598.330000000000
30
0.0
11
684.100000000000
21
606.330000000000
31
0.0
0
LINE
5
436
100
AcDbEntity
8
0-0
6
CONTINUOUS
62
3
100
AcDbLine
10
694.890000000000
20
598.330000000000
30
0.0
11
684.900000000000
21
606.330000000000
31
0.0
0
LINE
5
437
100
AcDbEntity
8
0-0
6
CONTINUOUS
62
3
100
AcDbLine
10
716.710000000000
20
598.330000000000
30
0.0
11
726.700000000000
21
606.330000000000
31
0.0
0
LINE
5
438
100
AcDbEntity
8
0-0
6
CONTINUOUS
62
3
100
AcDbLine
10
715.910000000000
20
598.330000000000
30
0.0
11
725.900000000000
21
606.330000000000
31
0.0
0
LINE
5
439
100
AcDbEntity
8
0-0
6
CONTINUOUS
62
3
100
AcDbLine
10
653.110000000000
20
598.330000000000
30
0.0
11
663.100000000000
21
606.330000000000
31
0.0
0
LINE
5
43a
100
AcDbEntity
8
0-0
6
CONTINUOUS
62
3
100
AcDbLine
10
652.310000000000
20
598.330000000000
30
0.0
11
662.300000000000
21
606.330000000000
31
0.0
0
LINE
5
43b
100
AcDbEntity
8
0-0
6
CONTINUOUS
62
3
100
AcDbLine
10
1075.690000000000
20
598.330000000000
30
0.0
11
1065.700000000000
21
606.330000000000
31
0.0
0
LINE
5
43c
100
AcDbEntity
8
0-0
6
CONTINUOUS
62
3
100
AcDbLine
10
1076.490000000000
20
598.330000000000
30
0.0
11
1066.500000000000
21
606.330000000000
31
0.0
0
LINE
5
43d
100
AcDbEntity
8
0-0
6
CONTINUOUS
62
3
100
AcDbLine
10
1034.710000000000
20
598.330000000000
30
0.0
11
1044.700000000000
21
606.330000000000
31
0.0
0
LINE
5
43e
100
AcDbEntity
8
0-0
6
CONTINUOUS
62
3
100
AcDbLine
10
1033.910000000000
20
598.330000000000
30
0.0
11
1043.900000000000
21
606.330000000000
31
0.0
0
LINE
5
43f
100
AcDbEntity
8
0-0
6
CONTINUOUS
62
3
100
AcDbLine
10
884.890000000000
20
598.330000000000
30
0.0
11
874.900000000000
21
606.330000000000
31
0.0
0
LINE
5
440
100
AcDbEntity
8
0-0
6
CONTINUOUS
62
3
100
AcDbLine
10
885.690000000000
20
598.330000000000
30
0.0
11
875.700000000000
21
606.330000000000
31
0.0
0
LINE
5
441
100
AcDbEntity
8
0-0
6
CONTINUOUS
62
3
100
AcDbLine
10
907.510000000000
20
598.330000000000
30
0.0
11
917.500000000000
21
606.330000000000
31
0.0
0
LINE
5
442
100
AcDbEntity
8
0-0
6
CONTINUOUS
62
3
100
AcDbLine
10
906.710000000000
20
598.330000000000
30
0.0
11
916.700000000000
21
606.330000000000
31
0.0
0
LINE
5
443
100
AcDbEntity
8
0-0
6
CONTINUOUS
62
3
100
AcDbLine
10
843.910000000000
20
598.330000000000
30
0.0
11
853.900000000000
21
606.330000000000
31
0.0
0
LINE
5
444
100
AcDbEntity
8
0-0
6
CONTINUOUS
62
3
100
AcDbLine
10
843.110000000000
20
598.330000000000
30
0.0
11
853.100000000000
21
606.330000000000
31
0.0
0
LINE
5
445
100
AcDbEntity
8
0-0
6
CONTINUOUS
62
3
100
AcDbLine
10
971.110000000000
20
598.330000000000
30
0.0
11
981.100000000000
21
606.330000000000
31
0.0
0
LINE
5
446
100
AcDbEntity
8
0-0
6
CONTINUOUS
62
3
100
AcDbLine
10
970.310000000000
20
598.330000000000
30
0.0
11
980.300000000000
21
606.330000000000
31
0.0
0
LINE
5
447
100
AcDbEntity
8
0-0
6
CONTINUOUS
62
3
100
AcDbLine
10
948.490000000000
20
598.330000000000
30
0.0
11
938.500000000000
21
606.330000000000
31
0.0
0
LINE
5
448
100
AcDbEntity
8
0-0
6
CONTINUOUS
62
3
100
AcDbLine
10
949.290000000000
20
598.330000000000
30
0.0
11
939.300000000000
21
606.330000000000
31
0.0
0
LINE
5
449
100
AcDbEntity
8
0-0
6
CONTINUOUS
62
3
100
AcDbLine
10
1012.090000000000
20
598.330000000000
30
0.0
11
1002.100000000000
21
606.330000000000
31
0.0
0
LINE
5
44a
100
AcDbEntity
8
0-0
6
CONTINUOUS
62
3
100
AcDbLine
10
1012.890000000000
20
598.330000000000
30
0.0
11
1002.900000000000
21
606.330000000000
31
0.0
0
LINE
5
44b
100
AcDbEntity
8
0-0
6
CONTINUOUS
62
7
100
AcDbLine
10
546.400000000000
20
672.330000000000
30
0.0
11
546.400000000000
21
637.330000000000
31
0.0
0
LINE
5
44c
100
AcDbEntity
8
0-0
6
CONTINUOUS
62
7
100
AcDbLine
10
610.000000000000
20
672.330000000000
30
0.0
11
610.000000000000
21
637.330000000000
31
0.0
0
POLYLINE
5
44d
100
AcDbEntity
8
0-0
6
CONTINUOUS
62
  7
100
AcDb2dPolyline
66
1
10
0.0
20
0.0
30
0.0
70
0
0
VERTEX
5
44e
100
AcDbEntity
8
0-0
6
CONTINUOUS
62
  7
100
AcDbVertex
100
AcDb2dVertex
10
482.800000000000
20
672.330000000000
30
0.0
0
VERTEX
5
44f
100
AcDbEntity
8
0-0
6
CONTINUOUS
62
  7
100
AcDbVertex
100
AcDb2dVertex
10
546.400000000000
20
672.330000000000
30
0.0
0
VERTEX
5
450
100
AcDbEntity
8
0-0
6
CONTINUOUS
62
  7
100
AcDbVertex
100
AcDb2dVertex
10
610.000000000000
20
672.330000000000
30
0.0
0
SEQEND
5
451
100
AcDbEntity
8
0-0
0
LINE
5
452
100
AcDbEntity
8
0-0
6
CONTINUOUS
62
7
100
AcDbLine
10
431.000000000000
20
610.330000000000
30
0.0
11
411.000000000000
21
610.330000000000
31
0.0
0
LINE
5
453
100
AcDbEntity
8
0-0
6
CONTINUOUS
62
7
100
AcDbLine
10
411.000000000000
20
594.330000000000
30
0.0
11
411.000000000000
21
610.330000000000
31
0.0
0
LINE
5
454
100
AcDbEntity
8
0-0
6
CONTINUOUS
62
7
100
AcDbLine
10
673.600000000000
20
672.330000000000
30
0.0
11
673.600000000000
21
637.330000000000
31
0.0
0
LINE
5
455
100
AcDbEntity
8
0-0
6
CONTINUOUS
62
7
100
AcDbLine
10
610.000000000000
20
672.330000000000
30
0.0
11
673.600000000000
21
672.330000000000
31
0.0
0
LINE
5
456
100
AcDbEntity
8
0-0
6
CONTINUOUS
62
7
100
AcDbLine
10
737.200000000000
20
672.330000000000
30
0.0
11
737.200000000000
21
637.330000000000
31
0.0
0
LINE
5
457
100
AcDbEntity
8
0-0
6
CONTINUOUS
62
7
100
AcDbLine
10
673.600000000000
20
672.330000000000
30
0.0
11
737.200000000000
21
672.330000000000
31
0.0
0
LINE
5
458
100
AcDbEntity
8
0-0
6
CONTINUOUS
62
7
100
AcDbLine
10
800.800000000000
20
672.330000000000
30
0.0
11
800.800000000000
21
637.330000000000
31
0.0
0
POLYLINE
5
459
100
AcDbEntity
8
0-0
6
CONTINUOUS
62
  7
100
AcDb2dPolyline
66
1
10
0.0
20
0.0
30
0.0
70
0
0
VERTEX
5
45a
100
AcDbEntity
8
0-0
6
CONTINUOUS
62
  7
100
AcDbVertex
100
AcDb2dVertex
10
737.200000000000
20
672.330000000000
30
0.0
0
VERTEX
5
45b
100
AcDbEntity
8
0-0
6
CONTINUOUS
62
  7
100
AcDbVertex
100
AcDb2dVertex
10
800.800000000000
20
672.330000000000
30
0.0
0
VERTEX
5
45c
100
AcDbEntity
8
0-0
6
CONTINUOUS
62
  7
100
AcDbVertex
100
AcDb2dVertex
10
864.400000000000
20
672.330000000000
30
0.0
0
SEQEND
5
45d
100
AcDbEntity
8
0-0
0
LINE
5
45e
100
AcDbEntity
8
0-0
6
CONTINUOUS
62
7
100
AcDbLine
10
928.000000000000
20
672.330000000000
30
0.0
11
928.000000000000
21
637.330000000000
31
0.0
0
LINE
5
45f
100
AcDbEntity
8
0-0
6
CONTINUOUS
62
7
100
AcDbLine
10
864.400000000000
20
672.330000000000
30
0.0
11
928.000000000000
21
672.330000000000
31
0.0
0
LINE
5
460
100
AcDbEntity
8
0-0
6
CONTINUOUS
62
7
100
AcDbLine
10
991.600000000000
20
672.330000000000
30
0.0
11
991.600000000000
21
637.330000000000
31
0.0
0
LINE
5
461
100
AcDbEntity
8
0-0
6
CONTINUOUS
62
7
100
AcDbLine
10
928.000000000000
20
672.330000000000
30
0.0
11
991.600000000000
21
672.330000000000
31
0.0
0
LINE
5
462
100
AcDbEntity
8
0-0
6
CONTINUOUS
62
7
100
AcDbLine
10
1055.200000000000
20
672.330000000000
30
0.0
11
1055.200000000000
21
637.330000000000
31
0.0
0
LINE
5
463
100
AcDbEntity
8
0-0
6
CONTINUOUS
62
7
100
AcDbLine
10
991.600000000000
20
672.330000000000
30
0.0
11
1055.200000000000
21
672.330000000000
31
0.0
0
LINE
5
464
100
AcDbEntity
8
0-0
6
CONTINUOUS
62
7
100
AcDbLine
10
1118.800000000000
20
672.330000000000
30
0.0
11
1118.800000000000
21
637.330000000000
31
0.0
0
LINE
5
465
100
AcDbEntity
8
0-0
6
CONTINUOUS
62
7
100
AcDbLine
10
1055.200000000000
20
672.330000000000
30
0.0
11
1118.800000000000
21
672.330000000000
31
0.0
0
LINE
5
466
100
AcDbEntity
8
0-0
6
CONTINUOUS
62
7
100
AcDbLine
10
1182.400000000000
20
672.330000000000
30
0.0
11
1182.400000000000
21
637.330000000000
31
0.0
0
LINE
5
467
100
AcDbEntity
8
0-0
6
CONTINUOUS
62
7
100
AcDbLine
10
1118.800000000000
20
672.330000000000
30
0.0
11
1182.400000000000
21
672.330000000000
31
0.0
0
POLYLINE
5
468
100
AcDbEntity
8
F-F
6
CONTINUOUS
62
  3
100
AcDb2dPolyline
66
1
10
0.0
20
0.0
30
0.0
70
0
0
VERTEX
5
469
100
AcDbEntity
8
F-F
6
CONTINUOUS
62
  3
100
AcDbVertex
100
AcDb2dVertex
10
71.720000000000
20
59.100000000000
30
0.0
0
VERTEX
5
46a
100
AcDbEntity
8
F-F
6
CONTINUOUS
62
  3
100
AcDbVertex
100
AcDb2dVertex
10
71.720000000000
20
75.100000000000
30
0.0
0
VERTEX
5
46b
100
AcDbEntity
8
F-F
6
CONTINUOUS
62
  3
100
AcDbVertex
100
AcDb2dVertex
10
87.720000000000
20
75.100000000000
30
0.0
0
VERTEX
5
46c
100
AcDbEntity
8
F-F
6
CONTINUOUS
62
  3
100
AcDbVertex
100
AcDb2dVertex
10
87.720000000000
20
59.100000000000
30
0.0
0
VERTEX
5
46d
100
AcDbEntity
8
F-F
6
CONTINUOUS
62
  3
100
AcDbVertex
100
AcDb2dVertex
10
71.720000000000
20
59.100000000000
30
0.0
0
SEQEND
5
46e
100
AcDbEntity
8
F-F
0
LINE
5
46f
100
AcDbEntity
8
F-F
6
CONTINUOUS
62
3
100
AcDbLine
10
73.320000000000
20
61.260000000000
30
0.0
11
73.320000000000
21
73.500000000000
31
0.0
0
LINE
5
470
100
AcDbEntity
8
F-F
6
CONTINUOUS
62
3
100
AcDbLine
10
86.120000000000
20
60.700000000000
30
0.0
11
73.880000000000
21
60.700000000000
31
0.0
0
POLYLINE
5
471
100
AcDbEntity
8
F-F
6
CONTINUOUS
62
  3
100
AcDb2dPolyline
66
1
10
0.0
20
0.0
30
0.0
70
0
0
VERTEX
5
472
100
AcDbEntity
8
F-F
6
CONTINUOUS
62
  3
100
AcDbVertex
100
AcDb2dVertex
10
73.320000000000
20
73.500000000000
30
0.0
0
VERTEX
5
473
100
AcDbEntity
8
F-F
6
CONTINUOUS
62
  3
100
AcDbVertex
100
AcDb2dVertex
10
85.550000000000
20
73.500000000000
30
0.0
0
VERTEX
5
474
100
AcDbEntity
8
F-F
6
CONTINUOUS
62
  3
100
AcDbVertex
100
AcDb2dVertex
10
73.320000000000
20
61.260000000000
30
0.0
0
SEQEND
5
475
100
AcDbEntity
8
F-F
0
LINE
5
476
100
AcDbEntity
8
F-F
6
CONTINUOUS
62
3
100
AcDbLine
10
86.120000000000
20
72.930000000000
30
0.0
11
73.880000000000
21
60.700000000000
31
0.0
0
LINE
5
477
100
AcDbEntity
8
F-F
6
CONTINUOUS
62
3
100
AcDbLine
10
86.120000000000
20
72.930000000000
30
0.0
11
86.120000000000
21
60.700000000000
31
0.0
0
LINE
5
478
100
AcDbEntity
8
F-F
6
CONTINUOUS
62
4
100
AcDbLine
10
71.720000000000
20
74.940000000000
30
0.0
11
87.720000000000
21
74.940000000000
31
0.0
0
LINE
5
479
100
AcDbEntity
8
F-F
6
CONTINUOUS
62
4
100
AcDbLine
10
71.720000000000
20
74.620000000000
30
0.0
11
87.720000000000
21
74.620000000000
31
0.0
0
LINE
5
47a
100
AcDbEntity
8
F-F
6
CONTINUOUS
62
4
100
AcDbLine
10
71.720000000000
20
74.300000000000
30
0.0
11
87.720000000000
21
74.300000000000
31
0.0
0
LINE
5
47b
100
AcDbEntity
8
F-F
6
CONTINUOUS
62
4
100
AcDbLine
10
71.720000000000
20
73.980000000000
30
0.0
11
87.720000000000
21
73.980000000000
31
0.0
0
LINE
5
47c
100
AcDbEntity
8
F-F
6
CONTINUOUS
62
4
100
AcDbLine
10
71.720000000000
20
73.660000000000
30
0.0
11
87.720000000000
21
73.660000000000
31
0.0
0
LINE
5
47d
100
AcDbEntity
8
F-F
6
CONTINUOUS
62
4
100
AcDbLine
10
71.720000000000
20
60.540000000000
30
0.0
11
87.720000000000
21
60.540000000000
31
0.0
0
LINE
5
47e
100
AcDbEntity
8
F-F
6
CONTINUOUS
62
4
100
AcDbLine
10
71.720000000000
20
60.220000000000
30
0.0
11
87.720000000000
21
60.220000000000
31
0.0
0
LINE
5
47f
100
AcDbEntity
8
F-F
6
CONTINUOUS
62
4
100
AcDbLine
10
71.720000000000
20
59.900000000000
30
0.0
11
87.720000000000
21
59.900000000000
31
0.0
0
LINE
5
480
100
AcDbEntity
8
F-F
6
CONTINUOUS
62
4
100
AcDbLine
10
71.720000000000
20
59.580000000000
30
0.0
11
87.720000000000
21
59.580000000000
31
0.0
0
LINE
5
481
100
AcDbEntity
8
F-F
6
CONTINUOUS
62
4
100
AcDbLine
10
71.720000000000
20
59.260000000000
30
0.0
11
87.720000000000
21
59.260000000000
31
0.0
0
LINE
5
482
100
AcDbEntity
8
F-F
6
CONTINUOUS
62
4
100
AcDbLine
10
71.720000000000
20
61.500000000000
30
0.0
11
73.320000000000
21
61.500000000000
31
0.0
0
LINE
5
483
100
AcDbEntity
8
F-F
6
CONTINUOUS
62
4
100
AcDbLine
10
71.720000000000
20
61.820000000000
30
0.0
11
73.320000000000
21
61.820000000000
31
0.0
0
LINE
5
484
100
AcDbEntity
8
F-F
6
CONTINUOUS
62
4
100
AcDbLine
10
71.720000000000
20
62.140000000000
30
0.0
11
73.320000000000
21
62.140000000000
31
0.0
0
LINE
5
485
100
AcDbEntity
8
F-F
6
CONTINUOUS
62
4
100
AcDbLine
10
71.720000000000
20
62.460000000000
30
0.0
11
73.320000000000
21
62.460000000000
31
0.0
0
LINE
5
486
100
AcDbEntity
8
F-F
6
CONTINUOUS
62
4
100
AcDbLine
10
71.720000000000
20
62.780000000000
30
0.0
11
73.320000000000
21
62.780000000000
31
0.0
0
LINE
5
487
100
AcDbEntity
8
F-F
6
CONTINUOUS
62
4
100
AcDbLine
10
71.720000000000
20
63.100000000000
30
0.0
11
73.320000000000
21
63.100000000000
31
0.0
0
LINE
5
488
100
AcDbEntity
8
F-F
6
CONTINUOUS
62
4
100
AcDbLine
10
71.720000000000
20
63.420000000000
30
0.0
11
73.320000000000
21
63.420000000000
31
0.0
0
LINE
5
489
100
AcDbEntity
8
F-F
6
CONTINUOUS
62
4
100
AcDbLine
10
71.720000000000
20
63.740000000000
30
0.0
11
73.320000000000
21
63.740000000000
31
0.0
0
LINE
5
48a
100
AcDbEntity
8
F-F
6
CONTINUOUS
62
4
100
AcDbLine
10
71.720000000000
20
64.060000000000
30
0.0
11
73.320000000000
21
64.060000000000
31
0.0
0
LINE
5
48b
100
AcDbEntity
8
F-F
6
CONTINUOUS
62
4
100
AcDbLine
10
71.720000000000
20
64.380000000000
30
0.0
11
73.320000000000
21
64.380000000000
31
0.0
0
LINE
5
48c
100
AcDbEntity
8
F-F
6
CONTINUOUS
62
4
100
AcDbLine
10
71.720000000000
20
64.700000000000
30
0.0
11
73.320000000000
21
64.700000000000
31
0.0
0
LINE
5
48d
100
AcDbEntity
8
F-F
6
CONTINUOUS
62
4
100
AcDbLine
10
71.720000000000
20
65.020000000000
30
0.0
11
73.320000000000
21
65.020000000000
31
0.0
0
LINE
5
48e
100
AcDbEntity
8
F-F
6
CONTINUOUS
62
4
100
AcDbLine
10
71.720000000000
20
65.340000000000
30
0.0
11
73.320000000000
21
65.340000000000
31
0.0
0
LINE
5
48f
100
AcDbEntity
8
F-F
6
CONTINUOUS
62
4
100
AcDbLine
10
71.720000000000
20
65.660000000000
30
0.0
11
73.320000000000
21
65.660000000000
31
0.0
0
LINE
5
490
100
AcDbEntity
8
F-F
6
CONTINUOUS
62
4
100
AcDbLine
10
71.720000000000
20
65.980000000000
30
0.0
11
73.320000000000
21
65.980000000000
31
0.0
0
LINE
5
491
100
AcDbEntity
8
F-F
6
CONTINUOUS
62
4
100
AcDbLine
10
71.720000000000
20
66.300000000000
30
0.0
11
73.320000000000
21
66.300000000000
31
0.0
0
LINE
5
492
100
AcDbEntity
8
F-F
6
CONTINUOUS
62
4
100
AcDbLine
10
71.720000000000
20
66.620000000000
30
0.0
11
73.320000000000
21
66.620000000000
31
0.0
0
LINE
5
493
100
AcDbEntity
8
F-F
6
CONTINUOUS
62
4
100
AcDbLine
10
71.720000000000
20
66.940000000000
30
0.0
11
73.320000000000
21
66.940000000000
31
0.0
0
LINE
5
494
100
AcDbEntity
8
F-F
6
CONTINUOUS
62
4
100
AcDbLine
10
71.720000000000
20
67.260000000000
30
0.0
11
73.320000000000
21
67.260000000000
31
0.0
0
LINE
5
495
100
AcDbEntity
8
F-F
6
CONTINUOUS
62
4
100
AcDbLine
10
71.720000000000
20
67.580000000000
30
0.0
11
73.320000000000
21
67.580000000000
31
0.0
0
LINE
5
496
100
AcDbEntity
8
F-F
6
CONTINUOUS
62
4
100
AcDbLine
10
71.720000000000
20
67.900000000000
30
0.0
11
73.320000000000
21
67.900000000000
31
0.0
0
LINE
5
497
100
AcDbEntity
8
F-F
6
CONTINUOUS
62
4
100
AcDbLine
10
71.720000000000
20
68.220000000000
30
0.0
11
73.320000000000
21
68.220000000000
31
0.0
0
LINE
5
498
100
AcDbEntity
8
F-F
6
CONTINUOUS
62
4
100
AcDbLine
10
71.720000000000
20
68.540000000000
30
0.0
11
73.320000000000
21
68.540000000000
31
0.0
0
LINE
5
499
100
AcDbEntity
8
F-F
6
CONTINUOUS
62
4
100
AcDbLine
10
71.720000000000
20
68.860000000000
30
0.0
11
73.320000000000
21
68.860000000000
31
0.0
0
LINE
5
49a
100
AcDbEntity
8
F-F
6
CONTINUOUS
62
4
100
AcDbLine
10
71.720000000000
20
69.820000000000
30
0.0
11
73.320000000000
21
69.820000000000
31
0.0
0
LINE
5
49b
100
AcDbEntity
8
F-F
6
CONTINUOUS
62
4
100
AcDbLine
10
71.720000000000
20
70.780000000000
30
0.0
11
73.320000000000
21
70.780000000000
31
0.0
0
LINE
5
49c
100
AcDbEntity
8
F-F
6
CONTINUOUS
62
4
100
AcDbLine
10
71.720000000000
20
71.100000000000
30
0.0
11
73.320000000000
21
71.100000000000
31
0.0
0
LINE
5
49d
100
AcDbEntity
8
F-F
6
CONTINUOUS
62
4
100
AcDbLine
10
71.720000000000
20
71.420000000000
30
0.0
11
73.320000000000
21
71.420000000000
31
0.0
0
LINE
5
49e
100
AcDbEntity
8
F-F
6
CONTINUOUS
62
4
100
AcDbLine
10
71.720000000000
20
71.740000000000
30
0.0
11
73.320000000000
21
71.740000000000
31
0.0
0
LINE
5
49f
100
AcDbEntity
8
F-F
6
CONTINUOUS
62
4
100
AcDbLine
10
71.720000000000
20
73.340000000000
30
0.0
11
73.320000000000
21
73.340000000000
31
0.0
0
LINE
5
4a0
100
AcDbEntity
8
F-F
6
CONTINUOUS
62
4
100
AcDbLine
10
71.720000000000
20
73.020000000000
30
0.0
11
73.320000000000
21
73.020000000000
31
0.0
0
LINE
5
4a1
100
AcDbEntity
8
F-F
6
CONTINUOUS
62
4
100
AcDbLine
10
71.720000000000
20
72.700000000000
30
0.0
11
73.320000000000
21
72.700000000000
31
0.0
0
LINE
5
4a2
100
AcDbEntity
8
F-F
6
CONTINUOUS
62
4
100
AcDbLine
10
71.720000000000
20
72.380000000000
30
0.0
11
73.320000000000
21
72.380000000000
31
0.0
0
LINE
5
4a3
100
AcDbEntity
8
F-F
6
CONTINUOUS
62
4
100
AcDbLine
10
71.720000000000
20
72.060000000000
30
0.0
11
73.320000000000
21
72.060000000000
31
0.0
0
LINE
5
4a4
100
AcDbEntity
8
F-F
6
CONTINUOUS
62
4
100
AcDbLine
10
71.720000000000
20
70.140000000000
30
0.0
11
73.320000000000
21
70.140000000000
31
0.0
0
LINE
5
4a5
100
AcDbEntity
8
F-F
6
CONTINUOUS
62
4
100
AcDbLine
10
71.720000000000
20
70.460000000000
30
0.0
11
73.320000000000
21
70.460000000000
31
0.0
0
LINE
5
4a6
100
AcDbEntity
8
F-F
6
CONTINUOUS
62
4
100
AcDbLine
10
71.720000000000
20
69.500000000000
30
0.0
11
73.320000000000
21
69.500000000000
31
0.0
0
LINE
5
4a7
100
AcDbEntity
8
F-F
6
CONTINUOUS
62
4
100
AcDbLine
10
71.720000000000
20
69.180000000000
30
0.0
11
73.320000000000
21
69.180000000000
31
0.0
0
LINE
5
4a8
100
AcDbEntity
8
F-F
6
CONTINUOUS
62
4
100
AcDbLine
10
73.870000000000
20
61.820000000000
30
0.0
11
75.000000000000
21
61.820000000000
31
0.0
0
LINE
5
4a9
100
AcDbEntity
8
F-F
6
CONTINUOUS
62
4
100
AcDbLine
10
73.550000000000
20
61.500000000000
30
0.0
11
74.680000000000
21
61.500000000000
31
0.0
0
LINE
5
4aa
100
AcDbEntity
8
F-F
6
CONTINUOUS
62
4
100
AcDbLine
10
71.720000000000
20
61.180000000000
30
0.0
11
74.360000000000
21
61.180000000000
31
0.0
0
LINE
5
4ab
100
AcDbEntity
8
F-F
6
CONTINUOUS
62
4
100
AcDbLine
10
71.720000000000
20
60.860000000000
30
0.0
11
74.040000000000
21
60.860000000000
31
0.0
0
LINE
5
4ac
100
AcDbEntity
8
F-F
6
CONTINUOUS
62
4
100
AcDbLine
10
75.790000000000
20
63.740000000000
30
0.0
11
76.920000000000
21
63.740000000000
31
0.0
0
LINE
5
4ad
100
AcDbEntity
8
F-F
6
CONTINUOUS
62
4
100
AcDbLine
10
75.470000000000
20
63.420000000000
30
0.0
11
76.600000000000
21
63.420000000000
31
0.0
0
LINE
5
4ae
100
AcDbEntity
8
F-F
6
CONTINUOUS
62
4
100
AcDbLine
10
75.150000000000
20
63.100000000000
30
0.0
11
76.280000000000
21
63.100000000000
31
0.0
0
LINE
5
4af
100
AcDbEntity
8
F-F
6
CONTINUOUS
62
4
100
AcDbLine
10
74.830000000000
20
62.780000000000
30
0.0
11
75.960000000000
21
62.780000000000
31
0.0
0
LINE
5
4b0
100
AcDbEntity
8
F-F
6
CONTINUOUS
62
4
100
AcDbLine
10
74.510000000000
20
62.460000000000
30
0.0
11
75.640000000000
21
62.460000000000
31
0.0
0
LINE
5
4b1
100
AcDbEntity
8
F-F
6
CONTINUOUS
62
4
100
AcDbLine
10
74.190000000000
20
62.140000000000
30
0.0
11
75.320000000000
21
62.140000000000
31
0.0
0
LINE
5
4b2
100
AcDbEntity
8
F-F
6
CONTINUOUS
62
4
100
AcDbLine
10
73.320000000000
20
73.500000000000
30
0.0
11
73.320000000000
21
73.820000000000
31
0.0
0
LINE
5
4b3
100
AcDbEntity
8
F-F
6
CONTINUOUS
62
4
100
AcDbLine
10
86.120000000000
20
61.500000000000
30
0.0
11
87.720000000000
21
61.500000000000
31
0.0
0
LINE
5
4b4
100
AcDbEntity
8
F-F
6
CONTINUOUS
62
4
100
AcDbLine
10
86.120000000000
20
61.820000000000
30
0.0
11
87.720000000000
21
61.820000000000
31
0.0
0
LINE
5
4b5
100
AcDbEntity
8
F-F
6
CONTINUOUS
62
4
100
AcDbLine
10
86.120000000000
20
62.140000000000
30
0.0
11
87.720000000000
21
62.140000000000
31
0.0
0
LINE
5
4b6
100
AcDbEntity
8
F-F
6
CONTINUOUS
62
4
100
AcDbLine
10
86.120000000000
20
62.460000000000
30
0.0
11
87.720000000000
21
62.460000000000
31
0.0
0
LINE
5
4b7
100
AcDbEntity
8
F-F
6
CONTINUOUS
62
4
100
AcDbLine
10
86.120000000000
20
62.780000000000
30
0.0
11
87.720000000000
21
62.780000000000
31
0.0
0
LINE
5
4b8
100
AcDbEntity
8
F-F
6
CONTINUOUS
62
4
100
AcDbLine
10
86.120000000000
20
63.100000000000
30
0.0
11
87.720000000000
21
63.100000000000
31
0.0
0
LINE
5
4b9
100
AcDbEntity
8
F-F
6
CONTINUOUS
62
4
100
AcDbLine
10
86.120000000000
20
63.420000000000
30
0.0
11
87.720000000000
21
63.420000000000
31
0.0
0
LINE
5
4ba
100
AcDbEntity
8
F-F
6
CONTINUOUS
62
4
100
AcDbLine
10
86.120000000000
20
63.740000000000
30
0.0
11
87.720000000000
21
63.740000000000
31
0.0
0
LINE
5
4bb
100
AcDbEntity
8
F-F
6
CONTINUOUS
62
4
100
AcDbLine
10
86.120000000000
20
64.060000000000
30
0.0
11
87.720000000000
21
64.060000000000
31
0.0
0
LINE
5
4bc
100
AcDbEntity
8
F-F
6
CONTINUOUS
62
4
100
AcDbLine
10
86.120000000000
20
64.380000000000
30
0.0
11
87.720000000000
21
64.380000000000
31
0.0
0
LINE
5
4bd
100
AcDbEntity
8
F-F
6
CONTINUOUS
62
4
100
AcDbLine
10
86.120000000000
20
64.700000000000
30
0.0
11
87.720000000000
21
64.700000000000
31
0.0
0
LINE
5
4be
100
AcDbEntity
8
F-F
6
CONTINUOUS
62
4
100
AcDbLine
10
86.120000000000
20
65.020000000000
30
0.0
11
87.720000000000
21
65.020000000000
31
0.0
0
LINE
5
4bf
100
AcDbEntity
8
F-F
6
CONTINUOUS
62
4
100
AcDbLine
10
86.120000000000
20
65.340000000000
30
0.0
11
87.720000000000
21
65.340000000000
31
0.0
0
LINE
5
4c0
100
AcDbEntity
8
F-F
6
CONTINUOUS
62
4
100
AcDbLine
10
86.120000000000
20
65.980000000000
30
0.0
11
87.720000000000
21
65.980000000000
31
0.0
0
LINE
5
4c1
100
AcDbEntity
8
F-F
6
CONTINUOUS
62
4
100
AcDbLine
10
86.120000000000
20
66.300000000000
30
0.0
11
87.720000000000
21
66.300000000000
31
0.0
0
LINE
5
4c2
100
AcDbEntity
8
F-F
6
CONTINUOUS
62
4
100
AcDbLine
10
86.120000000000
20
66.620000000000
30
0.0
11
87.720000000000
21
66.620000000000
31
0.0
0
LINE
5
4c3
100
AcDbEntity
8
F-F
6
CONTINUOUS
62
4
100
AcDbLine
10
86.120000000000
20
66.940000000000
30
0.0
11
87.720000000000
21
66.940000000000
31
0.0
0
LINE
5
4c4
100
AcDbEntity
8
F-F
6
CONTINUOUS
62
4
100
AcDbLine
10
86.120000000000
20
67.260000000000
30
0.0
11
87.720000000000
21
67.260000000000
31
0.0
0
LINE
5
4c5
100
AcDbEntity
8
F-F
6
CONTINUOUS
62
4
100
AcDbLine
10
86.120000000000
20
67.580000000000
30
0.0
11
87.720000000000
21
67.580000000000
31
0.0
0
LINE
5
4c6
100
AcDbEntity
8
F-F
6
CONTINUOUS
62
4
100
AcDbLine
10
86.120000000000
20
67.900000000000
30
0.0
11
87.720000000000
21
67.900000000000
31
0.0
0
LINE
5
4c7
100
AcDbEntity
8
F-F
6
CONTINUOUS
62
4
100
AcDbLine
10
86.120000000000
20
68.220000000000
30
0.0
11
87.720000000000
21
68.220000000000
31
0.0
0
LINE
5
4c8
100
AcDbEntity
8
F-F
6
CONTINUOUS
62
4
100
AcDbLine
10
86.120000000000
20
68.540000000000
30
0.0
11
87.720000000000
21
68.540000000000
31
0.0
0
LINE
5
4c9
100
AcDbEntity
8
F-F
6
CONTINUOUS
62
4
100
AcDbLine
10
86.120000000000
20
68.860000000000
30
0.0
11
87.720000000000
21
68.860000000000
31
0.0
0
LINE
5
4ca
100
AcDbEntity
8
F-F
6
CONTINUOUS
62
4
100
AcDbLine
10
86.120000000000
20
69.820000000000
30
0.0
11
87.720000000000
21
69.820000000000
31
0.0
0
LINE
5
4cb
100
AcDbEntity
8
F-F
6
CONTINUOUS
62
4
100
AcDbLine
10
86.120000000000
20
70.780000000000
30
0.0
11
87.720000000000
21
70.780000000000
31
0.0
0
LINE
5
4cc
100
AcDbEntity
8
F-F
6
CONTINUOUS
62
4
100
AcDbLine
10
86.120000000000
20
71.100000000000
30
0.0
11
87.720000000000
21
71.100000000000
31
0.0
0
LINE
5
4cd
100
AcDbEntity
8
F-F
6
CONTINUOUS
62
4
100
AcDbLine
10
86.120000000000
20
71.420000000000
30
0.0
11
87.720000000000
21
71.420000000000
31
0.0
0
LINE
5
4ce
100
AcDbEntity
8
F-F
6
CONTINUOUS
62
4
100
AcDbLine
10
86.120000000000
20
71.740000000000
30
0.0
11
87.720000000000
21
71.740000000000
31
0.0
0
LINE
5
4cf
100
AcDbEntity
8
F-F
6
CONTINUOUS
62
4
100
AcDbLine
10
86.120000000000
20
72.700000000000
30
0.0
11
87.720000000000
21
72.700000000000
31
0.0
0
LINE
5
4d0
100
AcDbEntity
8
F-F
6
CONTINUOUS
62
4
100
AcDbLine
10
86.120000000000
20
72.380000000000
30
0.0
11
87.720000000000
21
72.380000000000
31
0.0
0
LINE
5
4d1
100
AcDbEntity
8
F-F
6
CONTINUOUS
62
4
100
AcDbLine
10
86.120000000000
20
72.060000000000
30
0.0
11
87.720000000000
21
72.060000000000
31
0.0
0
LINE
5
4d2
100
AcDbEntity
8
F-F
6
CONTINUOUS
62
4
100
AcDbLine
10
86.120000000000
20
70.140000000000
30
0.0
11
87.720000000000
21
70.140000000000
31
0.0
0
LINE
5
4d3
100
AcDbEntity
8
F-F
6
CONTINUOUS
62
4
100
AcDbLine
10
86.120000000000
20
70.460000000000
30
0.0
11
87.720000000000
21
70.460000000000
31
0.0
0
LINE
5
4d4
100
AcDbEntity
8
F-F
6
CONTINUOUS
62
4
100
AcDbLine
10
86.120000000000
20
69.500000000000
30
0.0
11
87.720000000000
21
69.500000000000
31
0.0
0
LINE
5
4d5
100
AcDbEntity
8
F-F
6
CONTINUOUS
62
4
100
AcDbLine
10
86.120000000000
20
69.180000000000
30
0.0
11
87.720000000000
21
69.180000000000
31
0.0
0
LINE
5
4d6
100
AcDbEntity
8
F-F
6
CONTINUOUS
62
4
100
AcDbLine
10
86.120000000000
20
60.860000000000
30
0.0
11
87.720000000000
21
60.860000000000
31
0.0
0
LINE
5
4d7
100
AcDbEntity
8
F-F
6
CONTINUOUS
62
4
100
AcDbLine
10
86.120000000000
20
61.180000000000
30
0.0
11
87.720000000000
21
61.180000000000
31
0.0
0
LINE
5
4d8
100
AcDbEntity
8
F-F
6
CONTINUOUS
62
4
100
AcDbLine
10
85.390000000000
20
73.340000000000
30
0.0
11
87.720000000000
21
73.340000000000
31
0.0
0
LINE
5
4d9
100
AcDbEntity
8
F-F
6
CONTINUOUS
62
4
100
AcDbLine
10
85.070000000000
20
73.020000000000
30
0.0
11
87.720000000000
21
73.020000000000
31
0.0
0
LINE
5
4da
100
AcDbEntity
8
F-F
6
CONTINUOUS
62
4
100
AcDbLine
10
77.070000000000
20
65.020000000000
30
0.0
11
78.200000000000
21
65.020000000000
31
0.0
0
LINE
5
4db
100
AcDbEntity
8
F-F
6
CONTINUOUS
62
4
100
AcDbLine
10
76.750000000000
20
64.700000000000
30
0.0
11
77.880000000000
21
64.700000000000
31
0.0
0
LINE
5
4dc
100
AcDbEntity
8
F-F
6
CONTINUOUS
62
4
100
AcDbLine
10
76.430000000000
20
64.380000000000
30
0.0
11
77.560000000000
21
64.380000000000
31
0.0
0
LINE
5
4dd
100
AcDbEntity
8
F-F
6
CONTINUOUS
62
4
100
AcDbLine
10
76.110000000000
20
64.060000000000
30
0.0
11
77.240000000000
21
64.060000000000
31
0.0
0
LINE
5
4de
100
AcDbEntity
8
F-F
6
CONTINUOUS
62
4
100
AcDbLine
10
78.350000000000
20
66.300000000000
30
0.0
11
79.480000000000
21
66.300000000000
31
0.0
0
LINE
5
4df
100
AcDbEntity
8
F-F
6
CONTINUOUS
62
4
100
AcDbLine
10
78.030000000000
20
65.980000000000
30
0.0
11
79.160000000000
21
65.980000000000
31
0.0
0
LINE
5
4e0
100
AcDbEntity
8
F-F
6
CONTINUOUS
62
4
100
AcDbLine
10
77.710000000000
20
65.660000000000
30
0.0
11
78.840000000000
21
65.660000000000
31
0.0
0
LINE
5
4e1
100
AcDbEntity
8
F-F
6
CONTINUOUS
62
4
100
AcDbLine
10
77.390000000000
20
65.340000000000
30
0.0
11
78.520000000000
21
65.340000000000
31
0.0
0
LINE
5
4e2
100
AcDbEntity
8
F-F
6
CONTINUOUS
62
4
100
AcDbLine
10
79.630000000000
20
67.580000000000
30
0.0
11
80.760000000000
21
67.580000000000
31
0.0
0
LINE
5
4e3
100
AcDbEntity
8
F-F
6
CONTINUOUS
62
4
100
AcDbLine
10
79.310000000000
20
67.260000000000
30
0.0
11
80.440000000000
21
67.260000000000
31
0.0
0
LINE
5
4e4
100
AcDbEntity
8
F-F
6
CONTINUOUS
62
4
100
AcDbLine
10
78.990000000000
20
66.940000000000
30
0.0
11
80.120000000000
21
66.940000000000
31
0.0
0
LINE
5
4e5
100
AcDbEntity
8
F-F
6
CONTINUOUS
62
4
100
AcDbLine
10
78.670000000000
20
66.620000000000
30
0.0
11
79.800000000000
21
66.620000000000
31
0.0
0
LINE
5
4e6
100
AcDbEntity
8
F-F
6
CONTINUOUS
62
4
100
AcDbLine
10
80.910000000000
20
68.860000000000
30
0.0
11
82.040000000000
21
68.860000000000
31
0.0
0
LINE
5
4e7
100
AcDbEntity
8
F-F
6
CONTINUOUS
62
4
100
AcDbLine
10
80.590000000000
20
68.540000000000
30
0.0
11
81.720000000000
21
68.540000000000
31
0.0
0
LINE
5
4e8
100
AcDbEntity
8
F-F
6
CONTINUOUS
62
4
100
AcDbLine
10
80.270000000000
20
68.220000000000
30
0.0
11
81.400000000000
21
68.220000000000
31
0.0
0
LINE
5
4e9
100
AcDbEntity
8
F-F
6
CONTINUOUS
62
4
100
AcDbLine
10
79.950000000000
20
67.900000000000
30
0.0
11
81.080000000000
21
67.900000000000
31
0.0
0
LINE
5
4ea
100
AcDbEntity
8
F-F
6
CONTINUOUS
62
4
100
AcDbLine
10
82.190000000000
20
70.140000000000
30
0.0
11
83.320000000000
21
70.140000000000
31
0.0
0
LINE
5
4eb
100
AcDbEntity
8
F-F
6
CONTINUOUS
62
4
100
AcDbLine
10
81.870000000000
20
69.820000000000
30
0.0
11
83.000000000000
21
69.820000000000
31
0.0
0
LINE
5
4ec
100
AcDbEntity
8
F-F
6
CONTINUOUS
62
4
100
AcDbLine
10
81.550000000000
20
69.500000000000
30
0.0
11
82.680000000000
21
69.500000000000
31
0.0
0
LINE
5
4ed
100
AcDbEntity
8
F-F
6
CONTINUOUS
62
4
100
AcDbLine
10
81.230000000000
20
69.180000000000
30
0.0
11
82.360000000000
21
69.180000000000
31
0.0
0
LINE
5
4ee
100
AcDbEntity
8
F-F
6
CONTINUOUS
62
4
100
AcDbLine
10
83.470000000000
20
71.420000000000
30
0.0
11
84.600000000000
21
71.420000000000
31
0.0
0
LINE
5
4ef
100
AcDbEntity
8
F-F
6
CONTINUOUS
62
4
100
AcDbLine
10
83.150000000000
20
71.100000000000
30
0.0
11
84.280000000000
21
71.100000000000
31
0.0
0
LINE
5
4f0
100
AcDbEntity
8
F-F
6
CONTINUOUS
62
4
100
AcDbLine
10
82.830000000000
20
70.780000000000
30
0.0
11
83.960000000000
21
70.780000000000
31
0.0
0
LINE
5
4f1
100
AcDbEntity
8
F-F
6
CONTINUOUS
62
4
100
AcDbLine
10
82.510000000000
20
70.460000000000
30
0.0
11
83.640000000000
21
70.460000000000
31
0.0
0
LINE
5
4f2
100
AcDbEntity
8
F-F
6
CONTINUOUS
62
4
100
AcDbLine
10
84.750000000000
20
72.700000000000
30
0.0
11
85.880000000000
21
72.700000000000
31
0.0
0
LINE
5
4f3
100
AcDbEntity
8
F-F
6
CONTINUOUS
62
4
100
AcDbLine
10
84.430000000000
20
72.380000000000
30
0.0
11
85.560000000000
21
72.380000000000
31
0.0
0
LINE
5
4f4
100
AcDbEntity
8
F-F
6
CONTINUOUS
62
4
100
AcDbLine
10
84.110000000000
20
72.060000000000
30
0.0
11
85.240000000000
21
72.060000000000
31
0.0
0
LINE
5
4f5
100
AcDbEntity
8
F-F
6
CONTINUOUS
62
4
100
AcDbLine
10
83.790000000000
20
71.740000000000
30
0.0
11
84.920000000000
21
71.740000000000
31
0.0
0
LINE
5
4f6
100
AcDbEntity
8
F-F
6
CONTINUOUS
62
4
100
AcDbLine
10
86.120000000000
20
65.660000000000
30
0.0
11
87.720000000000
21
65.660000000000
31
0.0
0
LINE
5
4f7
100
AcDbEntity
8
0-0
6
CONTINUOUS
62
7
100
AcDbLine
10
1246.000000000000
20
672.330000000000
30
0.0
11
1246.000000000000
21
637.330000000000
31
0.0
0
LINE
5
4f8
100
AcDbEntity
8
0-0
6
CONTINUOUS
62
7
100
AcDbLine
10
1182.400000000000
20
672.330000000000
30
0.0
11
1273.400000000000
21
672.330000000000
31
0.0
0
LINE
5
4f9
100
AcDbEntity
8
0-0
6
CONTINUOUS
62
7
100
AcDbLine
10
455.400000000000
20
702.330000000000
30
0.0
11
1273.400000000000
21
702.330000000000
31
0.0
0
LINE
5
4fa
100
AcDbEntity
8
0-0
6
CONTINUOUS
62
7
100
AcDbLine
10
455.400000000000
20
702.330000000000
30
0.0
11
455.400000000000
21
692.330000000000
31
0.0
0
LINE
5
4fb
100
AcDbEntity
8
0-0
6
CONTINUOUS
62
7
100
AcDbLine
10
455.400000000000
20
672.330000000000
30
0.0
11
482.800000000000
21
672.330000000000
31
0.0
0
LINE
5
4fc
100
AcDbEntity
8
0-0
6
CONTINUOUS
62
7
100
AcDbLine
10
455.400000000000
20
672.330000000000
30
0.0
11
455.400000000000
21
637.330000000000
31
0.0
0
LINE
5
4fd
100
AcDbEntity
8
0-0
6
CONTINUOUS
62
7
100
AcDbLine
10
1273.400000000000
20
702.330000000000
30
0.0
11
1273.400000000000
21
692.330000000000
31
0.0
0
LINE
5
4fe
100
AcDbEntity
8
0-0
6
CONTINUOUS
62
7
100
AcDbLine
10
1273.400000000000
20
672.330000000000
30
0.0
11
1273.400000000000
21
637.330000000000
31
0.0
0
LINE
5
4ff
100
AcDbEntity
8
0-0
6
CONTINUOUS
62
7
100
AcDbLine
10
864.400000000000
20
672.330000000000
30
0.0
11
864.400000000000
21
637.330000000000
31
0.0
0
LINE
5
500
100
AcDbEntity
8
0-0
6
CONTINUOUS
62
3
100
AcDbLine
10
1464.090000000000
20
600.330000000000
30
0.0
11
1454.110000000000
21
608.330000000000
31
0.0
0
LINE
5
501
100
AcDbEntity
8
0-0
6
CONTINUOUS
62
3
100
AcDbLine
10
1464.890000000000
20
600.330000000000
30
0.0
11
1454.910000000000
21
608.330000000000
31
0.0
0
LINE
5
502
100
AcDbEntity
8
0-0
6
CONTINUOUS
62
3
100
AcDbLine
10
1486.720000000000
20
600.330000000000
30
0.0
11
1496.710000000000
21
608.330000000000
31
0.0
0
LINE
5
503
100
AcDbEntity
8
0-0
6
CONTINUOUS
62
3
100
AcDbLine
10
1485.920000000000
20
600.330000000000
30
0.0
11
1495.910000000000
21
608.330000000000
31
0.0
0
LINE
5
504
100
AcDbEntity
8
0-0
6
CONTINUOUS
62
3
100
AcDbLine
10
1527.690000000000
20
600.330000000000
30
0.0
11
1517.710000000000
21
608.330000000000
31
0.0
0
LINE
5
505
100
AcDbEntity
8
0-0
6
CONTINUOUS
62
3
100
AcDbLine
10
1528.490000000000
20
600.330000000000
30
0.0
11
1518.510000000000
21
608.330000000000
31
0.0
0
LINE
5
506
100
AcDbEntity
8
0-0
6
CONTINUOUS
62
3
100
AcDbLine
10
1534.610000000000
20
597.390000000000
30
0.0
11
1534.480000000000
21
596.900000000000
31
0.0
0
LINE
5
507
100
AcDbEntity
8
0-0
6
CONTINUOUS
62
3
100
AcDbLine
10
1464.100000000000
20
598.330000000000
30
0.0
11
1454.110000000000
21
606.330000000000
31
0.0
0
LINE
5
508
100
AcDbEntity
8
0-0
6
CONTINUOUS
62
3
100
AcDbLine
10
1464.890000000000
20
598.330000000000
30
0.0
11
1454.910000000000
21
606.330000000000
31
0.0
0
LINE
5
509
100
AcDbEntity
8
0-0
6
CONTINUOUS
62
3
100
AcDbLine
10
1423.120000000000
20
598.330000000000
30
0.0
11
1433.110000000000
21
606.330000000000
31
0.0
0
LINE
5
50a
100
AcDbEntity
8
0-0
6
CONTINUOUS
62
3
100
AcDbLine
10
1422.320000000000
20
598.330000000000
30
0.0
11
1432.310000000000
21
606.330000000000
31
0.0
0
LINE
5
50b
100
AcDbEntity
8
0-0
6
CONTINUOUS
62
3
100
AcDbLine
10
1416.210000000000
20
595.390000000000
30
0.0
11
1416.330000000000
21
594.900000000000
31
0.0
0
LINE
5
50c
100
AcDbEntity
8
0-0
6
CONTINUOUS
62
3
100
AcDbLine
10
1486.720000000000
20
598.330000000000
30
0.0
11
1496.710000000000
21
606.330000000000
31
0.0
0
LINE
5
50d
100
AcDbEntity
8
0-0
6
CONTINUOUS
62
3
100
AcDbLine
10
1485.920000000000
20
598.330000000000
30
0.0
11
1495.910000000000
21
606.330000000000
31
0.0
0
LINE
5
50e
100
AcDbEntity
8
0-0
6
CONTINUOUS
62
3
100
AcDbLine
10
1527.700000000000
20
598.330000000000
30
0.0
11
1517.710000000000
21
606.330000000000
31
0.0
0
LINE
5
50f
100
AcDbEntity
8
0-0
6
CONTINUOUS
62
3
100
AcDbLine
10
1528.490000000000
20
598.330000000000
30
0.0
11
1518.510000000000
21
606.330000000000
31
0.0
0
LINE
5
510
100
AcDbEntity
8
0-0
6
CONTINUOUS
62
3
100
AcDbLine
10
1422.660000000000
20
599.960000000000
30
0.0
11
1433.110000000000
21
608.330000000000
31
0.0
0
LINE
5
511
100
AcDbEntity
8
0-0
6
CONTINUOUS
62
3
100
AcDbLine
10
1432.290000000000
20
608.330000000000
30
0.0
11
1422.320000000000
21
600.330000000000
31
0.0
0
LINE
5
512
100
AcDbEntity
8
0-0
6
CONTINUOUS
62
3
100
AcDbLine
10
1359.520000000000
20
599.330000000000
30
0.0
11
1369.510000000000
21
607.330000000000
31
0.0
0
LINE
5
513
100
AcDbEntity
8
0-0
6
CONTINUOUS
62
3
100
AcDbLine
10
1358.720000000000
20
599.330000000000
30
0.0
11
1368.710000000000
21
607.330000000000
31
0.0
0
LINE
5
514
100
AcDbEntity
8
0-0
6
CONTINUOUS
62
3
100
AcDbLine
10
1389.780000000000
20
607.840000000000
30
0.0
11
1401.310000000000
21
599.320000000000
31
0.0
0
LINE
5
515
100
AcDbEntity
8
0-0
6
CONTINUOUS
62
3
100
AcDbLine
10
1390.070000000000
20
608.250000000000
30
0.0
11
1401.610000000000
21
599.730000000000
31
0.0
0
LINE
5
516
100
AcDbEntity
8
0-0
6
CONTINUOUS
62
3
100
AcDbLine
10
1202.890000000000
20
599.330000000000
30
0.0
11
1192.900000000000
21
607.330000000000
31
0.0
0
LINE
5
517
100
AcDbEntity
8
0-0
6
CONTINUOUS
62
3
100
AcDbLine
10
1203.690000000000
20
599.330000000000
30
0.0
11
1193.700000000000
21
607.330000000000
31
0.0
0
LINE
5
518
100
AcDbEntity
8
0-0
6
CONTINUOUS
62
3
100
AcDbLine
10
1225.510000000000
20
599.330000000000
30
0.0
11
1235.500000000000
21
607.330000000000
31
0.0
0
LINE
5
519
100
AcDbEntity
8
0-0
6
CONTINUOUS
62
3
100
AcDbLine
10
1224.710000000000
20
599.330000000000
30
0.0
11
1234.700000000000
21
607.330000000000
31
0.0
0
LINE
5
51a
100
AcDbEntity
8
0-0
6
CONTINUOUS
62
3
100
AcDbLine
10
1266.490000000000
20
599.330000000000
30
0.0
11
1256.500000000000
21
607.330000000000
31
0.0
0
LINE
5
51b
100
AcDbEntity
8
0-0
6
CONTINUOUS
62
3
100
AcDbLine
10
1267.290000000000
20
599.330000000000
30
0.0
11
1257.300000000000
21
607.330000000000
31
0.0
0
LINE
5
51c
100
AcDbEntity
8
0-0
6
CONTINUOUS
62
3
100
AcDbLine
10
1273.400000000000
20
596.390000000000
30
0.0
11
1273.270000000000
21
595.900000000000
31
0.0
0
LINE
5
51d
100
AcDbEntity
8
0-0
6
CONTINUOUS
62
3
100
AcDbLine
10
1161.450000000000
20
598.960000000000
30
0.0
11
1171.900000000000
21
607.330000000000
31
0.0
0
LINE
5
51e
100
AcDbEntity
8
0-0
6
CONTINUOUS
62
3
100
AcDbLine
10
1171.090000000000
20
607.330000000000
30
0.0
11
1161.110000000000
21
599.330000000000
31
0.0
0
LINE
5
51f
100
AcDbEntity
8
0-0
6
CONTINUOUS
62
3
100
AcDbLine
10
1098.310000000000
20
598.330000000000
30
0.0
11
1108.300000000000
21
606.330000000000
31
0.0
0
LINE
5
520
100
AcDbEntity
8
0-0
6
CONTINUOUS
62
3
100
AcDbLine
10
1097.510000000000
20
598.330000000000
30
0.0
11
1107.500000000000
21
606.330000000000
31
0.0
0
LINE
5
521
100
AcDbEntity
8
0-0
6
CONTINUOUS
62
3
100
AcDbLine
10
1128.570000000000
20
606.840000000000
30
0.0
11
1140.100000000000
21
598.320000000000
31
0.0
0
LINE
5
522
100
AcDbEntity
8
0-0
6
CONTINUOUS
62
3
100
AcDbLine
10
1128.860000000000
20
607.250000000000
30
0.0
11
1140.400000000000
21
598.730000000000
31
0.0
0
LINE
5
523
100
AcDbEntity
8
0-0
6
CONTINUOUS
62
3
100
AcDbLine
10
503.290000000000
20
598.330000000000
30
0.0
11
493.300000000000
21
606.330000000000
31
0.0
0
LINE
5
524
100
AcDbEntity
8
0-0
6
CONTINUOUS
62
3
100
AcDbLine
10
504.090000000000
20
598.330000000000
30
0.0
11
494.100000000000
21
606.330000000000
31
0.0
0
LINE
5
525
100
AcDbEntity
8
0-0
6
CONTINUOUS
62
3
100
AcDbLine
10
462.310000000000
20
598.330000000000
30
0.0
11
472.300000000000
21
606.330000000000
31
0.0
0
LINE
5
526
100
AcDbEntity
8
0-0
6
CONTINUOUS
62
3
100
AcDbLine
10
461.510000000000
20
598.330000000000
30
0.0
11
471.500000000000
21
606.330000000000
31
0.0
0
LINE
5
527
100
AcDbEntity
8
0-0
6
CONTINUOUS
62
3
100
AcDbLine
10
455.400000000000
20
595.390000000000
30
0.0
11
455.530000000000
21
594.900000000000
31
0.0
0
LINE
5
528
100
AcDbEntity
8
0-0
6
CONTINUOUS
62
3
100
AcDbLine
10
525.910000000000
20
598.330000000000
30
0.0
11
535.900000000000
21
606.330000000000
31
0.0
0
LINE
5
529
100
AcDbEntity
8
0-0
6
CONTINUOUS
62
3
100
AcDbLine
10
525.110000000000
20
598.330000000000
30
0.0
11
535.100000000000
21
606.330000000000
31
0.0
0
LINE
5
52a
100
AcDbEntity
8
0-0
6
CONTINUOUS
62
3
100
AcDbLine
10
566.890000000000
20
598.330000000000
30
0.0
11
556.900000000000
21
606.330000000000
31
0.0
0
LINE
5
52b
100
AcDbEntity
8
0-0
6
CONTINUOUS
62
3
100
AcDbLine
10
567.690000000000
20
598.330000000000
30
0.0
11
557.700000000000
21
606.330000000000
31
0.0
0
LINE
5
52c
100
AcDbEntity
8
0-0
6
CONTINUOUS
62
3
100
AcDbLine
10
1550.320000000000
20
598.330000000000
30
0.0
11
1560.310000000000
21
606.330000000000
31
0.0
0
LINE
5
52d
100
AcDbEntity
8
0-0
6
CONTINUOUS
62
3
100
AcDbLine
10
1549.520000000000
20
598.330000000000
30
0.0
11
1559.510000000000
21
606.330000000000
31
0.0
0
LINE
5
52e
100
AcDbEntity
8
0-0
6
CONTINUOUS
62
3
100
AcDbLine
10
1591.300000000000
20
598.330000000000
30
0.0
11
1581.310000000000
21
606.330000000000
31
0.0
0
LINE
5
52f
100
AcDbEntity
8
0-0
6
CONTINUOUS
62
3
100
AcDbLine
10
1592.090000000000
20
598.330000000000
30
0.0
11
1582.110000000000
21
606.330000000000
31
0.0
0
LINE
5
530
100
AcDbEntity
8
0-0
6
CONTINUOUS
62
7
100
AcDbLine
10
1416.210000000000
20
564.330000000000
30
0.0
11
1534.610000000000
21
564.330000000000
31
0.0
0
LINE
5
531
100
AcDbEntity
8
0-0
6
CONTINUOUS
62
7
100
AcDbLine
10
1534.610000000000
20
589.330000000000
30
0.0
11
1534.610000000000
21
564.330000000000
31
0.0
0
LINE
5
532
100
AcDbEntity
8
0-0
6
CONTINUOUS
62
7
100
AcDbLine
10
1416.210000000000
20
589.330000000000
30
0.0
11
1416.210000000000
21
564.330000000000
31
0.0
0
LINE
5
533
100
AcDbEntity
8
0-0
6
CONTINUOUS
62
7
100
AcDbLine
10
1182.400000000000
20
564.330000000000
30
0.0
11
1182.400000000000
21
534.330000000000
31
0.0
0
POLYLINE
5
534
100
AcDbEntity
8
0-0
6
CONTINUOUS
62
  7
100
AcDb2dPolyline
66
1
10
0.0
20
0.0
30
0.0
70
0
0
VERTEX
5
535
100
AcDbEntity
8
0-0
6
CONTINUOUS
62
  7
100
AcDbVertex
100
AcDb2dVertex
10
482.800000000000
20
564.330000000000
30
0.0
0
VERTEX
5
536
100
AcDbEntity
8
0-0
6
CONTINUOUS
62
  7
100
AcDbVertex
100
AcDb2dVertex
10
482.800000000000
20
534.330000000000
30
0.0
0
VERTEX
5
537
100
AcDbEntity
8
0-0
6
CONTINUOUS
62
  7
100
AcDbVertex
100
AcDb2dVertex
10
1182.400000000000
20
534.330000000000
30
0.0
0
SEQEND
5
538
100
AcDbEntity
8
0-0
0
ARC
5
539
100
AcDbEntity
8
0-0
6
CONTINUOUS
62
3
100
AcDbCircle
10
578.200000000000
20
612.330000000000
30
0.0
40
17.999999726847
100
AcDbArc
50
270.000000000000
51
308.942565917969
0
ARC
5
53a
100
AcDbEntity
8
0-0
6
CONTINUOUS
62
3
100
AcDbCircle
10
578.200000000000
20
612.330000000000
30
0.0
40
17.500000508605
100
AcDbArc
50
270.000000000000
51
306.870025634766
0
ARC
5
53b
100
AcDbEntity
8
0-0
6
CONTINUOUS
62
3
100
AcDbCircle
10
610.000000000000
20
592.330000000000
30
0.0
40
17.500000508605
100
AcDbArc
50
90.000000000000
51
126.870025634766
0
ARC
5
53c
100
AcDbEntity
8
0-0
6
CONTINUOUS
62
3
100
AcDbCircle
10
610.000000000000
20
592.330000000000
30
0.0
40
17.999999726847
100
AcDbArc
50
90.000000000000
51
128.942565917969
0
ARC
5
53d
100
AcDbEntity
8
0-0
6
CONTINUOUS
62
3
100
AcDbCircle
10
610.000000000000
20
592.330000000000
30
0.0
40
17.500000508605
100
AcDbArc
50
53.129974365234
51
90.000000000000
0
ARC
5
53e
100
AcDbEntity
8
0-0
6
CONTINUOUS
62
3
100
AcDbCircle
10
610.000000000000
20
592.330000000000
30
0.0
40
17.999999726847
100
AcDbArc
50
51.057434082031
51
90.000000000000
0
ARC
5
53f
100
AcDbEntity
8
0-0
6
CONTINUOUS
62
3
100
AcDbCircle
10
641.800000000000
20
612.330000000000
30
0.0
40
17.500000508605
100
AcDbArc
50
233.129974365234
51
270.000000000000
0
ARC
5
540
100
AcDbEntity
8
0-0
6
CONTINUOUS
62
3
100
AcDbCircle
10
641.800000000000
20
612.330000000000
30
0.0
40
17.999999726847
100
AcDbArc
50
231.057434082031
51
270.000000000000
0
ARC
5
541
100
AcDbEntity
8
0-0
6
CONTINUOUS
62
3
100
AcDbCircle
10
769.000000000000
20
612.330000000000
30
0.0
40
17.999999726847
100
AcDbArc
50
270.000000000000
51
308.942565917969
0
ARC
5
542
100
AcDbEntity
8
0-0
6
CONTINUOUS
62
3
100
AcDbCircle
10
769.000000000000
20
612.330000000000
30
0.0
40
17.500000508605
100
AcDbArc
50
270.000000000000
51
306.870025634766
0
ARC
5
543
100
AcDbEntity
8
0-0
6
CONTINUOUS
62
3
100
AcDbCircle
10
800.800000000000
20
592.330000000000
30
0.0
40
17.500000508605
100
AcDbArc
50
90.000000000000
51
126.870025634766
0
ARC
5
544
100
AcDbEntity
8
0-0
6
CONTINUOUS
62
3
100
AcDbCircle
10
800.800000000000
20
592.330000000000
30
0.0
40
17.999999726847
100
AcDbArc
50
90.000000000000
51
128.942565917969
0
ARC
5
545
100
AcDbEntity
8
0-0
6
CONTINUOUS
62
3
100
AcDbCircle
10
769.000000000000
20
612.330000000000
30
0.0
40
17.500000508605
100
AcDbArc
50
233.129974365234
51
270.000000000000
0
ARC
5
546
100
AcDbEntity
8
0-0
6
CONTINUOUS
62
3
100
AcDbCircle
10
769.000000000000
20
612.330000000000
30
0.0
40
17.999999726847
100
AcDbArc
50
231.057434082031
51
270.000000000000
0
ARC
5
547
100
AcDbEntity
8
0-0
6
CONTINUOUS
62
3
100
AcDbCircle
10
737.200000000000
20
592.330000000000
30
0.0
40
17.999999726847
100
AcDbArc
50
51.057434082031
51
90.000000000000
0
ARC
5
548
100
AcDbEntity
8
0-0
6
CONTINUOUS
62
3
100
AcDbCircle
10
737.200000000000
20
592.330000000000
30
0.0
40
17.500000508605
100
AcDbArc
50
53.129974365234
51
90.000000000000
0
ARC
5
549
100
AcDbEntity
8
0-0
6
CONTINUOUS
62
3
100
AcDbCircle
10
800.800000000000
20
592.330000000000
30
0.0
40
17.500000508605
100
AcDbArc
50
53.129974365234
51
90.000000000000
0
ARC
5
54a
100
AcDbEntity
8
0-0
6
CONTINUOUS
62
3
100
AcDbCircle
10
800.800000000000
20
592.330000000000
30
0.0
40
17.999999726847
100
AcDbArc
50
51.057434082031
51
90.000000000000
0
ARC
5
54b
100
AcDbEntity
8
0-0
6
CONTINUOUS
62
3
100
AcDbCircle
10
832.600000000000
20
612.330000000000
30
0.0
40
17.500000508605
100
AcDbArc
50
233.129974365234
51
270.000000000000
0
ARC
5
54c
100
AcDbEntity
8
0-0
6
CONTINUOUS
62
3
100
AcDbCircle
10
832.600000000000
20
612.330000000000
30
0.0
40
17.999999726847
100
AcDbArc
50
231.057434082031
51
270.000000000000
0
ARC
5
54d
100
AcDbEntity
8
0-0
6
CONTINUOUS
62
3
100
AcDbCircle
10
705.400000000000
20
612.330000000000
30
0.0
40
17.999999726847
100
AcDbArc
50
231.057434082031
51
270.000000000000
0
ARC
5
54e
100
AcDbEntity
8
0-0
6
CONTINUOUS
62
3
100
AcDbCircle
10
705.400000000000
20
612.330000000000
30
0.0
40
17.500000508605
100
AcDbArc
50
233.129974365234
51
270.000000000000
0
ARC
5
54f
100
AcDbEntity
8
0-0
6
CONTINUOUS
62
3
100
AcDbCircle
10
673.600000000000
20
592.330000000000
30
0.0
40
17.500000508605
100
AcDbArc
50
53.129974365234
51
90.000000000000
0
ARC
5
550
100
AcDbEntity
8
0-0
6
CONTINUOUS
62
3
100
AcDbCircle
10
673.600000000000
20
592.330000000000
30
0.0
40
17.999999726847
100
AcDbArc
50
51.057434082031
51
90.000000000000
0
ARC
5
551
100
AcDbEntity
8
0-0
6
CONTINUOUS
62
3
100
AcDbCircle
10
705.400000000000
20
612.330000000000
30
0.0
40
17.500000508605
100
AcDbArc
50
270.000000000000
51
306.870025634766
0
ARC
5
552
100
AcDbEntity
8
0-0
6
CONTINUOUS
62
3
100
AcDbCircle
10
705.400000000000
20
612.330000000000
30
0.0
40
17.999999726847
100
AcDbArc
50
270.000000000000
51
308.942565917969
0
ARC
5
553
100
AcDbEntity
8
0-0
6
CONTINUOUS
62
3
100
AcDbCircle
10
737.200000000000
20
592.330000000000
30
0.0
40
17.999999726847
100
AcDbArc
50
90.000000000000
51
128.942565917969
0
ARC
5
554
100
AcDbEntity
8
0-0
6
CONTINUOUS
62
3
100
AcDbCircle
10
737.200000000000
20
592.330000000000
30
0.0
40
17.500000508605
100
AcDbArc
50
90.000000000000
51
126.870025634766
0
ARC
5
555
100
AcDbEntity
8
0-0
6
CONTINUOUS
62
3
100
AcDbCircle
10
673.600000000000
20
592.330000000000
30
0.0
40
17.500000508605
100
AcDbArc
50
90.000000000000
51
126.870025634766
0
ARC
5
556
100
AcDbEntity
8
0-0
6
CONTINUOUS
62
3
100
AcDbCircle
10
673.600000000000
20
592.330000000000
30
0.0
40
17.999999726847
100
AcDbArc
50
90.000000000000
51
128.942565917969
0
ARC
5
557
100
AcDbEntity
8
0-0
6
CONTINUOUS
62
3
100
AcDbCircle
10
641.800000000000
20
612.330000000000
30
0.0
40
17.500000508605
100
AcDbArc
50
270.000000000000
51
306.870025634766
0
ARC
5
558
100
AcDbEntity
8
0-0
6
CONTINUOUS
62
3
100
AcDbCircle
10
641.800000000000
20
612.330000000000
30
0.0
40
17.999999726847
100
AcDbArc
50
270.000000000000
51
308.942565917969
0
ARC
5
559
100
AcDbEntity
8
0-0
6
CONTINUOUS
62
3
100
AcDbCircle
10
1087.000000000000
20
612.330000000000
30
0.0
40
17.999999726847
100
AcDbArc
50
231.057434082031
51
270.000000000000
0
ARC
5
55a
100
AcDbEntity
8
0-0
6
CONTINUOUS
62
3
100
AcDbCircle
10
1087.000000000000
20
612.330000000000
30
0.0
40
17.500000508605
100
AcDbArc
50
233.129974365234
51
270.000000000000
0
ARC
5
55b
100
AcDbEntity
8
0-0
6
CONTINUOUS
62
3
100
AcDbCircle
10
1055.200000000000
20
592.330000000000
30
0.0
40
17.500000508605
100
AcDbArc
50
53.129974365234
51
90.000000000000
0
ARC
5
55c
100
AcDbEntity
8
0-0
6
CONTINUOUS
62
3
100
AcDbCircle
10
1055.200000000000
20
592.330000000000
30
0.0
40
17.999999726847
100
AcDbArc
50
51.057434082031
51
90.000000000000
0
ARC
5
55d
100
AcDbEntity
8
0-0
6
CONTINUOUS
62
3
100
AcDbCircle
10
1055.200000000000
20
592.330000000000
30
0.0
40
17.500000508605
100
AcDbArc
50
90.000000000000
51
126.870025634766
0
ARC
5
55e
100
AcDbEntity
8
0-0
6
CONTINUOUS
62
3
100
AcDbCircle
10
1055.200000000000
20
592.330000000000
30
0.0
40
17.999999726847
100
AcDbArc
50
90.000000000000
51
128.942565917969
0
ARC
5
55f
100
AcDbEntity
8
0-0
6
CONTINUOUS
62
3
100
AcDbCircle
10
1023.400000000000
20
612.330000000000
30
0.0
40
17.500000508605
100
AcDbArc
50
270.000000000000
51
306.870025634766
0
ARC
5
560
100
AcDbEntity
8
0-0
6
CONTINUOUS
62
3
100
AcDbCircle
10
1023.400000000000
20
612.330000000000
30
0.0
40
17.999999726847
100
AcDbArc
50
270.000000000000
51
308.942565917969
0
ARC
5
561
100
AcDbEntity
8
0-0
6
CONTINUOUS
62
3
100
AcDbCircle
10
896.200000000000
20
612.330000000000
30
0.0
40
17.999999726847
100
AcDbArc
50
231.057434082031
51
270.000000000000
0
ARC
5
562
100
AcDbEntity
8
0-0
6
CONTINUOUS
62
3
100
AcDbCircle
10
896.200000000000
20
612.330000000000
30
0.0
40
17.500000508605
100
AcDbArc
50
233.129974365234
51
270.000000000000
0
ARC
5
563
100
AcDbEntity
8
0-0
6
CONTINUOUS
62
3
100
AcDbCircle
10
864.400000000000
20
592.330000000000
30
0.0
40
17.500000508605
100
AcDbArc
50
53.129974365234
51
90.000000000000
0
ARC
5
564
100
AcDbEntity
8
0-0
6
CONTINUOUS
62
3
100
AcDbCircle
10
864.400000000000
20
592.330000000000
30
0.0
40
17.999999726847
100
AcDbArc
50
51.057434082031
51
90.000000000000
0
ARC
5
565
100
AcDbEntity
8
0-0
6
CONTINUOUS
62
3
100
AcDbCircle
10
896.200000000000
20
612.330000000000
30
0.0
40
17.500000508605
100
AcDbArc
50
270.000000000000
51
306.870025634766
0
ARC
5
566
100
AcDbEntity
8
0-0
6
CONTINUOUS
62
3
100
AcDbCircle
10
896.200000000000
20
612.330000000000
30
0.0
40
17.999999726847
100
AcDbArc
50
270.000000000000
51
308.942565917969
0
ARC
5
567
100
AcDbEntity
8
0-0
6
CONTINUOUS
62
3
100
AcDbCircle
10
928.000000000000
20
592.330000000000
30
0.0
40
17.999999726847
100
AcDbArc
50
90.000000000000
51
128.942565917969
0
ARC
5
568
100
AcDbEntity
8
0-0
6
CONTINUOUS
62
3
100
AcDbCircle
10
928.000000000000
20
592.330000000000
30
0.0
40
17.500000508605
100
AcDbArc
50
90.000000000000
51
126.870025634766
0
ARC
5
569
100
AcDbEntity
8
0-0
6
CONTINUOUS
62
3
100
AcDbCircle
10
864.400000000000
20
592.330000000000
30
0.0
40
17.500000508605
100
AcDbArc
50
90.000000000000
51
126.870025634766
0
ARC
5
56a
100
AcDbEntity
8
0-0
6
CONTINUOUS
62
3
100
AcDbCircle
10
864.400000000000
20
592.330000000000
30
0.0
40
17.999999726847
100
AcDbArc
50
90.000000000000
51
128.942565917969
0
ARC
5
56b
100
AcDbEntity
8
0-0
6
CONTINUOUS
62
3
100
AcDbCircle
10
832.600000000000
20
612.330000000000
30
0.0
40
17.500000508605
100
AcDbArc
50
270.000000000000
51
306.870025634766
0
ARC
5
56c
100
AcDbEntity
8
0-0
6
CONTINUOUS
62
3
100
AcDbCircle
10
832.600000000000
20
612.330000000000
30
0.0
40
17.999999726847
100
AcDbArc
50
270.000000000000
51
308.942565917969
0
ARC
5
56d
100
AcDbEntity
8
0-0
6
CONTINUOUS
62
3
100
AcDbCircle
10
959.800000000000
20
612.330000000000
30
0.0
40
17.999999726847
100
AcDbArc
50
270.000000000000
51
308.942565917969
0
ARC
5
56e
100
AcDbEntity
8
0-0
6
CONTINUOUS
62
3
100
AcDbCircle
10
959.800000000000
20
612.330000000000
30
0.0
40
17.500000508605
100
AcDbArc
50
270.000000000000
51
306.870025634766
0
ARC
5
56f
100
AcDbEntity
8
0-0
6
CONTINUOUS
62
3
100
AcDbCircle
10
991.600000000000
20
592.330000000000
30
0.0
40
17.500000508605
100
AcDbArc
50
90.000000000000
51
126.870025634766
0
ARC
5
570
100
AcDbEntity
8
0-0
6
CONTINUOUS
62
3
100
AcDbCircle
10
991.600000000000
20
592.330000000000
30
0.0
40
17.999999726847
100
AcDbArc
50
90.000000000000
51
128.942565917969
0
ARC
5
571
100
AcDbEntity
8
0-0
6
CONTINUOUS
62
3
100
AcDbCircle
10
959.800000000000
20
612.330000000000
30
0.0
40
17.500000508605
100
AcDbArc
50
233.129974365234
51
270.000000000000
0
ARC
5
572
100
AcDbEntity
8
0-0
6
CONTINUOUS
62
3
100
AcDbCircle
10
959.800000000000
20
612.330000000000
30
0.0
40
17.999999726847
100
AcDbArc
50
231.057434082031
51
270.000000000000
0
ARC
5
573
100
AcDbEntity
8
0-0
6
CONTINUOUS
62
3
100
AcDbCircle
10
928.000000000000
20
592.330000000000
30
0.0
40
17.999999726847
100
AcDbArc
50
51.057434082031
51
90.000000000000
0
ARC
5
574
100
AcDbEntity
8
0-0
6
CONTINUOUS
62
3
100
AcDbCircle
10
928.000000000000
20
592.330000000000
30
0.0
40
17.500000508605
100
AcDbArc
50
53.129974365234
51
90.000000000000
0
ARC
5
575
100
AcDbEntity
8
0-0
6
CONTINUOUS
62
3
100
AcDbCircle
10
991.600000000000
20
592.330000000000
30
0.0
40
17.500000508605
100
AcDbArc
50
53.129974365234
51
90.000000000000
0
ARC
5
576
100
AcDbEntity
8
0-0
6
CONTINUOUS
62
3
100
AcDbCircle
10
991.600000000000
20
592.330000000000
30
0.0
40
17.999999726847
100
AcDbArc
50
51.057434082031
51
90.000000000000
0
ARC
5
577
100
AcDbEntity
8
0-0
6
CONTINUOUS
62
3
100
AcDbCircle
10
1023.400000000000
20
612.330000000000
30
0.0
40
17.500000508605
100
AcDbArc
50
233.129974365234
51
270.000000000000
0
ARC
5
578
100
AcDbEntity
8
0-0
6
CONTINUOUS
62
3
100
AcDbCircle
10
1023.400000000000
20
612.330000000000
30
0.0
40
17.999999726847
100
AcDbArc
50
231.057434082031
51
270.000000000000
0
CIRCLE
5
579
100
AcDbEntity
8
F-F
6
CONTINUOUS
62
3
100
AcDbCircle
10
79.720000000000
20
67.100000000000
30
0.0
40
11.313709759210
0
CIRCLE
5
57a
100
AcDbEntity
8
F-F
6
CONTINUOUS
62
3
100
AcDbCircle
10
79.720000000000
20
67.100000000000
30
0.0
40
12.913709270428
0
CIRCLE
5
57b
100
AcDbEntity
8
F-F
6
CONTINUOUS
62
4
100
AcDbCircle
10
79.720000000000
20
67.100000000000
30
0.0
40
11.473710561919
0
CIRCLE
5
57c
100
AcDbEntity
8
F-F
6
CONTINUOUS
62
4
100
AcDbCircle
10
79.720000000000
20
67.100000000000
30
0.0
40
11.793707522317
0
CIRCLE
5
57d
100
AcDbEntity
8
F-F
6
CONTINUOUS
62
4
100
AcDbCircle
10
79.720000000000
20
67.100000000000
30
0.0
40
12.113709127734
0
CIRCLE
5
57e
100
AcDbEntity
8
F-F
6
CONTINUOUS
62
4
100
AcDbCircle
10
79.720000000000
20
67.100000000000
30
0.0
40
12.433706862302
0
CIRCLE
5
57f
100
AcDbEntity
8
F-F
6
CONTINUOUS
62
4
100
AcDbCircle
10
79.720000000000
20
67.100000000000
30
0.0
40
12.753706145210
0
ARC
5
580
100
AcDbEntity
8
0-0
6
CONTINUOUS
62
3
100
AcDbCircle
10
1443.610000000000
20
594.330000000000
30
0.0
40
17.500000508605
100
AcDbArc
50
90.000000000000
51
126.870025634766
0
ARC
5
581
100
AcDbEntity
8
0-0
6
CONTINUOUS
62
3
100
AcDbCircle
10
1443.610000000000
20
594.330000000000
30
0.0
40
17.999999726847
100
AcDbArc
50
90.000000000000
51
128.942565917969
0
ARC
5
582
100
AcDbEntity
8
0-0
6
CONTINUOUS
62
3
100
AcDbCircle
10
1443.610000000000
20
594.330000000000
30
0.0
40
17.500000508605
100
AcDbArc
50
53.129974365234
51
90.000000000000
0
ARC
5
583
100
AcDbEntity
8
0-0
6
CONTINUOUS
62
3
100
AcDbCircle
10
1443.610000000000
20
594.330000000000
30
0.0
40
17.999999726847
100
AcDbArc
50
51.057434082031
51
90.000000000000
0
ARC
5
584
100
AcDbEntity
8
0-0
6
CONTINUOUS
62
3
100
AcDbCircle
10
1475.410000000000
20
614.330000000000
30
0.0
40
17.500000508605
100
AcDbArc
50
233.129974365234
51
270.000000000000
0
ARC
5
585
100
AcDbEntity
8
0-0
6
CONTINUOUS
62
3
100
AcDbCircle
10
1475.410000000000
20
614.330000000000
30
0.0
40
17.999999726847
100
AcDbArc
50
231.057434082031
51
270.000000000000
0
ARC
5
586
100
AcDbEntity
8
0-0
6
CONTINUOUS
62
3
100
AcDbCircle
10
1507.210000000000
20
594.330000000000
30
0.0
40
17.500000508605
100
AcDbArc
50
90.000000000000
51
126.870025634766
0
ARC
5
587
100
AcDbEntity
8
0-0
6
CONTINUOUS
62
3
100
AcDbCircle
10
1507.210000000000
20
594.330000000000
30
0.0
40
17.999999726847
100
AcDbArc
50
90.000000000000
51
128.942565917969
0
ARC
5
588
100
AcDbEntity
8
0-0
6
CONTINUOUS
62
3
100
AcDbCircle
10
1475.410000000000
20
614.330000000000
30
0.0
40
17.500000508605
100
AcDbArc
50
270.000000000000
51
306.870025634766
0
ARC
5
589
100
AcDbEntity
8
0-0
6
CONTINUOUS
62
3
100
AcDbCircle
10
1475.410000000000
20
614.330000000000
30
0.0
40
17.999999726847
100
AcDbArc
50
270.000000000000
51
308.942565917969
0
ARC
5
58a
100
AcDbEntity
8
0-0
6
CONTINUOUS
62
3
100
AcDbCircle
10
1507.210000000000
20
594.330000000000
30
0.0
40
17.500000508605
100
AcDbArc
50
53.129974365234
51
90.000000000000
0
ARC
5
58b
100
AcDbEntity
8
0-0
6
CONTINUOUS
62
3
100
AcDbCircle
10
1507.210000000000
20
594.330000000000
30
0.0
40
17.999999726847
100
AcDbArc
50
51.057434082031
51
90.000000000000
0
ARC
5
58c
100
AcDbEntity
8
0-0
6
CONTINUOUS
62
3
100
AcDbCircle
10
1539.010000000000
20
614.330000000000
30
0.0
40
17.999999726847
100
AcDbArc
50
231.057434082031
51
255.438949584961
0
ARC
5
58d
100
AcDbEntity
8
0-0
6
CONTINUOUS
62
3
100
AcDbCircle
10
1539.010000000000
20
614.330000000000
30
0.0
40
17.500000508605
100
AcDbArc
50
233.129974365234
51
255.439056396484
0
ARC
5
58e
100
AcDbEntity
8
0-0
6
CONTINUOUS
62
3
100
AcDbCircle
10
1475.410000000000
20
612.330000000000
30
0.0
40
17.999999726847
100
AcDbArc
50
231.057434082031
51
270.000000000000
0
ARC
5
58f
100
AcDbEntity
8
0-0
6
CONTINUOUS
62
3
100
AcDbCircle
10
1475.410000000000
20
612.330000000000
30
0.0
40
17.500000508605
100
AcDbArc
50
233.129974365234
51
270.000000000000
0
ARC
5
590
100
AcDbEntity
8
0-0
6
CONTINUOUS
62
3
100
AcDbCircle
10
1443.610000000000
20
592.330000000000
30
0.0
40
17.500000508605
100
AcDbArc
50
53.129974365234
51
90.000000000000
0
ARC
5
591
100
AcDbEntity
8
0-0
6
CONTINUOUS
62
3
100
AcDbCircle
10
1443.610000000000
20
592.330000000000
30
0.0
40
17.999999726847
100
AcDbArc
50
51.057434082031
51
90.000000000000
0
ARC
5
592
100
AcDbEntity
8
0-0
6
CONTINUOUS
62
3
100
AcDbCircle
10
1443.610000000000
20
592.330000000000
30
0.0
40
17.500000508605
100
AcDbArc
50
90.000000000000
51
126.870025634766
0
ARC
5
593
100
AcDbEntity
8
0-0
6
CONTINUOUS
62
3
100
AcDbCircle
10
1443.610000000000
20
592.330000000000
30
0.0
40
17.999999726847
100
AcDbArc
50
90.000000000000
51
128.942565917969
0
ARC
5
594
100
AcDbEntity
8
0-0
6
CONTINUOUS
62
3
100
AcDbCircle
10
1411.810000000000
20
612.330000000000
30
0.0
40
17.999999726847
100
AcDbArc
50
284.561737060547
51
308.942565917969
0
ARC
5
595
100
AcDbEntity
8
0-0
6
CONTINUOUS
62
3
100
AcDbCircle
10
1411.810000000000
20
612.330000000000
30
0.0
40
17.500000508605
100
AcDbArc
50
284.561767578125
51
306.870025634766
0
ARC
5
596
100
AcDbEntity
8
0-0
6
CONTINUOUS
62
3
100
AcDbCircle
10
1475.410000000000
20
612.330000000000
30
0.0
40
17.999999726847
100
AcDbArc
50
270.000000000000
51
308.942565917969
0
ARC
5
597
100
AcDbEntity
8
0-0
6
CONTINUOUS
62
3
100
AcDbCircle
10
1475.410000000000
20
612.330000000000
30
0.0
40
17.500000508605
100
AcDbArc
50
270.000000000000
51
306.870025634766
0
ARC
5
598
100
AcDbEntity
8
0-0
6
CONTINUOUS
62
3
100
AcDbCircle
10
1507.210000000000
20
592.330000000000
30
0.0
40
17.500000508605
100
AcDbArc
50
90.000000000000
51
126.870025634766
0
ARC
5
599
100
AcDbEntity
8
0-0
6
CONTINUOUS
62
3
100
AcDbCircle
10
1507.210000000000
20
592.330000000000
30
0.0
40
17.999999726847
100
AcDbArc
50
90.000000000000
51
128.942565917969
0
ARC
5
59a
100
AcDbEntity
8
0-0
6
CONTINUOUS
62
3
100
AcDbCircle
10
1507.210000000000
20
592.330000000000
30
0.0
40
17.500000508605
100
AcDbArc
50
53.129974365234
51
90.000000000000
0
ARC
5
59b
100
AcDbEntity
8
0-0
6
CONTINUOUS
62
3
100
AcDbCircle
10
1507.210000000000
20
592.330000000000
30
0.0
40
17.999999726847
100
AcDbArc
50
51.057434082031
51
90.000000000000
0
ARC
5
59c
100
AcDbEntity
8
0-0
6
CONTINUOUS
62
3
100
AcDbCircle
10
1539.010000000000
20
612.330000000000
30
0.0
40
17.500000508605
100
AcDbArc
50
233.129974365234
51
270.000000000000
0
ARC
5
59d
100
AcDbEntity
8
0-0
6
CONTINUOUS
62
3
100
AcDbCircle
10
1539.010000000000
20
612.330000000000
30
0.0
40
17.999999726847
100
AcDbArc
50
231.057434082031
51
270.000000000000
0
ARC
5
59e
100
AcDbEntity
8
0-0
6
CONTINUOUS
62
3
100
AcDbCircle
10
1412.020000000000
20
611.600000000000
30
0.0
40
15.273658015530
100
AcDbArc
50
269.220825195313
51
312.437118530273
0
ARC
5
59f
100
AcDbEntity
8
0-0
6
CONTINUOUS
62
3
100
AcDbCircle
10
1348.210000000000
20
613.330000000000
30
0.0
40
17.500000508605
100
AcDbArc
50
270.000000000000
51
306.870025634766
0
ARC
5
5a0
100
AcDbEntity
8
0-0
6
CONTINUOUS
62
3
100
AcDbCircle
10
1348.210000000000
20
613.330000000000
30
0.0
40
17.999999726847
100
AcDbArc
50
270.000000000000
51
308.942565917969
0
ARC
5
5a1
100
AcDbEntity
8
0-0
6
CONTINUOUS
62
3
100
AcDbCircle
10
1380.010000000000
20
593.330000000000
30
0.0
40
17.999999726847
100
AcDbArc
50
90.000000000000
51
128.942565917969
0
ARC
5
5a2
100
AcDbEntity
8
0-0
6
CONTINUOUS
62
3
100
AcDbCircle
10
1380.010000000000
20
593.330000000000
30
0.0
40
17.500000508605
100
AcDbArc
50
90.000000000000
51
126.870025634766
0
ARC
5
5a3
100
AcDbEntity
8
0-0
6
CONTINUOUS
62
3
100
AcDbCircle
10
1411.810000000000
20
613.330000000000
30
0.0
40
17.000001290362
100
AcDbArc
50
233.129974365234
51
270.000000000000
0
ARC
5
5a4
100
AcDbEntity
8
0-0
6
CONTINUOUS
62
3
100
AcDbCircle
10
1380.010000000000
20
593.330000000000
30
0.0
40
17.500000508605
100
AcDbArc
50
56.058074951172
51
90.000000000000
0
ARC
5
5a5
100
AcDbEntity
8
0-0
6
CONTINUOUS
62
3
100
AcDbCircle
10
1380.010000000000
20
593.330000000000
30
0.0
40
17.999999726847
100
AcDbArc
50
56.025604248047
51
90.000000000000
0
ARC
5
5a6
100
AcDbEntity
8
0-0
6
CONTINUOUS
62
3
100
AcDbCircle
10
1411.810000000000
20
613.330000000000
30
0.0
40
17.500000508605
100
AcDbArc
50
233.129974365234
51
270.002914428711
0
ARC
5
5a7
100
AcDbEntity
8
0-0
6
CONTINUOUS
62
3
100
AcDbCircle
10
1412.020000000000
20
611.600000000000
30
0.0
40
15.773657233773
100
AcDbArc
50
269.248764038086
51
312.437118530273
0
ARC
5
5a8
100
AcDbEntity
8
0-0
6
CONTINUOUS
62
3
100
AcDbCircle
10
1182.400000000000
20
593.330000000000
30
0.0
40
17.500000508605
100
AcDbArc
50
90.000000000000
51
126.870025634766
0
ARC
5
5a9
100
AcDbEntity
8
0-0
6
CONTINUOUS
62
3
100
AcDbCircle
10
1182.400000000000
20
593.330000000000
30
0.0
40
17.999999726847
100
AcDbArc
50
90.000000000000
51
128.942565917969
0
ARC
5
5aa
100
AcDbEntity
8
0-0
6
CONTINUOUS
62
3
100
AcDbCircle
10
1182.400000000000
20
593.330000000000
30
0.0
40
17.500000508605
100
AcDbArc
50
53.129974365234
51
90.000000000000
0
ARC
5
5ab
100
AcDbEntity
8
0-0
6
CONTINUOUS
62
3
100
AcDbCircle
10
1182.400000000000
20
593.330000000000
30
0.0
40
17.999999726847
100
AcDbArc
50
51.057434082031
51
90.000000000000
0
ARC
5
5ac
100
AcDbEntity
8
0-0
6
CONTINUOUS
62
3
100
AcDbCircle
10
1214.200000000000
20
613.330000000000
30
0.0
40
17.500000508605
100
AcDbArc
50
233.129974365234
51
270.000000000000
0
ARC
5
5ad
100
AcDbEntity
8
0-0
6
CONTINUOUS
62
3
100
AcDbCircle
10
1214.200000000000
20
613.330000000000
30
0.0
40
17.999999726847
100
AcDbArc
50
231.057434082031
51
270.000000000000
0
ARC
5
5ae
100
AcDbEntity
8
0-0
6
CONTINUOUS
62
3
100
AcDbCircle
10
1246.000000000000
20
593.330000000000
30
0.0
40
17.500000508605
100
AcDbArc
50
90.000000000000
51
126.870025634766
0
ARC
5
5af
100
AcDbEntity
8
0-0
6
CONTINUOUS
62
3
100
AcDbCircle
10
1246.000000000000
20
593.330000000000
30
0.0
40
17.999999726847
100
AcDbArc
50
90.000000000000
51
128.942565917969
0
ARC
5
5b0
100
AcDbEntity
8
0-0
6
CONTINUOUS
62
3
100
AcDbCircle
10
1214.200000000000
20
613.330000000000
30
0.0
40
17.500000508605
100
AcDbArc
50
270.000000000000
51
306.870025634766
0
ARC
5
5b1
100
AcDbEntity
8
0-0
6
CONTINUOUS
62
3
100
AcDbCircle
10
1214.200000000000
20
613.330000000000
30
0.0
40
17.999999726847
100
AcDbArc
50
270.000000000000
51
308.942565917969
0
ARC
5
5b2
100
AcDbEntity
8
0-0
6
CONTINUOUS
62
3
100
AcDbCircle
10
1246.000000000000
20
593.330000000000
30
0.0
40
17.500000508605
100
AcDbArc
50
53.129974365234
51
90.000000000000
0
ARC
5
5b3
100
AcDbEntity
8
0-0
6
CONTINUOUS
62
3
100
AcDbCircle
10
1246.000000000000
20
593.330000000000
30
0.0
40
17.999999726847
100
AcDbArc
50
51.057434082031
51
90.000000000000
0
ARC
5
5b4
100
AcDbEntity
8
0-0
6
CONTINUOUS
62
3
100
AcDbCircle
10
1277.800000000000
20
613.330000000000
30
0.0
40
17.999999726847
100
AcDbArc
50
231.057434082031
51
255.438949584961
0
ARC
5
5b5
100
AcDbEntity
8
0-0
6
CONTINUOUS
62
3
100
AcDbCircle
10
1277.800000000000
20
613.330000000000
30
0.0
40
17.500000508605
100
AcDbArc
50
233.129974365234
51
255.439056396484
0
ARC
5
5b6
100
AcDbEntity
8
0-0
6
CONTINUOUS
62
3
100
AcDbCircle
10
1150.810000000000
20
610.600000000000
30
0.0
40
15.273658015530
100
AcDbArc
50
269.220825195313
51
312.437118530273
0
ARC
5
5b7
100
AcDbEntity
8
0-0
6
CONTINUOUS
62
3
100
AcDbCircle
10
1087.000000000000
20
612.330000000000
30
0.0
40
17.500000508605
100
AcDbArc
50
270.000000000000
51
306.870025634766
0
ARC
5
5b8
100
AcDbEntity
8
0-0
6
CONTINUOUS
62
3
100
AcDbCircle
10
1087.000000000000
20
612.330000000000
30
0.0
40
17.999999726847
100
AcDbArc
50
270.000000000000
51
308.942565917969
0
ARC
5
5b9
100
AcDbEntity
8
0-0
6
CONTINUOUS
62
3
100
AcDbCircle
10
1118.800000000000
20
592.330000000000
30
0.0
40
17.999999726847
100
AcDbArc
50
90.000000000000
51
128.942565917969
0
ARC
5
5ba
100
AcDbEntity
8
0-0
6
CONTINUOUS
62
3
100
AcDbCircle
10
1118.800000000000
20
592.330000000000
30
0.0
40
17.500000508605
100
AcDbArc
50
90.000000000000
51
126.870025634766
0
ARC
5
5bb
100
AcDbEntity
8
0-0
6
CONTINUOUS
62
3
100
AcDbCircle
10
1150.600000000000
20
612.330000000000
30
0.0
40
17.000001290362
100
AcDbArc
50
233.129974365234
51
270.000000000000
0
ARC
5
5bc
100
AcDbEntity
8
0-0
6
CONTINUOUS
62
3
100
AcDbCircle
10
1118.800000000000
20
592.330000000000
30
0.0
40
17.500000508605
100
AcDbArc
50
56.058074951172
51
90.000000000000
0
ARC
5
5bd
100
AcDbEntity
8
0-0
6
CONTINUOUS
62
3
100
AcDbCircle
10
1118.800000000000
20
592.330000000000
30
0.0
40
17.999999726847
100
AcDbArc
50
56.025604248047
51
90.000000000000
0
ARC
5
5be
100
AcDbEntity
8
0-0
6
CONTINUOUS
62
3
100
AcDbCircle
10
1150.600000000000
20
612.330000000000
30
0.0
40
17.500000508605
100
AcDbArc
50
233.129974365234
51
270.002914428711
0
ARC
5
5bf
100
AcDbEntity
8
0-0
6
CONTINUOUS
62
3
100
AcDbCircle
10
1150.810000000000
20
610.600000000000
30
0.0
40
15.773657233773
100
AcDbArc
50
269.248764038086
51
312.437118530273
0
ARC
5
5c0
100
AcDbEntity
8
0-0
6
CONTINUOUS
62
3
100
AcDbCircle
10
514.600000000000
20
612.330000000000
30
0.0
40
17.999999726847
100
AcDbArc
50
231.057434082031
51
270.000000000000
0
ARC
5
5c1
100
AcDbEntity
8
0-0
6
CONTINUOUS
62
3
100
AcDbCircle
10
514.600000000000
20
612.330000000000
30
0.0
40
17.500000508605
100
AcDbArc
50
233.129974365234
51
270.000000000000
0
ARC
5
5c2
100
AcDbEntity
8
0-0
6
CONTINUOUS
62
3
100
AcDbCircle
10
482.800000000000
20
592.330000000000
30
0.0
40
17.500000508605
100
AcDbArc
50
53.129974365234
51
90.000000000000
0
ARC
5
5c3
100
AcDbEntity
8
0-0
6
CONTINUOUS
62
3
100
AcDbCircle
10
482.800000000000
20
592.330000000000
30
0.0
40
17.999999726847
100
AcDbArc
50
51.057434082031
51
90.000000000000
0
ARC
5
5c4
100
AcDbEntity
8
0-0
6
CONTINUOUS
62
3
100
AcDbCircle
10
482.800000000000
20
592.330000000000
30
0.0
40
17.500000508605
100
AcDbArc
50
90.000000000000
51
126.870025634766
0
ARC
5
5c5
100
AcDbEntity
8
0-0
6
CONTINUOUS
62
3
100
AcDbCircle
10
482.800000000000
20
592.330000000000
30
0.0
40
17.999999726847
100
AcDbArc
50
90.000000000000
51
128.942565917969
0
ARC
5
5c6
100
AcDbEntity
8
0-0
6
CONTINUOUS
62
3
100
AcDbCircle
10
451.000000000000
20
612.330000000000
30
0.0
40
17.999999726847
100
AcDbArc
50
284.561737060547
51
308.942565917969
0
ARC
5
5c7
100
AcDbEntity
8
0-0
6
CONTINUOUS
62
3
100
AcDbCircle
10
451.000000000000
20
612.330000000000
30
0.0
40
17.500000508605
100
AcDbArc
50
284.561767578125
51
306.870025634766
0
ARC
5
5c8
100
AcDbEntity
8
0-0
6
CONTINUOUS
62
3
100
AcDbCircle
10
514.600000000000
20
612.330000000000
30
0.0
40
17.999999726847
100
AcDbArc
50
270.000000000000
51
308.942565917969
0
ARC
5
5c9
100
AcDbEntity
8
0-0
6
CONTINUOUS
62
3
100
AcDbCircle
10
514.600000000000
20
612.330000000000
30
0.0
40
17.500000508605
100
AcDbArc
50
270.000000000000
51
306.870025634766
0
ARC
5
5ca
100
AcDbEntity
8
0-0
6
CONTINUOUS
62
3
100
AcDbCircle
10
546.400000000000
20
592.330000000000
30
0.0
40
17.500000508605
100
AcDbArc
50
90.000000000000
51
126.870025634766
0
ARC
5
5cb
100
AcDbEntity
8
0-0
6
CONTINUOUS
62
3
100
AcDbCircle
10
546.400000000000
20
592.330000000000
30
0.0
40
17.999999726847
100
AcDbArc
50
90.000000000000
51
128.942565917969
0
ARC
5
5cc
100
AcDbEntity
8
0-0
6
CONTINUOUS
62
3
100
AcDbCircle
10
546.400000000000
20
592.330000000000
30
0.0
40
17.500000508605
100
AcDbArc
50
53.129974365234
51
90.000000000000
0
ARC
5
5cd
100
AcDbEntity
8
0-0
6
CONTINUOUS
62
3
100
AcDbCircle
10
546.400000000000
20
592.330000000000
30
0.0
40
17.999999726847
100
AcDbArc
50
51.057434082031
51
90.000000000000
0
ARC
5
5ce
100
AcDbEntity
8
0-0
6
CONTINUOUS
62
3
100
AcDbCircle
10
578.200000000000
20
612.330000000000
30
0.0
40
17.500000508605
100
AcDbArc
50
233.129974365234
51
270.000000000000
0
ARC
5
5cf
100
AcDbEntity
8
0-0
6
CONTINUOUS
62
3
100
AcDbCircle
10
578.200000000000
20
612.330000000000
30
0.0
40
17.999999726847
100
AcDbArc
50
231.057434082031
51
270.000000000000
0
ARC
5
5d0
100
AcDbEntity
8
0-0
6
CONTINUOUS
62
3
100
AcDbCircle
10
1539.010000000000
20
612.330000000000
30
0.0
40
17.999999726847
100
AcDbArc
50
270.000000000000
51
308.942565917969
0
ARC
5
5d1
100
AcDbEntity
8
0-0
6
CONTINUOUS
62
3
100
AcDbCircle
10
1539.010000000000
20
612.330000000000
30
0.0
40
17.500000508605
100
AcDbArc
50
270.000000000000
51
306.870025634766
0
ARC
5
5d2
100
AcDbEntity
8
0-0
6
CONTINUOUS
62
3
100
AcDbCircle
10
1570.810000000000
20
592.330000000000
30
0.0
40
17.500000508605
100
AcDbArc
50
90.000000000000
51
126.870025634766
0
ARC
5
5d3
100
AcDbEntity
8
0-0
6
CONTINUOUS
62
3
100
AcDbCircle
10
1570.810000000000
20
592.330000000000
30
0.0
40
17.999999726847
100
AcDbArc
50
90.000000000000
51
128.942565917969
0
ARC
5
5d4
100
AcDbEntity
8
0-0
6
CONTINUOUS
62
3
100
AcDbCircle
10
1570.810000000000
20
592.330000000000
30
0.0
40
17.500000508605
100
AcDbArc
50
53.129974365234
51
90.000000000000
0
ARC
5
5d5
100
AcDbEntity
8
0-0
6
CONTINUOUS
62
3
100
AcDbCircle
10
1570.810000000000
20
592.330000000000
30
0.0
40
17.999999726847
100
AcDbArc
50
51.057434082031
51
90.000000000000
0
ARC
5
5d6
100
AcDbEntity
8
0-0
6
CONTINUOUS
62
3
100
AcDbCircle
10
1602.610000000000
20
612.330000000000
30
0.0
40
17.500000508605
100
AcDbArc
50
233.129974365234
51
270.000000000000
0
ARC
5
5d7
100
AcDbEntity
8
0-0
6
CONTINUOUS
62
3
100
AcDbCircle
10
1602.610000000000
20
612.330000000000
30
0.0
40
17.999999726847
100
AcDbArc
50
231.057434082031
51
270.000000000000
0
TEXT
5
5d8
100
AcDbEntity
8
F-F
62
3
370
-3
100
AcDbText
10
532.090
20
75.752
30
0.0
40
4.923
1
変　　　　　　更　　　　　　記　　　　　　事
41
0.914
50
0.000
100
AcDbText
0
TEXT
5
5d9
100
AcDbEntity
8
F-F
62
3
370
-3
100
AcDbText
10
815.825
20
74.952
30
0.0
40
4.923
1
受領　　日附
41
0.914
50
0.000
100
AcDbText
0
TEXT
5
5da
100
AcDbEntity
8
F-F
62
3
370
-3
100
AcDbText
10
1014.042
20
45.520
30
0.0
40
4.923
1
施工者
41
0.914
50
0.000
100
AcDbText
0
TEXT
5
5db
100
AcDbEntity
8
F-F
62
3
370
-3
100
AcDbText
10
1014.042
20
75.150
30
0.0
40
4.923
1
設計者
41
0.914
50
0.000
100
AcDbText
0
TEXT
5
5dc
100
AcDbEntity
8
F-F
62
3
370
-3
100
AcDbText
10
1219.525
20
44.977
30
0.0
40
4.923
1
作図
41
0.914
50
0.000
100
AcDbText
0
TEXT
5
5dd
100
AcDbEntity
8
F-F
62
3
370
-3
100
AcDbText
10
1291.352
20
45.508
30
0.0
40
4.923
1
図面名
41
0.914
50
0.000
100
AcDbText
0
TEXT
5
5de
100
AcDbEntity
8
F-F
62
3
370
-3
100
AcDbText
10
1219.525
20
74.607
30
0.0
40
4.923
1
日附
41
0.914
50
0.000
100
AcDbText
0
TEXT
5
5df
100
AcDbEntity
8
F-F
62
3
370
-3
100
AcDbText
10
1291.352
20
75.137
30
0.0
40
4.923
1
工事件名
41
0.914
50
0.000
100
AcDbText
0
TEXT
5
5e0
100
AcDbEntity
8
F-F
62
3
370
-3
100
AcDbText
10
1241.661
20
74.355
30
0.0
40
4.923
1
年　月　日
41
0.914
50
0.000
100
AcDbText
0
TEXT
5
5e1
100
AcDbEntity
8
F-F
62
3
370
-3
100
AcDbText
10
1241.661
20
44.726
30
0.0
40
4.923
1
年　月　日
41
0.914
50
0.000
100
AcDbText
0
TEXT
5
5e2
100
AcDbEntity
8
F-F
62
3
370
-3
100
AcDbText
10
1543.695
20
75.137
30
0.0
40
4.923
1
設計番号
41
0.914
50
0.000
100
AcDbText
0
MTEXT
5
5e3
100
AcDbEntity
8
F-F
62
3
370
-3
100
AcDbMText
10
387.012
20
67.821
30
0.0
40
4.649
41
0.000
71
7
72
1
1
\W1.037;{\W0.747;. }　{\W0.747;.}　{\W0.747; }
7
STANDARD
11
1.00000
21
0.00000
31
0.0
0
MTEXT
5
5e4
100
AcDbEntity
8
F-F
62
3
370
-3
100
AcDbMText
10
387.012
20
57.945
30
0.0
40
4.649
41
0.000
71
7
72
1
1
\W1.037;{\W0.747;. }　{\W0.747;.}　{\W0.747; }
7
STANDARD
11
1.00000
21
0.00000
31
0.0
0
MTEXT
5
5e5
100
AcDbEntity
8
F-F
62
3
370
-3
100
AcDbMText
10
387.012
20
48.068
30
0.0
40
4.649
41
0.000
71
7
72
1
1
\W1.037;{\W0.747;. }　{\W0.747;.}　{\W0.747; }
7
STANDARD
11
1.00000
21
0.00000
31
0.0
0
MTEXT
5
5e6
100
AcDbEntity
8
F-F
62
3
370
-3
100
AcDbMText
10
387.012
20
38.191
30
0.0
40
4.649
41
0.000
71
7
72
1
1
\W1.037;{\W0.747;. }　{\W0.747;.}　{\W0.747; }
7
STANDARD
11
1.00000
21
0.00000
31
0.0
0
MTEXT
5
5e7
100
AcDbEntity
8
F-F
62
3
370
-3
100
AcDbMText
10
387.012
20
28.314
30
0.0
40
4.649
41
0.000
71
7
72
1
1
\W1.037;{\W0.747;. }　{\W0.747;.}　{\W0.747; }
7
STANDARD
11
1.00000
21
0.00000
31
0.0
0
TEXT
5
5e8
100
AcDbEntity
8
F-F
62
3
370
-3
100
AcDbText
10
1034.383
20
62.373
30
0.0
40
6.564
1
　　　　　　　　　　
41
0.921
50
0.000
100
AcDbText
0
TEXT
5
5e9
100
AcDbEntity
8
F-F
62
3
370
-3
100
AcDbText
10
1034.383
20
32.743
30
0.0
40
6.564
1
　　　　　　　　　　
41
0.921
50
0.000
100
AcDbText
0
TEXT
5
5ea
100
AcDbEntity
8
F-F
62
3
370
-3
100
AcDbText
10
1317.846
20
63.920
30
0.0
40
6.564
1
　　　　　　　　　　　　　
41
0.921
50
0.000
100
AcDbText
0
TEXT
5
5eb
100
AcDbEntity
8
F-F
62
3
370
-3
100
AcDbText
10
378.040
20
75.687
30
0.0
40
4.923
1
年　月　日
41
0.914
50
0.000
100
AcDbText
0
TEXT
5
5ec
100
AcDbEntity
8
F-F
62
3
370
-3
100
AcDbText
10
872.996
20
74.368
30
0.0
40
4.923
1
年　　月　　日
41
0.914
50
0.000
100
AcDbText
0
MTEXT
5
5ed
100
AcDbEntity
8
F-F
62
3
370
-3
100
AcDbMText
10
885.548
20
63.398
30
0.0
40
4.649
41
0.000
71
7
72
1
1
\W1.037;{\W0.747;.}　{\W0.747; }　{\W0.747;.}
7
STANDARD
11
1.00000
21
0.00000
31
0.0
0
TEXT
5
5ee
100
AcDbEntity
8
F-F
62
3
370
-3
100
AcDbText
10
815.825
20
45.323
30
0.0
40
4.923
1
受領　　日附
41
0.914
50
0.000
100
AcDbText
0
TEXT
5
5ef
100
AcDbEntity
8
F-F
62
3
370
-3
100
AcDbText
10
872.996
20
44.738
30
0.0
40
4.923
1
年　　月　　日
41
0.914
50
0.000
100
AcDbText
0
MTEXT
5
5f0
100
AcDbEntity
8
F-F
62
3
370
-3
100
AcDbMText
10
885.548
20
33.769
30
0.0
40
4.649
41
0.000
71
7
72
1
1
\W1.037;{\W0.747;.}　{\W0.747; }　{\W0.747;.}
7
STANDARD
11
1.00000
21
0.00000
31
0.0
0
MTEXT
5
5f1
100
AcDbEntity
8
F-F
62
3
370
-3
100
AcDbMText
10
1248.433
20
61.685
30
0.0
40
4.649
41
0.000
71
7
72
1
1
\W1.037;{\W0.747;.}　　{\W0.747;.}　
7
STANDARD
11
1.00000
21
0.00000
31
0.0
0
TEXT
5
5f2
100
AcDbEntity
8
F-F
62
3
370
-3
100
AcDbText
10
1543.695
20
45.508
30
0.0
40
4.923
1
縮　尺
41
0.914
50
0.000
100
AcDbText
0
TEXT
5
5f3
100
AcDbEntity
8
F-F
62
3
370
-3
100
AcDbText
10
1567.012
20
41.647
30
0.0
40
6.564
1
Ａ１－１／２　
41
0.921
50
0.000
100
AcDbText
0
TEXT
5
5f4
100
AcDbEntity
8
F-F
62
3
370
-3
100
AcDbText
10
1567.012
20
26.832
30
0.0
40
6.564
1
Ａ３－１／４　
41
0.921
50
0.000
100
AcDbText
0
TEXT
5
5f5
100
AcDbEntity
8
0-0
62
3
370
-3
100
AcDbText
10
574.239
20
675.523
30
0.0
40
6.564
41
0.921
50
0.000
1
〃
72
1
11
578.432
21
674.794
31
0.0
100
AcDbText
73
1
0
TEXT
5
5f6
100
AcDbEntity
8
0-0
62
3
370
-3
100
AcDbText
10
386.374
20
597.720
30
0.0
40
13.127
41
0.716
50
0.000
1
16
72
1
11
395.149
21
596.261
31
0.0
100
AcDbText
73
1
0
TEXT
5
5f7
100
AcDbEntity
8
0-0
62
3
370
-3
100
AcDbText
10
637.839
20
675.523
30
0.0
40
6.564
41
0.921
50
0.000
1
〃
72
1
11
642.032
21
674.794
31
0.0
100
AcDbText
73
1
0
TEXT
5
5f8
100
AcDbEntity
8
0-0
62
3
370
-3
100
AcDbText
10
701.439
20
675.523
30
0.0
40
6.564
41
0.921
50
0.000
1
〃
72
1
11
705.632
21
674.794
31
0.0
100
AcDbText
73
1
0
TEXT
5
5f9
100
AcDbEntity
8
0-0
62
3
370
-3
100
AcDbText
10
765.039
20
675.523
30
0.0
40
6.564
41
0.921
50
0.000
1
〃
72
1
11
769.232
21
674.794
31
0.0
100
AcDbText
73
1
0
TEXT
5
5fa
100
AcDbEntity
8
0-0
62
3
370
-3
100
AcDbText
10
828.639
20
675.523
30
0.0
40
6.564
41
0.921
50
0.000
1
〃
72
1
11
832.832
21
674.794
31
0.0
100
AcDbText
73
1
0
TEXT
5
5fb
100
AcDbEntity
8
0-0
62
3
370
-3
100
AcDbText
10
892.239
20
675.523
30
0.0
40
6.564
41
0.921
50
0.000
1
〃
72
1
11
896.432
21
674.794
31
0.0
100
AcDbText
73
1
0
TEXT
5
5fc
100
AcDbEntity
8
0-0
62
3
370
-3
100
AcDbText
10
955.839
20
675.523
30
0.0
40
6.564
41
0.921
50
0.000
1
〃
72
1
11
960.032
21
674.794
31
0.0
100
AcDbText
73
1
0
TEXT
5
5fd
100
AcDbEntity
8
0-0
62
3
370
-3
100
AcDbText
10
1019.439
20
675.523
30
0.0
40
6.564
41
0.921
50
0.000
1
〃
72
1
11
1023.632
21
674.794
31
0.0
100
AcDbText
73
1
0
TEXT
5
5fe
100
AcDbEntity
8
0-0
62
3
370
-3
100
AcDbText
10
1083.039
20
675.523
30
0.0
40
6.564
41
0.921
50
0.000
1
〃
72
1
11
1087.232
21
674.794
31
0.0
100
AcDbText
73
1
0
TEXT
5
5ff
100
AcDbEntity
8
F-F
62
3
370
-3
100
AcDbText
10
166.668
20
28.767
30
0.0
40
6.564
1
電話（０５４）２６３－２２８０（代表）
41
0.921
50
0.000
100
AcDbText
0
TEXT
5
600
100
AcDbEntity
8
F-F
62
3
370
-3
100
AcDbText
10
122.770
20
61.158
30
0.0
40
13.127
1
小　池　弥　太　郎　商　店
41
0.963
50
0.000
100
AcDbText
0
TEXT
5
601
100
AcDbEntity
8
F-F
62
3
370
-3
100
AcDbText
10
166.664
20
43.600
30
0.0
40
6.564
1
静岡県静岡市葵区流通センター１６番
41
0.921
50
0.000
100
AcDbText
0
TEXT
5
602
100
AcDbEntity
8
F-F
62
3
370
-3
100
AcDbText
10
100.135
20
68.250
30
0.0
40
4.923
1
株
41
0.914
50
0.000
100
AcDbText
0
TEXT
5
603
100
AcDbEntity
8
F-F
62
3
370
-3
100
AcDbText
10
107.285
20
61.000
30
0.0
40
4.923
1
社
41
0.914
50
0.000
100
AcDbText
0
TEXT
5
604
100
AcDbEntity
8
F-F
62
3
370
-3
100
AcDbText
10
100.085
20
61.000
30
0.0
40
4.923
1
会
41
0.914
50
0.000
100
AcDbText
0
TEXT
5
605
100
AcDbEntity
8
F-F
62
3
370
-3
100
AcDbText
10
106.885
20
68.049
30
0.0
40
4.923
1
式
41
0.914
50
0.000
100
AcDbText
0
TEXT
5
606
100
AcDbEntity
8
0-0
62
3
370
-3
100
AcDbText
10
1146.639
20
675.523
30
0.0
40
6.564
41
0.921
50
0.000
1
〃
72
1
11
1150.832
21
674.794
31
0.0
100
AcDbText
73
1
0
TEXT
5
607
100
AcDbEntity
8
0-0
62
3
370
-3
100
AcDbText
10
1457.937
20
548.121
30
0.0
40
9.846
41
0.928
50
0.000
1
重ね代
72
1
11
1476.949
21
547.027
31
0.0
100
AcDbText
73
1
0
TEXT
5
608
100
AcDbEntity
8
0-0
62
3
370
-3
100
AcDbText
10
442.223
20
676.720
30
0.0
40
13.127
41
0.679
50
0.000
1
27.3
72
1
11
459.773
21
675.261
31
0.0
100
AcDbText
73
1
0
TEXT
5
609
100
AcDbEntity
8
0-0
62
3
370
-3
100
AcDbText
10
497.724
20
676.720
30
0.0
40
13.127
41
0.666
50
0.000
1
63.2
72
1
11
515.274
21
675.261
31
0.0
100
AcDbText
73
1
0
TEXT
5
60a
100
AcDbEntity
8
0-0
62
3
370
-3
100
AcDbText
10
1197.323
20
676.720
30
0.0
40
13.127
41
0.666
50
0.000
1
63.2
72
1
11
1214.873
21
675.261
31
0.0
100
AcDbText
73
1
0
TEXT
5
60b
100
AcDbEntity
8
0-0
62
3
370
-3
100
AcDbText
10
1252.823
20
676.720
30
0.0
40
13.127
41
0.679
50
0.000
1
27.3
72
1
11
1270.373
21
675.261
31
0.0
100
AcDbText
73
1
0
TEXT
5
60c
100
AcDbEntity
8
0-0
62
3
370
-3
100
AcDbText
10
852.023
20
706.720
30
0.0
40
13.127
41
0.658
50
0.000
1
813
72
1
11
865.186
21
705.262
31
0.0
100
AcDbText
73
1
0
MTEXT
5
60d
100
AcDbEntity
8
0-0
62
3
370
-3
100
AcDbMText
10
772.524
20
537.261
30
0.0
40
12.398
41
0.000
71
7
72
1
1
\W1.093;{\W0.787;695.2}（働き巾）
7
STANDARD
11
1.00000
21
0.00000
31
0.0
0
TEXT
5
60e
100
AcDbEntity
8
0-0
62
3
370
-3
100
AcDbText
10
1454.033
20
568.720
30
0.0
40
13.127
41
0.819
50
0.000
1
117.8
72
1
11
1475.970
21
567.261
31
0.0
100
AcDbText
73
1
0
TEXT
5
60f
100
AcDbEntity
8
0-0
62
3
370
-3
100
AcDbText
10
154.429
20
589.807
30
0.0
40
16.409
1
成型スレート小波
41
0.942
50
0.000
100
AcDbText
0
TEXT
5
610
100
AcDbEntity
8
F-F
62
3
370
-3
100
AcDbText
10
1222.716
20
31.566
30
0.0
40
4.923
1
MA 2015-06-04
41
0.611
50
0.000
100
AcDbText
0
TEXT
5
611
100
AcDbEntity
8
F-F
62
3
370
-3
100
AcDbText
10
1557.468
20
61.186
30
0.0
40
8.205
1
K-NAMI-03
41
0.595
50
0.000
100
AcDbText
0
TEXT
5
612
100
AcDbEntity
8
F-F
62
3
370
-3
100
AcDbText
10
1317.846
20
34.290
30
0.0
40
6.564
1
コイケ　成形スレート小波　断面図
41
0.921
50
0.000
100
AcDbText
0
POLYLINE
5
613
100
AcDbEntity
  8
0-0
6
CONTINUOUS
62
3
100
AcDb2dPolyline
66
1
10
0
20
0
70
1
40
0.800
41
0.800
0
VERTEX
5
614
100
AcDbEntity
  8
0-0
6
CONTINUOUS
62
3
100
AcDbVertex
100
AcDb2dVertex
10
482.400
20
534.325
30
0.0
42
1.000
0
VERTEX
5
615
100
AcDbEntity
  8
0-0
6
CONTINUOUS
62
3
100
AcDbVertex
100
AcDb2dVertex
10
483.200
20
534.325
30
0.0
42
1.000
0
SEQEND
5
616
100
AcDbEntity
  8
0-0
0
POLYLINE
5
617
100
AcDbEntity
  8
0-0
6
CONTINUOUS
62
3
100
AcDb2dPolyline
66
1
10
0
20
0
70
1
40
0.800
41
0.800
0
VERTEX
5
618
100
AcDbEntity
  8
0-0
6
CONTINUOUS
62
3
100
AcDbVertex
100
AcDb2dVertex
10
454.999
20
672.325
30
0.0
42
1.000
0
VERTEX
5
619
100
AcDbEntity
  8
0-0
6
CONTINUOUS
62
3
100
AcDbVertex
100
AcDb2dVertex
10
455.799
20
672.325
30
0.0
42
1.000
0
SEQEND
5
61a
100
AcDbEntity
  8
0-0
0
POLYLINE
5
61b
100
AcDbEntity
  8
0-0
6
CONTINUOUS
62
3
100
AcDb2dPolyline
66
1
10
0
20
0
70
1
40
0.800
41
0.800
0
VERTEX
5
61c
100
AcDbEntity
  8
0-0
6
CONTINUOUS
62
3
100
AcDbVertex
100
AcDb2dVertex
10
482.400
20
672.325
30
0.0
42
1.000
0
VERTEX
5
61d
100
AcDbEntity
  8
0-0
6
CONTINUOUS
62
3
100
AcDbVertex
100
AcDb2dVertex
10
483.200
20
672.325
30
0.0
42
1.000
0
SEQEND
5
61e
100
AcDbEntity
  8
0-0
0
POLYLINE
5
61f
100
AcDbEntity
  8
0-0
6
CONTINUOUS
62
3
100
AcDb2dPolyline
66
1
10
0
20
0
70
1
40
0.800
41
0.800
0
VERTEX
5
620
100
AcDbEntity
  8
0-0
6
CONTINUOUS
62
3
100
AcDbVertex
100
AcDb2dVertex
10
454.999
20
702.326
30
0.0
42
1.000
0
VERTEX
5
621
100
AcDbEntity
  8
0-0
6
CONTINUOUS
62
3
100
AcDbVertex
100
AcDb2dVertex
10
455.799
20
702.326
30
0.0
42
1.000
0
SEQEND
5
622
100
AcDbEntity
  8
0-0
0
POLYLINE
5
623
100
AcDbEntity
  8
0-0
6
CONTINUOUS
62
3
100
AcDb2dPolyline
66
1
10
0
20
0
70
1
40
0.800
41
0.800
0
VERTEX
5
624
100
AcDbEntity
  8
0-0
6
CONTINUOUS
62
3
100
AcDbVertex
100
AcDb2dVertex
10
1273.000
20
702.326
30
0.0
42
1.000
0
VERTEX
5
625
100
AcDbEntity
  8
0-0
6
CONTINUOUS
62
3
100
AcDbVertex
100
AcDb2dVertex
10
1273.800
20
702.326
30
0.0
42
1.000
0
SEQEND
5
626
100
AcDbEntity
  8
0-0
0
POLYLINE
5
627
100
AcDbEntity
  8
0-0
6
CONTINUOUS
62
3
100
AcDb2dPolyline
66
1
10
0
20
0
70
1
40
0.800
41
0.800
0
VERTEX
5
628
100
AcDbEntity
  8
0-0
6
CONTINUOUS
62
3
100
AcDbVertex
100
AcDb2dVertex
10
410.600
20
594.325
30
0.0
42
1.000
0
VERTEX
5
629
100
AcDbEntity
  8
0-0
6
CONTINUOUS
62
3
100
AcDbVertex
100
AcDb2dVertex
10
411.400
20
594.325
30
0.0
42
1.000
0
SEQEND
5
62a
100
AcDbEntity
  8
0-0
0
POLYLINE
5
62b
100
AcDbEntity
  8
0-0
6
CONTINUOUS
62
3
100
AcDb2dPolyline
66
1
10
0
20
0
70
1
40
0.800
41
0.800
0
VERTEX
5
62c
100
AcDbEntity
  8
0-0
6
CONTINUOUS
62
3
100
AcDbVertex
100
AcDb2dVertex
10
410.600
20
610.325
30
0.0
42
1.000
0
VERTEX
5
62d
100
AcDbEntity
  8
0-0
6
CONTINUOUS
62
3
100
AcDbVertex
100
AcDb2dVertex
10
411.400
20
610.325
30
0.0
42
1.000
0
SEQEND
5
62e
100
AcDbEntity
  8
0-0
0
POLYLINE
5
62f
100
AcDbEntity
  8
0-0
6
CONTINUOUS
62
3
100
AcDb2dPolyline
66
1
10
0
20
0
70
1
40
0.800
41
0.800
0
VERTEX
5
630
100
AcDbEntity
  8
0-0
6
CONTINUOUS
62
3
100
AcDbVertex
100
AcDb2dVertex
10
1181.999
20
534.325
30
0.0
42
1.000
0
VERTEX
5
631
100
AcDbEntity
  8
0-0
6
CONTINUOUS
62
3
100
AcDbVertex
100
AcDb2dVertex
10
1182.799
20
534.325
30
0.0
42
1.000
0
SEQEND
5
632
100
AcDbEntity
  8
0-0
0
POLYLINE
5
633
100
AcDbEntity
  8
0-0
6
CONTINUOUS
62
3
100
AcDb2dPolyline
66
1
10
0
20
0
70
1
40
0.800
41
0.800
0
VERTEX
5
634
100
AcDbEntity
  8
0-0
6
CONTINUOUS
62
3
100
AcDbVertex
100
AcDb2dVertex
10
546.000
20
672.325
30
0.0
42
1.000
0
VERTEX
5
635
100
AcDbEntity
  8
0-0
6
CONTINUOUS
62
3
100
AcDbVertex
100
AcDb2dVertex
10
546.800
20
672.325
30
0.0
42
1.000
0
SEQEND
5
636
100
AcDbEntity
  8
0-0
0
POLYLINE
5
637
100
AcDbEntity
  8
0-0
6
CONTINUOUS
62
3
100
AcDb2dPolyline
66
1
10
0
20
0
70
1
40
0.800
41
0.800
0
VERTEX
5
638
100
AcDbEntity
  8
0-0
6
CONTINUOUS
62
3
100
AcDbVertex
100
AcDb2dVertex
10
609.600
20
672.325
30
0.0
42
1.000
0
VERTEX
5
639
100
AcDbEntity
  8
0-0
6
CONTINUOUS
62
3
100
AcDbVertex
100
AcDb2dVertex
10
610.400
20
672.325
30
0.0
42
1.000
0
SEQEND
5
63a
100
AcDbEntity
  8
0-0
0
POLYLINE
5
63b
100
AcDbEntity
  8
0-0
6
CONTINUOUS
62
3
100
AcDb2dPolyline
66
1
10
0
20
0
70
1
40
0.800
41
0.800
0
VERTEX
5
63c
100
AcDbEntity
  8
0-0
6
CONTINUOUS
62
3
100
AcDbVertex
100
AcDb2dVertex
10
673.200
20
672.325
30
0.0
42
1.000
0
VERTEX
5
63d
100
AcDbEntity
  8
0-0
6
CONTINUOUS
62
3
100
AcDbVertex
100
AcDb2dVertex
10
674.000
20
672.325
30
0.0
42
1.000
0
SEQEND
5
63e
100
AcDbEntity
  8
0-0
0
POLYLINE
5
63f
100
AcDbEntity
  8
0-0
6
CONTINUOUS
62
3
100
AcDb2dPolyline
66
1
10
0
20
0
70
1
40
0.800
41
0.800
0
VERTEX
5
640
100
AcDbEntity
  8
0-0
6
CONTINUOUS
62
3
100
AcDbVertex
100
AcDb2dVertex
10
736.800
20
672.325
30
0.0
42
1.000
0
VERTEX
5
641
100
AcDbEntity
  8
0-0
6
CONTINUOUS
62
3
100
AcDbVertex
100
AcDb2dVertex
10
737.600
20
672.325
30
0.0
42
1.000
0
SEQEND
5
642
100
AcDbEntity
  8
0-0
0
POLYLINE
5
643
100
AcDbEntity
  8
0-0
6
CONTINUOUS
62
3
100
AcDb2dPolyline
66
1
10
0
20
0
70
1
40
0.800
41
0.800
0
VERTEX
5
644
100
AcDbEntity
  8
0-0
6
CONTINUOUS
62
3
100
AcDbVertex
100
AcDb2dVertex
10
800.400
20
672.325
30
0.0
42
1.000
0
VERTEX
5
645
100
AcDbEntity
  8
0-0
6
CONTINUOUS
62
3
100
AcDbVertex
100
AcDb2dVertex
10
801.200
20
672.325
30
0.0
42
1.000
0
SEQEND
5
646
100
AcDbEntity
  8
0-0
0
POLYLINE
5
647
100
AcDbEntity
  8
0-0
6
CONTINUOUS
62
3
100
AcDb2dPolyline
66
1
10
0
20
0
70
1
40
0.800
41
0.800
0
VERTEX
5
648
100
AcDbEntity
  8
0-0
6
CONTINUOUS
62
3
100
AcDbVertex
100
AcDb2dVertex
10
864.000
20
672.325
30
0.0
42
1.000
0
VERTEX
5
649
100
AcDbEntity
  8
0-0
6
CONTINUOUS
62
3
100
AcDbVertex
100
AcDb2dVertex
10
864.800
20
672.325
30
0.0
42
1.000
0
SEQEND
5
64a
100
AcDbEntity
  8
0-0
0
POLYLINE
5
64b
100
AcDbEntity
  8
0-0
6
CONTINUOUS
62
3
100
AcDb2dPolyline
66
1
10
0
20
0
70
1
40
0.800
41
0.800
0
VERTEX
5
64c
100
AcDbEntity
  8
0-0
6
CONTINUOUS
62
3
100
AcDbVertex
100
AcDb2dVertex
10
927.600
20
672.325
30
0.0
42
1.000
0
VERTEX
5
64d
100
AcDbEntity
  8
0-0
6
CONTINUOUS
62
3
100
AcDbVertex
100
AcDb2dVertex
10
928.400
20
672.325
30
0.0
42
1.000
0
SEQEND
5
64e
100
AcDbEntity
  8
0-0
0
POLYLINE
5
64f
100
AcDbEntity
  8
0-0
6
CONTINUOUS
62
3
100
AcDb2dPolyline
66
1
10
0
20
0
70
1
40
0.800
41
0.800
0
VERTEX
5
650
100
AcDbEntity
  8
0-0
6
CONTINUOUS
62
3
100
AcDbVertex
100
AcDb2dVertex
10
991.200
20
672.325
30
0.0
42
1.000
0
VERTEX
5
651
100
AcDbEntity
  8
0-0
6
CONTINUOUS
62
3
100
AcDbVertex
100
AcDb2dVertex
10
992.000
20
672.325
30
0.0
42
1.000
0
SEQEND
5
652
100
AcDbEntity
  8
0-0
0
POLYLINE
5
653
100
AcDbEntity
  8
0-0
6
CONTINUOUS
62
3
100
AcDb2dPolyline
66
1
10
0
20
0
70
1
40
0.800
41
0.800
0
VERTEX
5
654
100
AcDbEntity
  8
0-0
6
CONTINUOUS
62
3
100
AcDbVertex
100
AcDb2dVertex
10
1054.800
20
672.325
30
0.0
42
1.000
0
VERTEX
5
655
100
AcDbEntity
  8
0-0
6
CONTINUOUS
62
3
100
AcDbVertex
100
AcDb2dVertex
10
1055.600
20
672.325
30
0.0
42
1.000
0
SEQEND
5
656
100
AcDbEntity
  8
0-0
0
POLYLINE
5
657
100
AcDbEntity
  8
0-0
6
CONTINUOUS
62
3
100
AcDb2dPolyline
66
1
10
0
20
0
70
1
40
0.800
41
0.800
0
VERTEX
5
658
100
AcDbEntity
  8
0-0
6
CONTINUOUS
62
3
100
AcDbVertex
100
AcDb2dVertex
10
1118.400
20
672.325
30
0.0
42
1.000
0
VERTEX
5
659
100
AcDbEntity
  8
0-0
6
CONTINUOUS
62
3
100
AcDbVertex
100
AcDb2dVertex
10
1119.200
20
672.325
30
0.0
42
1.000
0
SEQEND
5
65a
100
AcDbEntity
  8
0-0
0
POLYLINE
5
65b
100
AcDbEntity
  8
0-0
6
CONTINUOUS
62
3
100
AcDb2dPolyline
66
1
10
0
20
0
70
1
40
0.800
41
0.800
0
VERTEX
5
65c
100
AcDbEntity
  8
0-0
6
CONTINUOUS
62
3
100
AcDbVertex
100
AcDb2dVertex
10
1181.999
20
672.325
30
0.0
42
1.000
0
VERTEX
5
65d
100
AcDbEntity
  8
0-0
6
CONTINUOUS
62
3
100
AcDbVertex
100
AcDb2dVertex
10
1182.799
20
672.325
30
0.0
42
1.000
0
SEQEND
5
65e
100
AcDbEntity
  8
0-0
0
POLYLINE
5
65f
100
AcDbEntity
  8
0-0
6
CONTINUOUS
62
3
100
AcDb2dPolyline
66
1
10
0
20
0
70
1
40
0.800
41
0.800
0
VERTEX
5
660
100
AcDbEntity
  8
0-0
6
CONTINUOUS
62
3
100
AcDbVertex
100
AcDb2dVertex
10
1273.000
20
672.325
30
0.0
42
1.000
0
VERTEX
5
661
100
AcDbEntity
  8
0-0
6
CONTINUOUS
62
3
100
AcDbVertex
100
AcDb2dVertex
10
1273.800
20
672.325
30
0.0
42
1.000
0
SEQEND
5
662
100
AcDbEntity
  8
0-0
0
POLYLINE
5
663
100
AcDbEntity
  8
F-F
6
CONTINUOUS
62
3
100
AcDb2dPolyline
66
1
10
0
20
0
70
1
40
0.800
41
0.800
0
VERTEX
5
664
100
AcDbEntity
  8
F-F
6
CONTINUOUS
62
3
100
AcDbVertex
100
AcDb2dVertex
10
54.357
20
1143.641
30
0.0
42
1.000
0
VERTEX
5
665
100
AcDbEntity
  8
F-F
6
CONTINUOUS
62
3
100
AcDbVertex
100
AcDb2dVertex
10
55.157
20
1143.641
30
0.0
42
1.000
0
SEQEND
5
666
100
AcDbEntity
  8
F-F
0
POLYLINE
5
667
100
AcDbEntity
  8
0-0
6
CONTINUOUS
62
3
100
AcDb2dPolyline
66
1
10
0
20
0
70
1
40
0.800
41
0.800
0
VERTEX
5
668
100
AcDbEntity
  8
0-0
6
CONTINUOUS
62
3
100
AcDbVertex
100
AcDb2dVertex
10
1245.599
20
672.325
30
0.0
42
1.000
0
VERTEX
5
669
100
AcDbEntity
  8
0-0
6
CONTINUOUS
62
3
100
AcDbVertex
100
AcDb2dVertex
10
1246.399
20
672.325
30
0.0
42
1.000
0
SEQEND
5
66a
100
AcDbEntity
  8
0-0
0
POLYLINE
5
66b
100
AcDbEntity
  8
0-0
6
CONTINUOUS
62
3
100
AcDb2dPolyline
66
1
10
0
20
0
70
1
40
0.800
41
0.800
0
VERTEX
5
66c
100
AcDbEntity
  8
0-0
6
CONTINUOUS
62
3
100
AcDbVertex
100
AcDb2dVertex
10
1415.809
20
564.325
30
0.0
42
1.000
0
VERTEX
5
66d
100
AcDbEntity
  8
0-0
6
CONTINUOUS
62
3
100
AcDbVertex
100
AcDb2dVertex
10
1416.609
20
564.325
30
0.0
42
1.000
0
SEQEND
5
66e
100
AcDbEntity
  8
0-0
0
POLYLINE
5
66f
100
AcDbEntity
  8
0-0
6
CONTINUOUS
62
3
100
AcDb2dPolyline
66
1
10
0
20
0
70
1
40
0.800
41
0.800
0
VERTEX
5
670
100
AcDbEntity
  8
0-0
6
CONTINUOUS
62
3
100
AcDbVertex
100
AcDb2dVertex
10
1534.209
20
564.325
30
0.0
42
1.000
0
VERTEX
5
671
100
AcDbEntity
  8
0-0
6
CONTINUOUS
62
3
100
AcDbVertex
100
AcDb2dVertex
10
1535.009
20
564.325
30
0.0
42
1.000
0
SEQEND
5
672
100
AcDbEntity
  8
0-0
0
ENDSEC
 0
SECTION
  2
OBJECTS
 0
DICTIONARY
  5
C
100
AcDbDictionary
  3
ACAD_GROUP
350
D
  3
ACAD_MLINESTYLE
350
E
 0
DICTIONARY
  5
D
102
{ACAD_REACTORS
102
}
100
AcDbDictionary
 0
DICTIONARY
  5
E
102
{ACAD_REACTORS
102
}
100
AcDbDictionary
  3
STANDARD
350
13
0
MLINESTYLE
  5
13
102
{ACAD_REACTORS
102
}
100
AcDbMlineStyle
  2
STANDARD
 70
    0
3

62
256
51
90.0
52
90.0
71
0
0
ACDBPLACEHOLDER
  5
14
102
{ACAD_REACTORS
102
}
0
ENDSEC
0
EOF
