0
SECTION
2
HEADER
9
$ACADVER
1
AC1009
9
$DWGCODEPAGE
3
ANSI_932
9
$EXTMIN
10
0.000
20
0.000
30
0.0
9
$EXTMAX
10
841.000
20
594.000
30
0.0
9
$LTSCALE
40
2.000
9
$PDMODE
70
0
9
$PDSIZE
40
40.0
0
ENDSEC
0
SECTION
2
TABLES
0
TABLE
2
LTYPE
70
9
0
LTYPE
5
1f4
2
CONTINUOUS
70
64
3
SolidLine
72
65
73
0
40
0.0
0
LTYPE
5
1f5
2
DOT
70
64
3
--  --  --  --  --  --  --  --     
72
65
73
2
40
3.000
49
1.000
49
-2.000
0
LTYPE
5
1f6
2
DASHED
70
64
3
----    ----    ----    ----    
72
65
73
2
40
5.000
49
2.000
49
-3.000
0
LTYPE
5
1f7
2
DASHED2
70
64
3
------  ------  ------  ------ 
72
65
73
2
40
10.000
49
4.000
49
-6.000
0
LTYPE
5
1f8
2
CENTER
70
64
3
----- - ----- - ----- - ----- - 
72
65
73
4
40
10.000
49
6.000
49
-3.000
49
1.000
49
-3.000
0
LTYPE
5
1f9
2
CENTER2
70
64
3
----------  --  ----------  -- 
72
65
73
4
40
17.000
49
12.000
49
-5.000
49
2.000
49
-5.000
0
LTYPE
5
1fa
2
PHANTOM
70
64
3
--- - - --- - - --- - - --- - -
72
65
73
6
40
13.000
49
5.000
49
-3.000
49
1.000
49
-3.000
49
1.000
49
-3.000
0
LTYPE
5
1fb
2
PHANTOM2
70
64
3
--------  -  -  --------  -  -
72
65
73
6
40
20.000
49
6.000
49
-5.000
49
2.000
49
-5.000
49
2.000
49
-5.000
0
LTYPE
5
1fc
2
HIDDEN
70
64
3
-   -   -   -   -   -   -   -   
72
65
73
2
40
3.000
49
0.500
49
-2.500
0
ENDTAB
0
TABLE
2
STYLE
70
1
0
STYLE
5
1fd
100
AcDbSymbolTableRecord
100
AcDbTextStyleTableRecord
2
STANDARD
70
0
40
0.0
41
1.0
50
0.0
71
0
42
0.0
3
txt.shx
4
extfont.shx
0
STYLE
5
1fe
100
AcDbSymbolTableRecord
100
AcDbTextStyleTableRecord
2
TATEGAKI
70
4
40
0.0
41
1.0
50
0.0
71
0
42
0.0
3
txt.shx
4
extfont.shx
0
STYLE
5
1ff
100
AcDbSymbolTableRecord
100
AcDbTextStyleTableRecord
2
DIM
70
0
40
0.0
41
0.75
50
0.0
71
0
42
0.0
3
txt.shx
4
extfont.shx
0
STYLE
5
200
100
AcDbSymbolTableRecord
100
AcDbTextStyleTableRecord
2
_Gothic__
70
0
40
0.0
41
1.0
50
0.0
71
0
42
0.0
3
MS Gothic
4

0
STYLE
5
201
100
AcDbSymbolTableRecord
100
AcDbTextStyleTableRecord
2
_TateGothic_
70
4
40
0.0
41
1.0
50
0.0
71
0
42
0.0
3
@MS Gothic
4

0
ENDTAB
0
TABLE
2
LAYER
5
403
100
AcDbSymbolTable
70
10
0
LAYER
5
404
100
AcDbSymbolTableRecord
100
AcDbLayerTableRecord
2
0-00-0
70
0
62
7
6
CONTINUOUS
0
LAYER
5
405
100
AcDbSymbolTableRecord
100
AcDbLayerTableRecord
2
0-30-3
70
0
62
7
6
CONTINUOUS
0
LAYER
5
406
100
AcDbSymbolTableRecord
100
AcDbLayerTableRecord
2
F-F_J_ADD
70
0
62
-7
6
CONTINUOUS
0
ENDTAB
0
ENDSEC
0
SECTION
2
ENTITIES
0
LINE
5
407
100
AcDbEntity
8
0-30-3
6
CONTINUOUS
62
2
100
AcDbLine
10
27.380000000000
20
11.820000000000
30
0.0
11
27.380000000000
21
571.820000000000
31
0.0
0
LINE
5
408
100
AcDbEntity
8
0-30-3
6
CONTINUOUS
62
2
100
AcDbLine
10
642.380000000000
20
41.450000000000
30
0.0
11
642.380000000000
21
11.820000000000
31
0.0
0
LINE
5
409
100
AcDbEntity
8
0-30-3
6
CONTINUOUS
62
2
100
AcDbLine
10
607.270000000000
20
41.450000000000
30
0.0
11
607.270000000000
21
11.820000000000
31
0.0
0
LINE
5
40a
100
AcDbEntity
8
0-30-3
6
CONTINUOUS
62
2
100
AcDbLine
10
768.560000000000
20
11.820000000000
30
0.0
11
768.560000000000
21
41.450000000000
31
0.0
0
LINE
5
40b
100
AcDbEntity
8
0-30-3
6
CONTINUOUS
62
2
100
AcDbLine
10
403.450000000000
20
41.450000000000
30
0.0
11
403.450000000000
21
11.820000000000
31
0.0
0
LINE
5
40c
100
AcDbEntity
8
0-30-3
6
CONTINUOUS
62
2
100
AcDbLine
10
504.870000000000
20
41.450000000000
30
0.0
11
504.870000000000
21
11.820000000000
31
0.0
0
LINE
5
40d
100
AcDbEntity
8
0-30-3
6
CONTINUOUS
62
2
100
AcDbLine
10
403.450000000000
20
31.570000000000
30
0.0
11
184.880000000000
21
31.570000000000
31
0.0
0
LINE
5
40e
100
AcDbEntity
8
0-30-3
6
CONTINUOUS
62
2
100
AcDbLine
10
403.450000000000
20
21.690000000000
30
0.0
11
184.880000000000
21
21.690000000000
31
0.0
0
LINE
5
40f
100
AcDbEntity
8
0-30-3
6
CONTINUOUS
62
2
100
AcDbLine
10
403.450000000000
20
16.760000000000
30
0.0
11
184.880000000000
21
16.760000000000
31
0.0
0
LINE
5
410
100
AcDbEntity
8
0-30-3
6
CONTINUOUS
62
2
100
AcDbLine
10
403.450000000000
20
36.510000000000
30
0.0
11
184.880000000000
21
36.510000000000
31
0.0
0
LINE
5
411
100
AcDbEntity
8
0-30-3
6
CONTINUOUS
62
2
100
AcDbLine
10
211.210000000000
20
41.450000000000
30
0.0
11
211.210000000000
21
11.820000000000
31
0.0
0
LINE
5
412
100
AcDbEntity
8
0-30-3
6
CONTINUOUS
62
2
100
AcDbLine
10
184.880000000000
20
41.450000000000
30
0.0
11
184.880000000000
21
11.820000000000
31
0.0
0
LINE
5
413
100
AcDbEntity
8
0-30-3
6
CONTINUOUS
62
2
100
AcDbLine
10
815.820000000000
20
11.820000000000
30
0.0
11
815.820000000000
21
571.820000000000
31
0.0
0
LINE
5
414
100
AcDbEntity
8
0-30-3
6
CONTINUOUS
62
2
100
AcDbLine
10
27.380000000000
20
571.820000000000
30
0.0
11
815.820000000000
21
571.820000000000
31
0.0
0
LINE
5
415
100
AcDbEntity
8
0-30-3
6
CONTINUOUS
62
2
100
AcDbLine
10
27.380000000000
20
11.820000000000
30
0.0
11
815.820000000000
21
11.820000000000
31
0.0
0
LINE
5
416
100
AcDbEntity
8
0-30-3
6
CONTINUOUS
62
2
100
AcDbLine
10
815.820000000000
20
41.450000000000
30
0.0
11
27.380000000000
21
41.450000000000
31
0.0
0
LINE
5
417
100
AcDbEntity
8
0-30-3
6
CONTINUOUS
62
2
100
AcDbLine
10
184.880000000000
20
26.630000000000
30
0.0
11
815.820000000000
21
26.630000000000
31
0.0
0
LINE
5
418
100
AcDbEntity
8
0-30-3
6
CONTINUOUS
62
3
100
AcDbLine
10
35.860000000000
20
29.550000000000
30
0.0
11
35.860000000000
21
37.550000000000
31
0.0
0
LINE
5
419
100
AcDbEntity
8
0-30-3
6
CONTINUOUS
62
3
100
AcDbLine
10
35.860000000000
20
37.550000000000
30
0.0
11
43.860000000000
21
37.550000000000
31
0.0
0
LINE
5
41a
100
AcDbEntity
8
0-30-3
6
CONTINUOUS
62
3
100
AcDbLine
10
43.860000000000
20
37.550000000000
30
0.0
11
43.860000000000
21
29.550000000000
31
0.0
0
LINE
5
41b
100
AcDbEntity
8
0-30-3
6
CONTINUOUS
62
3
100
AcDbLine
10
43.860000000000
20
29.550000000000
30
0.0
11
35.860000000000
21
29.550000000000
31
0.0
0
LINE
5
41c
100
AcDbEntity
8
0-30-3
6
CONTINUOUS
62
3
100
AcDbLine
10
36.660000000000
20
30.630000000000
30
0.0
11
36.660000000000
21
36.750000000000
31
0.0
0
LINE
5
41d
100
AcDbEntity
8
0-30-3
6
CONTINUOUS
62
3
100
AcDbLine
10
43.060000000000
20
30.350000000000
30
0.0
11
36.940000000000
21
30.350000000000
31
0.0
0
LINE
5
41e
100
AcDbEntity
8
0-30-3
6
CONTINUOUS
62
3
100
AcDbLine
10
36.660000000000
20
36.750000000000
30
0.0
11
42.770000000000
21
36.750000000000
31
0.0
0
LINE
5
41f
100
AcDbEntity
8
0-30-3
6
CONTINUOUS
62
3
100
AcDbLine
10
42.770000000000
20
36.750000000000
30
0.0
11
36.660000000000
21
30.630000000000
31
0.0
0
LINE
5
420
100
AcDbEntity
8
0-30-3
6
CONTINUOUS
62
3
100
AcDbLine
10
43.060000000000
20
36.470000000000
30
0.0
11
36.940000000000
21
30.350000000000
31
0.0
0
LINE
5
421
100
AcDbEntity
8
0-30-3
6
CONTINUOUS
62
3
100
AcDbLine
10
43.060000000000
20
36.470000000000
30
0.0
11
43.060000000000
21
30.350000000000
31
0.0
0
LINE
5
422
100
AcDbEntity
8
0-30-3
6
CONTINUOUS
62
4
100
AcDbLine
10
35.860000000000
20
37.470000000000
30
0.0
11
43.860000000000
21
37.470000000000
31
0.0
0
LINE
5
423
100
AcDbEntity
8
0-30-3
6
CONTINUOUS
62
4
100
AcDbLine
10
35.860000000000
20
37.310000000000
30
0.0
11
43.860000000000
21
37.310000000000
31
0.0
0
LINE
5
424
100
AcDbEntity
8
0-30-3
6
CONTINUOUS
62
4
100
AcDbLine
10
35.860000000000
20
37.150000000000
30
0.0
11
43.860000000000
21
37.150000000000
31
0.0
0
LINE
5
425
100
AcDbEntity
8
0-30-3
6
CONTINUOUS
62
4
100
AcDbLine
10
35.860000000000
20
36.990000000000
30
0.0
11
43.860000000000
21
36.990000000000
31
0.0
0
LINE
5
426
100
AcDbEntity
8
0-30-3
6
CONTINUOUS
62
4
100
AcDbLine
10
35.860000000000
20
36.830000000000
30
0.0
11
43.860000000000
21
36.830000000000
31
0.0
0
LINE
5
427
100
AcDbEntity
8
0-30-3
6
CONTINUOUS
62
4
100
AcDbLine
10
35.860000000000
20
30.270000000000
30
0.0
11
43.860000000000
21
30.270000000000
31
0.0
0
LINE
5
428
100
AcDbEntity
8
0-30-3
6
CONTINUOUS
62
4
100
AcDbLine
10
35.860000000000
20
30.110000000000
30
0.0
11
43.860000000000
21
30.110000000000
31
0.0
0
LINE
5
429
100
AcDbEntity
8
0-30-3
6
CONTINUOUS
62
4
100
AcDbLine
10
35.860000000000
20
29.950000000000
30
0.0
11
43.860000000000
21
29.950000000000
31
0.0
0
LINE
5
42a
100
AcDbEntity
8
0-30-3
6
CONTINUOUS
62
4
100
AcDbLine
10
35.860000000000
20
29.790000000000
30
0.0
11
43.860000000000
21
29.790000000000
31
0.0
0
LINE
5
42b
100
AcDbEntity
8
0-30-3
6
CONTINUOUS
62
4
100
AcDbLine
10
35.860000000000
20
29.630000000000
30
0.0
11
43.860000000000
21
29.630000000000
31
0.0
0
LINE
5
42c
100
AcDbEntity
8
0-30-3
6
CONTINUOUS
62
4
100
AcDbLine
10
35.860000000000
20
30.750000000000
30
0.0
11
36.660000000000
21
30.750000000000
31
0.0
0
LINE
5
42d
100
AcDbEntity
8
0-30-3
6
CONTINUOUS
62
4
100
AcDbLine
10
35.860000000000
20
30.910000000000
30
0.0
11
36.660000000000
21
30.910000000000
31
0.0
0
LINE
5
42e
100
AcDbEntity
8
0-30-3
6
CONTINUOUS
62
4
100
AcDbLine
10
35.860000000000
20
31.070000000000
30
0.0
11
36.660000000000
21
31.070000000000
31
0.0
0
LINE
5
42f
100
AcDbEntity
8
0-30-3
6
CONTINUOUS
62
4
100
AcDbLine
10
35.860000000000
20
31.230000000000
30
0.0
11
36.660000000000
21
31.230000000000
31
0.0
0
LINE
5
430
100
AcDbEntity
8
0-30-3
6
CONTINUOUS
62
4
100
AcDbLine
10
35.860000000000
20
31.390000000000
30
0.0
11
36.660000000000
21
31.390000000000
31
0.0
0
LINE
5
431
100
AcDbEntity
8
0-30-3
6
CONTINUOUS
62
4
100
AcDbLine
10
35.860000000000
20
31.550000000000
30
0.0
11
36.660000000000
21
31.550000000000
31
0.0
0
LINE
5
432
100
AcDbEntity
8
0-30-3
6
CONTINUOUS
62
4
100
AcDbLine
10
35.860000000000
20
31.710000000000
30
0.0
11
36.660000000000
21
31.710000000000
31
0.0
0
LINE
5
433
100
AcDbEntity
8
0-30-3
6
CONTINUOUS
62
4
100
AcDbLine
10
35.860000000000
20
31.870000000000
30
0.0
11
36.660000000000
21
31.870000000000
31
0.0
0
LINE
5
434
100
AcDbEntity
8
0-30-3
6
CONTINUOUS
62
4
100
AcDbLine
10
35.860000000000
20
32.030000000000
30
0.0
11
36.660000000000
21
32.030000000000
31
0.0
0
LINE
5
435
100
AcDbEntity
8
0-30-3
6
CONTINUOUS
62
4
100
AcDbLine
10
35.860000000000
20
32.190000000000
30
0.0
11
36.660000000000
21
32.190000000000
31
0.0
0
LINE
5
436
100
AcDbEntity
8
0-30-3
6
CONTINUOUS
62
4
100
AcDbLine
10
35.860000000000
20
32.350000000000
30
0.0
11
36.660000000000
21
32.350000000000
31
0.0
0
LINE
5
437
100
AcDbEntity
8
0-30-3
6
CONTINUOUS
62
4
100
AcDbLine
10
35.860000000000
20
32.510000000000
30
0.0
11
36.660000000000
21
32.510000000000
31
0.0
0
LINE
5
438
100
AcDbEntity
8
0-30-3
6
CONTINUOUS
62
4
100
AcDbLine
10
35.860000000000
20
32.670000000000
30
0.0
11
36.660000000000
21
32.670000000000
31
0.0
0
LINE
5
439
100
AcDbEntity
8
0-30-3
6
CONTINUOUS
62
4
100
AcDbLine
10
35.860000000000
20
32.830000000000
30
0.0
11
36.660000000000
21
32.830000000000
31
0.0
0
LINE
5
43a
100
AcDbEntity
8
0-30-3
6
CONTINUOUS
62
4
100
AcDbLine
10
35.860000000000
20
32.990000000000
30
0.0
11
36.660000000000
21
32.990000000000
31
0.0
0
LINE
5
43b
100
AcDbEntity
8
0-30-3
6
CONTINUOUS
62
4
100
AcDbLine
10
35.860000000000
20
33.150000000000
30
0.0
11
36.660000000000
21
33.150000000000
31
0.0
0
LINE
5
43c
100
AcDbEntity
8
0-30-3
6
CONTINUOUS
62
4
100
AcDbLine
10
35.860000000000
20
33.310000000000
30
0.0
11
36.660000000000
21
33.310000000000
31
0.0
0
LINE
5
43d
100
AcDbEntity
8
0-30-3
6
CONTINUOUS
62
4
100
AcDbLine
10
35.860000000000
20
33.470000000000
30
0.0
11
36.660000000000
21
33.470000000000
31
0.0
0
LINE
5
43e
100
AcDbEntity
8
0-30-3
6
CONTINUOUS
62
4
100
AcDbLine
10
35.860000000000
20
33.630000000000
30
0.0
11
36.660000000000
21
33.630000000000
31
0.0
0
LINE
5
43f
100
AcDbEntity
8
0-30-3
6
CONTINUOUS
62
4
100
AcDbLine
10
35.860000000000
20
33.790000000000
30
0.0
11
36.660000000000
21
33.790000000000
31
0.0
0
LINE
5
440
100
AcDbEntity
8
0-30-3
6
CONTINUOUS
62
4
100
AcDbLine
10
35.860000000000
20
33.950000000000
30
0.0
11
36.660000000000
21
33.950000000000
31
0.0
0
LINE
5
441
100
AcDbEntity
8
0-30-3
6
CONTINUOUS
62
4
100
AcDbLine
10
35.860000000000
20
34.110000000000
30
0.0
11
36.660000000000
21
34.110000000000
31
0.0
0
LINE
5
442
100
AcDbEntity
8
0-30-3
6
CONTINUOUS
62
4
100
AcDbLine
10
35.860000000000
20
34.270000000000
30
0.0
11
36.660000000000
21
34.270000000000
31
0.0
0
LINE
5
443
100
AcDbEntity
8
0-30-3
6
CONTINUOUS
62
4
100
AcDbLine
10
35.860000000000
20
34.430000000000
30
0.0
11
36.660000000000
21
34.430000000000
31
0.0
0
LINE
5
444
100
AcDbEntity
8
0-30-3
6
CONTINUOUS
62
4
100
AcDbLine
10
35.860000000000
20
34.910000000000
30
0.0
11
36.660000000000
21
34.910000000000
31
0.0
0
LINE
5
445
100
AcDbEntity
8
0-30-3
6
CONTINUOUS
62
4
100
AcDbLine
10
35.860000000000
20
35.390000000000
30
0.0
11
36.660000000000
21
35.390000000000
31
0.0
0
LINE
5
446
100
AcDbEntity
8
0-30-3
6
CONTINUOUS
62
4
100
AcDbLine
10
35.860000000000
20
35.550000000000
30
0.0
11
36.660000000000
21
35.550000000000
31
0.0
0
LINE
5
447
100
AcDbEntity
8
0-30-3
6
CONTINUOUS
62
4
100
AcDbLine
10
35.860000000000
20
35.710000000000
30
0.0
11
36.660000000000
21
35.710000000000
31
0.0
0
LINE
5
448
100
AcDbEntity
8
0-30-3
6
CONTINUOUS
62
4
100
AcDbLine
10
35.860000000000
20
35.870000000000
30
0.0
11
36.660000000000
21
35.870000000000
31
0.0
0
LINE
5
449
100
AcDbEntity
8
0-30-3
6
CONTINUOUS
62
4
100
AcDbLine
10
35.860000000000
20
36.670000000000
30
0.0
11
36.660000000000
21
36.670000000000
31
0.0
0
LINE
5
44a
100
AcDbEntity
8
0-30-3
6
CONTINUOUS
62
4
100
AcDbLine
10
35.860000000000
20
36.510000000000
30
0.0
11
36.660000000000
21
36.510000000000
31
0.0
0
LINE
5
44b
100
AcDbEntity
8
0-30-3
6
CONTINUOUS
62
4
100
AcDbLine
10
35.860000000000
20
36.350000000000
30
0.0
11
36.660000000000
21
36.350000000000
31
0.0
0
LINE
5
44c
100
AcDbEntity
8
0-30-3
6
CONTINUOUS
62
4
100
AcDbLine
10
35.860000000000
20
36.190000000000
30
0.0
11
36.660000000000
21
36.190000000000
31
0.0
0
LINE
5
44d
100
AcDbEntity
8
0-30-3
6
CONTINUOUS
62
4
100
AcDbLine
10
35.860000000000
20
36.030000000000
30
0.0
11
36.660000000000
21
36.030000000000
31
0.0
0
LINE
5
44e
100
AcDbEntity
8
0-30-3
6
CONTINUOUS
62
4
100
AcDbLine
10
35.860000000000
20
35.070000000000
30
0.0
11
36.660000000000
21
35.070000000000
31
0.0
0
LINE
5
44f
100
AcDbEntity
8
0-30-3
6
CONTINUOUS
62
4
100
AcDbLine
10
35.860000000000
20
35.230000000000
30
0.0
11
36.660000000000
21
35.230000000000
31
0.0
0
LINE
5
450
100
AcDbEntity
8
0-30-3
6
CONTINUOUS
62
4
100
AcDbLine
10
35.860000000000
20
34.750000000000
30
0.0
11
36.660000000000
21
34.750000000000
31
0.0
0
LINE
5
451
100
AcDbEntity
8
0-30-3
6
CONTINUOUS
62
4
100
AcDbLine
10
35.860000000000
20
34.590000000000
30
0.0
11
36.660000000000
21
34.590000000000
31
0.0
0
LINE
5
452
100
AcDbEntity
8
0-30-3
6
CONTINUOUS
62
4
100
AcDbLine
10
36.930000000000
20
30.910000000000
30
0.0
11
37.500000000000
21
30.910000000000
31
0.0
0
LINE
5
453
100
AcDbEntity
8
0-30-3
6
CONTINUOUS
62
4
100
AcDbLine
10
36.770000000000
20
30.750000000000
30
0.0
11
37.340000000000
21
30.750000000000
31
0.0
0
LINE
5
454
100
AcDbEntity
8
0-30-3
6
CONTINUOUS
62
4
100
AcDbLine
10
35.860000000000
20
30.590000000000
30
0.0
11
37.180000000000
21
30.590000000000
31
0.0
0
LINE
5
455
100
AcDbEntity
8
0-30-3
6
CONTINUOUS
62
4
100
AcDbLine
10
35.860000000000
20
30.430000000000
30
0.0
11
37.020000000000
21
30.430000000000
31
0.0
0
LINE
5
456
100
AcDbEntity
8
0-30-3
6
CONTINUOUS
62
4
100
AcDbLine
10
37.890000000000
20
31.870000000000
30
0.0
11
38.460000000000
21
31.870000000000
31
0.0
0
LINE
5
457
100
AcDbEntity
8
0-30-3
6
CONTINUOUS
62
4
100
AcDbLine
10
37.730000000000
20
31.710000000000
30
0.0
11
38.300000000000
21
31.710000000000
31
0.0
0
LINE
5
458
100
AcDbEntity
8
0-30-3
6
CONTINUOUS
62
4
100
AcDbLine
10
37.570000000000
20
31.550000000000
30
0.0
11
38.140000000000
21
31.550000000000
31
0.0
0
LINE
5
459
100
AcDbEntity
8
0-30-3
6
CONTINUOUS
62
4
100
AcDbLine
10
37.420000000000
20
31.390000000000
30
0.0
11
37.980000000000
21
31.390000000000
31
0.0
0
LINE
5
45a
100
AcDbEntity
8
0-30-3
6
CONTINUOUS
62
4
100
AcDbLine
10
37.250000000000
20
31.230000000000
30
0.0
11
37.820000000000
21
31.230000000000
31
0.0
0
LINE
5
45b
100
AcDbEntity
8
0-30-3
6
CONTINUOUS
62
4
100
AcDbLine
10
37.090000000000
20
31.070000000000
30
0.0
11
37.660000000000
21
31.070000000000
31
0.0
0
LINE
5
45c
100
AcDbEntity
8
0-30-3
6
CONTINUOUS
62
4
100
AcDbLine
10
36.660000000000
20
36.750000000000
30
0.0
11
36.660000000000
21
36.910000000000
31
0.0
0
LINE
5
45d
100
AcDbEntity
8
0-30-3
6
CONTINUOUS
62
4
100
AcDbLine
10
43.060000000000
20
30.750000000000
30
0.0
11
43.860000000000
21
30.750000000000
31
0.0
0
LINE
5
45e
100
AcDbEntity
8
0-30-3
6
CONTINUOUS
62
4
100
AcDbLine
10
43.060000000000
20
30.910000000000
30
0.0
11
43.860000000000
21
30.910000000000
31
0.0
0
LINE
5
45f
100
AcDbEntity
8
0-30-3
6
CONTINUOUS
62
4
100
AcDbLine
10
43.060000000000
20
31.070000000000
30
0.0
11
43.860000000000
21
31.070000000000
31
0.0
0
LINE
5
460
100
AcDbEntity
8
0-30-3
6
CONTINUOUS
62
4
100
AcDbLine
10
43.060000000000
20
31.230000000000
30
0.0
11
43.860000000000
21
31.230000000000
31
0.0
0
LINE
5
461
100
AcDbEntity
8
0-30-3
6
CONTINUOUS
62
4
100
AcDbLine
10
43.060000000000
20
31.390000000000
30
0.0
11
43.860000000000
21
31.390000000000
31
0.0
0
LINE
5
462
100
AcDbEntity
8
0-30-3
6
CONTINUOUS
62
4
100
AcDbLine
10
43.060000000000
20
31.550000000000
30
0.0
11
43.860000000000
21
31.550000000000
31
0.0
0
LINE
5
463
100
AcDbEntity
8
0-30-3
6
CONTINUOUS
62
4
100
AcDbLine
10
43.060000000000
20
31.710000000000
30
0.0
11
43.860000000000
21
31.710000000000
31
0.0
0
LINE
5
464
100
AcDbEntity
8
0-30-3
6
CONTINUOUS
62
4
100
AcDbLine
10
43.060000000000
20
31.870000000000
30
0.0
11
43.860000000000
21
31.870000000000
31
0.0
0
LINE
5
465
100
AcDbEntity
8
0-30-3
6
CONTINUOUS
62
4
100
AcDbLine
10
43.060000000000
20
32.030000000000
30
0.0
11
43.860000000000
21
32.030000000000
31
0.0
0
LINE
5
466
100
AcDbEntity
8
0-30-3
6
CONTINUOUS
62
4
100
AcDbLine
10
43.060000000000
20
32.190000000000
30
0.0
11
43.860000000000
21
32.190000000000
31
0.0
0
LINE
5
467
100
AcDbEntity
8
0-30-3
6
CONTINUOUS
62
4
100
AcDbLine
10
43.060000000000
20
32.350000000000
30
0.0
11
43.860000000000
21
32.350000000000
31
0.0
0
LINE
5
468
100
AcDbEntity
8
0-30-3
6
CONTINUOUS
62
4
100
AcDbLine
10
43.060000000000
20
32.510000000000
30
0.0
11
43.860000000000
21
32.510000000000
31
0.0
0
LINE
5
469
100
AcDbEntity
8
0-30-3
6
CONTINUOUS
62
4
100
AcDbLine
10
43.060000000000
20
32.670000000000
30
0.0
11
43.860000000000
21
32.670000000000
31
0.0
0
LINE
5
46a
100
AcDbEntity
8
0-30-3
6
CONTINUOUS
62
4
100
AcDbLine
10
43.060000000000
20
32.990000000000
30
0.0
11
43.860000000000
21
32.990000000000
31
0.0
0
LINE
5
46b
100
AcDbEntity
8
0-30-3
6
CONTINUOUS
62
4
100
AcDbLine
10
43.060000000000
20
33.150000000000
30
0.0
11
43.860000000000
21
33.150000000000
31
0.0
0
LINE
5
46c
100
AcDbEntity
8
0-30-3
6
CONTINUOUS
62
4
100
AcDbLine
10
43.060000000000
20
33.310000000000
30
0.0
11
43.860000000000
21
33.310000000000
31
0.0
0
LINE
5
46d
100
AcDbEntity
8
0-30-3
6
CONTINUOUS
62
4
100
AcDbLine
10
43.060000000000
20
33.470000000000
30
0.0
11
43.860000000000
21
33.470000000000
31
0.0
0
LINE
5
46e
100
AcDbEntity
8
0-30-3
6
CONTINUOUS
62
4
100
AcDbLine
10
43.060000000000
20
33.630000000000
30
0.0
11
43.860000000000
21
33.630000000000
31
0.0
0
LINE
5
46f
100
AcDbEntity
8
0-30-3
6
CONTINUOUS
62
4
100
AcDbLine
10
43.060000000000
20
33.790000000000
30
0.0
11
43.860000000000
21
33.790000000000
31
0.0
0
LINE
5
470
100
AcDbEntity
8
0-30-3
6
CONTINUOUS
62
4
100
AcDbLine
10
43.060000000000
20
33.950000000000
30
0.0
11
43.860000000000
21
33.950000000000
31
0.0
0
LINE
5
471
100
AcDbEntity
8
0-30-3
6
CONTINUOUS
62
4
100
AcDbLine
10
43.060000000000
20
34.110000000000
30
0.0
11
43.860000000000
21
34.110000000000
31
0.0
0
LINE
5
472
100
AcDbEntity
8
0-30-3
6
CONTINUOUS
62
4
100
AcDbLine
10
43.060000000000
20
34.270000000000
30
0.0
11
43.860000000000
21
34.270000000000
31
0.0
0
LINE
5
473
100
AcDbEntity
8
0-30-3
6
CONTINUOUS
62
4
100
AcDbLine
10
43.060000000000
20
34.430000000000
30
0.0
11
43.860000000000
21
34.430000000000
31
0.0
0
LINE
5
474
100
AcDbEntity
8
0-30-3
6
CONTINUOUS
62
4
100
AcDbLine
10
43.060000000000
20
34.910000000000
30
0.0
11
43.860000000000
21
34.910000000000
31
0.0
0
LINE
5
475
100
AcDbEntity
8
0-30-3
6
CONTINUOUS
62
4
100
AcDbLine
10
43.060000000000
20
35.390000000000
30
0.0
11
43.860000000000
21
35.390000000000
31
0.0
0
LINE
5
476
100
AcDbEntity
8
0-30-3
6
CONTINUOUS
62
4
100
AcDbLine
10
43.060000000000
20
35.550000000000
30
0.0
11
43.860000000000
21
35.550000000000
31
0.0
0
LINE
5
477
100
AcDbEntity
8
0-30-3
6
CONTINUOUS
62
4
100
AcDbLine
10
43.060000000000
20
35.710000000000
30
0.0
11
43.860000000000
21
35.710000000000
31
0.0
0
LINE
5
478
100
AcDbEntity
8
0-30-3
6
CONTINUOUS
62
4
100
AcDbLine
10
43.060000000000
20
35.870000000000
30
0.0
11
43.860000000000
21
35.870000000000
31
0.0
0
LINE
5
479
100
AcDbEntity
8
0-30-3
6
CONTINUOUS
62
4
100
AcDbLine
10
43.060000000000
20
36.350000000000
30
0.0
11
43.860000000000
21
36.350000000000
31
0.0
0
LINE
5
47a
100
AcDbEntity
8
0-30-3
6
CONTINUOUS
62
4
100
AcDbLine
10
43.060000000000
20
36.190000000000
30
0.0
11
43.860000000000
21
36.190000000000
31
0.0
0
LINE
5
47b
100
AcDbEntity
8
0-30-3
6
CONTINUOUS
62
4
100
AcDbLine
10
43.060000000000
20
36.030000000000
30
0.0
11
43.860000000000
21
36.030000000000
31
0.0
0
LINE
5
47c
100
AcDbEntity
8
0-30-3
6
CONTINUOUS
62
4
100
AcDbLine
10
43.060000000000
20
35.070000000000
30
0.0
11
43.860000000000
21
35.070000000000
31
0.0
0
LINE
5
47d
100
AcDbEntity
8
0-30-3
6
CONTINUOUS
62
4
100
AcDbLine
10
43.060000000000
20
35.230000000000
30
0.0
11
43.860000000000
21
35.230000000000
31
0.0
0
LINE
5
47e
100
AcDbEntity
8
0-30-3
6
CONTINUOUS
62
4
100
AcDbLine
10
43.060000000000
20
34.750000000000
30
0.0
11
43.860000000000
21
34.750000000000
31
0.0
0
LINE
5
47f
100
AcDbEntity
8
0-30-3
6
CONTINUOUS
62
4
100
AcDbLine
10
43.060000000000
20
34.590000000000
30
0.0
11
43.860000000000
21
34.590000000000
31
0.0
0
LINE
5
480
100
AcDbEntity
8
0-30-3
6
CONTINUOUS
62
4
100
AcDbLine
10
43.060000000000
20
30.430000000000
30
0.0
11
43.860000000000
21
30.430000000000
31
0.0
0
LINE
5
481
100
AcDbEntity
8
0-30-3
6
CONTINUOUS
62
4
100
AcDbLine
10
43.060000000000
20
30.590000000000
30
0.0
11
43.860000000000
21
30.590000000000
31
0.0
0
LINE
5
482
100
AcDbEntity
8
0-30-3
6
CONTINUOUS
62
4
100
AcDbLine
10
42.690000000000
20
36.670000000000
30
0.0
11
43.860000000000
21
36.670000000000
31
0.0
0
LINE
5
483
100
AcDbEntity
8
0-30-3
6
CONTINUOUS
62
4
100
AcDbLine
10
42.530000000000
20
36.510000000000
30
0.0
11
43.860000000000
21
36.510000000000
31
0.0
0
LINE
5
484
100
AcDbEntity
8
0-30-3
6
CONTINUOUS
62
4
100
AcDbLine
10
38.530000000000
20
32.510000000000
30
0.0
11
39.100000000000
21
32.510000000000
31
0.0
0
LINE
5
485
100
AcDbEntity
8
0-30-3
6
CONTINUOUS
62
4
100
AcDbLine
10
38.370000000000
20
32.350000000000
30
0.0
11
38.940000000000
21
32.350000000000
31
0.0
0
LINE
5
486
100
AcDbEntity
8
0-30-3
6
CONTINUOUS
62
4
100
AcDbLine
10
38.210000000000
20
32.190000000000
30
0.0
11
38.780000000000
21
32.190000000000
31
0.0
0
LINE
5
487
100
AcDbEntity
8
0-30-3
6
CONTINUOUS
62
4
100
AcDbLine
10
38.050000000000
20
32.030000000000
30
0.0
11
38.620000000000
21
32.030000000000
31
0.0
0
LINE
5
488
100
AcDbEntity
8
0-30-3
6
CONTINUOUS
62
4
100
AcDbLine
10
39.170000000000
20
33.150000000000
30
0.0
11
39.740000000000
21
33.150000000000
31
0.0
0
LINE
5
489
100
AcDbEntity
8
0-30-3
6
CONTINUOUS
62
4
100
AcDbLine
10
39.010000000000
20
32.990000000000
30
0.0
11
39.580000000000
21
32.990000000000
31
0.0
0
LINE
5
48a
100
AcDbEntity
8
0-30-3
6
CONTINUOUS
62
4
100
AcDbLine
10
38.850000000000
20
32.830000000000
30
0.0
11
39.420000000000
21
32.830000000000
31
0.0
0
LINE
5
48b
100
AcDbEntity
8
0-30-3
6
CONTINUOUS
62
4
100
AcDbLine
10
38.690000000000
20
32.670000000000
30
0.0
11
39.260000000000
21
32.670000000000
31
0.0
0
LINE
5
48c
100
AcDbEntity
8
0-30-3
6
CONTINUOUS
62
4
100
AcDbLine
10
39.810000000000
20
33.790000000000
30
0.0
11
40.380000000000
21
33.790000000000
31
0.0
0
LINE
5
48d
100
AcDbEntity
8
0-30-3
6
CONTINUOUS
62
4
100
AcDbLine
10
39.650000000000
20
33.630000000000
30
0.0
11
40.220000000000
21
33.630000000000
31
0.0
0
LINE
5
48e
100
AcDbEntity
8
0-30-3
6
CONTINUOUS
62
4
100
AcDbLine
10
39.490000000000
20
33.470000000000
30
0.0
11
40.060000000000
21
33.470000000000
31
0.0
0
LINE
5
48f
100
AcDbEntity
8
0-30-3
6
CONTINUOUS
62
4
100
AcDbLine
10
39.330000000000
20
33.310000000000
30
0.0
11
39.900000000000
21
33.310000000000
31
0.0
0
LINE
5
490
100
AcDbEntity
8
0-30-3
6
CONTINUOUS
62
4
100
AcDbLine
10
40.450000000000
20
34.430000000000
30
0.0
11
41.020000000000
21
34.430000000000
31
0.0
0
LINE
5
491
100
AcDbEntity
8
0-30-3
6
CONTINUOUS
62
4
100
AcDbLine
10
40.290000000000
20
34.270000000000
30
0.0
11
40.860000000000
21
34.270000000000
31
0.0
0
LINE
5
492
100
AcDbEntity
8
0-30-3
6
CONTINUOUS
62
4
100
AcDbLine
10
40.130000000000
20
34.110000000000
30
0.0
11
40.700000000000
21
34.110000000000
31
0.0
0
LINE
5
493
100
AcDbEntity
8
0-30-3
6
CONTINUOUS
62
4
100
AcDbLine
10
39.970000000000
20
33.950000000000
30
0.0
11
40.540000000000
21
33.950000000000
31
0.0
0
LINE
5
494
100
AcDbEntity
8
0-30-3
6
CONTINUOUS
62
4
100
AcDbLine
10
41.100000000000
20
35.070000000000
30
0.0
11
41.660000000000
21
35.070000000000
31
0.0
0
LINE
5
495
100
AcDbEntity
8
0-30-3
6
CONTINUOUS
62
4
100
AcDbLine
10
40.930000000000
20
34.910000000000
30
0.0
11
41.500000000000
21
34.910000000000
31
0.0
0
LINE
5
496
100
AcDbEntity
8
0-30-3
6
CONTINUOUS
62
4
100
AcDbLine
10
40.770000000000
20
34.750000000000
30
0.0
11
41.340000000000
21
34.750000000000
31
0.0
0
LINE
5
497
100
AcDbEntity
8
0-30-3
6
CONTINUOUS
62
4
100
AcDbLine
10
40.610000000000
20
34.590000000000
30
0.0
11
41.180000000000
21
34.590000000000
31
0.0
0
LINE
5
498
100
AcDbEntity
8
0-30-3
6
CONTINUOUS
62
4
100
AcDbLine
10
41.730000000000
20
35.710000000000
30
0.0
11
42.300000000000
21
35.710000000000
31
0.0
0
LINE
5
499
100
AcDbEntity
8
0-30-3
6
CONTINUOUS
62
4
100
AcDbLine
10
41.570000000000
20
35.550000000000
30
0.0
11
42.140000000000
21
35.550000000000
31
0.0
0
LINE
5
49a
100
AcDbEntity
8
0-30-3
6
CONTINUOUS
62
4
100
AcDbLine
10
41.410000000000
20
35.390000000000
30
0.0
11
41.980000000000
21
35.390000000000
31
0.0
0
LINE
5
49b
100
AcDbEntity
8
0-30-3
6
CONTINUOUS
62
4
100
AcDbLine
10
41.250000000000
20
35.230000000000
30
0.0
11
41.820000000000
21
35.230000000000
31
0.0
0
LINE
5
49c
100
AcDbEntity
8
0-30-3
6
CONTINUOUS
62
4
100
AcDbLine
10
42.370000000000
20
36.350000000000
30
0.0
11
42.940000000000
21
36.350000000000
31
0.0
0
LINE
5
49d
100
AcDbEntity
8
0-30-3
6
CONTINUOUS
62
4
100
AcDbLine
10
42.210000000000
20
36.190000000000
30
0.0
11
42.780000000000
21
36.190000000000
31
0.0
0
LINE
5
49e
100
AcDbEntity
8
0-30-3
6
CONTINUOUS
62
4
100
AcDbLine
10
42.050000000000
20
36.030000000000
30
0.0
11
42.620000000000
21
36.030000000000
31
0.0
0
LINE
5
49f
100
AcDbEntity
8
0-30-3
6
CONTINUOUS
62
4
100
AcDbLine
10
41.890000000000
20
35.870000000000
30
0.0
11
42.460000000000
21
35.870000000000
31
0.0
0
LINE
5
4a0
100
AcDbEntity
8
0-30-3
6
CONTINUOUS
62
4
100
AcDbLine
10
43.060000000000
20
32.830000000000
30
0.0
11
43.860000000000
21
32.830000000000
31
0.0
0
LINE
5
4a1
100
AcDbEntity
8
0-00-0
6
CONTINUOUS
62
4
100
AcDbLine
10
146.210000000000
20
488.450000000000
30
0.0
11
172.210000000000
21
488.450000000000
31
0.0
0
LINE
5
4a2
100
AcDbEntity
8
0-00-0
6
CONTINUOUS
62
4
100
AcDbLine
10
201.210000000000
20
478.450000000000
30
0.0
11
201.210000000000
21
488.450000000000
31
0.0
0
LINE
5
4a3
100
AcDbEntity
8
0-00-0
6
CONTINUOUS
62
4
100
AcDbLine
10
172.210000000000
20
478.450000000000
30
0.0
11
172.210000000000
21
488.450000000000
31
0.0
0
LINE
5
4a4
100
AcDbEntity
8
0-00-0
6
CONTINUOUS
62
4
100
AcDbLine
10
146.210000000000
20
478.450000000000
30
0.0
11
146.210000000000
21
488.450000000000
31
0.0
0
LINE
5
4a5
100
AcDbEntity
8
0-00-0
6
CONTINUOUS
62
4
100
AcDbLine
10
271.040000000000
20
418.450000000000
30
0.0
11
271.040000000000
21
408.450000000000
31
0.0
0
LINE
5
4a6
100
AcDbEntity
8
0-00-0
6
CONTINUOUS
62
4
100
AcDbLine
10
302.040000000000
20
418.450000000000
30
0.0
11
302.040000000000
21
408.450000000000
31
0.0
0
LINE
5
4a7
100
AcDbEntity
8
0-00-0
6
CONTINUOUS
62
4
100
AcDbLine
10
271.040000000000
20
428.450000000000
30
0.0
11
271.040000000000
21
418.450000000000
31
0.0
0
LINE
5
4a8
100
AcDbEntity
8
0-00-0
6
CONTINUOUS
62
4
100
AcDbLine
10
146.210000000000
20
488.450000000000
30
0.0
11
146.210000000000
21
498.450000000000
31
0.0
0
LINE
5
4a9
100
AcDbEntity
8
0-00-0
6
CONTINUOUS
62
4
100
AcDbLine
10
117.210000000000
20
498.450000000000
30
0.0
11
117.210000000000
21
508.450000000000
31
0.0
0
LINE
5
4aa
100
AcDbEntity
8
0-00-0
6
CONTINUOUS
62
4
100
AcDbLine
10
307.210000000000
20
438.450000000000
30
0.0
11
317.210000000000
21
438.450000000000
31
0.0
0
LINE
5
4ab
100
AcDbEntity
8
0-00-0
6
CONTINUOUS
62
4
100
AcDbLine
10
102.210000000000
20
442.450000000000
30
0.0
11
92.210000000000
21
442.450000000000
31
0.0
0
LINE
5
4ac
100
AcDbEntity
8
0-00-0
6
CONTINUOUS
62
4
100
AcDbLine
10
108.480000000000
20
418.450000000000
30
0.0
11
108.480000000000
21
408.450000000000
31
0.0
0
LINE
5
4ad
100
AcDbEntity
8
0-00-0
6
CONTINUOUS
62
4
100
AcDbLine
10
146.210000000000
20
418.450000000000
30
0.0
11
146.210000000000
21
408.450000000000
31
0.0
0
LINE
5
4ae
100
AcDbEntity
8
0-00-0
6
CONTINUOUS
62
4
100
AcDbLine
10
302.040000000000
20
428.450000000000
30
0.0
11
302.040000000000
21
418.450000000000
31
0.0
0
LINE
5
4af
100
AcDbEntity
8
0-00-0
6
CONTINUOUS
62
3
100
AcDbLine
10
288.960000000000
20
440.320000000000
30
0.0
11
289.340000000000
21
439.390000000000
31
0.0
0
LINE
5
4b0
100
AcDbEntity
8
0-00-0
6
CONTINUOUS
62
3
100
AcDbLine
10
289.800000000000
20
439.570000000000
30
0.0
11
289.430000000000
21
440.510000000000
31
0.0
0
LINE
5
4b1
100
AcDbEntity
8
0-00-0
6
CONTINUOUS
62
3
100
AcDbLine
10
287.110000000000
20
440.320000000000
30
0.0
11
286.730000000000
21
439.390000000000
31
0.0
0
LINE
5
4b2
100
AcDbEntity
8
0-00-0
6
CONTINUOUS
62
3
100
AcDbLine
10
286.270000000000
20
439.570000000000
30
0.0
11
286.640000000000
21
440.510000000000
31
0.0
0
LINE
5
4b3
100
AcDbEntity
8
0-00-0
6
CONTINUOUS
62
4
100
AcDbLine
10
271.040000000000
20
418.450000000000
30
0.0
11
283.210000000000
21
418.450000000000
31
0.0
0
LINE
5
4b4
100
AcDbEntity
8
0-00-0
6
CONTINUOUS
62
4
100
AcDbLine
10
271.040000000000
20
408.450000000000
30
0.0
11
302.040000000000
21
408.450000000000
31
0.0
0
LINE
5
4b5
100
AcDbEntity
8
0-00-0
6
CONTINUOUS
62
4
100
AcDbLine
10
172.210000000000
20
488.450000000000
30
0.0
11
201.210000000000
21
488.450000000000
31
0.0
0
LINE
5
4b6
100
AcDbEntity
8
0-00-0
6
CONTINUOUS
62
3
100
AcDbLine
10
173.150000000000
20
443.380000000000
30
0.0
11
172.280000000000
21
456.510000000000
31
0.0
0
LINE
5
4b7
100
AcDbEntity
8
0-00-0
6
CONTINUOUS
62
3
100
AcDbLine
10
172.650000000000
20
443.350000000000
30
0.0
11
171.780000000000
21
456.480000000000
31
0.0
0
LINE
5
4b8
100
AcDbEntity
8
0-00-0
6
CONTINUOUS
62
3
100
AcDbLine
10
174.150000000000
20
442.450000000000
30
0.0
11
186.710000000000
21
442.450000000000
31
0.0
0
LINE
5
4b9
100
AcDbEntity
8
0-00-0
6
CONTINUOUS
62
3
100
AcDbLine
10
174.150000000000
20
441.950000000000
30
0.0
11
186.710000000000
21
441.950000000000
31
0.0
0
LINE
5
4ba
100
AcDbEntity
8
0-00-0
6
CONTINUOUS
62
3
100
AcDbLine
10
159.210000000000
20
456.950000000000
30
0.0
11
171.280000000000
21
456.950000000000
31
0.0
0
LINE
5
4bb
100
AcDbEntity
8
0-00-0
6
CONTINUOUS
62
3
100
AcDbLine
10
171.280000000000
20
457.450000000000
30
0.0
11
159.210000000000
21
457.450000000000
31
0.0
0
LINE
5
4bc
100
AcDbEntity
8
0-00-0
6
CONTINUOUS
62
3
100
AcDbLine
10
200.280000000000
20
443.380000000000
30
0.0
11
201.150000000000
21
456.510000000000
31
0.0
0
LINE
5
4bd
100
AcDbEntity
8
0-00-0
6
CONTINUOUS
62
3
100
AcDbLine
10
200.770000000000
20
443.350000000000
30
0.0
11
201.650000000000
21
456.480000000000
31
0.0
0
LINE
5
4be
100
AcDbEntity
8
0-00-0
6
CONTINUOUS
62
3
100
AcDbLine
10
199.280000000000
20
442.450000000000
30
0.0
11
186.710000000000
21
442.450000000000
31
0.0
0
LINE
5
4bf
100
AcDbEntity
8
0-00-0
6
CONTINUOUS
62
3
100
AcDbLine
10
199.280000000000
20
441.950000000000
30
0.0
11
186.710000000000
21
441.950000000000
31
0.0
0
LINE
5
4c0
100
AcDbEntity
8
0-00-0
6
CONTINUOUS
62
3
100
AcDbLine
10
214.210000000000
20
456.950000000000
30
0.0
11
202.150000000000
21
456.950000000000
31
0.0
0
LINE
5
4c1
100
AcDbEntity
8
0-00-0
6
CONTINUOUS
62
3
100
AcDbLine
10
202.150000000000
20
457.450000000000
30
0.0
11
214.210000000000
21
457.450000000000
31
0.0
0
LINE
5
4c2
100
AcDbEntity
8
0-00-0
6
CONTINUOUS
62
3
100
AcDbLine
10
228.150000000000
20
443.380000000000
30
0.0
11
227.280000000000
21
456.510000000000
31
0.0
0
LINE
5
4c3
100
AcDbEntity
8
0-00-0
6
CONTINUOUS
62
3
100
AcDbLine
10
227.650000000000
20
443.350000000000
30
0.0
11
226.780000000000
21
456.480000000000
31
0.0
0
LINE
5
4c4
100
AcDbEntity
8
0-00-0
6
CONTINUOUS
62
3
100
AcDbLine
10
229.150000000000
20
442.450000000000
30
0.0
11
241.710000000000
21
442.450000000000
31
0.0
0
LINE
5
4c5
100
AcDbEntity
8
0-00-0
6
CONTINUOUS
62
3
100
AcDbLine
10
229.150000000000
20
441.950000000000
30
0.0
11
241.710000000000
21
441.950000000000
31
0.0
0
LINE
5
4c6
100
AcDbEntity
8
0-00-0
6
CONTINUOUS
62
3
100
AcDbLine
10
214.210000000000
20
456.950000000000
30
0.0
11
226.280000000000
21
456.950000000000
31
0.0
0
LINE
5
4c7
100
AcDbEntity
8
0-00-0
6
CONTINUOUS
62
3
100
AcDbLine
10
226.280000000000
20
457.450000000000
30
0.0
11
214.210000000000
21
457.450000000000
31
0.0
0
LINE
5
4c8
100
AcDbEntity
8
0-00-0
6
CONTINUOUS
62
3
100
AcDbLine
10
255.280000000000
20
443.380000000000
30
0.0
11
256.150000000000
21
456.510000000000
31
0.0
0
LINE
5
4c9
100
AcDbEntity
8
0-00-0
6
CONTINUOUS
62
3
100
AcDbLine
10
255.770000000000
20
443.350000000000
30
0.0
11
256.650000000000
21
456.480000000000
31
0.0
0
LINE
5
4ca
100
AcDbEntity
8
0-00-0
6
CONTINUOUS
62
3
100
AcDbLine
10
254.280000000000
20
442.450000000000
30
0.0
11
241.710000000000
21
442.450000000000
31
0.0
0
LINE
5
4cb
100
AcDbEntity
8
0-00-0
6
CONTINUOUS
62
3
100
AcDbLine
10
254.280000000000
20
441.950000000000
30
0.0
11
241.710000000000
21
441.950000000000
31
0.0
0
LINE
5
4cc
100
AcDbEntity
8
0-00-0
6
CONTINUOUS
62
3
100
AcDbLine
10
269.210000000000
20
456.950000000000
30
0.0
11
257.150000000000
21
456.950000000000
31
0.0
0
LINE
5
4cd
100
AcDbEntity
8
0-00-0
6
CONTINUOUS
62
3
100
AcDbLine
10
257.150000000000
20
457.450000000000
30
0.0
11
269.210000000000
21
457.450000000000
31
0.0
0
LINE
5
4ce
100
AcDbEntity
8
0-00-0
6
CONTINUOUS
62
4
100
AcDbLine
10
256.210000000000
20
478.450000000000
30
0.0
11
256.210000000000
21
488.450000000000
31
0.0
0
LINE
5
4cf
100
AcDbEntity
8
0-00-0
6
CONTINUOUS
62
4
100
AcDbLine
10
227.210000000000
20
478.450000000000
30
0.0
11
227.210000000000
21
488.450000000000
31
0.0
0
LINE
5
4d0
100
AcDbEntity
8
0-00-0
6
CONTINUOUS
62
4
100
AcDbLine
10
282.210000000000
20
478.450000000000
30
0.0
11
282.210000000000
21
488.450000000000
31
0.0
0
LINE
5
4d1
100
AcDbEntity
8
0-00-0
6
CONTINUOUS
62
4
100
AcDbLine
10
227.210000000000
20
488.450000000000
30
0.0
11
282.210000000000
21
488.450000000000
31
0.0
0
LINE
5
4d2
100
AcDbEntity
8
0-00-0
6
CONTINUOUS
62
4
100
AcDbLine
10
201.210000000000
20
488.450000000000
30
0.0
11
227.210000000000
21
488.450000000000
31
0.0
0
LINE
5
4d3
100
AcDbEntity
8
0-00-0
6
CONTINUOUS
62
3
100
AcDbLine
10
269.210000000000
20
456.950000000000
30
0.0
11
281.280000000000
21
456.950000000000
31
0.0
0
LINE
5
4d4
100
AcDbEntity
8
0-00-0
6
CONTINUOUS
62
3
100
AcDbLine
10
281.280000000000
20
457.450000000000
30
0.0
11
269.210000000000
21
457.450000000000
31
0.0
0
LINE
5
4d5
100
AcDbEntity
8
0-00-0
6
CONTINUOUS
62
3
100
AcDbLine
10
273.040000000000
20
438.950000000000
30
0.0
11
285.340000000000
21
438.950000000000
31
0.0
0
LINE
5
4d6
100
AcDbEntity
8
0-00-0
6
CONTINUOUS
62
3
100
AcDbLine
10
285.340000000000
20
438.450000000000
30
0.0
11
273.040000000000
21
438.450000000000
31
0.0
0
LINE
5
4d7
100
AcDbEntity
8
0-00-0
6
CONTINUOUS
62
3
100
AcDbLine
10
282.680000000000
20
442.980000000000
30
0.0
11
281.780000000000
21
456.480000000000
31
0.0
0
LINE
5
4d8
100
AcDbEntity
8
0-00-0
6
CONTINUOUS
62
3
100
AcDbLine
10
282.180000000000
20
442.450000000000
30
0.0
11
273.040000000000
21
442.450000000000
31
0.0
0
LINE
5
4d9
100
AcDbEntity
8
0-00-0
6
CONTINUOUS
62
3
100
AcDbLine
10
273.040000000000
20
441.950000000000
30
0.0
11
282.180000000000
21
441.950000000000
31
0.0
0
LINE
5
4da
100
AcDbEntity
8
0-00-0
6
CONTINUOUS
62
3
100
AcDbLine
10
283.180000000000
20
443.010000000000
30
0.0
11
282.280000000000
21
456.510000000000
31
0.0
0
LINE
5
4db
100
AcDbEntity
8
0-00-0
6
CONTINUOUS
62
3
100
AcDbLine
10
290.730000000000
20
438.950000000000
30
0.0
11
301.040000000000
21
438.950000000000
31
0.0
0
LINE
5
4dc
100
AcDbEntity
8
0-00-0
6
CONTINUOUS
62
3
100
AcDbLine
10
301.040000000000
20
438.450000000000
30
0.0
11
290.730000000000
21
438.450000000000
31
0.0
0
LINE
5
4dd
100
AcDbEntity
8
0-00-0
6
CONTINUOUS
62
3
100
AcDbLine
10
301.040000000000
20
440.450000000000
30
0.0
11
297.040000000000
21
440.450000000000
31
0.0
0
LINE
5
4de
100
AcDbEntity
8
0-00-0
6
CONTINUOUS
62
3
100
AcDbLine
10
297.040000000000
20
439.950000000000
30
0.0
11
297.040000000000
21
440.450000000000
31
0.0
0
LINE
5
4df
100
AcDbEntity
8
0-00-0
6
CONTINUOUS
62
3
100
AcDbLine
10
301.040000000000
20
439.950000000000
30
0.0
11
297.040000000000
21
439.950000000000
31
0.0
0
LINE
5
4e0
100
AcDbEntity
8
0-00-0
6
CONTINUOUS
62
3
100
AcDbLine
10
146.920000000000
20
456.480000000000
30
0.0
11
146.040000000000
21
442.850000000000
31
0.0
0
LINE
5
4e1
100
AcDbEntity
8
0-00-0
6
CONTINUOUS
62
3
100
AcDbLine
10
145.540000000000
20
442.880000000000
30
0.0
11
146.420000000000
21
456.510000000000
31
0.0
0
LINE
5
4e2
100
AcDbEntity
8
0-00-0
6
CONTINUOUS
62
3
100
AcDbLine
10
147.420000000000
20
457.450000000000
30
0.0
11
159.210000000000
21
457.450000000000
31
0.0
0
LINE
5
4e3
100
AcDbEntity
8
0-00-0
6
CONTINUOUS
62
3
100
AcDbLine
10
147.420000000000
20
456.950000000000
30
0.0
11
159.210000000000
21
456.950000000000
31
0.0
0
LINE
5
4e4
100
AcDbEntity
8
0-00-0
6
CONTINUOUS
62
3
100
AcDbLine
10
144.540000000000
20
441.950000000000
30
0.0
11
109.480000000000
21
441.950000000000
31
0.0
0
LINE
5
4e5
100
AcDbEntity
8
0-00-0
6
CONTINUOUS
62
3
100
AcDbLine
10
144.540000000000
20
441.450000000000
30
0.0
11
109.480000000000
21
441.450000000000
31
0.0
0
LINE
5
4e6
100
AcDbEntity
8
0-00-0
6
CONTINUOUS
62
3
100
AcDbLine
10
112.480000000000
20
440.450000000000
30
0.0
11
109.480000000000
21
440.450000000000
31
0.0
0
LINE
5
4e7
100
AcDbEntity
8
0-00-0
6
CONTINUOUS
62
3
100
AcDbLine
10
112.480000000000
20
439.950000000000
30
0.0
11
112.480000000000
21
440.450000000000
31
0.0
0
LINE
5
4e8
100
AcDbEntity
8
0-00-0
6
CONTINUOUS
62
3
100
AcDbLine
10
112.480000000000
20
439.950000000000
30
0.0
11
109.480000000000
21
439.950000000000
31
0.0
0
LINE
5
4e9
100
AcDbEntity
8
0-00-0
6
CONTINUOUS
62
4
100
AcDbLine
10
108.480000000000
20
408.450000000000
30
0.0
11
146.210000000000
21
408.450000000000
31
0.0
0
LINE
5
4ea
100
AcDbEntity
8
0-00-0
6
CONTINUOUS
62
4
100
AcDbLine
10
102.210000000000
20
457.450000000000
30
0.0
11
92.210000000000
21
457.450000000000
31
0.0
0
LINE
5
4eb
100
AcDbEntity
8
0-00-0
6
CONTINUOUS
62
4
100
AcDbLine
10
92.210000000000
20
442.450000000000
30
0.0
11
92.210000000000
21
457.450000000000
31
0.0
0
LINE
5
4ec
100
AcDbEntity
8
0-00-0
6
CONTINUOUS
62
4
100
AcDbLine
10
117.210000000000
20
508.450000000000
30
0.0
11
282.210000000000
21
508.450000000000
31
0.0
0
LINE
5
4ed
100
AcDbEntity
8
0-00-0
6
CONTINUOUS
62
4
100
AcDbLine
10
282.210000000000
20
498.450000000000
30
0.0
11
282.210000000000
21
508.450000000000
31
0.0
0
LINE
5
4ee
100
AcDbEntity
8
0-00-0
6
CONTINUOUS
62
4
100
AcDbLine
10
146.210000000000
20
498.450000000000
30
0.0
11
282.210000000000
21
498.450000000000
31
0.0
0
LINE
5
4ef
100
AcDbEntity
8
0-00-0
6
CONTINUOUS
62
4
100
AcDbLine
10
282.210000000000
20
488.450000000000
30
0.0
11
282.210000000000
21
498.450000000000
31
0.0
0
LINE
5
4f0
100
AcDbEntity
8
0-00-0
6
CONTINUOUS
62
4
100
AcDbLine
10
307.210000000000
20
457.450000000000
30
0.0
11
317.210000000000
21
457.450000000000
31
0.0
0
LINE
5
4f1
100
AcDbEntity
8
0-00-0
6
CONTINUOUS
62
4
100
AcDbLine
10
317.210000000000
20
438.450000000000
30
0.0
11
317.210000000000
21
457.450000000000
31
0.0
0
LINE
5
4f2
100
AcDbEntity
8
0-00-0
6
CONTINUOUS
62
4
100
AcDbLine
10
283.210000000000
20
428.450000000000
30
0.0
11
283.210000000000
21
418.450000000000
31
0.0
0
LINE
5
4f3
100
AcDbEntity
8
0-00-0
6
CONTINUOUS
62
4
100
AcDbLine
10
283.210000000000
20
418.450000000000
30
0.0
11
302.040000000000
21
418.450000000000
31
0.0
0
LINE
5
4f4
100
AcDbEntity
8
0-00-0
6
CONTINUOUS
62
4
100
AcDbLine
10
117.210000000000
20
478.450000000000
30
0.0
11
117.210000000000
21
488.450000000000
31
0.0
0
LINE
5
4f5
100
AcDbEntity
8
0-00-0
6
CONTINUOUS
62
4
100
AcDbLine
10
117.210000000000
20
488.450000000000
30
0.0
11
146.210000000000
21
488.450000000000
31
0.0
0
LINE
5
4f6
100
AcDbEntity
8
0-00-0
6
CONTINUOUS
62
7
100
AcDbLine
10
409.440000000000
20
437.450000000000
30
0.0
11
409.690000000000
21
437.450000000000
31
0.0
0
LINE
5
4f7
100
AcDbEntity
8
0-00-0
6
CONTINUOUS
62
3
100
AcDbLine
10
599.620000000000
20
440.320000000000
30
0.0
11
599.990000000000
21
439.390000000000
31
0.0
0
LINE
5
4f8
100
AcDbEntity
8
0-00-0
6
CONTINUOUS
62
3
100
AcDbLine
10
600.460000000000
20
439.570000000000
30
0.0
11
600.080000000000
21
440.510000000000
31
0.0
0
LINE
5
4f9
100
AcDbEntity
8
0-00-0
6
CONTINUOUS
62
3
100
AcDbLine
10
597.760000000000
20
440.320000000000
30
0.0
11
597.390000000000
21
439.390000000000
31
0.0
0
LINE
5
4fa
100
AcDbEntity
8
0-00-0
6
CONTINUOUS
62
3
100
AcDbLine
10
596.920000000000
20
439.570000000000
30
0.0
11
597.300000000000
21
440.510000000000
31
0.0
0
LINE
5
4fb
100
AcDbEntity
8
0-00-0
6
CONTINUOUS
62
3
100
AcDbLine
10
483.800000000000
20
443.380000000000
30
0.0
11
482.930000000000
21
456.510000000000
31
0.0
0
LINE
5
4fc
100
AcDbEntity
8
0-00-0
6
CONTINUOUS
62
3
100
AcDbLine
10
483.310000000000
20
443.350000000000
30
0.0
11
482.430000000000
21
456.480000000000
31
0.0
0
LINE
5
4fd
100
AcDbEntity
8
0-00-0
6
CONTINUOUS
62
3
100
AcDbLine
10
484.800000000000
20
442.450000000000
30
0.0
11
497.370000000000
21
442.450000000000
31
0.0
0
LINE
5
4fe
100
AcDbEntity
8
0-00-0
6
CONTINUOUS
62
3
100
AcDbLine
10
484.800000000000
20
441.950000000000
30
0.0
11
497.370000000000
21
441.950000000000
31
0.0
0
LINE
5
4ff
100
AcDbEntity
8
0-00-0
6
CONTINUOUS
62
3
100
AcDbLine
10
469.870000000000
20
456.950000000000
30
0.0
11
481.930000000000
21
456.950000000000
31
0.0
0
LINE
5
500
100
AcDbEntity
8
0-00-0
6
CONTINUOUS
62
3
100
AcDbLine
10
481.930000000000
20
457.450000000000
30
0.0
11
469.870000000000
21
457.450000000000
31
0.0
0
LINE
5
501
100
AcDbEntity
8
0-00-0
6
CONTINUOUS
62
3
100
AcDbLine
10
510.930000000000
20
443.380000000000
30
0.0
11
511.800000000000
21
456.510000000000
31
0.0
0
LINE
5
502
100
AcDbEntity
8
0-00-0
6
CONTINUOUS
62
3
100
AcDbLine
10
511.430000000000
20
443.350000000000
30
0.0
11
512.300000000000
21
456.480000000000
31
0.0
0
LINE
5
503
100
AcDbEntity
8
0-00-0
6
CONTINUOUS
62
3
100
AcDbLine
10
509.930000000000
20
442.450000000000
30
0.0
11
497.370000000000
21
442.450000000000
31
0.0
0
LINE
5
504
100
AcDbEntity
8
0-00-0
6
CONTINUOUS
62
3
100
AcDbLine
10
509.930000000000
20
441.950000000000
30
0.0
11
497.370000000000
21
441.950000000000
31
0.0
0
LINE
5
505
100
AcDbEntity
8
0-00-0
6
CONTINUOUS
62
3
100
AcDbLine
10
524.870000000000
20
456.950000000000
30
0.0
11
512.800000000000
21
456.950000000000
31
0.0
0
LINE
5
506
100
AcDbEntity
8
0-00-0
6
CONTINUOUS
62
3
100
AcDbLine
10
512.800000000000
20
457.450000000000
30
0.0
11
524.870000000000
21
457.450000000000
31
0.0
0
LINE
5
507
100
AcDbEntity
8
0-00-0
6
CONTINUOUS
62
3
100
AcDbLine
10
538.800000000000
20
443.380000000000
30
0.0
11
537.930000000000
21
456.510000000000
31
0.0
0
LINE
5
508
100
AcDbEntity
8
0-00-0
6
CONTINUOUS
62
3
100
AcDbLine
10
538.310000000000
20
443.350000000000
30
0.0
11
537.430000000000
21
456.480000000000
31
0.0
0
LINE
5
509
100
AcDbEntity
8
0-00-0
6
CONTINUOUS
62
3
100
AcDbLine
10
539.800000000000
20
442.450000000000
30
0.0
11
552.370000000000
21
442.450000000000
31
0.0
0
LINE
5
50a
100
AcDbEntity
8
0-00-0
6
CONTINUOUS
62
3
100
AcDbLine
10
539.800000000000
20
441.950000000000
30
0.0
11
552.370000000000
21
441.950000000000
31
0.0
0
LINE
5
50b
100
AcDbEntity
8
0-00-0
6
CONTINUOUS
62
3
100
AcDbLine
10
524.870000000000
20
456.950000000000
30
0.0
11
536.930000000000
21
456.950000000000
31
0.0
0
LINE
5
50c
100
AcDbEntity
8
0-00-0
6
CONTINUOUS
62
3
100
AcDbLine
10
536.930000000000
20
457.450000000000
30
0.0
11
524.870000000000
21
457.450000000000
31
0.0
0
LINE
5
50d
100
AcDbEntity
8
0-00-0
6
CONTINUOUS
62
3
100
AcDbLine
10
565.930000000000
20
443.380000000000
30
0.0
11
566.800000000000
21
456.510000000000
31
0.0
0
LINE
5
50e
100
AcDbEntity
8
0-00-0
6
CONTINUOUS
62
3
100
AcDbLine
10
566.430000000000
20
443.350000000000
30
0.0
11
567.300000000000
21
456.480000000000
31
0.0
0
LINE
5
50f
100
AcDbEntity
8
0-00-0
6
CONTINUOUS
62
3
100
AcDbLine
10
564.930000000000
20
442.450000000000
30
0.0
11
552.370000000000
21
442.450000000000
31
0.0
0
LINE
5
510
100
AcDbEntity
8
0-00-0
6
CONTINUOUS
62
3
100
AcDbLine
10
564.930000000000
20
441.950000000000
30
0.0
11
552.370000000000
21
441.950000000000
31
0.0
0
LINE
5
511
100
AcDbEntity
8
0-00-0
6
CONTINUOUS
62
3
100
AcDbLine
10
579.870000000000
20
456.950000000000
30
0.0
11
567.800000000000
21
456.950000000000
31
0.0
0
LINE
5
512
100
AcDbEntity
8
0-00-0
6
CONTINUOUS
62
3
100
AcDbLine
10
567.800000000000
20
457.450000000000
30
0.0
11
579.870000000000
21
457.450000000000
31
0.0
0
LINE
5
513
100
AcDbEntity
8
0-00-0
6
CONTINUOUS
62
3
100
AcDbLine
10
579.870000000000
20
456.950000000000
30
0.0
11
591.930000000000
21
456.950000000000
31
0.0
0
LINE
5
514
100
AcDbEntity
8
0-00-0
6
CONTINUOUS
62
3
100
AcDbLine
10
591.930000000000
20
457.450000000000
30
0.0
11
579.870000000000
21
457.450000000000
31
0.0
0
LINE
5
515
100
AcDbEntity
8
0-00-0
6
CONTINUOUS
62
3
100
AcDbLine
10
583.690000000000
20
438.950000000000
30
0.0
11
595.990000000000
21
438.950000000000
31
0.0
0
LINE
5
516
100
AcDbEntity
8
0-00-0
6
CONTINUOUS
62
3
100
AcDbLine
10
595.990000000000
20
438.450000000000
30
0.0
11
583.690000000000
21
438.450000000000
31
0.0
0
LINE
5
517
100
AcDbEntity
8
0-00-0
6
CONTINUOUS
62
3
100
AcDbLine
10
593.330000000000
20
442.980000000000
30
0.0
11
592.430000000000
21
456.480000000000
31
0.0
0
LINE
5
518
100
AcDbEntity
8
0-00-0
6
CONTINUOUS
62
3
100
AcDbLine
10
592.830000000000
20
442.450000000000
30
0.0
11
583.690000000000
21
442.450000000000
31
0.0
0
LINE
5
519
100
AcDbEntity
8
0-00-0
6
CONTINUOUS
62
3
100
AcDbLine
10
583.690000000000
20
441.950000000000
30
0.0
11
592.830000000000
21
441.950000000000
31
0.0
0
LINE
5
51a
100
AcDbEntity
8
0-00-0
6
CONTINUOUS
62
3
100
AcDbLine
10
593.830000000000
20
443.010000000000
30
0.0
11
592.930000000000
21
456.510000000000
31
0.0
0
LINE
5
51b
100
AcDbEntity
8
0-00-0
6
DOT
62
7
100
AcDbLine
10
787.040000000000
20
456.480000000000
30
0.0
11
786.160000000000
21
442.850000000000
31
0.0
0
LINE
5
51c
100
AcDbEntity
8
0-00-0
6
DOT
62
7
100
AcDbLine
10
785.660000000000
20
442.880000000000
30
0.0
11
786.540000000000
21
456.510000000000
31
0.0
0
LINE
5
51d
100
AcDbEntity
8
0-00-0
6
DOT
62
7
100
AcDbLine
10
787.540000000000
20
457.450000000000
30
0.0
11
799.330000000000
21
457.450000000000
31
0.0
0
LINE
5
51e
100
AcDbEntity
8
0-00-0
6
DOT
62
7
100
AcDbLine
10
787.540000000000
20
456.950000000000
30
0.0
11
799.330000000000
21
456.950000000000
31
0.0
0
LINE
5
51f
100
AcDbEntity
8
0-00-0
6
DOT
62
7
100
AcDbLine
10
784.660000000000
20
441.950000000000
30
0.0
11
749.600000000000
21
441.950000000000
31
0.0
0
LINE
5
520
100
AcDbEntity
8
0-00-0
6
DOT
62
7
100
AcDbLine
10
784.660000000000
20
441.450000000000
30
0.0
11
749.600000000000
21
441.450000000000
31
0.0
0
LINE
5
521
100
AcDbEntity
8
0-00-0
6
DOT
62
7
100
AcDbLine
10
752.600000000000
20
440.450000000000
30
0.0
11
749.600000000000
21
440.450000000000
31
0.0
0
LINE
5
522
100
AcDbEntity
8
0-00-0
6
DOT
62
7
100
AcDbLine
10
752.600000000000
20
439.950000000000
30
0.0
11
752.600000000000
21
440.450000000000
31
0.0
0
LINE
5
523
100
AcDbEntity
8
0-00-0
6
DOT
62
7
100
AcDbLine
10
752.600000000000
20
439.950000000000
30
0.0
11
749.600000000000
21
439.950000000000
31
0.0
0
LINE
5
524
100
AcDbEntity
8
0-00-0
6
DOT
62
7
100
AcDbLine
10
434.880000000000
20
440.320000000000
30
0.0
11
435.260000000000
21
439.390000000000
31
0.0
0
LINE
5
525
100
AcDbEntity
8
0-00-0
6
DOT
62
7
100
AcDbLine
10
435.720000000000
20
439.570000000000
30
0.0
11
435.350000000000
21
440.510000000000
31
0.0
0
LINE
5
526
100
AcDbEntity
8
0-00-0
6
DOT
62
7
100
AcDbLine
10
433.030000000000
20
440.320000000000
30
0.0
11
432.650000000000
21
439.390000000000
31
0.0
0
LINE
5
527
100
AcDbEntity
8
0-00-0
6
DOT
62
7
100
AcDbLine
10
432.190000000000
20
439.570000000000
30
0.0
11
432.560000000000
21
440.510000000000
31
0.0
0
LINE
5
528
100
AcDbEntity
8
0-00-0
6
DOT
62
7
100
AcDbLine
10
415.130000000000
20
456.950000000000
30
0.0
11
427.200000000000
21
456.950000000000
31
0.0
0
LINE
5
529
100
AcDbEntity
8
0-00-0
6
DOT
62
7
100
AcDbLine
10
427.200000000000
20
457.450000000000
30
0.0
11
415.130000000000
21
457.450000000000
31
0.0
0
LINE
5
52a
100
AcDbEntity
8
0-00-0
6
DOT
62
7
100
AcDbLine
10
418.960000000000
20
438.950000000000
30
0.0
11
431.260000000000
21
438.950000000000
31
0.0
0
LINE
5
52b
100
AcDbEntity
8
0-00-0
6
DOT
62
7
100
AcDbLine
10
431.260000000000
20
438.450000000000
30
0.0
11
418.960000000000
21
438.450000000000
31
0.0
0
LINE
5
52c
100
AcDbEntity
8
0-00-0
6
DOT
62
7
100
AcDbLine
10
428.600000000000
20
442.980000000000
30
0.0
11
427.700000000000
21
456.480000000000
31
0.0
0
LINE
5
52d
100
AcDbEntity
8
0-00-0
6
DOT
62
7
100
AcDbLine
10
428.100000000000
20
442.450000000000
30
0.0
11
418.960000000000
21
442.450000000000
31
0.0
0
LINE
5
52e
100
AcDbEntity
8
0-00-0
6
DOT
62
7
100
AcDbLine
10
418.960000000000
20
441.950000000000
30
0.0
11
428.100000000000
21
441.950000000000
31
0.0
0
LINE
5
52f
100
AcDbEntity
8
0-00-0
6
DOT
62
7
100
AcDbLine
10
429.100000000000
20
443.010000000000
30
0.0
11
428.200000000000
21
456.510000000000
31
0.0
0
LINE
5
530
100
AcDbEntity
8
0-00-0
6
CONTINUOUS
62
3
100
AcDbLine
10
457.570000000000
20
456.480000000000
30
0.0
11
456.690000000000
21
442.850000000000
31
0.0
0
LINE
5
531
100
AcDbEntity
8
0-00-0
6
CONTINUOUS
62
3
100
AcDbLine
10
456.200000000000
20
442.880000000000
30
0.0
11
457.070000000000
21
456.510000000000
31
0.0
0
LINE
5
532
100
AcDbEntity
8
0-00-0
6
CONTINUOUS
62
3
100
AcDbLine
10
458.070000000000
20
457.450000000000
30
0.0
11
469.870000000000
21
457.450000000000
31
0.0
0
LINE
5
533
100
AcDbEntity
8
0-00-0
6
CONTINUOUS
62
3
100
AcDbLine
10
458.070000000000
20
456.950000000000
30
0.0
11
469.870000000000
21
456.950000000000
31
0.0
0
LINE
5
534
100
AcDbEntity
8
0-00-0
6
CONTINUOUS
62
3
100
AcDbLine
10
455.200000000000
20
441.950000000000
30
0.0
11
420.130000000000
21
441.950000000000
31
0.0
0
LINE
5
535
100
AcDbEntity
8
0-00-0
6
CONTINUOUS
62
3
100
AcDbLine
10
455.200000000000
20
441.450000000000
30
0.0
11
420.130000000000
21
441.450000000000
31
0.0
0
LINE
5
536
100
AcDbEntity
8
0-00-0
6
CONTINUOUS
62
3
100
AcDbLine
10
423.130000000000
20
440.450000000000
30
0.0
11
420.130000000000
21
440.450000000000
31
0.0
0
LINE
5
537
100
AcDbEntity
8
0-00-0
6
CONTINUOUS
62
3
100
AcDbLine
10
423.130000000000
20
439.950000000000
30
0.0
11
423.130000000000
21
440.450000000000
31
0.0
0
LINE
5
538
100
AcDbEntity
8
0-00-0
6
CONTINUOUS
62
3
100
AcDbLine
10
423.130000000000
20
439.950000000000
30
0.0
11
420.130000000000
21
439.950000000000
31
0.0
0
LINE
5
539
100
AcDbEntity
8
0-00-0
6
DOT
62
7
100
AcDbLine
10
446.960000000000
20
438.450000000000
30
0.0
11
436.650000000000
21
438.450000000000
31
0.0
0
LINE
5
53a
100
AcDbEntity
8
0-00-0
6
DOT
62
7
100
AcDbLine
10
401.200000000000
20
443.380000000000
30
0.0
11
402.070000000000
21
456.510000000000
31
0.0
0
LINE
5
53b
100
AcDbEntity
8
0-00-0
6
DOT
62
7
100
AcDbLine
10
401.690000000000
20
443.350000000000
30
0.0
11
402.570000000000
21
456.480000000000
31
0.0
0
LINE
5
53c
100
AcDbEntity
8
0-00-0
6
DOT
62
7
100
AcDbLine
10
400.200000000000
20
442.450000000000
30
0.0
11
387.630000000000
21
442.450000000000
31
0.0
0
LINE
5
53d
100
AcDbEntity
8
0-00-0
6
DOT
62
7
100
AcDbLine
10
400.200000000000
20
441.950000000000
30
0.0
11
387.630000000000
21
441.950000000000
31
0.0
0
LINE
5
53e
100
AcDbEntity
8
0-00-0
6
DOT
62
7
100
AcDbLine
10
415.130000000000
20
456.950000000000
30
0.0
11
403.070000000000
21
456.950000000000
31
0.0
0
LINE
5
53f
100
AcDbEntity
8
0-00-0
6
DOT
62
7
100
AcDbLine
10
403.070000000000
20
457.450000000000
30
0.0
11
415.130000000000
21
457.450000000000
31
0.0
0
LINE
5
540
100
AcDbEntity
8
0-00-0
6
CONTINUOUS
62
3
100
AcDbLine
10
648.540000000000
20
443.380000000000
30
0.0
11
647.660000000000
21
456.510000000000
31
0.0
0
LINE
5
541
100
AcDbEntity
8
0-00-0
6
CONTINUOUS
62
3
100
AcDbLine
10
648.040000000000
20
443.350000000000
30
0.0
11
647.160000000000
21
456.480000000000
31
0.0
0
LINE
5
542
100
AcDbEntity
8
0-00-0
6
CONTINUOUS
62
3
100
AcDbLine
10
649.540000000000
20
442.450000000000
30
0.0
11
662.100000000000
21
442.450000000000
31
0.0
0
LINE
5
543
100
AcDbEntity
8
0-00-0
6
CONTINUOUS
62
3
100
AcDbLine
10
649.540000000000
20
441.950000000000
30
0.0
11
662.100000000000
21
441.950000000000
31
0.0
0
LINE
5
544
100
AcDbEntity
8
0-00-0
6
CONTINUOUS
62
3
100
AcDbLine
10
634.600000000000
20
456.950000000000
30
0.0
11
646.660000000000
21
456.950000000000
31
0.0
0
LINE
5
545
100
AcDbEntity
8
0-00-0
6
CONTINUOUS
62
3
100
AcDbLine
10
646.660000000000
20
457.450000000000
30
0.0
11
634.600000000000
21
457.450000000000
31
0.0
0
LINE
5
546
100
AcDbEntity
8
0-00-0
6
CONTINUOUS
62
3
100
AcDbLine
10
675.660000000000
20
443.380000000000
30
0.0
11
676.540000000000
21
456.510000000000
31
0.0
0
LINE
5
547
100
AcDbEntity
8
0-00-0
6
CONTINUOUS
62
3
100
AcDbLine
10
676.160000000000
20
443.350000000000
30
0.0
11
677.040000000000
21
456.480000000000
31
0.0
0
LINE
5
548
100
AcDbEntity
8
0-00-0
6
CONTINUOUS
62
3
100
AcDbLine
10
674.660000000000
20
442.450000000000
30
0.0
11
662.100000000000
21
442.450000000000
31
0.0
0
LINE
5
549
100
AcDbEntity
8
0-00-0
6
CONTINUOUS
62
3
100
AcDbLine
10
674.660000000000
20
441.950000000000
30
0.0
11
662.100000000000
21
441.950000000000
31
0.0
0
LINE
5
54a
100
AcDbEntity
8
0-00-0
6
CONTINUOUS
62
3
100
AcDbLine
10
689.600000000000
20
456.950000000000
30
0.0
11
677.540000000000
21
456.950000000000
31
0.0
0
LINE
5
54b
100
AcDbEntity
8
0-00-0
6
CONTINUOUS
62
3
100
AcDbLine
10
677.540000000000
20
457.450000000000
30
0.0
11
689.600000000000
21
457.450000000000
31
0.0
0
LINE
5
54c
100
AcDbEntity
8
0-00-0
6
CONTINUOUS
62
3
100
AcDbLine
10
703.540000000000
20
443.380000000000
30
0.0
11
702.660000000000
21
456.510000000000
31
0.0
0
LINE
5
54d
100
AcDbEntity
8
0-00-0
6
CONTINUOUS
62
3
100
AcDbLine
10
703.040000000000
20
443.350000000000
30
0.0
11
702.160000000000
21
456.480000000000
31
0.0
0
LINE
5
54e
100
AcDbEntity
8
0-00-0
6
CONTINUOUS
62
3
100
AcDbLine
10
704.540000000000
20
442.450000000000
30
0.0
11
717.100000000000
21
442.450000000000
31
0.0
0
LINE
5
54f
100
AcDbEntity
8
0-00-0
6
CONTINUOUS
62
3
100
AcDbLine
10
704.540000000000
20
441.950000000000
30
0.0
11
717.100000000000
21
441.950000000000
31
0.0
0
LINE
5
550
100
AcDbEntity
8
0-00-0
6
CONTINUOUS
62
3
100
AcDbLine
10
689.600000000000
20
456.950000000000
30
0.0
11
701.660000000000
21
456.950000000000
31
0.0
0
LINE
5
551
100
AcDbEntity
8
0-00-0
6
CONTINUOUS
62
3
100
AcDbLine
10
701.660000000000
20
457.450000000000
30
0.0
11
689.600000000000
21
457.450000000000
31
0.0
0
LINE
5
552
100
AcDbEntity
8
0-00-0
6
CONTINUOUS
62
3
100
AcDbLine
10
730.660000000000
20
443.380000000000
30
0.0
11
731.540000000000
21
456.510000000000
31
0.0
0
LINE
5
553
100
AcDbEntity
8
0-00-0
6
CONTINUOUS
62
3
100
AcDbLine
10
731.160000000000
20
443.350000000000
30
0.0
11
732.040000000000
21
456.480000000000
31
0.0
0
LINE
5
554
100
AcDbEntity
8
0-00-0
6
CONTINUOUS
62
3
100
AcDbLine
10
729.660000000000
20
442.450000000000
30
0.0
11
717.100000000000
21
442.450000000000
31
0.0
0
LINE
5
555
100
AcDbEntity
8
0-00-0
6
CONTINUOUS
62
3
100
AcDbLine
10
729.660000000000
20
441.950000000000
30
0.0
11
717.100000000000
21
441.950000000000
31
0.0
0
LINE
5
556
100
AcDbEntity
8
0-00-0
6
CONTINUOUS
62
3
100
AcDbLine
10
744.600000000000
20
456.950000000000
30
0.0
11
732.540000000000
21
456.950000000000
31
0.0
0
LINE
5
557
100
AcDbEntity
8
0-00-0
6
CONTINUOUS
62
3
100
AcDbLine
10
732.540000000000
20
457.450000000000
30
0.0
11
744.600000000000
21
457.450000000000
31
0.0
0
LINE
5
558
100
AcDbEntity
8
0-00-0
6
CONTINUOUS
62
3
100
AcDbLine
10
744.600000000000
20
456.950000000000
30
0.0
11
756.660000000000
21
456.950000000000
31
0.0
0
LINE
5
559
100
AcDbEntity
8
0-00-0
6
CONTINUOUS
62
3
100
AcDbLine
10
756.660000000000
20
457.450000000000
30
0.0
11
744.600000000000
21
457.450000000000
31
0.0
0
LINE
5
55a
100
AcDbEntity
8
0-00-0
6
CONTINUOUS
62
3
100
AcDbLine
10
748.420000000000
20
438.950000000000
30
0.0
11
760.730000000000
21
438.950000000000
31
0.0
0
LINE
5
55b
100
AcDbEntity
8
0-00-0
6
CONTINUOUS
62
3
100
AcDbLine
10
760.730000000000
20
438.450000000000
30
0.0
11
748.420000000000
21
438.450000000000
31
0.0
0
LINE
5
55c
100
AcDbEntity
8
0-00-0
6
CONTINUOUS
62
3
100
AcDbLine
10
758.060000000000
20
442.980000000000
30
0.0
11
757.160000000000
21
456.480000000000
31
0.0
0
LINE
5
55d
100
AcDbEntity
8
0-00-0
6
CONTINUOUS
62
3
100
AcDbLine
10
757.560000000000
20
442.450000000000
30
0.0
11
748.420000000000
21
442.450000000000
31
0.0
0
LINE
5
55e
100
AcDbEntity
8
0-00-0
6
CONTINUOUS
62
3
100
AcDbLine
10
748.420000000000
20
441.950000000000
30
0.0
11
757.560000000000
21
441.950000000000
31
0.0
0
LINE
5
55f
100
AcDbEntity
8
0-00-0
6
CONTINUOUS
62
3
100
AcDbLine
10
758.560000000000
20
443.010000000000
30
0.0
11
757.660000000000
21
456.510000000000
31
0.0
0
LINE
5
560
100
AcDbEntity
8
0-00-0
6
CONTINUOUS
62
3
100
AcDbLine
10
622.300000000000
20
456.480000000000
30
0.0
11
621.430000000000
21
442.850000000000
31
0.0
0
LINE
5
561
100
AcDbEntity
8
0-00-0
6
CONTINUOUS
62
3
100
AcDbLine
10
620.930000000000
20
442.880000000000
30
0.0
11
621.800000000000
21
456.510000000000
31
0.0
0
LINE
5
562
100
AcDbEntity
8
0-00-0
6
CONTINUOUS
62
3
100
AcDbLine
10
622.800000000000
20
457.450000000000
30
0.0
11
634.600000000000
21
457.450000000000
31
0.0
0
LINE
5
563
100
AcDbEntity
8
0-00-0
6
CONTINUOUS
62
3
100
AcDbLine
10
622.800000000000
20
456.950000000000
30
0.0
11
634.600000000000
21
456.950000000000
31
0.0
0
LINE
5
564
100
AcDbEntity
8
0-00-0
6
CONTINUOUS
62
3
100
AcDbLine
10
619.930000000000
20
441.950000000000
30
0.0
11
584.870000000000
21
441.950000000000
31
0.0
0
LINE
5
565
100
AcDbEntity
8
0-00-0
6
CONTINUOUS
62
3
100
AcDbLine
10
619.930000000000
20
441.450000000000
30
0.0
11
584.870000000000
21
441.450000000000
31
0.0
0
LINE
5
566
100
AcDbEntity
8
0-00-0
6
CONTINUOUS
62
3
100
AcDbLine
10
587.870000000000
20
440.450000000000
30
0.0
11
584.870000000000
21
440.450000000000
31
0.0
0
LINE
5
567
100
AcDbEntity
8
0-00-0
6
CONTINUOUS
62
3
100
AcDbLine
10
587.870000000000
20
439.950000000000
30
0.0
11
587.870000000000
21
440.450000000000
31
0.0
0
LINE
5
568
100
AcDbEntity
8
0-00-0
6
CONTINUOUS
62
3
100
AcDbLine
10
587.870000000000
20
439.950000000000
30
0.0
11
584.870000000000
21
439.950000000000
31
0.0
0
LINE
5
569
100
AcDbEntity
8
0-00-0
6
CONTINUOUS
62
7
100
AcDbLine
10
387.630000000000
20
422.450000000000
30
0.0
11
799.330000000000
21
422.450000000000
31
0.0
0
LINE
5
56a
100
AcDbEntity
8
0-00-0
6
CONTINUOUS
62
7
100
AcDbLine
10
387.630000000000
20
437.450000000000
30
0.0
11
799.330000000000
21
437.450000000000
31
0.0
0
LINE
5
56b
100
AcDbEntity
8
0-00-0
6
CONTINUOUS
62
4
100
AcDbLine
10
435.900000000000
20
440.350000000000
30
0.0
11
443.900000000000
21
440.350000000000
31
0.0
0
LINE
5
56c
100
AcDbEntity
8
0-00-0
6
CONTINUOUS
62
4
100
AcDbLine
10
444.150000000000
20
439.700000000000
30
0.0
11
444.150000000000
21
440.100000000000
31
0.0
0
LINE
5
56d
100
AcDbEntity
8
0-00-0
6
CONTINUOUS
62
4
100
AcDbLine
10
435.650000000000
20
439.700000000000
30
0.0
11
435.650000000000
21
440.100000000000
31
0.0
0
LINE
5
56e
100
AcDbEntity
8
0-00-0
6
CONTINUOUS
62
4
100
AcDbLine
10
435.900000000000
20
439.450000000000
30
0.0
11
443.900000000000
21
439.450000000000
31
0.0
0
LINE
5
56f
100
AcDbEntity
8
0-00-0
6
CONTINUOUS
62
4
100
AcDbLine
10
438.220000000000
20
437.950000000000
30
0.0
11
441.590000000000
21
437.950000000000
31
0.0
0
LINE
5
570
100
AcDbEntity
8
0-00-0
6
CONTINUOUS
62
4
100
AcDbLine
10
441.590000000000
20
436.450000000000
30
0.0
11
441.590000000000
21
437.950000000000
31
0.0
0
LINE
5
571
100
AcDbEntity
8
0-00-0
6
CONTINUOUS
62
4
100
AcDbLine
10
438.220000000000
20
436.450000000000
30
0.0
11
438.220000000000
21
437.950000000000
31
0.0
0
LINE
5
572
100
AcDbEntity
8
0-00-0
6
CONTINUOUS
62
4
100
AcDbLine
10
442.150000000000
20
439.450000000000
30
0.0
11
441.590000000000
21
437.950000000000
31
0.0
0
LINE
5
573
100
AcDbEntity
8
0-00-0
6
CONTINUOUS
62
4
100
AcDbLine
10
437.650000000000
20
439.450000000000
30
0.0
11
438.220000000000
21
437.950000000000
31
0.0
0
LINE
5
574
100
AcDbEntity
8
0-00-0
6
CONTINUOUS
62
4
100
AcDbLine
10
438.220000000000
20
436.450000000000
30
0.0
11
441.590000000000
21
436.450000000000
31
0.0
0
LINE
5
575
100
AcDbEntity
8
0-00-0
6
CONTINUOUS
62
4
100
AcDbLine
10
438.350000000000
20
417.790000000000
30
0.0
11
437.500000000000
21
418.280000000000
31
0.0
0
LINE
5
576
100
AcDbEntity
8
0-00-0
6
CONTINUOUS
62
4
100
AcDbLine
10
438.350000000000
20
418.770000000000
30
0.0
11
437.500000000000
21
418.280000000000
31
0.0
0
LINE
5
577
100
AcDbEntity
8
0-00-0
6
CONTINUOUS
62
4
100
AcDbLine
10
438.350000000000
20
414.620000000000
30
0.0
11
437.500000000000
21
415.110000000000
31
0.0
0
LINE
5
578
100
AcDbEntity
8
0-00-0
6
CONTINUOUS
62
4
100
AcDbLine
10
438.350000000000
20
415.600000000000
30
0.0
11
437.500000000000
21
415.110000000000
31
0.0
0
LINE
5
579
100
AcDbEntity
8
0-00-0
6
CONTINUOUS
62
4
100
AcDbLine
10
441.450000000000
20
419.380000000000
30
0.0
11
442.300000000000
21
419.870000000000
31
0.0
0
LINE
5
57a
100
AcDbEntity
8
0-00-0
6
CONTINUOUS
62
4
100
AcDbLine
10
441.450000000000
20
420.360000000000
30
0.0
11
442.300000000000
21
419.870000000000
31
0.0
0
LINE
5
57b
100
AcDbEntity
8
0-00-0
6
CONTINUOUS
62
4
100
AcDbLine
10
441.450000000000
20
416.200000000000
30
0.0
11
442.300000000000
21
416.690000000000
31
0.0
0
LINE
5
57c
100
AcDbEntity
8
0-00-0
6
CONTINUOUS
62
4
100
AcDbLine
10
441.450000000000
20
417.190000000000
30
0.0
11
442.300000000000
21
416.690000000000
31
0.0
0
LINE
5
57d
100
AcDbEntity
8
0-00-0
6
CONTINUOUS
62
4
100
AcDbLine
10
441.450000000000
20
419.380000000000
30
0.0
11
441.450000000000
21
417.190000000000
31
0.0
0
LINE
5
57e
100
AcDbEntity
8
0-00-0
6
CONTINUOUS
62
4
100
AcDbLine
10
438.350000000000
20
417.790000000000
30
0.0
11
438.350000000000
21
415.600000000000
31
0.0
0
LINE
5
57f
100
AcDbEntity
8
0-00-0
6
CONTINUOUS
62
4
100
AcDbLine
10
438.350000000000
20
415.600000000000
30
0.0
11
441.450000000000
21
417.190000000000
31
0.0
0
LINE
5
580
100
AcDbEntity
8
0-00-0
6
CONTINUOUS
62
4
100
AcDbLine
10
442.300000000000
20
416.690000000000
30
0.0
11
437.500000000000
21
415.110000000000
31
0.0
0
LINE
5
581
100
AcDbEntity
8
0-00-0
6
CONTINUOUS
62
4
100
AcDbLine
10
438.350000000000
20
414.620000000000
30
0.0
11
441.450000000000
21
416.200000000000
31
0.0
0
LINE
5
582
100
AcDbEntity
8
0-00-0
6
CONTINUOUS
62
4
100
AcDbLine
10
438.350000000000
20
417.790000000000
30
0.0
11
441.450000000000
21
419.380000000000
31
0.0
0
LINE
5
583
100
AcDbEntity
8
0-00-0
6
CONTINUOUS
62
4
100
AcDbLine
10
442.300000000000
20
419.870000000000
30
0.0
11
437.500000000000
21
418.280000000000
31
0.0
0
LINE
5
584
100
AcDbEntity
8
0-00-0
6
CONTINUOUS
62
4
100
AcDbLine
10
438.350000000000
20
418.770000000000
30
0.0
11
441.450000000000
21
420.360000000000
31
0.0
0
LINE
5
585
100
AcDbEntity
8
0-00-0
6
CONTINUOUS
62
4
100
AcDbLine
10
441.450000000000
20
414.160000000000
30
0.0
11
441.310000000000
21
413.560000000000
31
0.0
0
LINE
5
586
100
AcDbEntity
8
0-00-0
6
CONTINUOUS
62
4
100
AcDbLine
10
438.350000000000
20
414.160000000000
30
0.0
11
438.750000000000
21
412.420000000000
31
0.0
0
LINE
5
587
100
AcDbEntity
8
0-00-0
6
CONTINUOUS
62
4
100
AcDbLine
10
438.890000000000
20
411.850000000000
30
0.0
11
438.320000000000
21
412.020000000000
31
0.0
0
LINE
5
588
100
AcDbEntity
8
0-00-0
6
CONTINUOUS
62
4
100
AcDbLine
10
438.750000000000
20
412.420000000000
30
0.0
11
438.320000000000
21
412.020000000000
31
0.0
0
LINE
5
589
100
AcDbEntity
8
0-00-0
6
CONTINUOUS
62
4
100
AcDbLine
10
438.350000000000
20
414.160000000000
30
0.0
11
438.350000000000
21
414.620000000000
31
0.0
0
LINE
5
58a
100
AcDbEntity
8
0-00-0
6
CONTINUOUS
62
4
100
AcDbLine
10
441.160000000000
20
412.880000000000
30
0.0
11
441.820000000000
21
413.260000000000
31
0.0
0
LINE
5
58b
100
AcDbEntity
8
0-00-0
6
CONTINUOUS
62
4
100
AcDbLine
10
441.310000000000
20
413.560000000000
30
0.0
11
441.820000000000
21
413.260000000000
31
0.0
0
LINE
5
58c
100
AcDbEntity
8
0-00-0
6
CONTINUOUS
62
4
100
AcDbLine
10
441.450000000000
20
414.160000000000
30
0.0
11
441.450000000000
21
416.200000000000
31
0.0
0
LINE
5
58d
100
AcDbEntity
8
0-00-0
6
CONTINUOUS
62
4
100
AcDbLine
10
440.550000000000
20
410.240000000000
30
0.0
11
440.970000000000
21
409.990000000000
31
0.0
0
LINE
5
58e
100
AcDbEntity
8
0-00-0
6
CONTINUOUS
62
4
100
AcDbLine
10
441.160000000000
20
412.880000000000
30
0.0
11
440.550000000000
21
410.240000000000
31
0.0
0
LINE
5
58f
100
AcDbEntity
8
0-00-0
6
CONTINUOUS
62
4
100
AcDbLine
10
441.160000000000
20
412.880000000000
30
0.0
11
438.890000000000
21
411.850000000000
31
0.0
0
LINE
5
590
100
AcDbEntity
8
0-00-0
6
CONTINUOUS
62
4
100
AcDbLine
10
438.750000000000
20
412.420000000000
30
0.0
11
441.310000000000
21
413.560000000000
31
0.0
0
LINE
5
591
100
AcDbEntity
8
0-00-0
6
CONTINUOUS
62
4
100
AcDbLine
10
441.820000000000
20
413.260000000000
30
0.0
11
438.320000000000
21
412.020000000000
31
0.0
0
LINE
5
592
100
AcDbEntity
8
0-00-0
6
CONTINUOUS
62
4
100
AcDbLine
10
441.450000000000
20
422.550000000000
30
0.0
11
442.300000000000
21
423.040000000000
31
0.0
0
LINE
5
593
100
AcDbEntity
8
0-00-0
6
CONTINUOUS
62
4
100
AcDbLine
10
441.450000000000
20
423.540000000000
30
0.0
11
442.300000000000
21
423.040000000000
31
0.0
0
LINE
5
594
100
AcDbEntity
8
0-00-0
6
CONTINUOUS
62
4
100
AcDbLine
10
441.450000000000
20
422.550000000000
30
0.0
11
441.450000000000
21
420.360000000000
31
0.0
0
LINE
5
595
100
AcDbEntity
8
0-00-0
6
CONTINUOUS
62
4
100
AcDbLine
10
438.350000000000
20
420.970000000000
30
0.0
11
441.450000000000
21
422.550000000000
31
0.0
0
LINE
5
596
100
AcDbEntity
8
0-00-0
6
CONTINUOUS
62
4
100
AcDbLine
10
442.300000000000
20
423.040000000000
30
0.0
11
437.500000000000
21
421.460000000000
31
0.0
0
LINE
5
597
100
AcDbEntity
8
0-00-0
6
CONTINUOUS
62
4
100
AcDbLine
10
438.350000000000
20
421.950000000000
30
0.0
11
441.450000000000
21
423.540000000000
31
0.0
0
LINE
5
598
100
AcDbEntity
8
0-00-0
6
CONTINUOUS
62
4
100
AcDbLine
10
438.350000000000
20
420.970000000000
30
0.0
11
437.500000000000
21
421.460000000000
31
0.0
0
LINE
5
599
100
AcDbEntity
8
0-00-0
6
CONTINUOUS
62
4
100
AcDbLine
10
438.350000000000
20
421.950000000000
30
0.0
11
437.500000000000
21
421.460000000000
31
0.0
0
LINE
5
59a
100
AcDbEntity
8
0-00-0
6
CONTINUOUS
62
4
100
AcDbLine
10
438.350000000000
20
420.970000000000
30
0.0
11
438.350000000000
21
418.770000000000
31
0.0
0
LINE
5
59b
100
AcDbEntity
8
0-00-0
6
CONTINUOUS
62
4
100
AcDbLine
10
441.450000000000
20
425.730000000000
30
0.0
11
442.300000000000
21
426.220000000000
31
0.0
0
LINE
5
59c
100
AcDbEntity
8
0-00-0
6
CONTINUOUS
62
4
100
AcDbLine
10
441.450000000000
20
426.710000000000
30
0.0
11
442.300000000000
21
426.220000000000
31
0.0
0
LINE
5
59d
100
AcDbEntity
8
0-00-0
6
CONTINUOUS
62
4
100
AcDbLine
10
441.450000000000
20
425.730000000000
30
0.0
11
441.450000000000
21
423.540000000000
31
0.0
0
LINE
5
59e
100
AcDbEntity
8
0-00-0
6
CONTINUOUS
62
4
100
AcDbLine
10
438.350000000000
20
424.140000000000
30
0.0
11
441.450000000000
21
425.730000000000
31
0.0
0
LINE
5
59f
100
AcDbEntity
8
0-00-0
6
CONTINUOUS
62
4
100
AcDbLine
10
442.300000000000
20
426.220000000000
30
0.0
11
437.500000000000
21
424.630000000000
31
0.0
0
LINE
5
5a0
100
AcDbEntity
8
0-00-0
6
CONTINUOUS
62
4
100
AcDbLine
10
438.350000000000
20
425.120000000000
30
0.0
11
441.450000000000
21
426.710000000000
31
0.0
0
LINE
5
5a1
100
AcDbEntity
8
0-00-0
6
CONTINUOUS
62
4
100
AcDbLine
10
438.350000000000
20
424.140000000000
30
0.0
11
437.500000000000
21
424.630000000000
31
0.0
0
LINE
5
5a2
100
AcDbEntity
8
0-00-0
6
CONTINUOUS
62
4
100
AcDbLine
10
438.350000000000
20
425.120000000000
30
0.0
11
437.500000000000
21
424.630000000000
31
0.0
0
LINE
5
5a3
100
AcDbEntity
8
0-00-0
6
CONTINUOUS
62
4
100
AcDbLine
10
438.350000000000
20
424.140000000000
30
0.0
11
438.350000000000
21
421.950000000000
31
0.0
0
LINE
5
5a4
100
AcDbEntity
8
0-00-0
6
CONTINUOUS
62
4
100
AcDbLine
10
441.450000000000
20
428.900000000000
30
0.0
11
442.300000000000
21
429.390000000000
31
0.0
0
LINE
5
5a5
100
AcDbEntity
8
0-00-0
6
CONTINUOUS
62
4
100
AcDbLine
10
441.450000000000
20
429.890000000000
30
0.0
11
442.300000000000
21
429.390000000000
31
0.0
0
LINE
5
5a6
100
AcDbEntity
8
0-00-0
6
CONTINUOUS
62
4
100
AcDbLine
10
441.450000000000
20
428.900000000000
30
0.0
11
441.450000000000
21
426.710000000000
31
0.0
0
LINE
5
5a7
100
AcDbEntity
8
0-00-0
6
CONTINUOUS
62
4
100
AcDbLine
10
438.350000000000
20
427.320000000000
30
0.0
11
441.450000000000
21
428.900000000000
31
0.0
0
LINE
5
5a8
100
AcDbEntity
8
0-00-0
6
CONTINUOUS
62
4
100
AcDbLine
10
442.300000000000
20
429.390000000000
30
0.0
11
437.500000000000
21
427.810000000000
31
0.0
0
LINE
5
5a9
100
AcDbEntity
8
0-00-0
6
CONTINUOUS
62
4
100
AcDbLine
10
438.350000000000
20
428.300000000000
30
0.0
11
441.450000000000
21
429.890000000000
31
0.0
0
LINE
5
5aa
100
AcDbEntity
8
0-00-0
6
CONTINUOUS
62
4
100
AcDbLine
10
438.350000000000
20
427.320000000000
30
0.0
11
437.500000000000
21
427.810000000000
31
0.0
0
LINE
5
5ab
100
AcDbEntity
8
0-00-0
6
CONTINUOUS
62
4
100
AcDbLine
10
438.350000000000
20
428.300000000000
30
0.0
11
437.500000000000
21
427.810000000000
31
0.0
0
LINE
5
5ac
100
AcDbEntity
8
0-00-0
6
CONTINUOUS
62
4
100
AcDbLine
10
438.350000000000
20
427.320000000000
30
0.0
11
438.350000000000
21
425.120000000000
31
0.0
0
LINE
5
5ad
100
AcDbEntity
8
0-00-0
6
CONTINUOUS
62
4
100
AcDbLine
10
441.450000000000
20
432.080000000000
30
0.0
11
442.300000000000
21
432.570000000000
31
0.0
0
LINE
5
5ae
100
AcDbEntity
8
0-00-0
6
CONTINUOUS
62
4
100
AcDbLine
10
441.450000000000
20
433.060000000000
30
0.0
11
442.300000000000
21
432.570000000000
31
0.0
0
LINE
5
5af
100
AcDbEntity
8
0-00-0
6
CONTINUOUS
62
4
100
AcDbLine
10
441.450000000000
20
432.080000000000
30
0.0
11
441.450000000000
21
429.890000000000
31
0.0
0
LINE
5
5b0
100
AcDbEntity
8
0-00-0
6
CONTINUOUS
62
4
100
AcDbLine
10
438.350000000000
20
430.490000000000
30
0.0
11
441.450000000000
21
432.080000000000
31
0.0
0
LINE
5
5b1
100
AcDbEntity
8
0-00-0
6
CONTINUOUS
62
4
100
AcDbLine
10
442.300000000000
20
432.570000000000
30
0.0
11
437.500000000000
21
430.980000000000
31
0.0
0
LINE
5
5b2
100
AcDbEntity
8
0-00-0
6
CONTINUOUS
62
4
100
AcDbLine
10
438.350000000000
20
431.470000000000
30
0.0
11
441.450000000000
21
433.060000000000
31
0.0
0
LINE
5
5b3
100
AcDbEntity
8
0-00-0
6
CONTINUOUS
62
4
100
AcDbLine
10
438.350000000000
20
430.490000000000
30
0.0
11
437.500000000000
21
430.980000000000
31
0.0
0
LINE
5
5b4
100
AcDbEntity
8
0-00-0
6
CONTINUOUS
62
4
100
AcDbLine
10
438.350000000000
20
431.470000000000
30
0.0
11
437.500000000000
21
430.980000000000
31
0.0
0
LINE
5
5b5
100
AcDbEntity
8
0-00-0
6
CONTINUOUS
62
4
100
AcDbLine
10
438.350000000000
20
430.490000000000
30
0.0
11
438.350000000000
21
428.300000000000
31
0.0
0
LINE
5
5b6
100
AcDbEntity
8
0-00-0
6
CONTINUOUS
62
4
100
AcDbLine
10
441.890000000000
20
435.510000000000
30
0.0
11
441.450000000000
21
435.250000000000
31
0.0
0
LINE
5
5b7
100
AcDbEntity
8
0-00-0
6
CONTINUOUS
62
4
100
AcDbLine
10
441.890000000000
20
435.980000000000
30
0.0
11
441.450000000000
21
436.240000000000
31
0.0
0
LINE
5
5b8
100
AcDbEntity
8
0-00-0
6
CONTINUOUS
62
4
100
AcDbLine
10
441.450000000000
20
435.250000000000
30
0.0
11
441.450000000000
21
433.060000000000
31
0.0
0
LINE
5
5b9
100
AcDbEntity
8
0-00-0
6
CONTINUOUS
62
4
100
AcDbLine
10
438.350000000000
20
433.670000000000
30
0.0
11
441.450000000000
21
435.250000000000
31
0.0
0
LINE
5
5ba
100
AcDbEntity
8
0-00-0
6
CONTINUOUS
62
4
100
AcDbLine
10
438.350000000000
20
434.650000000000
30
0.0
11
441.450000000000
21
436.240000000000
31
0.0
0
LINE
5
5bb
100
AcDbEntity
8
0-00-0
6
CONTINUOUS
62
4
100
AcDbLine
10
437.770000000000
20
434.000000000000
30
0.0
11
438.350000000000
21
433.670000000000
31
0.0
0
LINE
5
5bc
100
AcDbEntity
8
0-00-0
6
CONTINUOUS
62
4
100
AcDbLine
10
437.770000000000
20
434.310000000000
30
0.0
11
438.350000000000
21
434.650000000000
31
0.0
0
LINE
5
5bd
100
AcDbEntity
8
0-00-0
6
CONTINUOUS
62
4
100
AcDbLine
10
438.350000000000
20
433.670000000000
30
0.0
11
438.350000000000
21
431.470000000000
31
0.0
0
LINE
5
5be
100
AcDbEntity
8
0-00-0
6
CONTINUOUS
62
4
100
AcDbLine
10
441.590000000000
20
436.450000000000
30
0.0
11
441.450000000000
21
436.240000000000
31
0.0
0
LINE
5
5bf
100
AcDbEntity
8
0-00-0
6
CONTINUOUS
62
4
100
AcDbLine
10
438.220000000000
20
436.450000000000
30
0.0
11
438.350000000000
21
434.650000000000
31
0.0
0
LINE
5
5c0
100
AcDbEntity
8
0-00-0
6
CONTINUOUS
62
4
100
AcDbLine
10
437.770000000000
20
434.310000000000
30
0.0
11
437.770000000000
21
434.000000000000
31
0.0
0
LINE
5
5c1
100
AcDbEntity
8
0-00-0
6
CONTINUOUS
62
4
100
AcDbLine
10
441.890000000000
20
435.980000000000
30
0.0
11
441.890000000000
21
435.510000000000
31
0.0
0
LINE
5
5c2
100
AcDbEntity
8
0-00-0
6
CONTINUOUS
62
4
100
AcDbLine
10
441.890000000000
20
435.510000000000
30
0.0
11
437.770000000000
21
434.000000000000
31
0.0
0
LINE
5
5c3
100
AcDbEntity
8
0-00-0
6
CONTINUOUS
62
4
100
AcDbLine
10
437.770000000000
20
434.310000000000
30
0.0
11
441.890000000000
21
435.980000000000
31
0.0
0
LINE
5
5c4
100
AcDbEntity
8
0-00-0
6
DOT
62
4
100
AcDbLine
10
441.950000000000
20
440.350000000000
30
0.0
11
441.050000000000
21
438.530000000000
31
0.0
0
LINE
5
5c5
100
AcDbEntity
8
0-00-0
6
DOT
62
4
100
AcDbLine
10
441.050000000000
20
438.530000000000
30
0.0
11
439.900000000000
21
437.920000000000
31
0.0
0
LINE
5
5c6
100
AcDbEntity
8
0-00-0
6
DOT
62
4
100
AcDbLine
10
439.900000000000
20
437.920000000000
30
0.0
11
438.760000000000
21
438.530000000000
31
0.0
0
LINE
5
5c7
100
AcDbEntity
8
0-00-0
6
DOT
62
4
100
AcDbLine
10
437.850000000000
20
440.350000000000
30
0.0
11
438.760000000000
21
438.530000000000
31
0.0
0
LINE
5
5c8
100
AcDbEntity
8
0-00-0
6
CONTINUOUS
62
4
100
AcDbLine
10
440.550000000000
20
410.240000000000
30
0.0
11
439.670000000000
21
408.450000000000
31
0.0
0
LINE
5
5c9
100
AcDbEntity
8
0-00-0
6
CONTINUOUS
62
4
100
AcDbLine
10
440.970000000000
20
409.990000000000
30
0.0
11
439.670000000000
21
408.450000000000
31
0.0
0
LINE
5
5ca
100
AcDbEntity
8
0-00-0
6
CONTINUOUS
62
4
100
AcDbLine
10
438.890000000000
20
411.850000000000
30
0.0
11
439.900000000000
21
407.450000000000
31
0.0
0
LINE
5
5cb
100
AcDbEntity
8
0-00-0
6
CENTER2
62
4
100
AcDbLine
10
439.900000000000
20
440.350000000000
30
0.0
11
439.900000000000
21
407.450000000000
31
0.0
0
LINE
5
5cc
100
AcDbEntity
8
0-00-0
6
CONTINUOUS
62
4
100
AcDbLine
10
440.310000000000
20
409.210000000000
30
0.0
11
439.900000000000
21
407.450000000000
31
0.0
0
LINE
5
5cd
100
AcDbEntity
8
0-00-0
6
DOT
62
7
100
AcDbLine
10
443.080000000000
20
438.950000000000
30
0.0
11
443.080000000000
21
439.450000000000
31
0.0
0
LINE
5
5ce
100
AcDbEntity
8
0-00-0
6
DOT
62
7
100
AcDbLine
10
444.080000000000
20
438.950000000000
30
0.0
11
447.020000000000
21
439.940000000000
31
0.0
0
LINE
5
5cf
100
AcDbEntity
8
0-00-0
6
DOT
62
7
100
AcDbLine
10
436.650000000000
20
438.950000000000
30
0.0
11
446.960000000000
21
438.950000000000
31
0.0
0
LINE
5
5d0
100
AcDbEntity
8
0-00-0
6
DOT
62
7
100
AcDbLine
10
444.000000000000
20
439.450000000000
30
0.0
11
443.080000000000
21
439.450000000000
31
0.0
0
LINE
5
5d1
100
AcDbEntity
8
0-00-0
6
DOT
62
7
100
AcDbLine
10
444.000000000000
20
439.450000000000
30
0.0
11
446.960000000000
21
440.450000000000
31
0.0
0
LINE
5
5d2
100
AcDbEntity
8
0-00-0
6
CONTINUOUS
62
3
100
AcDbLine
10
611.690000000000
20
438.450000000000
30
0.0
11
601.380000000000
21
438.450000000000
31
0.0
0
LINE
5
5d3
100
AcDbEntity
8
0-00-0
6
CONTINUOUS
62
4
100
AcDbLine
10
600.630000000000
20
440.350000000000
30
0.0
11
608.630000000000
21
440.350000000000
31
0.0
0
LINE
5
5d4
100
AcDbEntity
8
0-00-0
6
CONTINUOUS
62
4
100
AcDbLine
10
608.880000000000
20
439.700000000000
30
0.0
11
608.880000000000
21
440.100000000000
31
0.0
0
LINE
5
5d5
100
AcDbEntity
8
0-00-0
6
CONTINUOUS
62
4
100
AcDbLine
10
600.380000000000
20
439.700000000000
30
0.0
11
600.380000000000
21
440.100000000000
31
0.0
0
LINE
5
5d6
100
AcDbEntity
8
0-00-0
6
CONTINUOUS
62
4
100
AcDbLine
10
600.630000000000
20
439.450000000000
30
0.0
11
608.630000000000
21
439.450000000000
31
0.0
0
LINE
5
5d7
100
AcDbEntity
8
0-00-0
6
CONTINUOUS
62
4
100
AcDbLine
10
602.950000000000
20
437.950000000000
30
0.0
11
606.320000000000
21
437.950000000000
31
0.0
0
LINE
5
5d8
100
AcDbEntity
8
0-00-0
6
CONTINUOUS
62
4
100
AcDbLine
10
606.320000000000
20
436.450000000000
30
0.0
11
606.320000000000
21
437.950000000000
31
0.0
0
LINE
5
5d9
100
AcDbEntity
8
0-00-0
6
CONTINUOUS
62
4
100
AcDbLine
10
602.950000000000
20
436.450000000000
30
0.0
11
602.950000000000
21
437.950000000000
31
0.0
0
LINE
5
5da
100
AcDbEntity
8
0-00-0
6
CONTINUOUS
62
4
100
AcDbLine
10
606.880000000000
20
439.450000000000
30
0.0
11
606.320000000000
21
437.950000000000
31
0.0
0
LINE
5
5db
100
AcDbEntity
8
0-00-0
6
CONTINUOUS
62
4
100
AcDbLine
10
602.380000000000
20
439.450000000000
30
0.0
11
602.950000000000
21
437.950000000000
31
0.0
0
LINE
5
5dc
100
AcDbEntity
8
0-00-0
6
CONTINUOUS
62
4
100
AcDbLine
10
602.950000000000
20
436.450000000000
30
0.0
11
606.320000000000
21
436.450000000000
31
0.0
0
LINE
5
5dd
100
AcDbEntity
8
0-00-0
6
CONTINUOUS
62
4
100
AcDbLine
10
603.080000000000
20
417.790000000000
30
0.0
11
602.230000000000
21
418.280000000000
31
0.0
0
LINE
5
5de
100
AcDbEntity
8
0-00-0
6
CONTINUOUS
62
4
100
AcDbLine
10
603.080000000000
20
418.770000000000
30
0.0
11
602.230000000000
21
418.280000000000
31
0.0
0
LINE
5
5df
100
AcDbEntity
8
0-00-0
6
CONTINUOUS
62
4
100
AcDbLine
10
603.080000000000
20
414.620000000000
30
0.0
11
602.230000000000
21
415.110000000000
31
0.0
0
LINE
5
5e0
100
AcDbEntity
8
0-00-0
6
CONTINUOUS
62
4
100
AcDbLine
10
603.080000000000
20
415.600000000000
30
0.0
11
602.230000000000
21
415.110000000000
31
0.0
0
LINE
5
5e1
100
AcDbEntity
8
0-00-0
6
CONTINUOUS
62
4
100
AcDbLine
10
606.180000000000
20
419.380000000000
30
0.0
11
607.030000000000
21
419.870000000000
31
0.0
0
LINE
5
5e2
100
AcDbEntity
8
0-00-0
6
CONTINUOUS
62
4
100
AcDbLine
10
606.180000000000
20
420.360000000000
30
0.0
11
607.030000000000
21
419.870000000000
31
0.0
0
LINE
5
5e3
100
AcDbEntity
8
0-00-0
6
CONTINUOUS
62
4
100
AcDbLine
10
606.180000000000
20
416.200000000000
30
0.0
11
607.030000000000
21
416.690000000000
31
0.0
0
LINE
5
5e4
100
AcDbEntity
8
0-00-0
6
CONTINUOUS
62
4
100
AcDbLine
10
606.180000000000
20
417.190000000000
30
0.0
11
607.030000000000
21
416.690000000000
31
0.0
0
LINE
5
5e5
100
AcDbEntity
8
0-00-0
6
CONTINUOUS
62
4
100
AcDbLine
10
606.180000000000
20
419.380000000000
30
0.0
11
606.180000000000
21
417.190000000000
31
0.0
0
LINE
5
5e6
100
AcDbEntity
8
0-00-0
6
CONTINUOUS
62
4
100
AcDbLine
10
603.080000000000
20
417.790000000000
30
0.0
11
603.080000000000
21
415.600000000000
31
0.0
0
LINE
5
5e7
100
AcDbEntity
8
0-00-0
6
CONTINUOUS
62
4
100
AcDbLine
10
603.080000000000
20
415.600000000000
30
0.0
11
606.180000000000
21
417.190000000000
31
0.0
0
LINE
5
5e8
100
AcDbEntity
8
0-00-0
6
CONTINUOUS
62
4
100
AcDbLine
10
607.030000000000
20
416.690000000000
30
0.0
11
602.230000000000
21
415.110000000000
31
0.0
0
LINE
5
5e9
100
AcDbEntity
8
0-00-0
6
CONTINUOUS
62
4
100
AcDbLine
10
603.080000000000
20
414.620000000000
30
0.0
11
606.180000000000
21
416.200000000000
31
0.0
0
LINE
5
5ea
100
AcDbEntity
8
0-00-0
6
CONTINUOUS
62
4
100
AcDbLine
10
603.080000000000
20
417.790000000000
30
0.0
11
606.180000000000
21
419.380000000000
31
0.0
0
LINE
5
5eb
100
AcDbEntity
8
0-00-0
6
CONTINUOUS
62
4
100
AcDbLine
10
607.030000000000
20
419.870000000000
30
0.0
11
602.230000000000
21
418.280000000000
31
0.0
0
LINE
5
5ec
100
AcDbEntity
8
0-00-0
6
CONTINUOUS
62
4
100
AcDbLine
10
603.080000000000
20
418.770000000000
30
0.0
11
606.180000000000
21
420.360000000000
31
0.0
0
LINE
5
5ed
100
AcDbEntity
8
0-00-0
6
CONTINUOUS
62
4
100
AcDbLine
10
606.180000000000
20
414.160000000000
30
0.0
11
606.050000000000
21
413.560000000000
31
0.0
0
LINE
5
5ee
100
AcDbEntity
8
0-00-0
6
CONTINUOUS
62
4
100
AcDbLine
10
603.080000000000
20
414.160000000000
30
0.0
11
603.490000000000
21
412.420000000000
31
0.0
0
LINE
5
5ef
100
AcDbEntity
8
0-00-0
6
CONTINUOUS
62
4
100
AcDbLine
10
603.620000000000
20
411.850000000000
30
0.0
11
603.060000000000
21
412.020000000000
31
0.0
0
LINE
5
5f0
100
AcDbEntity
8
0-00-0
6
CONTINUOUS
62
4
100
AcDbLine
10
603.490000000000
20
412.420000000000
30
0.0
11
603.060000000000
21
412.020000000000
31
0.0
0
LINE
5
5f1
100
AcDbEntity
8
0-00-0
6
CONTINUOUS
62
4
100
AcDbLine
10
603.080000000000
20
414.160000000000
30
0.0
11
603.080000000000
21
414.620000000000
31
0.0
0
LINE
5
5f2
100
AcDbEntity
8
0-00-0
6
CONTINUOUS
62
4
100
AcDbLine
10
605.890000000000
20
412.880000000000
30
0.0
11
606.560000000000
21
413.260000000000
31
0.0
0
LINE
5
5f3
100
AcDbEntity
8
0-00-0
6
CONTINUOUS
62
4
100
AcDbLine
10
606.050000000000
20
413.560000000000
30
0.0
11
606.560000000000
21
413.260000000000
31
0.0
0
LINE
5
5f4
100
AcDbEntity
8
0-00-0
6
CONTINUOUS
62
4
100
AcDbLine
10
606.180000000000
20
414.160000000000
30
0.0
11
606.180000000000
21
416.200000000000
31
0.0
0
LINE
5
5f5
100
AcDbEntity
8
0-00-0
6
CONTINUOUS
62
4
100
AcDbLine
10
605.280000000000
20
410.240000000000
30
0.0
11
605.700000000000
21
409.990000000000
31
0.0
0
LINE
5
5f6
100
AcDbEntity
8
0-00-0
6
CONTINUOUS
62
4
100
AcDbLine
10
605.890000000000
20
412.880000000000
30
0.0
11
605.280000000000
21
410.240000000000
31
0.0
0
LINE
5
5f7
100
AcDbEntity
8
0-00-0
6
CONTINUOUS
62
4
100
AcDbLine
10
605.890000000000
20
412.880000000000
30
0.0
11
603.620000000000
21
411.850000000000
31
0.0
0
LINE
5
5f8
100
AcDbEntity
8
0-00-0
6
CONTINUOUS
62
4
100
AcDbLine
10
603.490000000000
20
412.420000000000
30
0.0
11
606.050000000000
21
413.560000000000
31
0.0
0
LINE
5
5f9
100
AcDbEntity
8
0-00-0
6
CONTINUOUS
62
4
100
AcDbLine
10
606.560000000000
20
413.260000000000
30
0.0
11
603.060000000000
21
412.020000000000
31
0.0
0
LINE
5
5fa
100
AcDbEntity
8
0-00-0
6
CONTINUOUS
62
4
100
AcDbLine
10
606.180000000000
20
422.550000000000
30
0.0
11
607.030000000000
21
423.040000000000
31
0.0
0
LINE
5
5fb
100
AcDbEntity
8
0-00-0
6
CONTINUOUS
62
4
100
AcDbLine
10
606.180000000000
20
423.540000000000
30
0.0
11
607.030000000000
21
423.040000000000
31
0.0
0
LINE
5
5fc
100
AcDbEntity
8
0-00-0
6
CONTINUOUS
62
4
100
AcDbLine
10
606.180000000000
20
422.550000000000
30
0.0
11
606.180000000000
21
420.360000000000
31
0.0
0
LINE
5
5fd
100
AcDbEntity
8
0-00-0
6
CONTINUOUS
62
4
100
AcDbLine
10
603.080000000000
20
420.970000000000
30
0.0
11
606.180000000000
21
422.550000000000
31
0.0
0
LINE
5
5fe
100
AcDbEntity
8
0-00-0
6
CONTINUOUS
62
4
100
AcDbLine
10
607.030000000000
20
423.040000000000
30
0.0
11
602.230000000000
21
421.460000000000
31
0.0
0
LINE
5
5ff
100
AcDbEntity
8
0-00-0
6
CONTINUOUS
62
4
100
AcDbLine
10
603.080000000000
20
421.950000000000
30
0.0
11
606.180000000000
21
423.540000000000
31
0.0
0
LINE
5
600
100
AcDbEntity
8
0-00-0
6
CONTINUOUS
62
4
100
AcDbLine
10
603.080000000000
20
420.970000000000
30
0.0
11
602.230000000000
21
421.460000000000
31
0.0
0
LINE
5
601
100
AcDbEntity
8
0-00-0
6
CONTINUOUS
62
4
100
AcDbLine
10
603.080000000000
20
421.950000000000
30
0.0
11
602.230000000000
21
421.460000000000
31
0.0
0
LINE
5
602
100
AcDbEntity
8
0-00-0
6
CONTINUOUS
62
4
100
AcDbLine
10
603.080000000000
20
420.970000000000
30
0.0
11
603.080000000000
21
418.770000000000
31
0.0
0
LINE
5
603
100
AcDbEntity
8
0-00-0
6
CONTINUOUS
62
4
100
AcDbLine
10
606.180000000000
20
425.730000000000
30
0.0
11
607.030000000000
21
426.220000000000
31
0.0
0
LINE
5
604
100
AcDbEntity
8
0-00-0
6
CONTINUOUS
62
4
100
AcDbLine
10
606.180000000000
20
426.710000000000
30
0.0
11
607.030000000000
21
426.220000000000
31
0.0
0
LINE
5
605
100
AcDbEntity
8
0-00-0
6
CONTINUOUS
62
4
100
AcDbLine
10
606.180000000000
20
425.730000000000
30
0.0
11
606.180000000000
21
423.540000000000
31
0.0
0
LINE
5
606
100
AcDbEntity
8
0-00-0
6
CONTINUOUS
62
4
100
AcDbLine
10
603.080000000000
20
424.140000000000
30
0.0
11
606.180000000000
21
425.730000000000
31
0.0
0
LINE
5
607
100
AcDbEntity
8
0-00-0
6
CONTINUOUS
62
4
100
AcDbLine
10
607.030000000000
20
426.220000000000
30
0.0
11
602.230000000000
21
424.630000000000
31
0.0
0
LINE
5
608
100
AcDbEntity
8
0-00-0
6
CONTINUOUS
62
4
100
AcDbLine
10
603.080000000000
20
425.120000000000
30
0.0
11
606.180000000000
21
426.710000000000
31
0.0
0
LINE
5
609
100
AcDbEntity
8
0-00-0
6
CONTINUOUS
62
4
100
AcDbLine
10
603.080000000000
20
424.140000000000
30
0.0
11
602.230000000000
21
424.630000000000
31
0.0
0
LINE
5
60a
100
AcDbEntity
8
0-00-0
6
CONTINUOUS
62
4
100
AcDbLine
10
603.080000000000
20
425.120000000000
30
0.0
11
602.230000000000
21
424.630000000000
31
0.0
0
LINE
5
60b
100
AcDbEntity
8
0-00-0
6
CONTINUOUS
62
4
100
AcDbLine
10
603.080000000000
20
424.140000000000
30
0.0
11
603.080000000000
21
421.950000000000
31
0.0
0
LINE
5
60c
100
AcDbEntity
8
0-00-0
6
CONTINUOUS
62
4
100
AcDbLine
10
606.180000000000
20
428.900000000000
30
0.0
11
607.030000000000
21
429.390000000000
31
0.0
0
LINE
5
60d
100
AcDbEntity
8
0-00-0
6
CONTINUOUS
62
4
100
AcDbLine
10
606.180000000000
20
429.890000000000
30
0.0
11
607.030000000000
21
429.390000000000
31
0.0
0
LINE
5
60e
100
AcDbEntity
8
0-00-0
6
CONTINUOUS
62
4
100
AcDbLine
10
606.180000000000
20
428.900000000000
30
0.0
11
606.180000000000
21
426.710000000000
31
0.0
0
LINE
5
60f
100
AcDbEntity
8
0-00-0
6
CONTINUOUS
62
4
100
AcDbLine
10
603.080000000000
20
427.320000000000
30
0.0
11
606.180000000000
21
428.900000000000
31
0.0
0
LINE
5
610
100
AcDbEntity
8
0-00-0
6
CONTINUOUS
62
4
100
AcDbLine
10
607.030000000000
20
429.390000000000
30
0.0
11
602.230000000000
21
427.810000000000
31
0.0
0
LINE
5
611
100
AcDbEntity
8
0-00-0
6
CONTINUOUS
62
4
100
AcDbLine
10
603.080000000000
20
428.300000000000
30
0.0
11
606.180000000000
21
429.890000000000
31
0.0
0
LINE
5
612
100
AcDbEntity
8
0-00-0
6
CONTINUOUS
62
4
100
AcDbLine
10
603.080000000000
20
427.320000000000
30
0.0
11
602.230000000000
21
427.810000000000
31
0.0
0
LINE
5
613
100
AcDbEntity
8
0-00-0
6
CONTINUOUS
62
4
100
AcDbLine
10
603.080000000000
20
428.300000000000
30
0.0
11
602.230000000000
21
427.810000000000
31
0.0
0
LINE
5
614
100
AcDbEntity
8
0-00-0
6
CONTINUOUS
62
4
100
AcDbLine
10
603.080000000000
20
427.320000000000
30
0.0
11
603.080000000000
21
425.120000000000
31
0.0
0
LINE
5
615
100
AcDbEntity
8
0-00-0
6
CONTINUOUS
62
4
100
AcDbLine
10
606.180000000000
20
432.080000000000
30
0.0
11
607.030000000000
21
432.570000000000
31
0.0
0
LINE
5
616
100
AcDbEntity
8
0-00-0
6
CONTINUOUS
62
4
100
AcDbLine
10
606.180000000000
20
433.060000000000
30
0.0
11
607.030000000000
21
432.570000000000
31
0.0
0
LINE
5
617
100
AcDbEntity
8
0-00-0
6
CONTINUOUS
62
4
100
AcDbLine
10
606.180000000000
20
432.080000000000
30
0.0
11
606.180000000000
21
429.890000000000
31
0.0
0
LINE
5
618
100
AcDbEntity
8
0-00-0
6
CONTINUOUS
62
4
100
AcDbLine
10
603.080000000000
20
430.490000000000
30
0.0
11
606.180000000000
21
432.080000000000
31
0.0
0
LINE
5
619
100
AcDbEntity
8
0-00-0
6
CONTINUOUS
62
4
100
AcDbLine
10
607.030000000000
20
432.570000000000
30
0.0
11
602.230000000000
21
430.980000000000
31
0.0
0
LINE
5
61a
100
AcDbEntity
8
0-00-0
6
CONTINUOUS
62
4
100
AcDbLine
10
603.080000000000
20
431.470000000000
30
0.0
11
606.180000000000
21
433.060000000000
31
0.0
0
LINE
5
61b
100
AcDbEntity
8
0-00-0
6
CONTINUOUS
62
4
100
AcDbLine
10
603.080000000000
20
430.490000000000
30
0.0
11
602.230000000000
21
430.980000000000
31
0.0
0
LINE
5
61c
100
AcDbEntity
8
0-00-0
6
CONTINUOUS
62
4
100
AcDbLine
10
603.080000000000
20
431.470000000000
30
0.0
11
602.230000000000
21
430.980000000000
31
0.0
0
LINE
5
61d
100
AcDbEntity
8
0-00-0
6
CONTINUOUS
62
4
100
AcDbLine
10
603.080000000000
20
430.490000000000
30
0.0
11
603.080000000000
21
428.300000000000
31
0.0
0
LINE
5
61e
100
AcDbEntity
8
0-00-0
6
CONTINUOUS
62
4
100
AcDbLine
10
606.620000000000
20
435.510000000000
30
0.0
11
606.180000000000
21
435.250000000000
31
0.0
0
LINE
5
61f
100
AcDbEntity
8
0-00-0
6
CONTINUOUS
62
4
100
AcDbLine
10
606.620000000000
20
435.980000000000
30
0.0
11
606.180000000000
21
436.240000000000
31
0.0
0
LINE
5
620
100
AcDbEntity
8
0-00-0
6
CONTINUOUS
62
4
100
AcDbLine
10
606.180000000000
20
435.250000000000
30
0.0
11
606.180000000000
21
433.060000000000
31
0.0
0
LINE
5
621
100
AcDbEntity
8
0-00-0
6
CONTINUOUS
62
4
100
AcDbLine
10
603.080000000000
20
433.670000000000
30
0.0
11
606.180000000000
21
435.250000000000
31
0.0
0
LINE
5
622
100
AcDbEntity
8
0-00-0
6
CONTINUOUS
62
4
100
AcDbLine
10
603.080000000000
20
434.650000000000
30
0.0
11
606.180000000000
21
436.240000000000
31
0.0
0
LINE
5
623
100
AcDbEntity
8
0-00-0
6
CONTINUOUS
62
4
100
AcDbLine
10
602.500000000000
20
434.000000000000
30
0.0
11
603.080000000000
21
433.670000000000
31
0.0
0
LINE
5
624
100
AcDbEntity
8
0-00-0
6
CONTINUOUS
62
4
100
AcDbLine
10
602.500000000000
20
434.310000000000
30
0.0
11
603.080000000000
21
434.650000000000
31
0.0
0
LINE
5
625
100
AcDbEntity
8
0-00-0
6
CONTINUOUS
62
4
100
AcDbLine
10
603.080000000000
20
433.670000000000
30
0.0
11
603.080000000000
21
431.470000000000
31
0.0
0
LINE
5
626
100
AcDbEntity
8
0-00-0
6
CONTINUOUS
62
4
100
AcDbLine
10
606.320000000000
20
436.450000000000
30
0.0
11
606.180000000000
21
436.240000000000
31
0.0
0
LINE
5
627
100
AcDbEntity
8
0-00-0
6
CONTINUOUS
62
4
100
AcDbLine
10
602.950000000000
20
436.450000000000
30
0.0
11
603.080000000000
21
434.650000000000
31
0.0
0
LINE
5
628
100
AcDbEntity
8
0-00-0
6
CONTINUOUS
62
4
100
AcDbLine
10
602.500000000000
20
434.310000000000
30
0.0
11
602.500000000000
21
434.000000000000
31
0.0
0
LINE
5
629
100
AcDbEntity
8
0-00-0
6
CONTINUOUS
62
4
100
AcDbLine
10
606.620000000000
20
435.980000000000
30
0.0
11
606.620000000000
21
435.510000000000
31
0.0
0
LINE
5
62a
100
AcDbEntity
8
0-00-0
6
CONTINUOUS
62
4
100
AcDbLine
10
606.620000000000
20
435.510000000000
30
0.0
11
602.500000000000
21
434.000000000000
31
0.0
0
LINE
5
62b
100
AcDbEntity
8
0-00-0
6
CONTINUOUS
62
4
100
AcDbLine
10
602.500000000000
20
434.310000000000
30
0.0
11
606.620000000000
21
435.980000000000
31
0.0
0
LINE
5
62c
100
AcDbEntity
8
0-00-0
6
DOT
62
4
100
AcDbLine
10
606.680000000000
20
440.350000000000
30
0.0
11
605.780000000000
21
438.530000000000
31
0.0
0
LINE
5
62d
100
AcDbEntity
8
0-00-0
6
DOT
62
4
100
AcDbLine
10
605.780000000000
20
438.530000000000
30
0.0
11
604.630000000000
21
437.920000000000
31
0.0
0
LINE
5
62e
100
AcDbEntity
8
0-00-0
6
DOT
62
4
100
AcDbLine
10
604.630000000000
20
437.920000000000
30
0.0
11
603.490000000000
21
438.530000000000
31
0.0
0
LINE
5
62f
100
AcDbEntity
8
0-00-0
6
DOT
62
4
100
AcDbLine
10
602.580000000000
20
440.350000000000
30
0.0
11
603.490000000000
21
438.530000000000
31
0.0
0
LINE
5
630
100
AcDbEntity
8
0-00-0
6
CONTINUOUS
62
4
100
AcDbLine
10
605.280000000000
20
410.240000000000
30
0.0
11
604.400000000000
21
408.450000000000
31
0.0
0
LINE
5
631
100
AcDbEntity
8
0-00-0
6
CONTINUOUS
62
4
100
AcDbLine
10
605.700000000000
20
409.990000000000
30
0.0
11
604.400000000000
21
408.450000000000
31
0.0
0
LINE
5
632
100
AcDbEntity
8
0-00-0
6
CONTINUOUS
62
4
100
AcDbLine
10
603.620000000000
20
411.850000000000
30
0.0
11
604.630000000000
21
407.450000000000
31
0.0
0
LINE
5
633
100
AcDbEntity
8
0-00-0
6
CENTER2
62
4
100
AcDbLine
10
604.630000000000
20
440.350000000000
30
0.0
11
604.630000000000
21
407.450000000000
31
0.0
0
LINE
5
634
100
AcDbEntity
8
0-00-0
6
CONTINUOUS
62
4
100
AcDbLine
10
605.040000000000
20
409.210000000000
30
0.0
11
604.630000000000
21
407.450000000000
31
0.0
0
LINE
5
635
100
AcDbEntity
8
0-00-0
6
CONTINUOUS
62
3
100
AcDbLine
10
607.820000000000
20
438.950000000000
30
0.0
11
607.820000000000
21
439.450000000000
31
0.0
0
LINE
5
636
100
AcDbEntity
8
0-00-0
6
CONTINUOUS
62
3
100
AcDbLine
10
608.820000000000
20
438.950000000000
30
0.0
11
611.760000000000
21
439.940000000000
31
0.0
0
LINE
5
637
100
AcDbEntity
8
0-00-0
6
CONTINUOUS
62
3
100
AcDbLine
10
601.380000000000
20
438.950000000000
30
0.0
11
611.690000000000
21
438.950000000000
31
0.0
0
LINE
5
638
100
AcDbEntity
8
0-00-0
6
CONTINUOUS
62
3
100
AcDbLine
10
608.730000000000
20
439.450000000000
30
0.0
11
607.820000000000
21
439.450000000000
31
0.0
0
LINE
5
639
100
AcDbEntity
8
0-00-0
6
CONTINUOUS
62
3
100
AcDbLine
10
608.730000000000
20
439.450000000000
30
0.0
11
611.690000000000
21
440.450000000000
31
0.0
0
LINE
5
63a
100
AcDbEntity
8
0-00-0
6
CONTINUOUS
62
3
100
AcDbLine
10
764.350000000000
20
440.320000000000
30
0.0
11
764.730000000000
21
439.390000000000
31
0.0
0
LINE
5
63b
100
AcDbEntity
8
0-00-0
6
CONTINUOUS
62
3
100
AcDbLine
10
765.190000000000
20
439.570000000000
30
0.0
11
764.810000000000
21
440.510000000000
31
0.0
0
LINE
5
63c
100
AcDbEntity
8
0-00-0
6
CONTINUOUS
62
3
100
AcDbLine
10
762.490000000000
20
440.320000000000
30
0.0
11
762.120000000000
21
439.390000000000
31
0.0
0
LINE
5
63d
100
AcDbEntity
8
0-00-0
6
CONTINUOUS
62
3
100
AcDbLine
10
761.660000000000
20
439.570000000000
30
0.0
11
762.030000000000
21
440.510000000000
31
0.0
0
LINE
5
63e
100
AcDbEntity
8
0-00-0
6
CONTINUOUS
62
3
100
AcDbLine
10
776.420000000000
20
438.450000000000
30
0.0
11
766.120000000000
21
438.450000000000
31
0.0
0
LINE
5
63f
100
AcDbEntity
8
0-00-0
6
CONTINUOUS
62
4
100
AcDbLine
10
765.370000000000
20
440.350000000000
30
0.0
11
773.370000000000
21
440.350000000000
31
0.0
0
LINE
5
640
100
AcDbEntity
8
0-00-0
6
CONTINUOUS
62
4
100
AcDbLine
10
773.620000000000
20
439.700000000000
30
0.0
11
773.620000000000
21
440.100000000000
31
0.0
0
LINE
5
641
100
AcDbEntity
8
0-00-0
6
CONTINUOUS
62
4
100
AcDbLine
10
765.120000000000
20
439.700000000000
30
0.0
11
765.120000000000
21
440.100000000000
31
0.0
0
LINE
5
642
100
AcDbEntity
8
0-00-0
6
CONTINUOUS
62
4
100
AcDbLine
10
765.370000000000
20
439.450000000000
30
0.0
11
773.370000000000
21
439.450000000000
31
0.0
0
LINE
5
643
100
AcDbEntity
8
0-00-0
6
CONTINUOUS
62
4
100
AcDbLine
10
767.680000000000
20
437.950000000000
30
0.0
11
771.050000000000
21
437.950000000000
31
0.0
0
LINE
5
644
100
AcDbEntity
8
0-00-0
6
CONTINUOUS
62
4
100
AcDbLine
10
771.050000000000
20
436.450000000000
30
0.0
11
771.050000000000
21
437.950000000000
31
0.0
0
LINE
5
645
100
AcDbEntity
8
0-00-0
6
CONTINUOUS
62
4
100
AcDbLine
10
767.680000000000
20
436.450000000000
30
0.0
11
767.680000000000
21
437.950000000000
31
0.0
0
LINE
5
646
100
AcDbEntity
8
0-00-0
6
CONTINUOUS
62
4
100
AcDbLine
10
771.620000000000
20
439.450000000000
30
0.0
11
771.050000000000
21
437.950000000000
31
0.0
0
LINE
5
647
100
AcDbEntity
8
0-00-0
6
CONTINUOUS
62
4
100
AcDbLine
10
767.120000000000
20
439.450000000000
30
0.0
11
767.680000000000
21
437.950000000000
31
0.0
0
LINE
5
648
100
AcDbEntity
8
0-00-0
6
CONTINUOUS
62
4
100
AcDbLine
10
767.680000000000
20
436.450000000000
30
0.0
11
771.050000000000
21
436.450000000000
31
0.0
0
LINE
5
649
100
AcDbEntity
8
0-00-0
6
CONTINUOUS
62
4
100
AcDbLine
10
767.820000000000
20
417.790000000000
30
0.0
11
766.970000000000
21
418.280000000000
31
0.0
0
LINE
5
64a
100
AcDbEntity
8
0-00-0
6
CONTINUOUS
62
4
100
AcDbLine
10
767.820000000000
20
418.770000000000
30
0.0
11
766.970000000000
21
418.280000000000
31
0.0
0
LINE
5
64b
100
AcDbEntity
8
0-00-0
6
CONTINUOUS
62
4
100
AcDbLine
10
767.820000000000
20
414.620000000000
30
0.0
11
766.970000000000
21
415.110000000000
31
0.0
0
LINE
5
64c
100
AcDbEntity
8
0-00-0
6
CONTINUOUS
62
4
100
AcDbLine
10
767.820000000000
20
415.600000000000
30
0.0
11
766.970000000000
21
415.110000000000
31
0.0
0
LINE
5
64d
100
AcDbEntity
8
0-00-0
6
CONTINUOUS
62
4
100
AcDbLine
10
770.920000000000
20
419.380000000000
30
0.0
11
771.770000000000
21
419.870000000000
31
0.0
0
LINE
5
64e
100
AcDbEntity
8
0-00-0
6
CONTINUOUS
62
4
100
AcDbLine
10
770.920000000000
20
420.360000000000
30
0.0
11
771.770000000000
21
419.870000000000
31
0.0
0
LINE
5
64f
100
AcDbEntity
8
0-00-0
6
CONTINUOUS
62
4
100
AcDbLine
10
770.920000000000
20
416.200000000000
30
0.0
11
771.770000000000
21
416.690000000000
31
0.0
0
LINE
5
650
100
AcDbEntity
8
0-00-0
6
CONTINUOUS
62
4
100
AcDbLine
10
770.920000000000
20
417.190000000000
30
0.0
11
771.770000000000
21
416.690000000000
31
0.0
0
LINE
5
651
100
AcDbEntity
8
0-00-0
6
CONTINUOUS
62
4
100
AcDbLine
10
770.920000000000
20
419.380000000000
30
0.0
11
770.920000000000
21
417.190000000000
31
0.0
0
LINE
5
652
100
AcDbEntity
8
0-00-0
6
CONTINUOUS
62
4
100
AcDbLine
10
767.820000000000
20
417.790000000000
30
0.0
11
767.820000000000
21
415.600000000000
31
0.0
0
LINE
5
653
100
AcDbEntity
8
0-00-0
6
CONTINUOUS
62
4
100
AcDbLine
10
767.820000000000
20
415.600000000000
30
0.0
11
770.920000000000
21
417.190000000000
31
0.0
0
LINE
5
654
100
AcDbEntity
8
0-00-0
6
CONTINUOUS
62
4
100
AcDbLine
10
771.770000000000
20
416.690000000000
30
0.0
11
766.970000000000
21
415.110000000000
31
0.0
0
LINE
5
655
100
AcDbEntity
8
0-00-0
6
CONTINUOUS
62
4
100
AcDbLine
10
767.820000000000
20
414.620000000000
30
0.0
11
770.920000000000
21
416.200000000000
31
0.0
0
LINE
5
656
100
AcDbEntity
8
0-00-0
6
CONTINUOUS
62
4
100
AcDbLine
10
767.820000000000
20
417.790000000000
30
0.0
11
770.920000000000
21
419.380000000000
31
0.0
0
LINE
5
657
100
AcDbEntity
8
0-00-0
6
CONTINUOUS
62
4
100
AcDbLine
10
771.770000000000
20
419.870000000000
30
0.0
11
766.970000000000
21
418.280000000000
31
0.0
0
LINE
5
658
100
AcDbEntity
8
0-00-0
6
CONTINUOUS
62
4
100
AcDbLine
10
767.820000000000
20
418.770000000000
30
0.0
11
770.920000000000
21
420.360000000000
31
0.0
0
LINE
5
659
100
AcDbEntity
8
0-00-0
6
CONTINUOUS
62
4
100
AcDbLine
10
770.920000000000
20
414.160000000000
30
0.0
11
770.780000000000
21
413.560000000000
31
0.0
0
LINE
5
65a
100
AcDbEntity
8
0-00-0
6
CONTINUOUS
62
4
100
AcDbLine
10
767.820000000000
20
414.160000000000
30
0.0
11
768.220000000000
21
412.420000000000
31
0.0
0
LINE
5
65b
100
AcDbEntity
8
0-00-0
6
CONTINUOUS
62
4
100
AcDbLine
10
768.350000000000
20
411.850000000000
30
0.0
11
767.790000000000
21
412.020000000000
31
0.0
0
LINE
5
65c
100
AcDbEntity
8
0-00-0
6
CONTINUOUS
62
4
100
AcDbLine
10
768.220000000000
20
412.420000000000
30
0.0
11
767.790000000000
21
412.020000000000
31
0.0
0
LINE
5
65d
100
AcDbEntity
8
0-00-0
6
CONTINUOUS
62
4
100
AcDbLine
10
767.820000000000
20
414.160000000000
30
0.0
11
767.820000000000
21
414.620000000000
31
0.0
0
LINE
5
65e
100
AcDbEntity
8
0-00-0
6
CONTINUOUS
62
4
100
AcDbLine
10
770.620000000000
20
412.880000000000
30
0.0
11
771.290000000000
21
413.260000000000
31
0.0
0
LINE
5
65f
100
AcDbEntity
8
0-00-0
6
CONTINUOUS
62
4
100
AcDbLine
10
770.780000000000
20
413.560000000000
30
0.0
11
771.290000000000
21
413.260000000000
31
0.0
0
LINE
5
660
100
AcDbEntity
8
0-00-0
6
CONTINUOUS
62
4
100
AcDbLine
10
770.920000000000
20
414.160000000000
30
0.0
11
770.920000000000
21
416.200000000000
31
0.0
0
LINE
5
661
100
AcDbEntity
8
0-00-0
6
CONTINUOUS
62
4
100
AcDbLine
10
770.010000000000
20
410.240000000000
30
0.0
11
770.440000000000
21
409.990000000000
31
0.0
0
LINE
5
662
100
AcDbEntity
8
0-00-0
6
CONTINUOUS
62
4
100
AcDbLine
10
770.620000000000
20
412.880000000000
30
0.0
11
770.010000000000
21
410.240000000000
31
0.0
0
LINE
5
663
100
AcDbEntity
8
0-00-0
6
CONTINUOUS
62
4
100
AcDbLine
10
770.620000000000
20
412.880000000000
30
0.0
11
768.350000000000
21
411.850000000000
31
0.0
0
LINE
5
664
100
AcDbEntity
8
0-00-0
6
CONTINUOUS
62
4
100
AcDbLine
10
768.220000000000
20
412.420000000000
30
0.0
11
770.780000000000
21
413.560000000000
31
0.0
0
LINE
5
665
100
AcDbEntity
8
0-00-0
6
CONTINUOUS
62
4
100
AcDbLine
10
771.290000000000
20
413.260000000000
30
0.0
11
767.790000000000
21
412.020000000000
31
0.0
0
LINE
5
666
100
AcDbEntity
8
0-00-0
6
CONTINUOUS
62
4
100
AcDbLine
10
770.920000000000
20
422.550000000000
30
0.0
11
771.770000000000
21
423.040000000000
31
0.0
0
LINE
5
667
100
AcDbEntity
8
0-00-0
6
CONTINUOUS
62
4
100
AcDbLine
10
770.920000000000
20
423.540000000000
30
0.0
11
771.770000000000
21
423.040000000000
31
0.0
0
LINE
5
668
100
AcDbEntity
8
0-00-0
6
CONTINUOUS
62
4
100
AcDbLine
10
770.920000000000
20
422.550000000000
30
0.0
11
770.920000000000
21
420.360000000000
31
0.0
0
LINE
5
669
100
AcDbEntity
8
0-00-0
6
CONTINUOUS
62
4
100
AcDbLine
10
767.820000000000
20
420.970000000000
30
0.0
11
770.920000000000
21
422.550000000000
31
0.0
0
LINE
5
66a
100
AcDbEntity
8
0-00-0
6
CONTINUOUS
62
4
100
AcDbLine
10
771.770000000000
20
423.040000000000
30
0.0
11
766.970000000000
21
421.460000000000
31
0.0
0
LINE
5
66b
100
AcDbEntity
8
0-00-0
6
CONTINUOUS
62
4
100
AcDbLine
10
767.820000000000
20
421.950000000000
30
0.0
11
770.920000000000
21
423.540000000000
31
0.0
0
LINE
5
66c
100
AcDbEntity
8
0-00-0
6
CONTINUOUS
62
4
100
AcDbLine
10
767.820000000000
20
420.970000000000
30
0.0
11
766.970000000000
21
421.460000000000
31
0.0
0
LINE
5
66d
100
AcDbEntity
8
0-00-0
6
CONTINUOUS
62
4
100
AcDbLine
10
767.820000000000
20
421.950000000000
30
0.0
11
766.970000000000
21
421.460000000000
31
0.0
0
LINE
5
66e
100
AcDbEntity
8
0-00-0
6
CONTINUOUS
62
4
100
AcDbLine
10
767.820000000000
20
420.970000000000
30
0.0
11
767.820000000000
21
418.770000000000
31
0.0
0
LINE
5
66f
100
AcDbEntity
8
0-00-0
6
CONTINUOUS
62
4
100
AcDbLine
10
770.920000000000
20
425.730000000000
30
0.0
11
771.770000000000
21
426.220000000000
31
0.0
0
LINE
5
670
100
AcDbEntity
8
0-00-0
6
CONTINUOUS
62
4
100
AcDbLine
10
770.920000000000
20
426.710000000000
30
0.0
11
771.770000000000
21
426.220000000000
31
0.0
0
LINE
5
671
100
AcDbEntity
8
0-00-0
6
CONTINUOUS
62
4
100
AcDbLine
10
770.920000000000
20
425.730000000000
30
0.0
11
770.920000000000
21
423.540000000000
31
0.0
0
LINE
5
672
100
AcDbEntity
8
0-00-0
6
CONTINUOUS
62
4
100
AcDbLine
10
767.820000000000
20
424.140000000000
30
0.0
11
770.920000000000
21
425.730000000000
31
0.0
0
LINE
5
673
100
AcDbEntity
8
0-00-0
6
CONTINUOUS
62
4
100
AcDbLine
10
771.770000000000
20
426.220000000000
30
0.0
11
766.970000000000
21
424.630000000000
31
0.0
0
LINE
5
674
100
AcDbEntity
8
0-00-0
6
CONTINUOUS
62
4
100
AcDbLine
10
767.820000000000
20
425.120000000000
30
0.0
11
770.920000000000
21
426.710000000000
31
0.0
0
LINE
5
675
100
AcDbEntity
8
0-00-0
6
CONTINUOUS
62
4
100
AcDbLine
10
767.820000000000
20
424.140000000000
30
0.0
11
766.970000000000
21
424.630000000000
31
0.0
0
LINE
5
676
100
AcDbEntity
8
0-00-0
6
CONTINUOUS
62
4
100
AcDbLine
10
767.820000000000
20
425.120000000000
30
0.0
11
766.970000000000
21
424.630000000000
31
0.0
0
LINE
5
677
100
AcDbEntity
8
0-00-0
6
CONTINUOUS
62
4
100
AcDbLine
10
767.820000000000
20
424.140000000000
30
0.0
11
767.820000000000
21
421.950000000000
31
0.0
0
LINE
5
678
100
AcDbEntity
8
0-00-0
6
CONTINUOUS
62
4
100
AcDbLine
10
770.920000000000
20
428.900000000000
30
0.0
11
771.770000000000
21
429.390000000000
31
0.0
0
LINE
5
679
100
AcDbEntity
8
0-00-0
6
CONTINUOUS
62
4
100
AcDbLine
10
770.920000000000
20
429.890000000000
30
0.0
11
771.770000000000
21
429.390000000000
31
0.0
0
LINE
5
67a
100
AcDbEntity
8
0-00-0
6
CONTINUOUS
62
4
100
AcDbLine
10
770.920000000000
20
428.900000000000
30
0.0
11
770.920000000000
21
426.710000000000
31
0.0
0
LINE
5
67b
100
AcDbEntity
8
0-00-0
6
CONTINUOUS
62
4
100
AcDbLine
10
767.820000000000
20
427.320000000000
30
0.0
11
770.920000000000
21
428.900000000000
31
0.0
0
LINE
5
67c
100
AcDbEntity
8
0-00-0
6
CONTINUOUS
62
4
100
AcDbLine
10
771.770000000000
20
429.390000000000
30
0.0
11
766.970000000000
21
427.810000000000
31
0.0
0
LINE
5
67d
100
AcDbEntity
8
0-00-0
6
CONTINUOUS
62
4
100
AcDbLine
10
767.820000000000
20
428.300000000000
30
0.0
11
770.920000000000
21
429.890000000000
31
0.0
0
LINE
5
67e
100
AcDbEntity
8
0-00-0
6
CONTINUOUS
62
4
100
AcDbLine
10
767.820000000000
20
427.320000000000
30
0.0
11
766.970000000000
21
427.810000000000
31
0.0
0
LINE
5
67f
100
AcDbEntity
8
0-00-0
6
CONTINUOUS
62
4
100
AcDbLine
10
767.820000000000
20
428.300000000000
30
0.0
11
766.970000000000
21
427.810000000000
31
0.0
0
LINE
5
680
100
AcDbEntity
8
0-00-0
6
CONTINUOUS
62
4
100
AcDbLine
10
767.820000000000
20
427.320000000000
30
0.0
11
767.820000000000
21
425.120000000000
31
0.0
0
LINE
5
681
100
AcDbEntity
8
0-00-0
6
CONTINUOUS
62
4
100
AcDbLine
10
770.920000000000
20
432.080000000000
30
0.0
11
771.770000000000
21
432.570000000000
31
0.0
0
LINE
5
682
100
AcDbEntity
8
0-00-0
6
CONTINUOUS
62
4
100
AcDbLine
10
770.920000000000
20
433.060000000000
30
0.0
11
771.770000000000
21
432.570000000000
31
0.0
0
LINE
5
683
100
AcDbEntity
8
0-00-0
6
CONTINUOUS
62
4
100
AcDbLine
10
770.920000000000
20
432.080000000000
30
0.0
11
770.920000000000
21
429.890000000000
31
0.0
0
LINE
5
684
100
AcDbEntity
8
0-00-0
6
CONTINUOUS
62
4
100
AcDbLine
10
767.820000000000
20
430.490000000000
30
0.0
11
770.920000000000
21
432.080000000000
31
0.0
0
LINE
5
685
100
AcDbEntity
8
0-00-0
6
CONTINUOUS
62
4
100
AcDbLine
10
771.770000000000
20
432.570000000000
30
0.0
11
766.970000000000
21
430.980000000000
31
0.0
0
LINE
5
686
100
AcDbEntity
8
0-00-0
6
CONTINUOUS
62
4
100
AcDbLine
10
767.820000000000
20
431.470000000000
30
0.0
11
770.920000000000
21
433.060000000000
31
0.0
0
LINE
5
687
100
AcDbEntity
8
0-00-0
6
CONTINUOUS
62
4
100
AcDbLine
10
767.820000000000
20
430.490000000000
30
0.0
11
766.970000000000
21
430.980000000000
31
0.0
0
LINE
5
688
100
AcDbEntity
8
0-00-0
6
CONTINUOUS
62
4
100
AcDbLine
10
767.820000000000
20
431.470000000000
30
0.0
11
766.970000000000
21
430.980000000000
31
0.0
0
LINE
5
689
100
AcDbEntity
8
0-00-0
6
CONTINUOUS
62
4
100
AcDbLine
10
767.820000000000
20
430.490000000000
30
0.0
11
767.820000000000
21
428.300000000000
31
0.0
0
LINE
5
68a
100
AcDbEntity
8
0-00-0
6
CONTINUOUS
62
4
100
AcDbLine
10
771.360000000000
20
435.510000000000
30
0.0
11
770.920000000000
21
435.250000000000
31
0.0
0
LINE
5
68b
100
AcDbEntity
8
0-00-0
6
CONTINUOUS
62
4
100
AcDbLine
10
771.360000000000
20
435.980000000000
30
0.0
11
770.920000000000
21
436.240000000000
31
0.0
0
LINE
5
68c
100
AcDbEntity
8
0-00-0
6
CONTINUOUS
62
4
100
AcDbLine
10
770.920000000000
20
435.250000000000
30
0.0
11
770.920000000000
21
433.060000000000
31
0.0
0
LINE
5
68d
100
AcDbEntity
8
0-00-0
6
CONTINUOUS
62
4
100
AcDbLine
10
767.820000000000
20
433.670000000000
30
0.0
11
770.920000000000
21
435.250000000000
31
0.0
0
LINE
5
68e
100
AcDbEntity
8
0-00-0
6
CONTINUOUS
62
4
100
AcDbLine
10
767.820000000000
20
434.650000000000
30
0.0
11
770.920000000000
21
436.240000000000
31
0.0
0
LINE
5
68f
100
AcDbEntity
8
0-00-0
6
CONTINUOUS
62
4
100
AcDbLine
10
767.230000000000
20
434.000000000000
30
0.0
11
767.820000000000
21
433.670000000000
31
0.0
0
LINE
5
690
100
AcDbEntity
8
0-00-0
6
CONTINUOUS
62
4
100
AcDbLine
10
767.230000000000
20
434.310000000000
30
0.0
11
767.820000000000
21
434.650000000000
31
0.0
0
LINE
5
691
100
AcDbEntity
8
0-00-0
6
CONTINUOUS
62
4
100
AcDbLine
10
767.820000000000
20
433.670000000000
30
0.0
11
767.820000000000
21
431.470000000000
31
0.0
0
LINE
5
692
100
AcDbEntity
8
0-00-0
6
CONTINUOUS
62
4
100
AcDbLine
10
771.050000000000
20
436.450000000000
30
0.0
11
770.920000000000
21
436.240000000000
31
0.0
0
LINE
5
693
100
AcDbEntity
8
0-00-0
6
CONTINUOUS
62
4
100
AcDbLine
10
767.680000000000
20
436.450000000000
30
0.0
11
767.820000000000
21
434.650000000000
31
0.0
0
LINE
5
694
100
AcDbEntity
8
0-00-0
6
CONTINUOUS
62
4
100
AcDbLine
10
767.230000000000
20
434.310000000000
30
0.0
11
767.230000000000
21
434.000000000000
31
0.0
0
LINE
5
695
100
AcDbEntity
8
0-00-0
6
CONTINUOUS
62
4
100
AcDbLine
10
771.360000000000
20
435.980000000000
30
0.0
11
771.360000000000
21
435.510000000000
31
0.0
0
LINE
5
696
100
AcDbEntity
8
0-00-0
6
CONTINUOUS
62
4
100
AcDbLine
10
771.360000000000
20
435.510000000000
30
0.0
11
767.230000000000
21
434.000000000000
31
0.0
0
LINE
5
697
100
AcDbEntity
8
0-00-0
6
CONTINUOUS
62
4
100
AcDbLine
10
767.230000000000
20
434.310000000000
30
0.0
11
771.360000000000
21
435.980000000000
31
0.0
0
LINE
5
698
100
AcDbEntity
8
0-00-0
6
DOT
62
4
100
AcDbLine
10
771.420000000000
20
440.350000000000
30
0.0
11
770.510000000000
21
438.530000000000
31
0.0
0
LINE
5
699
100
AcDbEntity
8
0-00-0
6
DOT
62
4
100
AcDbLine
10
770.510000000000
20
438.530000000000
30
0.0
11
769.370000000000
21
437.920000000000
31
0.0
0
LINE
5
69a
100
AcDbEntity
8
0-00-0
6
DOT
62
4
100
AcDbLine
10
769.370000000000
20
437.920000000000
30
0.0
11
768.220000000000
21
438.530000000000
31
0.0
0
LINE
5
69b
100
AcDbEntity
8
0-00-0
6
DOT
62
4
100
AcDbLine
10
767.320000000000
20
440.350000000000
30
0.0
11
768.220000000000
21
438.530000000000
31
0.0
0
LINE
5
69c
100
AcDbEntity
8
0-00-0
6
CONTINUOUS
62
4
100
AcDbLine
10
770.010000000000
20
410.240000000000
30
0.0
11
769.140000000000
21
408.450000000000
31
0.0
0
LINE
5
69d
100
AcDbEntity
8
0-00-0
6
CONTINUOUS
62
4
100
AcDbLine
10
770.440000000000
20
409.990000000000
30
0.0
11
769.140000000000
21
408.450000000000
31
0.0
0
LINE
5
69e
100
AcDbEntity
8
0-00-0
6
CONTINUOUS
62
4
100
AcDbLine
10
768.350000000000
20
411.850000000000
30
0.0
11
769.370000000000
21
407.450000000000
31
0.0
0
LINE
5
69f
100
AcDbEntity
8
0-00-0
6
CENTER2
62
4
100
AcDbLine
10
769.370000000000
20
440.350000000000
30
0.0
11
769.370000000000
21
407.450000000000
31
0.0
0
LINE
5
6a0
100
AcDbEntity
8
0-00-0
6
CONTINUOUS
62
4
100
AcDbLine
10
769.770000000000
20
409.210000000000
30
0.0
11
769.370000000000
21
407.450000000000
31
0.0
0
LINE
5
6a1
100
AcDbEntity
8
0-00-0
6
CONTINUOUS
62
3
100
AcDbLine
10
772.550000000000
20
438.950000000000
30
0.0
11
772.550000000000
21
439.450000000000
31
0.0
0
LINE
5
6a2
100
AcDbEntity
8
0-00-0
6
CONTINUOUS
62
3
100
AcDbLine
10
773.550000000000
20
438.950000000000
30
0.0
11
776.490000000000
21
439.940000000000
31
0.0
0
LINE
5
6a3
100
AcDbEntity
8
0-00-0
6
CONTINUOUS
62
3
100
AcDbLine
10
766.120000000000
20
438.950000000000
30
0.0
11
776.420000000000
21
438.950000000000
31
0.0
0
LINE
5
6a4
100
AcDbEntity
8
0-00-0
6
CONTINUOUS
62
3
100
AcDbLine
10
773.470000000000
20
439.450000000000
30
0.0
11
772.550000000000
21
439.450000000000
31
0.0
0
LINE
5
6a5
100
AcDbEntity
8
0-00-0
6
CONTINUOUS
62
3
100
AcDbLine
10
773.470000000000
20
439.450000000000
30
0.0
11
776.420000000000
21
440.450000000000
31
0.0
0
LINE
5
6a6
100
AcDbEntity
8
0-00-0
6
DASHED2
62
7
100
AcDbLine
10
387.630000000000
20
425.450000000000
30
0.0
11
799.330000000000
21
425.450000000000
31
0.0
0
LINE
5
6a7
100
AcDbEntity
8
0-00-0
6
DASHED2
62
7
100
AcDbLine
10
387.630000000000
20
428.450000000000
30
0.0
11
799.330000000000
21
428.450000000000
31
0.0
0
LINE
5
6a8
100
AcDbEntity
8
0-00-0
6
DASHED2
62
7
100
AcDbLine
10
387.630000000000
20
431.450000000000
30
0.0
11
799.330000000000
21
431.450000000000
31
0.0
0
LINE
5
6a9
100
AcDbEntity
8
0-00-0
6
DASHED2
62
7
100
AcDbLine
10
387.630000000000
20
434.450000000000
30
0.0
11
799.330000000000
21
434.450000000000
31
0.0
0
LINE
5
6aa
100
AcDbEntity
8
0-00-0
6
DASHED
62
4
100
AcDbLine
10
387.630000000000
20
438.450000000000
30
0.0
11
799.330000000000
21
438.450000000000
31
0.0
0
LINE
5
6ab
100
AcDbEntity
8
0-00-0
6
CONTINUOUS
62
4
100
AcDbLine
10
455.160000000000
20
329.780000000000
30
0.0
11
515.160000000000
21
329.780000000000
31
0.0
0
LINE
5
6ac
100
AcDbEntity
8
0-00-0
6
CONTINUOUS
62
4
100
AcDbLine
10
455.160000000000
20
324.780000000000
30
0.0
11
455.160000000000
21
329.780000000000
31
0.0
0
LINE
5
6ad
100
AcDbEntity
8
0-00-0
6
CONTINUOUS
62
4
100
AcDbLine
10
515.160000000000
20
324.780000000000
30
0.0
11
515.160000000000
21
329.780000000000
31
0.0
0
LINE
5
6ae
100
AcDbEntity
8
0-00-0
6
CONTINUOUS
62
3
100
AcDbLine
10
455.160000000000
20
319.780000000000
30
0.0
11
455.160000000000
21
319.280000000000
31
0.0
0
LINE
5
6af
100
AcDbEntity
8
0-00-0
6
CONTINUOUS
62
4
100
AcDbLine
10
518.910000000000
20
298.280000000000
30
0.0
11
523.910000000000
21
298.280000000000
31
0.0
0
LINE
5
6b0
100
AcDbEntity
8
0-00-0
6
CONTINUOUS
62
4
100
AcDbLine
10
523.910000000000
20
318.280000000000
30
0.0
11
523.910000000000
21
298.280000000000
31
0.0
0
LINE
5
6b1
100
AcDbEntity
8
0-00-0
6
CONTINUOUS
62
4
100
AcDbLine
10
471.160000000000
20
291.780000000000
30
0.0
11
471.160000000000
21
286.780000000000
31
0.0
0
LINE
5
6b2
100
AcDbEntity
8
0-00-0
6
CONTINUOUS
62
4
100
AcDbLine
10
501.160000000000
20
291.780000000000
30
0.0
11
501.160000000000
21
286.780000000000
31
0.0
0
LINE
5
6b3
100
AcDbEntity
8
0-00-0
6
CONTINUOUS
62
4
100
AcDbLine
10
501.160000000000
20
276.780000000000
30
0.0
11
501.160000000000
21
271.780000000000
31
0.0
0
LINE
5
6b4
100
AcDbEntity
8
0-00-0
6
CONTINUOUS
62
4
100
AcDbLine
10
471.160000000000
20
276.780000000000
30
0.0
11
471.160000000000
21
271.780000000000
31
0.0
0
LINE
5
6b5
100
AcDbEntity
8
0-00-0
6
CONTINUOUS
62
4
100
AcDbLine
10
471.160000000000
20
271.780000000000
30
0.0
11
501.160000000000
21
271.780000000000
31
0.0
0
LINE
5
6b6
100
AcDbEntity
8
0-00-0
6
CONTINUOUS
62
4
100
AcDbLine
10
479.160000000000
20
291.780000000000
30
0.0
11
479.160000000000
21
286.780000000000
31
0.0
0
LINE
5
6b7
100
AcDbEntity
8
0-00-0
6
CONTINUOUS
62
4
100
AcDbLine
10
485.160000000000
20
291.780000000000
30
0.0
11
485.160000000000
21
286.780000000000
31
0.0
0
LINE
5
6b8
100
AcDbEntity
8
0-00-0
6
CONTINUOUS
62
4
100
AcDbLine
10
471.160000000000
20
286.780000000000
30
0.0
11
479.160000000000
21
286.780000000000
31
0.0
0
LINE
5
6b9
100
AcDbEntity
8
0-00-0
6
CONTINUOUS
62
4
100
AcDbLine
10
485.160000000000
20
286.780000000000
30
0.0
11
501.160000000000
21
286.780000000000
31
0.0
0
LINE
5
6ba
100
AcDbEntity
8
0-00-0
6
CONTINUOUS
62
4
100
AcDbLine
10
518.910000000000
20
318.280000000000
30
0.0
11
523.910000000000
21
318.280000000000
31
0.0
0
LINE
5
6bb
100
AcDbEntity
8
0-00-0
6
CONTINUOUS
62
3
100
AcDbLine
10
485.660000000000
20
317.780000000000
30
0.0
11
485.660000000000
21
298.780000000000
31
0.0
0
LINE
5
6bc
100
AcDbEntity
8
0-00-0
6
CONTINUOUS
62
3
100
AcDbLine
10
485.160000000000
20
317.780000000000
30
0.0
11
485.160000000000
21
298.780000000000
31
0.0
0
LINE
5
6bd
100
AcDbEntity
8
0-00-0
6
CONTINUOUS
62
3
100
AcDbLine
10
455.160000000000
20
319.780000000000
30
0.0
11
514.410000000000
21
319.780000000000
31
0.0
0
LINE
5
6be
100
AcDbEntity
8
0-00-0
6
CONTINUOUS
62
3
100
AcDbLine
10
486.160000000000
20
318.280000000000
30
0.0
11
514.410000000000
21
318.280000000000
31
0.0
0
LINE
5
6bf
100
AcDbEntity
8
0-00-0
6
CONTINUOUS
62
3
100
AcDbLine
10
455.160000000000
20
319.280000000000
30
0.0
11
514.410000000000
21
319.280000000000
31
0.0
0
LINE
5
6c0
100
AcDbEntity
8
0-00-0
6
CONTINUOUS
62
3
100
AcDbLine
10
486.160000000000
20
318.780000000000
30
0.0
11
514.410000000000
21
318.780000000000
31
0.0
0
LINE
5
6c1
100
AcDbEntity
8
0-00-0
6
CONTINUOUS
62
3
100
AcDbLine
10
486.160000000000
20
298.280000000000
30
0.0
11
500.410000000000
21
298.280000000000
31
0.0
0
LINE
5
6c2
100
AcDbEntity
8
0-00-0
6
CONTINUOUS
62
3
100
AcDbLine
10
500.410000000000
20
297.780000000000
30
0.0
11
486.160000000000
21
297.780000000000
31
0.0
0
LINE
5
6c3
100
AcDbEntity
8
0-00-0
6
CONTINUOUS
62
3
100
AcDbLine
10
471.910000000000
20
297.780000000000
30
0.0
11
479.160000000000
21
297.780000000000
31
0.0
0
LINE
5
6c4
100
AcDbEntity
8
0-00-0
6
CONTINUOUS
62
3
100
AcDbLine
10
479.160000000000
20
298.280000000000
30
0.0
11
471.910000000000
21
298.280000000000
31
0.0
0
LINE
5
6c5
100
AcDbEntity
8
0-00-0
6
CONTINUOUS
62
3
100
AcDbLine
10
479.160000000000
20
298.280000000000
30
0.0
11
479.160000000000
21
297.780000000000
31
0.0
0
LINE
5
6c6
100
AcDbEntity
8
0-00-0
6
CONTINUOUS
62
3
100
AcDbLine
10
471.910000000000
20
297.280000000000
30
0.0
11
500.410000000000
21
297.280000000000
31
0.0
0
LINE
5
6c7
100
AcDbEntity
8
0-00-0
6
CONTINUOUS
62
3
100
AcDbLine
10
471.910000000000
20
296.780000000000
30
0.0
11
500.410000000000
21
296.780000000000
31
0.0
0
LINE
5
6c8
100
AcDbEntity
8
0-00-0
6
CONTINUOUS
62
3
100
AcDbLine
10
147.460000000000
20
322.780000000000
30
0.0
11
147.460000000000
21
322.280000000000
31
0.0
0
LINE
5
6c9
100
AcDbEntity
8
0-00-0
6
CONTINUOUS
62
3
100
AcDbLine
10
109.460000000000
20
301.780000000000
30
0.0
11
109.460000000000
21
301.280000000000
31
0.0
0
LINE
5
6ca
100
AcDbEntity
8
0-00-0
6
CONTINUOUS
62
3
100
AcDbLine
10
98.460000000000
20
322.280000000000
30
0.0
11
147.460000000000
21
322.280000000000
31
0.0
0
LINE
5
6cb
100
AcDbEntity
8
0-00-0
6
CONTINUOUS
62
3
100
AcDbLine
10
116.460000000000
20
293.280000000000
30
0.0
11
98.460000000000
21
293.280000000000
31
0.0
0
LINE
5
6cc
100
AcDbEntity
8
0-00-0
6
CONTINUOUS
62
3
100
AcDbLine
10
116.960000000000
20
293.780000000000
30
0.0
11
116.960000000000
21
300.780000000000
31
0.0
0
LINE
5
6cd
100
AcDbEntity
8
0-00-0
6
CONTINUOUS
62
3
100
AcDbLine
10
117.460000000000
20
293.780000000000
30
0.0
11
117.460000000000
21
300.780000000000
31
0.0
0
LINE
5
6ce
100
AcDbEntity
8
0-00-0
6
CONTINUOUS
62
3
100
AcDbLine
10
98.460000000000
20
292.780000000000
30
0.0
11
116.460000000000
21
292.780000000000
31
0.0
0
LINE
5
6cf
100
AcDbEntity
8
0-00-0
6
CONTINUOUS
62
3
100
AcDbLine
10
98.460000000000
20
322.780000000000
30
0.0
11
147.460000000000
21
322.780000000000
31
0.0
0
LINE
5
6d0
100
AcDbEntity
8
0-00-0
6
CONTINUOUS
62
4
100
AcDbLine
10
97.460000000000
20
332.780000000000
30
0.0
11
147.460000000000
21
332.780000000000
31
0.0
0
LINE
5
6d1
100
AcDbEntity
8
0-00-0
6
CONTINUOUS
62
4
100
AcDbLine
10
97.460000000000
20
327.780000000000
30
0.0
11
97.460000000000
21
332.780000000000
31
0.0
0
LINE
5
6d2
100
AcDbEntity
8
0-00-0
6
CONTINUOUS
62
4
100
AcDbLine
10
147.460000000000
20
327.780000000000
30
0.0
11
147.460000000000
21
332.780000000000
31
0.0
0
LINE
5
6d3
100
AcDbEntity
8
0-00-0
6
CONTINUOUS
62
4
100
AcDbLine
10
117.460000000000
20
287.780000000000
30
0.0
11
117.460000000000
21
282.780000000000
31
0.0
0
LINE
5
6d4
100
AcDbEntity
8
0-00-0
6
CONTINUOUS
62
4
100
AcDbLine
10
92.460000000000
20
292.780000000000
30
0.0
11
87.460000000000
21
292.780000000000
31
0.0
0
LINE
5
6d5
100
AcDbEntity
8
0-00-0
6
CONTINUOUS
62
4
100
AcDbLine
10
127.460000000000
20
301.780000000000
30
0.0
11
127.460000000000
21
292.780000000000
31
0.0
0
LINE
5
6d6
100
AcDbEntity
8
0-00-0
6
CONTINUOUS
62
4
100
AcDbLine
10
122.460000000000
20
301.780000000000
30
0.0
11
127.460000000000
21
301.780000000000
31
0.0
0
LINE
5
6d7
100
AcDbEntity
8
0-00-0
6
CONTINUOUS
62
4
100
AcDbLine
10
122.460000000000
20
292.780000000000
30
0.0
11
127.460000000000
21
292.780000000000
31
0.0
0
LINE
5
6d8
100
AcDbEntity
8
0-00-0
6
CONTINUOUS
62
4
100
AcDbLine
10
92.460000000000
20
322.780000000000
30
0.0
11
87.460000000000
21
322.780000000000
31
0.0
0
LINE
5
6d9
100
AcDbEntity
8
0-00-0
6
CONTINUOUS
62
4
100
AcDbLine
10
87.460000000000
20
322.780000000000
30
0.0
11
87.460000000000
21
292.780000000000
31
0.0
0
LINE
5
6da
100
AcDbEntity
8
0-00-0
6
CONTINUOUS
62
3
100
AcDbLine
10
97.960000000000
20
293.780000000000
30
0.0
11
97.960000000000
21
321.780000000000
31
0.0
0
LINE
5
6db
100
AcDbEntity
8
0-00-0
6
CONTINUOUS
62
3
100
AcDbLine
10
97.460000000000
20
293.780000000000
30
0.0
11
97.460000000000
21
321.780000000000
31
0.0
0
LINE
5
6dc
100
AcDbEntity
8
0-00-0
6
CONTINUOUS
62
3
100
AcDbLine
10
109.460000000000
20
301.780000000000
30
0.0
11
116.460000000000
21
301.780000000000
31
0.0
0
LINE
5
6dd
100
AcDbEntity
8
0-00-0
6
CONTINUOUS
62
3
100
AcDbLine
10
116.460000000000
20
301.280000000000
30
0.0
11
109.460000000000
21
301.280000000000
31
0.0
0
LINE
5
6de
100
AcDbEntity
8
0-00-0
6
CONTINUOUS
62
4
100
AcDbLine
10
97.460000000000
20
267.780000000000
30
0.0
11
117.460000000000
21
267.780000000000
31
0.0
0
LINE
5
6df
100
AcDbEntity
8
0-00-0
6
CONTINUOUS
62
4
100
AcDbLine
10
97.460000000000
20
272.780000000000
30
0.0
11
97.460000000000
21
267.780000000000
31
0.0
0
LINE
5
6e0
100
AcDbEntity
8
0-00-0
6
CONTINUOUS
62
4
100
AcDbLine
10
117.460000000000
20
272.780000000000
30
0.0
11
117.460000000000
21
267.780000000000
31
0.0
0
LINE
5
6e1
100
AcDbEntity
8
0-00-0
6
CONTINUOUS
62
4
100
AcDbLine
10
109.460000000000
20
287.780000000000
30
0.0
11
109.460000000000
21
282.780000000000
31
0.0
0
LINE
5
6e2
100
AcDbEntity
8
0-00-0
6
CONTINUOUS
62
4
100
AcDbLine
10
109.460000000000
20
282.780000000000
30
0.0
11
117.460000000000
21
282.780000000000
31
0.0
0
LINE
5
6e3
100
AcDbEntity
8
0-00-0
6
CONTINUOUS
62
3
100
AcDbLine
10
478.410000000000
20
188.070000000000
30
0.0
11
478.910000000000
21
188.070000000000
31
0.0
0
LINE
5
6e4
100
AcDbEntity
8
0-00-0
6
CONTINUOUS
62
3
100
AcDbLine
10
436.410000000000
20
111.570000000000
30
0.0
11
436.410000000000
21
111.070000000000
31
0.0
0
LINE
5
6e5
100
AcDbEntity
8
0-00-0
6
CONTINUOUS
62
3
100
AcDbLine
10
451.410000000000
20
90.570000000000
30
0.0
11
451.410000000000
21
83.570000000000
31
0.0
0
LINE
5
6e6
100
AcDbEntity
8
0-00-0
6
CONTINUOUS
62
3
100
AcDbLine
10
460.410000000000
20
111.070000000000
30
0.0
11
436.410000000000
21
111.070000000000
31
0.0
0
LINE
5
6e7
100
AcDbEntity
8
0-00-0
6
CONTINUOUS
62
4
100
AcDbLine
10
468.410000000000
20
188.070000000000
30
0.0
11
468.410000000000
21
148.070000000000
31
0.0
0
LINE
5
6e8
100
AcDbEntity
8
0-00-0
6
CONTINUOUS
62
4
100
AcDbLine
10
473.410000000000
20
188.070000000000
30
0.0
11
468.410000000000
21
188.070000000000
31
0.0
0
LINE
5
6e9
100
AcDbEntity
8
0-00-0
6
CONTINUOUS
62
4
100
AcDbLine
10
473.410000000000
20
148.070000000000
30
0.0
11
468.410000000000
21
148.070000000000
31
0.0
0
LINE
5
6ea
100
AcDbEntity
8
0-00-0
6
CONTINUOUS
62
4
100
AcDbLine
10
478.910000000000
20
158.570000000000
30
0.0
11
513.910000000000
21
158.570000000000
31
0.0
0
LINE
5
6eb
100
AcDbEntity
8
0-00-0
6
CONTINUOUS
62
4
100
AcDbLine
10
513.910000000000
20
153.570000000000
30
0.0
11
513.910000000000
21
158.570000000000
31
0.0
0
LINE
5
6ec
100
AcDbEntity
8
0-00-0
6
CONTINUOUS
62
4
100
AcDbLine
10
436.410000000000
20
136.070000000000
30
0.0
11
461.410000000000
21
136.070000000000
31
0.0
0
LINE
5
6ed
100
AcDbEntity
8
0-00-0
6
CONTINUOUS
62
4
100
AcDbLine
10
450.910000000000
20
117.070000000000
30
0.0
11
450.910000000000
21
122.070000000000
31
0.0
0
LINE
5
6ee
100
AcDbEntity
8
0-00-0
6
CONTINUOUS
62
4
100
AcDbLine
10
461.410000000000
20
117.070000000000
30
0.0
11
461.410000000000
21
122.070000000000
31
0.0
0
LINE
5
6ef
100
AcDbEntity
8
0-00-0
6
CONTINUOUS
62
4
100
AcDbLine
10
450.910000000000
20
122.070000000000
30
0.0
11
460.910000000000
21
122.070000000000
31
0.0
0
LINE
5
6f0
100
AcDbEntity
8
0-00-0
6
CONTINUOUS
62
4
100
AcDbLine
10
443.410000000000
20
82.570000000000
30
0.0
11
443.410000000000
21
91.570000000000
31
0.0
0
LINE
5
6f1
100
AcDbEntity
8
0-00-0
6
CONTINUOUS
62
4
100
AcDbLine
10
448.410000000000
20
82.570000000000
30
0.0
11
443.410000000000
21
82.570000000000
31
0.0
0
LINE
5
6f2
100
AcDbEntity
8
0-00-0
6
CONTINUOUS
62
4
100
AcDbLine
10
448.410000000000
20
91.570000000000
30
0.0
11
443.410000000000
21
91.570000000000
31
0.0
0
LINE
5
6f3
100
AcDbEntity
8
0-00-0
6
CONTINUOUS
62
4
100
AcDbLine
10
466.410000000000
20
91.570000000000
30
0.0
11
471.410000000000
21
91.570000000000
31
0.0
0
LINE
5
6f4
100
AcDbEntity
8
0-00-0
6
CONTINUOUS
62
4
100
AcDbLine
10
518.910000000000
20
145.570000000000
30
0.0
11
523.910000000000
21
145.570000000000
31
0.0
0
LINE
5
6f5
100
AcDbEntity
8
0-00-0
6
CONTINUOUS
62
3
100
AcDbLine
10
436.410000000000
20
111.570000000000
30
0.0
11
460.410000000000
21
111.570000000000
31
0.0
0
LINE
5
6f6
100
AcDbEntity
8
0-00-0
6
CONTINUOUS
62
3
100
AcDbLine
10
451.910000000000
20
91.070000000000
30
0.0
11
460.410000000000
21
91.070000000000
31
0.0
0
LINE
5
6f7
100
AcDbEntity
8
0-00-0
6
CONTINUOUS
62
3
100
AcDbLine
10
460.410000000000
20
91.570000000000
30
0.0
11
451.910000000000
21
91.570000000000
31
0.0
0
LINE
5
6f8
100
AcDbEntity
8
0-00-0
6
CONTINUOUS
62
3
100
AcDbLine
10
450.910000000000
20
90.570000000000
30
0.0
11
450.910000000000
21
83.570000000000
31
0.0
0
LINE
5
6f9
100
AcDbEntity
8
0-00-0
6
CONTINUOUS
62
4
100
AcDbLine
10
128.650000000000
20
153.070000000000
30
0.0
11
128.650000000000
21
148.070000000000
31
0.0
0
LINE
5
6fa
100
AcDbEntity
8
0-00-0
6
CONTINUOUS
62
4
100
AcDbLine
10
140.650000000000
20
183.070000000000
30
0.0
11
140.650000000000
21
188.070000000000
31
0.0
0
LINE
5
6fb
100
AcDbEntity
8
0-00-0
6
CONTINUOUS
62
4
100
AcDbLine
10
80.150000000000
20
178.070000000000
30
0.0
11
75.150000000000
21
178.070000000000
31
0.0
0
LINE
5
6fc
100
AcDbEntity
8
0-00-0
6
CONTINUOUS
62
4
100
AcDbLine
10
150.150000000000
20
178.070000000000
30
0.0
11
155.150000000000
21
178.070000000000
31
0.0
0
LINE
5
6fd
100
AcDbEntity
8
0-00-0
6
CONTINUOUS
62
4
100
AcDbLine
10
164.150000000000
20
178.070000000000
30
0.0
11
169.150000000000
21
178.070000000000
31
0.0
0
LINE
5
6fe
100
AcDbEntity
8
0-00-0
6
CONTINUOUS
62
4
100
AcDbLine
10
106.650000000000
20
123.570000000000
30
0.0
11
111.650000000000
21
123.570000000000
31
0.0
0
LINE
5
6ff
100
AcDbEntity
8
0-00-0
6
CONTINUOUS
62
3
100
AcDbLine
10
607.250000000000
20
145.070000000000
30
0.0
11
607.250000000000
21
144.570000000000
31
0.0
0
LINE
5
700
100
AcDbEntity
8
0-00-0
6
CONTINUOUS
62
3
100
AcDbLine
10
676.750000000000
20
75.570000000000
30
0.0
11
676.250000000000
21
75.570000000000
31
0.0
0
LINE
5
701
100
AcDbEntity
8
0-00-0
6
CONTINUOUS
62
4
100
AcDbLine
10
652.250000000000
20
140.570000000000
30
0.0
11
652.250000000000
21
135.570000000000
31
0.0
0
LINE
5
702
100
AcDbEntity
8
0-00-0
6
CONTINUOUS
62
4
100
AcDbLine
10
696.250000000000
20
124.070000000000
30
0.0
11
696.250000000000
21
126.570000000000
31
0.0
0
LINE
5
703
100
AcDbEntity
8
0-00-0
6
CONTINUOUS
62
4
100
AcDbLine
10
631.750000000000
20
173.070000000000
30
0.0
11
631.750000000000
21
164.070000000000
31
0.0
0
LINE
5
704
100
AcDbEntity
8
0-00-0
6
CONTINUOUS
62
4
100
AcDbLine
10
636.750000000000
20
173.070000000000
30
0.0
11
631.750000000000
21
173.070000000000
31
0.0
0
LINE
5
705
100
AcDbEntity
8
0-00-0
6
CONTINUOUS
62
4
100
AcDbLine
10
636.750000000000
20
164.070000000000
30
0.0
11
631.750000000000
21
164.070000000000
31
0.0
0
LINE
5
706
100
AcDbEntity
8
0-00-0
6
CONTINUOUS
62
4
100
AcDbLine
10
641.750000000000
20
178.070000000000
30
0.0
11
641.750000000000
21
183.070000000000
31
0.0
0
LINE
5
707
100
AcDbEntity
8
0-00-0
6
CONTINUOUS
62
4
100
AcDbLine
10
704.750000000000
20
178.070000000000
30
0.0
11
704.750000000000
21
183.070000000000
31
0.0
0
LINE
5
708
100
AcDbEntity
8
0-00-0
6
CONTINUOUS
62
4
100
AcDbLine
10
710.250000000000
20
110.070000000000
30
0.0
11
715.250000000000
21
110.070000000000
31
0.0
0
LINE
5
709
100
AcDbEntity
8
0-00-0
6
CONTINUOUS
62
4
100
AcDbLine
10
710.250000000000
20
173.070000000000
30
0.0
11
715.250000000000
21
173.070000000000
31
0.0
0
LINE
5
70a
100
AcDbEntity
8
0-00-0
6
CONTINUOUS
62
4
100
AcDbLine
10
704.750000000000
20
100.070000000000
30
0.0
11
695.750000000000
21
100.070000000000
31
0.0
0
LINE
5
70b
100
AcDbEntity
8
0-00-0
6
CONTINUOUS
62
4
100
AcDbLine
10
704.750000000000
20
105.070000000000
30
0.0
11
704.750000000000
21
100.070000000000
31
0.0
0
LINE
5
70c
100
AcDbEntity
8
0-00-0
6
CONTINUOUS
62
4
100
AcDbLine
10
695.750000000000
20
105.070000000000
30
0.0
11
695.750000000000
21
100.070000000000
31
0.0
0
LINE
5
70d
100
AcDbEntity
8
0-00-0
6
CONTINUOUS
62
3
100
AcDbLine
10
651.250000000000
20
145.070000000000
30
0.0
11
607.250000000000
21
145.070000000000
31
0.0
0
LINE
5
70e
100
AcDbEntity
8
0-00-0
6
CONTINUOUS
62
3
100
AcDbLine
10
642.250000000000
20
172.070000000000
30
0.0
11
642.250000000000
21
165.070000000000
31
0.0
0
LINE
5
70f
100
AcDbEntity
8
0-00-0
6
CONTINUOUS
62
3
100
AcDbLine
10
607.250000000000
20
144.570000000000
30
0.0
11
651.250000000000
21
144.570000000000
31
0.0
0
LINE
5
710
100
AcDbEntity
8
0-00-0
6
CONTINUOUS
62
3
100
AcDbLine
10
642.750000000000
20
164.570000000000
30
0.0
11
651.250000000000
21
164.570000000000
31
0.0
0
LINE
5
711
100
AcDbEntity
8
0-00-0
6
CONTINUOUS
62
3
100
AcDbLine
10
651.250000000000
20
164.070000000000
30
0.0
11
642.750000000000
21
164.070000000000
31
0.0
0
LINE
5
712
100
AcDbEntity
8
0-00-0
6
CONTINUOUS
62
3
100
AcDbLine
10
641.750000000000
20
172.070000000000
30
0.0
11
641.750000000000
21
165.070000000000
31
0.0
0
LINE
5
713
100
AcDbEntity
8
0-00-0
6
CONTINUOUS
62
3
100
AcDbLine
10
696.750000000000
20
110.570000000000
30
0.0
11
703.750000000000
21
110.570000000000
31
0.0
0
LINE
5
714
100
AcDbEntity
8
0-00-0
6
CONTINUOUS
62
3
100
AcDbLine
10
676.750000000000
20
119.570000000000
30
0.0
11
676.750000000000
21
75.570000000000
31
0.0
0
LINE
5
715
100
AcDbEntity
8
0-00-0
6
CONTINUOUS
62
3
100
AcDbLine
10
695.750000000000
20
119.570000000000
30
0.0
11
695.750000000000
21
111.070000000000
31
0.0
0
LINE
5
716
100
AcDbEntity
8
0-00-0
6
CONTINUOUS
62
3
100
AcDbLine
10
703.750000000000
20
110.070000000000
30
0.0
11
696.750000000000
21
110.070000000000
31
0.0
0
LINE
5
717
100
AcDbEntity
8
0-00-0
6
CONTINUOUS
62
3
100
AcDbLine
10
696.250000000000
20
111.070000000000
30
0.0
11
696.250000000000
21
119.570000000000
31
0.0
0
LINE
5
718
100
AcDbEntity
8
0-00-0
6
CONTINUOUS
62
3
100
AcDbLine
10
676.250000000000
20
75.570000000000
30
0.0
11
676.250000000000
21
119.570000000000
31
0.0
0
LINE
5
719
100
AcDbEntity
8
0-00-0
6
CONTINUOUS
62
3
100
AcDbLine
10
478.910000000000
20
148.540000000000
30
0.0
11
478.910000000000
21
188.070000000000
31
0.0
0
LINE
5
71a
100
AcDbEntity
8
0-00-0
6
CONTINUOUS
62
3
100
AcDbLine
10
512.940000000000
20
145.140000000000
30
0.0
11
479.330000000000
21
147.540000000000
31
0.0
0
LINE
5
71b
100
AcDbEntity
8
0-00-0
6
CONTINUOUS
62
3
100
AcDbLine
10
478.410000000000
20
188.070000000000
30
0.0
11
478.410000000000
21
148.540000000000
31
0.0
0
LINE
5
71c
100
AcDbEntity
8
0-00-0
6
CONTINUOUS
62
3
100
AcDbLine
10
479.370000000000
20
148.040000000000
30
0.0
11
512.980000000000
21
145.640000000000
31
0.0
0
LINE
5
71d
100
AcDbEntity
8
0-00-0
6
CONTINUOUS
62
4
100
AcDbLine
10
518.910000000000
20
148.570000000000
30
0.0
11
523.910000000000
21
148.570000000000
31
0.0
0
LINE
5
71e
100
AcDbEntity
8
0-00-0
6
CONTINUOUS
62
3
100
AcDbLine
10
461.410000000000
20
110.570000000000
30
0.0
11
461.410000000000
21
92.070000000000
31
0.0
0
LINE
5
71f
100
AcDbEntity
8
0-00-0
6
CONTINUOUS
62
3
100
AcDbLine
10
460.910000000000
20
110.570000000000
30
0.0
11
460.910000000000
21
92.070000000000
31
0.0
0
LINE
5
720
100
AcDbEntity
8
0-00-0
6
CONTINUOUS
62
4
100
AcDbLine
10
466.410000000000
20
111.570000000000
30
0.0
11
471.410000000000
21
111.570000000000
31
0.0
0
LINE
5
721
100
AcDbEntity
8
0-00-0
6
CONTINUOUS
62
4
100
AcDbLine
10
471.410000000000
20
91.570000000000
30
0.0
11
471.410000000000
21
111.570000000000
31
0.0
0
LINE
5
722
100
AcDbEntity
8
0-00-0
6
CONTINUOUS
62
4
100
AcDbLine
10
660.750000000000
20
144.570000000000
30
0.0
11
660.750000000000
21
164.570000000000
31
0.0
0
LINE
5
723
100
AcDbEntity
8
0-00-0
6
CONTINUOUS
62
3
100
AcDbLine
10
651.750000000000
20
163.570000000000
30
0.0
11
651.750000000000
21
145.570000000000
31
0.0
0
LINE
5
724
100
AcDbEntity
8
0-00-0
6
CONTINUOUS
62
3
100
AcDbLine
10
652.250000000000
20
163.570000000000
30
0.0
11
652.250000000000
21
145.570000000000
31
0.0
0
LINE
5
725
100
AcDbEntity
8
0-00-0
6
CONTINUOUS
62
4
100
AcDbLine
10
676.250000000000
20
126.570000000000
30
0.0
11
696.250000000000
21
126.570000000000
31
0.0
0
LINE
5
726
100
AcDbEntity
8
0-00-0
6
CONTINUOUS
62
4
100
AcDbLine
10
676.250000000000
20
124.070000000000
30
0.0
11
676.250000000000
21
126.570000000000
31
0.0
0
LINE
5
727
100
AcDbEntity
8
0-00-0
6
CONTINUOUS
62
3
100
AcDbLine
10
695.250000000000
20
120.570000000000
30
0.0
11
677.250000000000
21
120.570000000000
31
0.0
0
LINE
5
728
100
AcDbEntity
8
0-00-0
6
CONTINUOUS
62
3
100
AcDbLine
10
677.250000000000
20
120.070000000000
30
0.0
11
695.250000000000
21
120.070000000000
31
0.0
0
LINE
5
729
100
AcDbEntity
8
0-00-0
6
CONTINUOUS
62
4
100
AcDbLine
10
128.650000000000
20
148.070000000000
30
0.0
11
128.650000000000
21
143.070000000000
31
0.0
0
LINE
5
72a
100
AcDbEntity
8
0-00-0
6
CONTINUOUS
62
4
100
AcDbLine
10
128.650000000000
20
143.070000000000
30
0.0
11
128.650000000000
21
138.070000000000
31
0.0
0
LINE
5
72b
100
AcDbEntity
8
0-00-0
6
CONTINUOUS
62
4
100
AcDbLine
10
128.650000000000
20
138.070000000000
30
0.0
11
128.650000000000
21
133.070000000000
31
0.0
0
LINE
5
72c
100
AcDbEntity
8
0-00-0
6
CONTINUOUS
62
3
100
AcDbLine
10
146.400000000000
20
160.440000000000
30
0.0
11
146.780000000000
21
159.510000000000
31
0.0
0
LINE
5
72d
100
AcDbEntity
8
0-00-0
6
CONTINUOUS
62
3
100
AcDbLine
10
147.240000000000
20
159.700000000000
30
0.0
11
146.870000000000
21
160.630000000000
31
0.0
0
LINE
5
72e
100
AcDbEntity
8
0-00-0
6
CONTINUOUS
62
3
100
AcDbLine
10
144.550000000000
20
160.440000000000
30
0.0
11
144.170000000000
21
159.510000000000
31
0.0
0
LINE
5
72f
100
AcDbEntity
8
0-00-0
6
CONTINUOUS
62
3
100
AcDbLine
10
143.710000000000
20
159.700000000000
30
0.0
11
144.080000000000
21
160.630000000000
31
0.0
0
LINE
5
730
100
AcDbEntity
8
0-00-0
6
CONTINUOUS
62
3
100
AcDbLine
10
130.470000000000
20
159.070000000000
30
0.0
11
142.780000000000
21
159.070000000000
31
0.0
0
LINE
5
731
100
AcDbEntity
8
0-00-0
6
CONTINUOUS
62
3
100
AcDbLine
10
142.780000000000
20
158.570000000000
30
0.0
11
130.470000000000
21
158.570000000000
31
0.0
0
LINE
5
732
100
AcDbEntity
8
0-00-0
6
CONTINUOUS
62
3
100
AcDbLine
10
158.650000000000
20
158.570000000000
30
0.0
11
158.650000000000
21
159.070000000000
31
0.0
0
LINE
5
733
100
AcDbEntity
8
0-00-0
6
CONTINUOUS
62
4
100
AcDbLine
10
155.150000000000
20
162.070000000000
30
0.0
11
155.150000000000
21
178.070000000000
31
0.0
0
LINE
5
734
100
AcDbEntity
8
0-00-0
6
CONTINUOUS
62
4
100
AcDbLine
10
150.150000000000
20
162.070000000000
30
0.0
11
155.150000000000
21
162.070000000000
31
0.0
0
LINE
5
735
100
AcDbEntity
8
0-00-0
6
CONTINUOUS
62
3
100
AcDbLine
10
148.170000000000
20
159.070000000000
30
0.0
11
158.650000000000
21
159.070000000000
31
0.0
0
LINE
5
736
100
AcDbEntity
8
0-00-0
6
CONTINUOUS
62
3
100
AcDbLine
10
158.650000000000
20
158.570000000000
30
0.0
11
148.170000000000
21
158.570000000000
31
0.0
0
LINE
5
737
100
AcDbEntity
8
0-00-0
6
CONTINUOUS
62
4
100
AcDbLine
10
140.650000000000
20
143.070000000000
30
0.0
11
128.650000000000
21
143.070000000000
31
0.0
0
LINE
5
738
100
AcDbEntity
8
0-00-0
6
CONTINUOUS
62
4
100
AcDbLine
10
140.650000000000
20
153.070000000000
30
0.0
11
140.650000000000
21
148.070000000000
31
0.0
0
LINE
5
739
100
AcDbEntity
8
0-00-0
6
CONTINUOUS
62
4
100
AcDbLine
10
140.650000000000
20
148.070000000000
30
0.0
11
140.650000000000
21
143.070000000000
31
0.0
0
LINE
5
73a
100
AcDbEntity
8
0-00-0
6
CONTINUOUS
62
4
100
AcDbLine
10
158.650000000000
20
153.070000000000
30
0.0
11
158.650000000000
21
133.070000000000
31
0.0
0
LINE
5
73b
100
AcDbEntity
8
0-00-0
6
CONTINUOUS
62
4
100
AcDbLine
10
158.650000000000
20
133.070000000000
30
0.0
11
128.650000000000
21
133.070000000000
31
0.0
0
LINE
5
73c
100
AcDbEntity
8
0-00-0
6
CONTINUOUS
62
4
100
AcDbLine
10
169.150000000000
20
158.570000000000
30
0.0
11
169.150000000000
21
178.070000000000
31
0.0
0
LINE
5
73d
100
AcDbEntity
8
0-00-0
6
CONTINUOUS
62
4
100
AcDbLine
10
164.150000000000
20
158.570000000000
30
0.0
11
169.150000000000
21
158.570000000000
31
0.0
0
LINE
5
73e
100
AcDbEntity
8
0-00-0
6
CONTINUOUS
62
3
100
AcDbLine
10
140.150000000000
20
163.070000000000
30
0.0
11
140.150000000000
21
177.070000000000
31
0.0
0
LINE
5
73f
100
AcDbEntity
8
0-00-0
6
CONTINUOUS
62
3
100
AcDbLine
10
139.650000000000
20
162.570000000000
30
0.0
11
130.470000000000
21
162.570000000000
31
0.0
0
LINE
5
740
100
AcDbEntity
8
0-00-0
6
CONTINUOUS
62
3
100
AcDbLine
10
130.470000000000
20
162.070000000000
30
0.0
11
139.650000000000
21
162.070000000000
31
0.0
0
LINE
5
741
100
AcDbEntity
8
0-00-0
6
CONTINUOUS
62
3
100
AcDbLine
10
140.650000000000
20
177.070000000000
30
0.0
11
140.650000000000
21
163.070000000000
31
0.0
0
LINE
5
742
100
AcDbEntity
8
0-00-0
6
CONTINUOUS
62
4
100
AcDbLine
10
101.650000000000
20
81.570000000000
30
0.0
11
101.650000000000
21
76.570000000000
31
0.0
0
LINE
5
743
100
AcDbEntity
8
0-00-0
6
CONTINUOUS
62
4
100
AcDbLine
10
101.650000000000
20
76.570000000000
30
0.0
11
85.650000000000
21
76.570000000000
31
0.0
0
LINE
5
744
100
AcDbEntity
8
0-00-0
6
CONTINUOUS
62
4
100
AcDbLine
10
85.650000000000
20
81.570000000000
30
0.0
11
85.650000000000
21
76.570000000000
31
0.0
0
LINE
5
745
100
AcDbEntity
8
0-00-0
6
CONTINUOUS
62
4
100
AcDbLine
10
111.650000000000
20
86.570000000000
30
0.0
11
111.650000000000
21
123.570000000000
31
0.0
0
LINE
5
746
100
AcDbEntity
8
0-00-0
6
CONTINUOUS
62
4
100
AcDbLine
10
106.650000000000
20
86.570000000000
30
0.0
11
111.650000000000
21
86.570000000000
31
0.0
0
LINE
5
747
100
AcDbEntity
8
0-00-0
6
CONTINUOUS
62
3
100
AcDbLine
10
101.650000000000
20
122.570000000000
30
0.0
11
101.650000000000
21
86.570000000000
31
0.0
0
LINE
5
748
100
AcDbEntity
8
0-00-0
6
CONTINUOUS
62
3
100
AcDbLine
10
101.650000000000
20
86.570000000000
30
0.0
11
101.150000000000
21
86.570000000000
31
0.0
0
LINE
5
749
100
AcDbEntity
8
0-00-0
6
CONTINUOUS
62
3
100
AcDbLine
10
101.150000000000
20
122.570000000000
30
0.0
11
101.150000000000
21
86.570000000000
31
0.0
0
LINE
5
74a
100
AcDbEntity
8
0-00-0
6
CONTINUOUS
62
3
100
AcDbLine
10
85.650000000000
20
177.070000000000
30
0.0
11
85.650000000000
21
124.070000000000
31
0.0
0
LINE
5
74b
100
AcDbEntity
8
0-00-0
6
CONTINUOUS
62
3
100
AcDbLine
10
86.150000000000
20
124.070000000000
30
0.0
11
86.150000000000
21
177.070000000000
31
0.0
0
LINE
5
74c
100
AcDbEntity
8
0-00-0
6
CONTINUOUS
62
3
100
AcDbLine
10
86.650000000000
20
123.570000000000
30
0.0
11
100.650000000000
21
123.570000000000
31
0.0
0
LINE
5
74d
100
AcDbEntity
8
0-00-0
6
CONTINUOUS
62
3
100
AcDbLine
10
100.650000000000
20
123.070000000000
30
0.0
11
86.650000000000
21
123.070000000000
31
0.0
0
LINE
5
74e
100
AcDbEntity
8
0-00-0
6
CONTINUOUS
62
4
100
AcDbLine
10
140.650000000000
20
188.070000000000
30
0.0
11
85.650000000000
21
188.070000000000
31
0.0
0
LINE
5
74f
100
AcDbEntity
8
0-00-0
6
CONTINUOUS
62
4
100
AcDbLine
10
85.650000000000
20
183.070000000000
30
0.0
11
85.650000000000
21
188.070000000000
31
0.0
0
LINE
5
750
100
AcDbEntity
8
0-00-0
6
CONTINUOUS
62
4
100
AcDbLine
10
75.150000000000
20
123.070000000000
30
0.0
11
75.150000000000
21
178.070000000000
31
0.0
0
LINE
5
751
100
AcDbEntity
8
0-00-0
6
CONTINUOUS
62
4
100
AcDbLine
10
80.150000000000
20
123.070000000000
30
0.0
11
75.150000000000
21
123.070000000000
31
0.0
0
LINE
5
752
100
AcDbEntity
8
0-00-0
6
CONTINUOUS
62
3
100
AcDbLine
10
139.650000000000
20
178.070000000000
30
0.0
11
86.650000000000
21
178.070000000000
31
0.0
0
LINE
5
753
100
AcDbEntity
8
0-00-0
6
CONTINUOUS
62
3
100
AcDbLine
10
86.650000000000
20
177.570000000000
30
0.0
11
139.650000000000
21
177.570000000000
31
0.0
0
LINE
5
754
100
AcDbEntity
8
0-00-0
6
CONTINUOUS
62
4
100
AcDbLine
10
373.060000000000
20
147.570000000000
30
0.0
11
378.060000000000
21
147.570000000000
31
0.0
0
LINE
5
755
100
AcDbEntity
8
0-00-0
6
CONTINUOUS
62
4
100
AcDbLine
10
343.060000000000
20
159.570000000000
30
0.0
11
338.060000000000
21
159.570000000000
31
0.0
0
LINE
5
756
100
AcDbEntity
8
0-00-0
6
CONTINUOUS
62
4
100
AcDbLine
10
348.060000000000
20
169.070000000000
30
0.0
11
348.060000000000
21
174.070000000000
31
0.0
0
LINE
5
757
100
AcDbEntity
8
0-00-0
6
CONTINUOUS
62
4
100
AcDbLine
10
348.060000000000
20
183.070000000000
30
0.0
11
348.060000000000
21
188.070000000000
31
0.0
0
LINE
5
758
100
AcDbEntity
8
0-00-0
6
CONTINUOUS
62
4
100
AcDbLine
10
378.060000000000
20
147.570000000000
30
0.0
11
383.060000000000
21
147.570000000000
31
0.0
0
LINE
5
759
100
AcDbEntity
8
0-00-0
6
CONTINUOUS
62
4
100
AcDbLine
10
383.060000000000
20
147.570000000000
30
0.0
11
388.060000000000
21
147.570000000000
31
0.0
0
LINE
5
75a
100
AcDbEntity
8
0-00-0
6
CONTINUOUS
62
4
100
AcDbLine
10
388.060000000000
20
147.570000000000
30
0.0
11
393.060000000000
21
147.570000000000
31
0.0
0
LINE
5
75b
100
AcDbEntity
8
0-00-0
6
CONTINUOUS
62
3
100
AcDbLine
10
365.690000000000
20
165.320000000000
30
0.0
11
366.620000000000
21
165.700000000000
31
0.0
0
LINE
5
75c
100
AcDbEntity
8
0-00-0
6
CONTINUOUS
62
3
100
AcDbLine
10
366.440000000000
20
166.160000000000
30
0.0
11
365.500000000000
21
165.780000000000
31
0.0
0
LINE
5
75d
100
AcDbEntity
8
0-00-0
6
CONTINUOUS
62
3
100
AcDbLine
10
365.690000000000
20
163.470000000000
30
0.0
11
366.620000000000
21
163.090000000000
31
0.0
0
LINE
5
75e
100
AcDbEntity
8
0-00-0
6
CONTINUOUS
62
3
100
AcDbLine
10
366.440000000000
20
162.630000000000
30
0.0
11
365.500000000000
21
163.000000000000
31
0.0
0
LINE
5
75f
100
AcDbEntity
8
0-00-0
6
CONTINUOUS
62
3
100
AcDbLine
10
367.060000000000
20
149.390000000000
30
0.0
11
367.060000000000
21
161.700000000000
31
0.0
0
LINE
5
760
100
AcDbEntity
8
0-00-0
6
CONTINUOUS
62
3
100
AcDbLine
10
367.560000000000
20
161.700000000000
30
0.0
11
367.560000000000
21
149.390000000000
31
0.0
0
LINE
5
761
100
AcDbEntity
8
0-00-0
6
CONTINUOUS
62
3
100
AcDbLine
10
367.560000000000
20
177.570000000000
30
0.0
11
367.060000000000
21
177.570000000000
31
0.0
0
LINE
5
762
100
AcDbEntity
8
0-00-0
6
CONTINUOUS
62
4
100
AcDbLine
10
364.060000000000
20
174.070000000000
30
0.0
11
348.060000000000
21
174.070000000000
31
0.0
0
LINE
5
763
100
AcDbEntity
8
0-00-0
6
CONTINUOUS
62
4
100
AcDbLine
10
364.060000000000
20
169.070000000000
30
0.0
11
364.060000000000
21
174.070000000000
31
0.0
0
LINE
5
764
100
AcDbEntity
8
0-00-0
6
CONTINUOUS
62
3
100
AcDbLine
10
367.060000000000
20
167.090000000000
30
0.0
11
367.060000000000
21
177.570000000000
31
0.0
0
LINE
5
765
100
AcDbEntity
8
0-00-0
6
CONTINUOUS
62
3
100
AcDbLine
10
367.560000000000
20
177.570000000000
30
0.0
11
367.560000000000
21
167.090000000000
31
0.0
0
LINE
5
766
100
AcDbEntity
8
0-00-0
6
CONTINUOUS
62
4
100
AcDbLine
10
383.060000000000
20
159.570000000000
30
0.0
11
383.060000000000
21
147.570000000000
31
0.0
0
LINE
5
767
100
AcDbEntity
8
0-00-0
6
CONTINUOUS
62
4
100
AcDbLine
10
373.060000000000
20
159.570000000000
30
0.0
11
378.060000000000
21
159.570000000000
31
0.0
0
LINE
5
768
100
AcDbEntity
8
0-00-0
6
CONTINUOUS
62
4
100
AcDbLine
10
378.060000000000
20
159.570000000000
30
0.0
11
383.060000000000
21
159.570000000000
31
0.0
0
LINE
5
769
100
AcDbEntity
8
0-00-0
6
CONTINUOUS
62
4
100
AcDbLine
10
373.060000000000
20
177.570000000000
30
0.0
11
393.060000000000
21
177.570000000000
31
0.0
0
LINE
5
76a
100
AcDbEntity
8
0-00-0
6
CONTINUOUS
62
4
100
AcDbLine
10
393.060000000000
20
177.570000000000
30
0.0
11
393.060000000000
21
147.570000000000
31
0.0
0
LINE
5
76b
100
AcDbEntity
8
0-00-0
6
CONTINUOUS
62
4
100
AcDbLine
10
367.560000000000
20
188.070000000000
30
0.0
11
348.060000000000
21
188.070000000000
31
0.0
0
LINE
5
76c
100
AcDbEntity
8
0-00-0
6
CONTINUOUS
62
4
100
AcDbLine
10
367.560000000000
20
183.070000000000
30
0.0
11
367.560000000000
21
188.070000000000
31
0.0
0
LINE
5
76d
100
AcDbEntity
8
0-00-0
6
CONTINUOUS
62
3
100
AcDbLine
10
363.060000000000
20
159.070000000000
30
0.0
11
349.060000000000
21
159.070000000000
31
0.0
0
LINE
5
76e
100
AcDbEntity
8
0-00-0
6
CONTINUOUS
62
3
100
AcDbLine
10
363.560000000000
20
158.570000000000
30
0.0
11
363.560000000000
21
149.390000000000
31
0.0
0
LINE
5
76f
100
AcDbEntity
8
0-00-0
6
CONTINUOUS
62
3
100
AcDbLine
10
364.060000000000
20
149.390000000000
30
0.0
11
364.060000000000
21
158.570000000000
31
0.0
0
LINE
5
770
100
AcDbEntity
8
0-00-0
6
CONTINUOUS
62
3
100
AcDbLine
10
349.060000000000
20
159.570000000000
30
0.0
11
363.060000000000
21
159.570000000000
31
0.0
0
LINE
5
771
100
AcDbEntity
8
0-00-0
6
CONTINUOUS
62
4
100
AcDbLine
10
338.060000000000
20
159.570000000000
30
0.0
11
338.060000000000
21
104.570000000000
31
0.0
0
LINE
5
772
100
AcDbEntity
8
0-00-0
6
CONTINUOUS
62
4
100
AcDbLine
10
293.560000000000
20
83.570000000000
30
0.0
11
293.560000000000
21
78.570000000000
31
0.0
0
LINE
5
773
100
AcDbEntity
8
0-00-0
6
CONTINUOUS
62
4
100
AcDbLine
10
251.560000000000
20
88.570000000000
30
0.0
11
246.560000000000
21
88.570000000000
31
0.0
0
LINE
5
774
100
AcDbEntity
8
0-00-0
6
CONTINUOUS
62
4
100
AcDbLine
10
246.560000000000
20
88.570000000000
30
0.0
11
246.560000000000
21
104.570000000000
31
0.0
0
LINE
5
775
100
AcDbEntity
8
0-00-0
6
CONTINUOUS
62
4
100
AcDbLine
10
251.560000000000
20
104.570000000000
30
0.0
11
246.560000000000
21
104.570000000000
31
0.0
0
LINE
5
776
100
AcDbEntity
8
0-00-0
6
CONTINUOUS
62
4
100
AcDbLine
10
256.560000000000
20
78.570000000000
30
0.0
11
293.560000000000
21
78.570000000000
31
0.0
0
LINE
5
777
100
AcDbEntity
8
0-00-0
6
CONTINUOUS
62
4
100
AcDbLine
10
256.560000000000
20
83.570000000000
30
0.0
11
256.560000000000
21
78.570000000000
31
0.0
0
LINE
5
778
100
AcDbEntity
8
0-00-0
6
CONTINUOUS
62
3
100
AcDbLine
10
292.560000000000
20
88.570000000000
30
0.0
11
256.560000000000
21
88.570000000000
31
0.0
0
LINE
5
779
100
AcDbEntity
8
0-00-0
6
CONTINUOUS
62
3
100
AcDbLine
10
256.560000000000
20
88.570000000000
30
0.0
11
256.560000000000
21
89.070000000000
31
0.0
0
LINE
5
77a
100
AcDbEntity
8
0-00-0
6
CONTINUOUS
62
3
100
AcDbLine
10
292.560000000000
20
89.070000000000
30
0.0
11
256.560000000000
21
89.070000000000
31
0.0
0
LINE
5
77b
100
AcDbEntity
8
0-00-0
6
CONTINUOUS
62
3
100
AcDbLine
10
293.560000000000
20
103.570000000000
30
0.0
11
293.560000000000
21
89.570000000000
31
0.0
0
LINE
5
77c
100
AcDbEntity
8
0-00-0
6
CONTINUOUS
62
3
100
AcDbLine
10
293.060000000000
20
89.570000000000
30
0.0
11
293.060000000000
21
103.570000000000
31
0.0
0
LINE
5
77d
100
AcDbEntity
8
0-00-0
6
CONTINUOUS
62
4
100
AcDbLine
10
293.060000000000
20
115.070000000000
30
0.0
11
348.060000000000
21
115.070000000000
31
0.0
0
LINE
5
77e
100
AcDbEntity
8
0-00-0
6
CONTINUOUS
62
4
100
AcDbLine
10
293.060000000000
20
110.070000000000
30
0.0
11
293.060000000000
21
115.070000000000
31
0.0
0
LINE
5
77f
100
AcDbEntity
8
0-00-0
6
CONTINUOUS
62
3
100
AcDbLine
10
347.560000000000
20
104.570000000000
30
0.0
11
294.060000000000
21
104.570000000000
31
0.0
0
LINE
5
780
100
AcDbEntity
8
0-00-0
6
CONTINUOUS
62
3
100
AcDbLine
10
348.060000000000
20
105.070000000000
30
0.0
11
348.060000000000
21
158.570000000000
31
0.0
0
LINE
5
781
100
AcDbEntity
8
0-00-0
6
CONTINUOUS
62
3
100
AcDbLine
10
348.560000000000
20
105.070000000000
30
0.0
11
348.560000000000
21
158.570000000000
31
0.0
0
LINE
5
782
100
AcDbEntity
8
0-00-0
6
CONTINUOUS
62
3
100
AcDbLine
10
294.060000000000
20
104.070000000000
30
0.0
11
347.560000000000
21
104.070000000000
31
0.0
0
LINE
5
783
100
AcDbEntity
8
0-00-0
6
CONTINUOUS
62
4
100
AcDbLine
10
641.750000000000
20
183.070000000000
30
0.0
11
704.750000000000
21
183.070000000000
31
0.0
0
LINE
5
784
100
AcDbEntity
8
0-00-0
6
CONTINUOUS
62
4
100
AcDbLine
10
715.250000000000
20
110.070000000000
30
0.0
11
715.250000000000
21
173.070000000000
31
0.0
0
LINE
5
785
100
AcDbEntity
8
0-00-0
6
CONTINUOUS
62
3
100
AcDbLine
10
642.750000000000
20
173.070000000000
30
0.0
11
703.750000000000
21
173.070000000000
31
0.0
0
LINE
5
786
100
AcDbEntity
8
0-00-0
6
CONTINUOUS
62
3
100
AcDbLine
10
703.750000000000
20
172.570000000000
30
0.0
11
642.750000000000
21
172.570000000000
31
0.0
0
LINE
5
787
100
AcDbEntity
8
0-00-0
6
CONTINUOUS
62
3
100
AcDbLine
10
704.750000000000
20
111.070000000000
30
0.0
11
704.750000000000
21
172.070000000000
31
0.0
0
LINE
5
788
100
AcDbEntity
8
0-00-0
6
CONTINUOUS
62
3
100
AcDbLine
10
704.250000000000
20
111.070000000000
30
0.0
11
704.250000000000
21
172.070000000000
31
0.0
0
LINE
5
789
100
AcDbEntity
8
0-00-0
6
CONTINUOUS
62
4
100
AcDbLine
10
607.250000000000
20
124.570000000000
30
0.0
11
652.250000000000
21
124.570000000000
31
0.0
0
LINE
5
78a
100
AcDbEntity
8
0-00-0
6
CONTINUOUS
62
4
100
AcDbLine
10
607.250000000000
20
129.570000000000
30
0.0
11
607.250000000000
21
124.570000000000
31
0.0
0
LINE
5
78b
100
AcDbEntity
8
0-00-0
6
CONTINUOUS
62
4
100
AcDbLine
10
652.250000000000
20
129.570000000000
30
0.0
11
652.250000000000
21
124.570000000000
31
0.0
0
LINE
5
78c
100
AcDbEntity
8
0-00-0
6
CONTINUOUS
62
4
100
AcDbLine
10
641.750000000000
20
140.570000000000
30
0.0
11
641.750000000000
21
135.570000000000
31
0.0
0
LINE
5
78d
100
AcDbEntity
8
0-00-0
6
CONTINUOUS
62
4
100
AcDbLine
10
641.750000000000
20
135.570000000000
30
0.0
11
652.250000000000
21
135.570000000000
31
0.0
0
LINE
5
78e
100
AcDbEntity
8
0-00-0
6
CONTINUOUS
62
4
100
AcDbLine
10
672.250000000000
20
120.570000000000
30
0.0
11
667.250000000000
21
120.570000000000
31
0.0
0
LINE
5
78f
100
AcDbEntity
8
0-00-0
6
CONTINUOUS
62
4
100
AcDbLine
10
656.250000000000
20
75.570000000000
30
0.0
11
656.250000000000
21
120.570000000000
31
0.0
0
LINE
5
790
100
AcDbEntity
8
0-00-0
6
CONTINUOUS
62
4
100
AcDbLine
10
661.250000000000
20
75.570000000000
30
0.0
11
656.250000000000
21
75.570000000000
31
0.0
0
LINE
5
791
100
AcDbEntity
8
0-00-0
6
CONTINUOUS
62
4
100
AcDbLine
10
661.250000000000
20
120.570000000000
30
0.0
11
656.250000000000
21
120.570000000000
31
0.0
0
LINE
5
792
100
AcDbEntity
8
0-00-0
6
CONTINUOUS
62
4
100
AcDbLine
10
672.250000000000
20
110.070000000000
30
0.0
11
667.250000000000
21
110.070000000000
31
0.0
0
LINE
5
793
100
AcDbEntity
8
0-00-0
6
CONTINUOUS
62
4
100
AcDbLine
10
667.250000000000
20
110.070000000000
30
0.0
11
667.250000000000
21
120.570000000000
31
0.0
0
LINE
5
794
100
AcDbEntity
8
0-00-0
6
CONTINUOUS
62
4
100
AcDbLine
10
660.750000000000
20
164.570000000000
30
0.0
11
655.750000000000
21
164.570000000000
31
0.0
0
LINE
5
795
100
AcDbEntity
8
0-00-0
6
CONTINUOUS
62
4
100
AcDbLine
10
660.750000000000
20
144.570000000000
30
0.0
11
655.750000000000
21
144.570000000000
31
0.0
0
LINE
5
796
100
AcDbEntity
8
0-00-0
6
CONTINUOUS
62
4
100
AcDbLine
10
513.910000000000
20
77.570000000000
30
0.0
11
513.910000000000
21
72.570000000000
31
0.0
0
LINE
5
797
100
AcDbEntity
8
0-00-0
6
CONTINUOUS
62
4
100
AcDbLine
10
436.410000000000
20
131.070000000000
30
0.0
11
436.410000000000
21
136.070000000000
31
0.0
0
LINE
5
798
100
AcDbEntity
8
0-00-0
6
CONTINUOUS
62
4
100
AcDbLine
10
461.410000000000
20
131.070000000000
30
0.0
11
461.410000000000
21
136.070000000000
31
0.0
0
LINE
5
799
100
AcDbEntity
8
0-00-0
6
CONTINUOUS
62
4
100
AcDbLine
10
450.910000000000
20
77.570000000000
30
0.0
11
450.910000000000
21
72.570000000000
31
0.0
0
LINE
5
79a
100
AcDbEntity
8
0-00-0
6
CONTINUOUS
62
4
100
AcDbLine
10
450.910000000000
20
72.570000000000
30
0.0
11
513.910000000000
21
72.570000000000
31
0.0
0
LINE
5
79b
100
AcDbEntity
8
0-00-0
6
CONTINUOUS
62
4
100
AcDbLine
10
518.910000000000
20
82.570000000000
30
0.0
11
523.910000000000
21
82.570000000000
31
0.0
0
LINE
5
79c
100
AcDbEntity
8
0-00-0
6
CONTINUOUS
62
4
100
AcDbLine
10
523.910000000000
20
82.570000000000
30
0.0
11
523.910000000000
21
148.570000000000
31
0.0
0
LINE
5
79d
100
AcDbEntity
8
0-00-0
6
CONTINUOUS
62
3
100
AcDbLine
10
451.910000000000
20
83.070000000000
30
0.0
11
512.910000000000
21
83.070000000000
31
0.0
0
LINE
5
79e
100
AcDbEntity
8
0-00-0
6
CONTINUOUS
62
3
100
AcDbLine
10
513.410000000000
20
144.640000000000
30
0.0
11
513.410000000000
21
83.570000000000
31
0.0
0
LINE
5
79f
100
AcDbEntity
8
0-00-0
6
CONTINUOUS
62
3
100
AcDbLine
10
451.910000000000
20
82.570000000000
30
0.0
11
512.910000000000
21
82.570000000000
31
0.0
0
LINE
5
7a0
100
AcDbEntity
8
0-00-0
6
CONTINUOUS
62
3
100
AcDbLine
10
513.910000000000
20
144.640000000000
30
0.0
11
513.910000000000
21
83.570000000000
31
0.0
0
LINE
5
7a1
100
AcDbEntity
8
0-00-0
6
CONTINUOUS
62
3
100
AcDbLine
10
641.750000000000
20
332.780000000000
30
0.0
11
642.250000000000
21
332.780000000000
31
0.0
0
LINE
5
7a2
100
AcDbEntity
8
0-00-0
6
CONTINUOUS
62
3
100
AcDbLine
10
662.750000000000
20
263.480000000000
30
0.0
11
663.250000000000
21
263.480000000000
31
0.0
0
LINE
5
7a3
100
AcDbEntity
8
0-00-0
6
CONTINUOUS
62
3
100
AcDbLine
10
642.250000000000
20
283.780000000000
30
0.0
11
642.250000000000
21
332.780000000000
31
0.0
0
LINE
5
7a4
100
AcDbEntity
8
0-00-0
6
CONTINUOUS
62
3
100
AcDbLine
10
670.750000000000
20
255.980000000000
30
0.0
11
663.750000000000
21
255.980000000000
31
0.0
0
LINE
5
7a5
100
AcDbEntity
8
0-00-0
6
CONTINUOUS
62
3
100
AcDbLine
10
670.750000000000
20
255.480000000000
30
0.0
11
663.750000000000
21
255.480000000000
31
0.0
0
LINE
5
7a6
100
AcDbEntity
8
0-00-0
6
CONTINUOUS
62
3
100
AcDbLine
10
641.750000000000
20
283.780000000000
30
0.0
11
641.750000000000
21
332.780000000000
31
0.0
0
LINE
5
7a7
100
AcDbEntity
8
0-00-0
6
CONTINUOUS
62
4
100
AcDbLine
10
631.750000000000
20
282.780000000000
30
0.0
11
631.750000000000
21
332.780000000000
31
0.0
0
LINE
5
7a8
100
AcDbEntity
8
0-00-0
6
CONTINUOUS
62
4
100
AcDbLine
10
636.750000000000
20
282.780000000000
30
0.0
11
631.750000000000
21
282.780000000000
31
0.0
0
LINE
5
7a9
100
AcDbEntity
8
0-00-0
6
CONTINUOUS
62
4
100
AcDbLine
10
636.750000000000
20
332.780000000000
30
0.0
11
631.750000000000
21
332.780000000000
31
0.0
0
LINE
5
7aa
100
AcDbEntity
8
0-00-0
6
CONTINUOUS
62
4
100
AcDbLine
10
660.250000000000
20
263.480000000000
30
0.0
11
655.250000000000
21
263.480000000000
31
0.0
0
LINE
5
7ab
100
AcDbEntity
8
0-00-0
6
CONTINUOUS
62
4
100
AcDbLine
10
660.250000000000
20
255.480000000000
30
0.0
11
655.250000000000
21
255.480000000000
31
0.0
0
LINE
5
7ac
100
AcDbEntity
8
0-00-0
6
CONTINUOUS
62
4
100
AcDbLine
10
676.750000000000
20
280.480000000000
30
0.0
11
681.750000000000
21
280.480000000000
31
0.0
0
LINE
5
7ad
100
AcDbEntity
8
0-00-0
6
CONTINUOUS
62
4
100
AcDbLine
10
662.750000000000
20
245.480000000000
30
0.0
11
671.750000000000
21
245.480000000000
31
0.0
0
LINE
5
7ae
100
AcDbEntity
8
0-00-0
6
CONTINUOUS
62
4
100
AcDbLine
10
662.750000000000
20
250.480000000000
30
0.0
11
662.750000000000
21
245.480000000000
31
0.0
0
LINE
5
7af
100
AcDbEntity
8
0-00-0
6
CONTINUOUS
62
4
100
AcDbLine
10
671.750000000000
20
250.480000000000
30
0.0
11
671.750000000000
21
245.480000000000
31
0.0
0
LINE
5
7b0
100
AcDbEntity
8
0-00-0
6
CONTINUOUS
62
4
100
AcDbLine
10
676.750000000000
20
255.480000000000
30
0.0
11
681.750000000000
21
255.480000000000
31
0.0
0
LINE
5
7b1
100
AcDbEntity
8
0-00-0
6
CONTINUOUS
62
4
100
AcDbLine
10
676.750000000000
20
283.480000000000
30
0.0
11
681.750000000000
21
283.480000000000
31
0.0
0
LINE
5
7b2
100
AcDbEntity
8
0-00-0
6
CONTINUOUS
62
3
100
AcDbLine
10
671.250000000000
20
279.570000000000
30
0.0
11
671.250000000000
21
256.480000000000
31
0.0
0
LINE
5
7b3
100
AcDbEntity
8
0-00-0
6
CONTINUOUS
62
3
100
AcDbLine
10
671.750000000000
20
279.570000000000
30
0.0
11
671.750000000000
21
256.480000000000
31
0.0
0
LINE
5
7b4
100
AcDbEntity
8
0-00-0
6
CONTINUOUS
62
4
100
AcDbLine
10
681.750000000000
20
283.480000000000
30
0.0
11
681.750000000000
21
255.480000000000
31
0.0
0
LINE
5
7b5
100
AcDbEntity
8
0-00-0
6
CONTINUOUS
62
4
100
AcDbLine
10
671.750000000000
20
288.280000000000
30
0.0
11
671.750000000000
21
293.280000000000
31
0.0
0
LINE
5
7b6
100
AcDbEntity
8
0-00-0
6
CONTINUOUS
62
4
100
AcDbLine
10
642.250000000000
20
293.280000000000
30
0.0
11
671.750000000000
21
293.280000000000
31
0.0
0
LINE
5
7b7
100
AcDbEntity
8
0-00-0
6
CONTINUOUS
62
3
100
AcDbLine
10
642.710000000000
20
283.280000000000
30
0.0
11
670.850000000000
21
280.560000000000
31
0.0
0
LINE
5
7b8
100
AcDbEntity
8
0-00-0
6
CONTINUOUS
62
3
100
AcDbLine
10
670.800000000000
20
280.070000000000
30
0.0
11
642.680000000000
21
282.780000000000
31
0.0
0
LINE
5
7b9
100
AcDbEntity
8
0-00-0
6
CONTINUOUS
62
4
100
AcDbLine
10
655.250000000000
20
263.480000000000
30
0.0
11
655.250000000000
21
255.480000000000
31
0.0
0
LINE
5
7ba
100
AcDbEntity
8
0-00-0
6
CONTINUOUS
62
3
100
AcDbLine
10
662.750000000000
20
263.480000000000
30
0.0
11
662.750000000000
21
256.480000000000
31
0.0
0
LINE
5
7bb
100
AcDbEntity
8
0-00-0
6
CONTINUOUS
62
3
100
AcDbLine
10
663.250000000000
20
256.480000000000
30
0.0
11
663.250000000000
21
263.480000000000
31
0.0
0
LINE
5
7bc
100
AcDbEntity
8
0-00-0
6
CONTINUOUS
62
3
100
AcDbLine
10
335.370000000000
20
322.780000000000
30
0.0
11
335.370000000000
21
322.280000000000
31
0.0
0
LINE
5
7bd
100
AcDbEntity
8
0-00-0
6
CONTINUOUS
62
3
100
AcDbLine
10
301.370000000000
20
293.280000000000
30
0.0
11
283.370000000000
21
293.280000000000
31
0.0
0
LINE
5
7be
100
AcDbEntity
8
0-00-0
6
CONTINUOUS
62
3
100
AcDbLine
10
301.870000000000
20
293.780000000000
30
0.0
11
301.870000000000
21
300.780000000000
31
0.0
0
LINE
5
7bf
100
AcDbEntity
8
0-00-0
6
CONTINUOUS
62
3
100
AcDbLine
10
302.370000000000
20
293.780000000000
30
0.0
11
302.370000000000
21
300.780000000000
31
0.0
0
LINE
5
7c0
100
AcDbEntity
8
0-00-0
6
CONTINUOUS
62
3
100
AcDbLine
10
283.370000000000
20
292.780000000000
30
0.0
11
301.370000000000
21
292.780000000000
31
0.0
0
LINE
5
7c1
100
AcDbEntity
8
0-00-0
6
CONTINUOUS
62
4
100
AcDbLine
10
282.370000000000
20
327.780000000000
30
0.0
11
282.370000000000
21
332.780000000000
31
0.0
0
LINE
5
7c2
100
AcDbEntity
8
0-00-0
6
CONTINUOUS
62
4
100
AcDbLine
10
335.370000000000
20
327.780000000000
30
0.0
11
335.370000000000
21
332.780000000000
31
0.0
0
LINE
5
7c3
100
AcDbEntity
8
0-00-0
6
CONTINUOUS
62
4
100
AcDbLine
10
302.370000000000
20
287.780000000000
30
0.0
11
302.370000000000
21
282.780000000000
31
0.0
0
LINE
5
7c4
100
AcDbEntity
8
0-00-0
6
CONTINUOUS
62
4
100
AcDbLine
10
277.370000000000
20
292.780000000000
30
0.0
11
272.370000000000
21
292.780000000000
31
0.0
0
LINE
5
7c5
100
AcDbEntity
8
0-00-0
6
CONTINUOUS
62
4
100
AcDbLine
10
312.370000000000
20
301.780000000000
30
0.0
11
312.370000000000
21
292.780000000000
31
0.0
0
LINE
5
7c6
100
AcDbEntity
8
0-00-0
6
CONTINUOUS
62
4
100
AcDbLine
10
307.370000000000
20
301.780000000000
30
0.0
11
312.370000000000
21
301.780000000000
31
0.0
0
LINE
5
7c7
100
AcDbEntity
8
0-00-0
6
CONTINUOUS
62
4
100
AcDbLine
10
307.370000000000
20
292.780000000000
30
0.0
11
312.370000000000
21
292.780000000000
31
0.0
0
LINE
5
7c8
100
AcDbEntity
8
0-00-0
6
CONTINUOUS
62
4
100
AcDbLine
10
277.370000000000
20
322.780000000000
30
0.0
11
272.370000000000
21
322.780000000000
31
0.0
0
LINE
5
7c9
100
AcDbEntity
8
0-00-0
6
CONTINUOUS
62
4
100
AcDbLine
10
272.370000000000
20
322.780000000000
30
0.0
11
272.370000000000
21
292.780000000000
31
0.0
0
LINE
5
7ca
100
AcDbEntity
8
0-00-0
6
CONTINUOUS
62
3
100
AcDbLine
10
282.870000000000
20
293.780000000000
30
0.0
11
282.870000000000
21
321.780000000000
31
0.0
0
LINE
5
7cb
100
AcDbEntity
8
0-00-0
6
CONTINUOUS
62
3
100
AcDbLine
10
282.370000000000
20
293.780000000000
30
0.0
11
282.370000000000
21
321.780000000000
31
0.0
0
LINE
5
7cc
100
AcDbEntity
8
0-00-0
6
CONTINUOUS
62
4
100
AcDbLine
10
282.370000000000
20
267.780000000000
30
0.0
11
302.370000000000
21
267.780000000000
31
0.0
0
LINE
5
7cd
100
AcDbEntity
8
0-00-0
6
CONTINUOUS
62
4
100
AcDbLine
10
282.370000000000
20
272.780000000000
30
0.0
11
282.370000000000
21
267.780000000000
31
0.0
0
LINE
5
7ce
100
AcDbEntity
8
0-00-0
6
CONTINUOUS
62
4
100
AcDbLine
10
302.370000000000
20
272.780000000000
30
0.0
11
302.370000000000
21
267.780000000000
31
0.0
0
LINE
5
7cf
100
AcDbEntity
8
0-00-0
6
CONTINUOUS
62
3
100
AcDbLine
10
297.370000000000
20
301.780000000000
30
0.0
11
301.370000000000
21
301.780000000000
31
0.0
0
LINE
5
7d0
100
AcDbEntity
8
0-00-0
6
CONTINUOUS
62
3
100
AcDbLine
10
297.370000000000
20
301.780000000000
30
0.0
11
297.370000000000
21
301.280000000000
31
0.0
0
LINE
5
7d1
100
AcDbEntity
8
0-00-0
6
CONTINUOUS
62
3
100
AcDbLine
10
301.370000000000
20
301.280000000000
30
0.0
11
297.370000000000
21
301.280000000000
31
0.0
0
LINE
5
7d2
100
AcDbEntity
8
0-00-0
6
CONTINUOUS
62
4
100
AcDbLine
10
297.370000000000
20
287.780000000000
30
0.0
11
297.370000000000
21
282.780000000000
31
0.0
0
LINE
5
7d3
100
AcDbEntity
8
0-00-0
6
CONTINUOUS
62
4
100
AcDbLine
10
297.370000000000
20
282.780000000000
30
0.0
11
302.370000000000
21
282.780000000000
31
0.0
0
LINE
5
7d4
100
AcDbEntity
8
0-00-0
6
CONTINUOUS
62
4
100
AcDbLine
10
282.370000000000
20
332.780000000000
30
0.0
11
335.370000000000
21
332.780000000000
31
0.0
0
LINE
5
7d5
100
AcDbEntity
8
0-00-0
6
CONTINUOUS
62
3
100
AcDbLine
10
283.370000000000
20
322.780000000000
30
0.0
11
335.370000000000
21
322.780000000000
31
0.0
0
LINE
5
7d6
100
AcDbEntity
8
0-00-0
6
CONTINUOUS
62
3
100
AcDbLine
10
283.370000000000
20
322.280000000000
30
0.0
11
335.370000000000
21
322.280000000000
31
0.0
0
LINE
5
7d7
100
AcDbEntity
8
0-00-0
6
CONTINUOUS
62
4
100
AcDbLine
10
880.000000000000
20
440.400000000000
30
0.0
11
889.500000000000
21
440.400000000000
31
0.0
0
LINE
5
7d8
100
AcDbEntity
8
0-00-0
6
CONTINUOUS
62
4
100
AcDbLine
10
880.000000000000
20
439.450000000000
30
0.0
11
889.500000000000
21
439.450000000000
31
0.0
0
LINE
5
7d9
100
AcDbEntity
8
0-00-0
6
CONTINUOUS
62
4
100
AcDbLine
10
889.750000000000
20
440.150000000000
30
0.0
11
889.750000000000
21
439.700000000000
31
0.0
0
LINE
5
7da
100
AcDbEntity
8
0-00-0
6
CONTINUOUS
62
4
100
AcDbLine
10
879.750000000000
20
440.150000000000
30
0.0
11
879.750000000000
21
439.700000000000
31
0.0
0
LINE
5
7db
100
AcDbEntity
8
0-00-0
6
CONTINUOUS
62
4
100
AcDbLine
10
887.110000000000
20
433.180000000000
30
0.0
11
886.500000000000
21
432.830000000000
31
0.0
0
LINE
5
7dc
100
AcDbEntity
8
0-00-0
6
CONTINUOUS
62
4
100
AcDbLine
10
887.110000000000
20
433.180000000000
30
0.0
11
886.500000000000
21
433.530000000000
31
0.0
0
LINE
5
7dd
100
AcDbEntity
8
0-00-0
6
CONTINUOUS
62
4
100
AcDbLine
10
887.110000000000
20
433.180000000000
30
0.0
11
882.400000000000
21
432.390000000000
31
0.0
0
LINE
5
7de
100
AcDbEntity
8
0-00-0
6
CONTINUOUS
62
4
100
AcDbLine
10
883.000000000000
20
432.740000000000
30
0.0
11
886.500000000000
21
433.530000000000
31
0.0
0
LINE
5
7df
100
AcDbEntity
8
0-00-0
6
CONTINUOUS
62
4
100
AcDbLine
10
883.000000000000
20
432.040000000000
30
0.0
11
886.500000000000
21
432.830000000000
31
0.0
0
LINE
5
7e0
100
AcDbEntity
8
0-00-0
6
CONTINUOUS
62
4
100
AcDbLine
10
882.400000000000
20
432.390000000000
30
0.0
11
883.000000000000
21
432.740000000000
31
0.0
0
LINE
5
7e1
100
AcDbEntity
8
0-00-0
6
CONTINUOUS
62
4
100
AcDbLine
10
882.400000000000
20
432.390000000000
30
0.0
11
883.000000000000
21
432.040000000000
31
0.0
0
LINE
5
7e2
100
AcDbEntity
8
0-00-0
6
CONTINUOUS
62
4
100
AcDbLine
10
887.110000000000
20
434.770000000000
30
0.0
11
886.500000000000
21
434.420000000000
31
0.0
0
LINE
5
7e3
100
AcDbEntity
8
0-00-0
6
CONTINUOUS
62
4
100
AcDbLine
10
887.110000000000
20
434.770000000000
30
0.0
11
886.500000000000
21
435.120000000000
31
0.0
0
LINE
5
7e4
100
AcDbEntity
8
0-00-0
6
CONTINUOUS
62
4
100
AcDbLine
10
887.110000000000
20
434.770000000000
30
0.0
11
882.400000000000
21
433.980000000000
31
0.0
0
LINE
5
7e5
100
AcDbEntity
8
0-00-0
6
CONTINUOUS
62
4
100
AcDbLine
10
883.000000000000
20
434.320000000000
30
0.0
11
886.500000000000
21
435.120000000000
31
0.0
0
LINE
5
7e6
100
AcDbEntity
8
0-00-0
6
CONTINUOUS
62
4
100
AcDbLine
10
883.000000000000
20
433.630000000000
30
0.0
11
886.500000000000
21
434.420000000000
31
0.0
0
LINE
5
7e7
100
AcDbEntity
8
0-00-0
6
CONTINUOUS
62
4
100
AcDbLine
10
886.500000000000
20
434.420000000000
30
0.0
11
886.500000000000
21
433.530000000000
31
0.0
0
LINE
5
7e8
100
AcDbEntity
8
0-00-0
6
CONTINUOUS
62
4
100
AcDbLine
10
882.400000000000
20
433.980000000000
30
0.0
11
883.000000000000
21
434.320000000000
31
0.0
0
LINE
5
7e9
100
AcDbEntity
8
0-00-0
6
CONTINUOUS
62
4
100
AcDbLine
10
882.400000000000
20
433.980000000000
30
0.0
11
883.000000000000
21
433.630000000000
31
0.0
0
LINE
5
7ea
100
AcDbEntity
8
0-00-0
6
CONTINUOUS
62
4
100
AcDbLine
10
883.000000000000
20
433.630000000000
30
0.0
11
883.000000000000
21
432.740000000000
31
0.0
0
LINE
5
7eb
100
AcDbEntity
8
0-00-0
6
CONTINUOUS
62
4
100
AcDbLine
10
887.110000000000
20
436.360000000000
30
0.0
11
886.500000000000
21
436.010000000000
31
0.0
0
LINE
5
7ec
100
AcDbEntity
8
0-00-0
6
CONTINUOUS
62
4
100
AcDbLine
10
886.540000000000
20
436.680000000000
30
0.0
11
887.110000000000
21
436.360000000000
31
0.0
0
LINE
5
7ed
100
AcDbEntity
8
0-00-0
6
CONTINUOUS
62
4
100
AcDbLine
10
886.500000000000
20
436.010000000000
30
0.0
11
886.500000000000
21
435.120000000000
31
0.0
0
LINE
5
7ee
100
AcDbEntity
8
0-00-0
6
CONTINUOUS
62
4
100
AcDbLine
10
882.400000000000
20
435.560000000000
30
0.0
11
883.000000000000
21
435.910000000000
31
0.0
0
LINE
5
7ef
100
AcDbEntity
8
0-00-0
6
CONTINUOUS
62
4
100
AcDbLine
10
882.400000000000
20
435.560000000000
30
0.0
11
883.000000000000
21
435.210000000000
31
0.0
0
LINE
5
7f0
100
AcDbEntity
8
0-00-0
6
CONTINUOUS
62
4
100
AcDbLine
10
883.000000000000
20
435.210000000000
30
0.0
11
883.000000000000
21
434.320000000000
31
0.0
0
LINE
5
7f1
100
AcDbEntity
8
0-00-0
6
CONTINUOUS
62
4
100
AcDbLine
10
887.010000000000
20
437.790000000000
30
0.0
11
886.720000000000
21
437.630000000000
31
0.0
0
LINE
5
7f2
100
AcDbEntity
8
0-00-0
6
CONTINUOUS
62
4
100
AcDbLine
10
887.010000000000
20
438.090000000000
30
0.0
11
886.820000000000
21
438.200000000000
31
0.0
0
LINE
5
7f3
100
AcDbEntity
8
0-00-0
6
CONTINUOUS
62
4
100
AcDbLine
10
882.830000000000
20
437.400000000000
30
0.0
11
882.560000000000
21
437.240000000000
31
0.0
0
LINE
5
7f4
100
AcDbEntity
8
0-00-0
6
CONTINUOUS
62
4
100
AcDbLine
10
882.930000000000
20
436.840000000000
30
0.0
11
882.560000000000
21
437.060000000000
31
0.0
0
LINE
5
7f5
100
AcDbEntity
8
0-00-0
6
CONTINUOUS
62
4
100
AcDbLine
10
882.550000000000
20
438.930000000000
30
0.0
11
882.500000000000
21
438.910000000000
31
0.0
0
LINE
5
7f6
100
AcDbEntity
8
0-00-0
6
CONTINUOUS
62
4
100
AcDbLine
10
882.630000000000
20
438.500000000000
30
0.0
11
882.500000000000
21
438.570000000000
31
0.0
0
LINE
5
7f7
100
AcDbEntity
8
0-00-0
6
CONTINUOUS
62
4
100
AcDbLine
10
885.740000000000
20
410.450000000000
30
0.0
11
885.740000000000
21
409.060000000000
31
0.0
0
LINE
5
7f8
100
AcDbEntity
8
0-00-0
6
CONTINUOUS
62
4
100
AcDbLine
10
885.740000000000
20
410.450000000000
30
0.0
11
882.750000000000
21
410.450000000000
31
0.0
0
LINE
5
7f9
100
AcDbEntity
8
0-00-0
6
CONTINUOUS
62
4
100
AcDbLine
10
886.750000000000
20
410.450000000000
30
0.0
11
886.630000000000
21
411.010000000000
31
0.0
0
LINE
5
7fa
100
AcDbEntity
8
0-00-0
6
CONTINUOUS
62
4
100
AcDbLine
10
886.630000000000
20
411.010000000000
30
0.0
11
886.520000000000
21
411.530000000000
31
0.0
0
LINE
5
7fb
100
AcDbEntity
8
0-00-0
6
CONTINUOUS
62
4
100
AcDbLine
10
886.520000000000
20
411.530000000000
30
0.0
11
886.400000000000
21
411.950000000000
31
0.0
0
LINE
5
7fc
100
AcDbEntity
8
0-00-0
6
CONTINUOUS
62
4
100
AcDbLine
10
886.400000000000
20
411.950000000000
30
0.0
11
886.290000000000
21
412.240000000000
31
0.0
0
LINE
5
7fd
100
AcDbEntity
8
0-00-0
6
CONTINUOUS
62
4
100
AcDbLine
10
886.290000000000
20
412.240000000000
30
0.0
11
886.190000000000
21
412.340000000000
31
0.0
0
LINE
5
7fe
100
AcDbEntity
8
0-00-0
6
CONTINUOUS
62
4
100
AcDbLine
10
886.190000000000
20
412.340000000000
30
0.0
11
886.090000000000
21
412.230000000000
31
0.0
0
LINE
5
7ff
100
AcDbEntity
8
0-00-0
6
CONTINUOUS
62
4
100
AcDbLine
10
886.090000000000
20
412.230000000000
30
0.0
11
886.000000000000
21
411.940000000000
31
0.0
0
LINE
5
800
100
AcDbEntity
8
0-00-0
6
CONTINUOUS
62
4
100
AcDbLine
10
886.000000000000
20
411.940000000000
30
0.0
11
885.910000000000
21
411.520000000000
31
0.0
0
LINE
5
801
100
AcDbEntity
8
0-00-0
6
CONTINUOUS
62
4
100
AcDbLine
10
885.910000000000
20
411.520000000000
30
0.0
11
885.820000000000
21
411.010000000000
31
0.0
0
LINE
5
802
100
AcDbEntity
8
0-00-0
6
CONTINUOUS
62
4
100
AcDbLine
10
885.820000000000
20
411.010000000000
30
0.0
11
885.740000000000
21
410.450000000000
31
0.0
0
LINE
5
803
100
AcDbEntity
8
0-00-0
6
CONTINUOUS
62
4
100
AcDbLine
10
883.000000000000
20
436.450000000000
30
0.0
11
882.930000000000
21
436.840000000000
31
0.0
0
LINE
5
804
100
AcDbEntity
8
0-00-0
6
CONTINUOUS
62
4
100
AcDbLine
10
886.540000000000
20
436.680000000000
30
0.0
11
886.720000000000
21
437.630000000000
31
0.0
0
LINE
5
805
100
AcDbEntity
8
0-00-0
6
CONTINUOUS
62
4
100
AcDbLine
10
883.000000000000
20
436.450000000000
30
0.0
11
883.000000000000
21
435.910000000000
31
0.0
0
LINE
5
806
100
AcDbEntity
8
0-00-0
6
CONTINUOUS
62
4
100
AcDbLine
10
883.000000000000
20
435.910000000000
30
0.0
11
886.540000000000
21
436.680000000000
31
0.0
0
LINE
5
807
100
AcDbEntity
8
0-00-0
6
CONTINUOUS
62
4
100
AcDbLine
10
887.110000000000
20
436.360000000000
30
0.0
11
882.400000000000
21
435.560000000000
31
0.0
0
LINE
5
808
100
AcDbEntity
8
0-00-0
6
CONTINUOUS
62
4
100
AcDbLine
10
883.000000000000
20
435.210000000000
30
0.0
11
886.500000000000
21
436.010000000000
31
0.0
0
LINE
5
809
100
AcDbEntity
8
0-00-0
6
CONTINUOUS
62
4
100
AcDbLine
10
887.010000000000
20
438.090000000000
30
0.0
11
887.010000000000
21
437.790000000000
31
0.0
0
LINE
5
80a
100
AcDbEntity
8
0-00-0
6
CONTINUOUS
62
4
100
AcDbLine
10
882.560000000000
20
437.240000000000
30
0.0
11
882.560000000000
21
437.060000000000
31
0.0
0
LINE
5
80b
100
AcDbEntity
8
0-00-0
6
CONTINUOUS
62
4
100
AcDbLine
10
882.500000000000
20
438.570000000000
30
0.0
11
882.500000000000
21
438.910000000000
31
0.0
0
LINE
5
80c
100
AcDbEntity
8
0-00-0
6
CONTINUOUS
62
4
100
AcDbLine
10
882.830000000000
20
437.400000000000
30
0.0
11
882.630000000000
21
438.500000000000
31
0.0
0
LINE
5
80d
100
AcDbEntity
8
0-00-0
6
CONTINUOUS
62
4
100
AcDbLine
10
886.820000000000
20
438.200000000000
30
0.0
11
887.010000000000
21
439.200000000000
31
0.0
0
LINE
5
80e
100
AcDbEntity
8
0-00-0
6
CONTINUOUS
62
4
100
AcDbLine
10
882.930000000000
20
436.840000000000
30
0.0
11
886.720000000000
21
437.630000000000
31
0.0
0
LINE
5
80f
100
AcDbEntity
8
0-00-0
6
CONTINUOUS
62
4
100
AcDbLine
10
887.010000000000
20
437.790000000000
30
0.0
11
882.560000000000
21
437.060000000000
31
0.0
0
LINE
5
810
100
AcDbEntity
8
0-00-0
6
CONTINUOUS
62
4
100
AcDbLine
10
882.560000000000
20
437.240000000000
30
0.0
11
887.010000000000
21
438.090000000000
31
0.0
0
LINE
5
811
100
AcDbEntity
8
0-00-0
6
CONTINUOUS
62
4
100
AcDbLine
10
886.820000000000
20
438.200000000000
30
0.0
11
882.830000000000
21
437.400000000000
31
0.0
0
LINE
5
812
100
AcDbEntity
8
0-00-0
6
CONTINUOUS
62
4
100
AcDbLine
10
882.550000000000
20
438.930000000000
30
0.0
11
882.500000000000
21
439.200000000000
31
0.0
0
LINE
5
813
100
AcDbEntity
8
0-00-0
6
CONTINUOUS
62
4
100
AcDbLine
10
882.550000000000
20
438.930000000000
30
0.0
11
887.010000000000
21
439.200000000000
31
0.0
0
LINE
5
814
100
AcDbEntity
8
0-00-0
6
CONTINUOUS
62
4
100
AcDbLine
10
887.010000000000
20
439.200000000000
30
0.0
11
882.630000000000
21
438.500000000000
31
0.0
0
LINE
5
815
100
AcDbEntity
8
0-00-0
6
CONTINUOUS
62
4
100
AcDbLine
10
882.500000000000
20
438.570000000000
30
0.0
11
887.010000000000
21
439.200000000000
31
0.0
0
LINE
5
816
100
AcDbEntity
8
0-00-0
6
CONTINUOUS
62
4
100
AcDbLine
10
882.500000000000
20
438.910000000000
30
0.0
11
887.010000000000
21
439.200000000000
31
0.0
0
LINE
5
817
100
AcDbEntity
8
0-00-0
6
CONTINUOUS
62
4
100
AcDbLine
10
887.110000000000
20
431.590000000000
30
0.0
11
886.500000000000
21
431.240000000000
31
0.0
0
LINE
5
818
100
AcDbEntity
8
0-00-0
6
CONTINUOUS
62
4
100
AcDbLine
10
887.110000000000
20
431.590000000000
30
0.0
11
886.500000000000
21
431.940000000000
31
0.0
0
LINE
5
819
100
AcDbEntity
8
0-00-0
6
CONTINUOUS
62
4
100
AcDbLine
10
887.110000000000
20
431.590000000000
30
0.0
11
882.400000000000
21
430.800000000000
31
0.0
0
LINE
5
81a
100
AcDbEntity
8
0-00-0
6
CONTINUOUS
62
4
100
AcDbLine
10
883.000000000000
20
431.150000000000
30
0.0
11
886.500000000000
21
431.940000000000
31
0.0
0
LINE
5
81b
100
AcDbEntity
8
0-00-0
6
CONTINUOUS
62
4
100
AcDbLine
10
883.000000000000
20
430.450000000000
30
0.0
11
886.500000000000
21
431.240000000000
31
0.0
0
LINE
5
81c
100
AcDbEntity
8
0-00-0
6
CONTINUOUS
62
4
100
AcDbLine
10
886.500000000000
20
432.830000000000
30
0.0
11
886.500000000000
21
431.940000000000
31
0.0
0
LINE
5
81d
100
AcDbEntity
8
0-00-0
6
CONTINUOUS
62
4
100
AcDbLine
10
882.400000000000
20
430.800000000000
30
0.0
11
883.000000000000
21
431.150000000000
31
0.0
0
LINE
5
81e
100
AcDbEntity
8
0-00-0
6
CONTINUOUS
62
4
100
AcDbLine
10
882.400000000000
20
430.800000000000
30
0.0
11
883.000000000000
21
430.450000000000
31
0.0
0
LINE
5
81f
100
AcDbEntity
8
0-00-0
6
CONTINUOUS
62
4
100
AcDbLine
10
883.000000000000
20
432.040000000000
30
0.0
11
883.000000000000
21
431.150000000000
31
0.0
0
LINE
5
820
100
AcDbEntity
8
0-00-0
6
CONTINUOUS
62
4
100
AcDbLine
10
887.110000000000
20
430.010000000000
30
0.0
11
886.500000000000
21
429.660000000000
31
0.0
0
LINE
5
821
100
AcDbEntity
8
0-00-0
6
CONTINUOUS
62
4
100
AcDbLine
10
887.110000000000
20
430.010000000000
30
0.0
11
886.500000000000
21
430.360000000000
31
0.0
0
LINE
5
822
100
AcDbEntity
8
0-00-0
6
CONTINUOUS
62
4
100
AcDbLine
10
887.110000000000
20
430.010000000000
30
0.0
11
882.400000000000
21
429.210000000000
31
0.0
0
LINE
5
823
100
AcDbEntity
8
0-00-0
6
CONTINUOUS
62
4
100
AcDbLine
10
883.000000000000
20
429.560000000000
30
0.0
11
886.500000000000
21
430.360000000000
31
0.0
0
LINE
5
824
100
AcDbEntity
8
0-00-0
6
CONTINUOUS
62
4
100
AcDbLine
10
883.000000000000
20
428.860000000000
30
0.0
11
886.500000000000
21
429.660000000000
31
0.0
0
LINE
5
825
100
AcDbEntity
8
0-00-0
6
CONTINUOUS
62
4
100
AcDbLine
10
886.500000000000
20
431.240000000000
30
0.0
11
886.500000000000
21
430.360000000000
31
0.0
0
LINE
5
826
100
AcDbEntity
8
0-00-0
6
CONTINUOUS
62
4
100
AcDbLine
10
882.400000000000
20
429.210000000000
30
0.0
11
883.000000000000
21
429.560000000000
31
0.0
0
LINE
5
827
100
AcDbEntity
8
0-00-0
6
CONTINUOUS
62
4
100
AcDbLine
10
882.400000000000
20
429.210000000000
30
0.0
11
883.000000000000
21
428.860000000000
31
0.0
0
LINE
5
828
100
AcDbEntity
8
0-00-0
6
CONTINUOUS
62
4
100
AcDbLine
10
883.000000000000
20
430.450000000000
30
0.0
11
883.000000000000
21
429.560000000000
31
0.0
0
LINE
5
829
100
AcDbEntity
8
0-00-0
6
CONTINUOUS
62
4
100
AcDbLine
10
887.110000000000
20
428.420000000000
30
0.0
11
882.400000000000
21
427.630000000000
31
0.0
0
LINE
5
82a
100
AcDbEntity
8
0-00-0
6
CONTINUOUS
62
4
100
AcDbLine
10
883.000000000000
20
427.970000000000
30
0.0
11
886.500000000000
21
428.770000000000
31
0.0
0
LINE
5
82b
100
AcDbEntity
8
0-00-0
6
CONTINUOUS
62
4
100
AcDbLine
10
883.000000000000
20
427.280000000000
30
0.0
11
886.500000000000
21
428.070000000000
31
0.0
0
LINE
5
82c
100
AcDbEntity
8
0-00-0
6
CONTINUOUS
62
4
100
AcDbLine
10
882.400000000000
20
427.630000000000
30
0.0
11
883.000000000000
21
427.970000000000
31
0.0
0
LINE
5
82d
100
AcDbEntity
8
0-00-0
6
CONTINUOUS
62
4
100
AcDbLine
10
882.400000000000
20
427.630000000000
30
0.0
11
883.000000000000
21
427.280000000000
31
0.0
0
LINE
5
82e
100
AcDbEntity
8
0-00-0
6
CONTINUOUS
62
4
100
AcDbLine
10
883.000000000000
20
428.860000000000
30
0.0
11
883.000000000000
21
427.970000000000
31
0.0
0
LINE
5
82f
100
AcDbEntity
8
0-00-0
6
CONTINUOUS
62
4
100
AcDbLine
10
887.110000000000
20
428.420000000000
30
0.0
11
886.500000000000
21
428.070000000000
31
0.0
0
LINE
5
830
100
AcDbEntity
8
0-00-0
6
CONTINUOUS
62
4
100
AcDbLine
10
887.110000000000
20
428.420000000000
30
0.0
11
886.500000000000
21
428.770000000000
31
0.0
0
LINE
5
831
100
AcDbEntity
8
0-00-0
6
CONTINUOUS
62
4
100
AcDbLine
10
886.500000000000
20
429.660000000000
30
0.0
11
886.500000000000
21
428.770000000000
31
0.0
0
LINE
5
832
100
AcDbEntity
8
0-00-0
6
CONTINUOUS
62
4
100
AcDbLine
10
887.110000000000
20
426.830000000000
30
0.0
11
882.400000000000
21
426.040000000000
31
0.0
0
LINE
5
833
100
AcDbEntity
8
0-00-0
6
CONTINUOUS
62
4
100
AcDbLine
10
883.000000000000
20
426.390000000000
30
0.0
11
886.500000000000
21
427.180000000000
31
0.0
0
LINE
5
834
100
AcDbEntity
8
0-00-0
6
CONTINUOUS
62
4
100
AcDbLine
10
883.000000000000
20
425.690000000000
30
0.0
11
886.500000000000
21
426.480000000000
31
0.0
0
LINE
5
835
100
AcDbEntity
8
0-00-0
6
CONTINUOUS
62
4
100
AcDbLine
10
882.400000000000
20
426.040000000000
30
0.0
11
883.000000000000
21
426.390000000000
31
0.0
0
LINE
5
836
100
AcDbEntity
8
0-00-0
6
CONTINUOUS
62
4
100
AcDbLine
10
882.400000000000
20
426.040000000000
30
0.0
11
883.000000000000
21
425.690000000000
31
0.0
0
LINE
5
837
100
AcDbEntity
8
0-00-0
6
CONTINUOUS
62
4
100
AcDbLine
10
883.000000000000
20
427.280000000000
30
0.0
11
883.000000000000
21
426.390000000000
31
0.0
0
LINE
5
838
100
AcDbEntity
8
0-00-0
6
CONTINUOUS
62
4
100
AcDbLine
10
887.110000000000
20
426.830000000000
30
0.0
11
886.500000000000
21
426.480000000000
31
0.0
0
LINE
5
839
100
AcDbEntity
8
0-00-0
6
CONTINUOUS
62
4
100
AcDbLine
10
887.110000000000
20
426.830000000000
30
0.0
11
886.500000000000
21
427.180000000000
31
0.0
0
LINE
5
83a
100
AcDbEntity
8
0-00-0
6
CONTINUOUS
62
4
100
AcDbLine
10
886.500000000000
20
428.070000000000
30
0.0
11
886.500000000000
21
427.180000000000
31
0.0
0
LINE
5
83b
100
AcDbEntity
8
0-00-0
6
CONTINUOUS
62
4
100
AcDbLine
10
887.110000000000
20
425.240000000000
30
0.0
11
882.400000000000
21
424.450000000000
31
0.0
0
LINE
5
83c
100
AcDbEntity
8
0-00-0
6
CONTINUOUS
62
4
100
AcDbLine
10
883.000000000000
20
424.800000000000
30
0.0
11
886.500000000000
21
425.590000000000
31
0.0
0
LINE
5
83d
100
AcDbEntity
8
0-00-0
6
CONTINUOUS
62
4
100
AcDbLine
10
883.000000000000
20
424.100000000000
30
0.0
11
886.500000000000
21
424.890000000000
31
0.0
0
LINE
5
83e
100
AcDbEntity
8
0-00-0
6
CONTINUOUS
62
4
100
AcDbLine
10
882.400000000000
20
424.450000000000
30
0.0
11
883.000000000000
21
424.800000000000
31
0.0
0
LINE
5
83f
100
AcDbEntity
8
0-00-0
6
CONTINUOUS
62
4
100
AcDbLine
10
882.400000000000
20
424.450000000000
30
0.0
11
883.000000000000
21
424.100000000000
31
0.0
0
LINE
5
840
100
AcDbEntity
8
0-00-0
6
CONTINUOUS
62
4
100
AcDbLine
10
883.000000000000
20
425.690000000000
30
0.0
11
883.000000000000
21
424.800000000000
31
0.0
0
LINE
5
841
100
AcDbEntity
8
0-00-0
6
CONTINUOUS
62
4
100
AcDbLine
10
887.110000000000
20
425.240000000000
30
0.0
11
886.500000000000
21
424.890000000000
31
0.0
0
LINE
5
842
100
AcDbEntity
8
0-00-0
6
CONTINUOUS
62
4
100
AcDbLine
10
887.110000000000
20
425.240000000000
30
0.0
11
886.500000000000
21
425.590000000000
31
0.0
0
LINE
5
843
100
AcDbEntity
8
0-00-0
6
CONTINUOUS
62
4
100
AcDbLine
10
886.500000000000
20
426.480000000000
30
0.0
11
886.500000000000
21
425.590000000000
31
0.0
0
LINE
5
844
100
AcDbEntity
8
0-00-0
6
CONTINUOUS
62
4
100
AcDbLine
10
887.110000000000
20
423.660000000000
30
0.0
11
882.400000000000
21
422.860000000000
31
0.0
0
LINE
5
845
100
AcDbEntity
8
0-00-0
6
CONTINUOUS
62
4
100
AcDbLine
10
883.000000000000
20
423.210000000000
30
0.0
11
886.500000000000
21
424.010000000000
31
0.0
0
LINE
5
846
100
AcDbEntity
8
0-00-0
6
CONTINUOUS
62
4
100
AcDbLine
10
883.000000000000
20
422.510000000000
30
0.0
11
886.500000000000
21
423.310000000000
31
0.0
0
LINE
5
847
100
AcDbEntity
8
0-00-0
6
CONTINUOUS
62
4
100
AcDbLine
10
882.400000000000
20
422.860000000000
30
0.0
11
883.000000000000
21
423.210000000000
31
0.0
0
LINE
5
848
100
AcDbEntity
8
0-00-0
6
CONTINUOUS
62
4
100
AcDbLine
10
882.400000000000
20
422.860000000000
30
0.0
11
883.000000000000
21
422.510000000000
31
0.0
0
LINE
5
849
100
AcDbEntity
8
0-00-0
6
CONTINUOUS
62
4
100
AcDbLine
10
883.000000000000
20
424.100000000000
30
0.0
11
883.000000000000
21
423.210000000000
31
0.0
0
LINE
5
84a
100
AcDbEntity
8
0-00-0
6
CONTINUOUS
62
4
100
AcDbLine
10
887.110000000000
20
423.660000000000
30
0.0
11
886.500000000000
21
423.310000000000
31
0.0
0
LINE
5
84b
100
AcDbEntity
8
0-00-0
6
CONTINUOUS
62
4
100
AcDbLine
10
887.110000000000
20
423.660000000000
30
0.0
11
886.500000000000
21
424.010000000000
31
0.0
0
LINE
5
84c
100
AcDbEntity
8
0-00-0
6
CONTINUOUS
62
4
100
AcDbLine
10
886.500000000000
20
424.890000000000
30
0.0
11
886.500000000000
21
424.010000000000
31
0.0
0
LINE
5
84d
100
AcDbEntity
8
0-00-0
6
CONTINUOUS
62
4
100
AcDbLine
10
887.110000000000
20
422.070000000000
30
0.0
11
882.400000000000
21
421.280000000000
31
0.0
0
LINE
5
84e
100
AcDbEntity
8
0-00-0
6
CONTINUOUS
62
4
100
AcDbLine
10
883.000000000000
20
421.620000000000
30
0.0
11
886.500000000000
21
422.420000000000
31
0.0
0
LINE
5
84f
100
AcDbEntity
8
0-00-0
6
CONTINUOUS
62
4
100
AcDbLine
10
883.000000000000
20
420.930000000000
30
0.0
11
886.500000000000
21
421.720000000000
31
0.0
0
LINE
5
850
100
AcDbEntity
8
0-00-0
6
CONTINUOUS
62
4
100
AcDbLine
10
882.400000000000
20
421.280000000000
30
0.0
11
883.000000000000
21
421.620000000000
31
0.0
0
LINE
5
851
100
AcDbEntity
8
0-00-0
6
CONTINUOUS
62
4
100
AcDbLine
10
882.400000000000
20
421.280000000000
30
0.0
11
883.000000000000
21
420.930000000000
31
0.0
0
LINE
5
852
100
AcDbEntity
8
0-00-0
6
CONTINUOUS
62
4
100
AcDbLine
10
883.000000000000
20
422.510000000000
30
0.0
11
883.000000000000
21
421.620000000000
31
0.0
0
LINE
5
853
100
AcDbEntity
8
0-00-0
6
CONTINUOUS
62
4
100
AcDbLine
10
887.110000000000
20
422.070000000000
30
0.0
11
886.500000000000
21
421.720000000000
31
0.0
0
LINE
5
854
100
AcDbEntity
8
0-00-0
6
CONTINUOUS
62
4
100
AcDbLine
10
887.110000000000
20
422.070000000000
30
0.0
11
886.500000000000
21
422.420000000000
31
0.0
0
LINE
5
855
100
AcDbEntity
8
0-00-0
6
CONTINUOUS
62
4
100
AcDbLine
10
886.500000000000
20
423.310000000000
30
0.0
11
886.500000000000
21
422.420000000000
31
0.0
0
LINE
5
856
100
AcDbEntity
8
0-00-0
6
CONTINUOUS
62
4
100
AcDbLine
10
887.110000000000
20
420.480000000000
30
0.0
11
882.400000000000
21
419.690000000000
31
0.0
0
LINE
5
857
100
AcDbEntity
8
0-00-0
6
CONTINUOUS
62
4
100
AcDbLine
10
883.000000000000
20
420.040000000000
30
0.0
11
886.500000000000
21
420.830000000000
31
0.0
0
LINE
5
858
100
AcDbEntity
8
0-00-0
6
CONTINUOUS
62
4
100
AcDbLine
10
883.000000000000
20
419.340000000000
30
0.0
11
886.500000000000
21
420.130000000000
31
0.0
0
LINE
5
859
100
AcDbEntity
8
0-00-0
6
CONTINUOUS
62
4
100
AcDbLine
10
882.400000000000
20
419.690000000000
30
0.0
11
883.000000000000
21
420.040000000000
31
0.0
0
LINE
5
85a
100
AcDbEntity
8
0-00-0
6
CONTINUOUS
62
4
100
AcDbLine
10
882.400000000000
20
419.690000000000
30
0.0
11
883.000000000000
21
419.340000000000
31
0.0
0
LINE
5
85b
100
AcDbEntity
8
0-00-0
6
CONTINUOUS
62
4
100
AcDbLine
10
883.000000000000
20
420.930000000000
30
0.0
11
883.000000000000
21
420.040000000000
31
0.0
0
LINE
5
85c
100
AcDbEntity
8
0-00-0
6
CONTINUOUS
62
4
100
AcDbLine
10
887.110000000000
20
420.480000000000
30
0.0
11
886.500000000000
21
420.130000000000
31
0.0
0
LINE
5
85d
100
AcDbEntity
8
0-00-0
6
CONTINUOUS
62
4
100
AcDbLine
10
887.110000000000
20
420.480000000000
30
0.0
11
886.500000000000
21
420.830000000000
31
0.0
0
LINE
5
85e
100
AcDbEntity
8
0-00-0
6
CONTINUOUS
62
4
100
AcDbLine
10
886.500000000000
20
421.720000000000
30
0.0
11
886.500000000000
21
420.830000000000
31
0.0
0
LINE
5
85f
100
AcDbEntity
8
0-00-0
6
CONTINUOUS
62
4
100
AcDbLine
10
887.110000000000
20
418.890000000000
30
0.0
11
882.400000000000
21
418.100000000000
31
0.0
0
LINE
5
860
100
AcDbEntity
8
0-00-0
6
CONTINUOUS
62
4
100
AcDbLine
10
883.000000000000
20
418.450000000000
30
0.0
11
886.500000000000
21
419.240000000000
31
0.0
0
LINE
5
861
100
AcDbEntity
8
0-00-0
6
CONTINUOUS
62
4
100
AcDbLine
10
883.000000000000
20
417.750000000000
30
0.0
11
886.500000000000
21
418.540000000000
31
0.0
0
LINE
5
862
100
AcDbEntity
8
0-00-0
6
CONTINUOUS
62
4
100
AcDbLine
10
882.400000000000
20
418.100000000000
30
0.0
11
883.000000000000
21
418.450000000000
31
0.0
0
LINE
5
863
100
AcDbEntity
8
0-00-0
6
CONTINUOUS
62
4
100
AcDbLine
10
882.400000000000
20
418.100000000000
30
0.0
11
883.000000000000
21
417.750000000000
31
0.0
0
LINE
5
864
100
AcDbEntity
8
0-00-0
6
CONTINUOUS
62
4
100
AcDbLine
10
883.000000000000
20
419.340000000000
30
0.0
11
883.000000000000
21
418.450000000000
31
0.0
0
LINE
5
865
100
AcDbEntity
8
0-00-0
6
CONTINUOUS
62
4
100
AcDbLine
10
887.110000000000
20
418.890000000000
30
0.0
11
886.500000000000
21
418.540000000000
31
0.0
0
LINE
5
866
100
AcDbEntity
8
0-00-0
6
CONTINUOUS
62
4
100
AcDbLine
10
887.110000000000
20
418.890000000000
30
0.0
11
886.500000000000
21
419.240000000000
31
0.0
0
LINE
5
867
100
AcDbEntity
8
0-00-0
6
CONTINUOUS
62
4
100
AcDbLine
10
886.500000000000
20
420.130000000000
30
0.0
11
886.500000000000
21
419.240000000000
31
0.0
0
LINE
5
868
100
AcDbEntity
8
0-00-0
6
CONTINUOUS
62
4
100
AcDbLine
10
887.110000000000
20
417.310000000000
30
0.0
11
882.400000000000
21
416.510000000000
31
0.0
0
LINE
5
869
100
AcDbEntity
8
0-00-0
6
CONTINUOUS
62
4
100
AcDbLine
10
883.000000000000
20
416.860000000000
30
0.0
11
886.500000000000
21
417.660000000000
31
0.0
0
LINE
5
86a
100
AcDbEntity
8
0-00-0
6
CONTINUOUS
62
4
100
AcDbLine
10
883.000000000000
20
416.160000000000
30
0.0
11
886.500000000000
21
416.960000000000
31
0.0
0
LINE
5
86b
100
AcDbEntity
8
0-00-0
6
CONTINUOUS
62
4
100
AcDbLine
10
882.400000000000
20
416.510000000000
30
0.0
11
883.000000000000
21
416.860000000000
31
0.0
0
LINE
5
86c
100
AcDbEntity
8
0-00-0
6
CONTINUOUS
62
4
100
AcDbLine
10
882.400000000000
20
416.510000000000
30
0.0
11
883.000000000000
21
416.160000000000
31
0.0
0
LINE
5
86d
100
AcDbEntity
8
0-00-0
6
CONTINUOUS
62
4
100
AcDbLine
10
883.000000000000
20
417.750000000000
30
0.0
11
883.000000000000
21
416.860000000000
31
0.0
0
LINE
5
86e
100
AcDbEntity
8
0-00-0
6
CONTINUOUS
62
4
100
AcDbLine
10
887.110000000000
20
417.310000000000
30
0.0
11
886.500000000000
21
416.960000000000
31
0.0
0
LINE
5
86f
100
AcDbEntity
8
0-00-0
6
CONTINUOUS
62
4
100
AcDbLine
10
887.110000000000
20
417.310000000000
30
0.0
11
886.500000000000
21
417.660000000000
31
0.0
0
LINE
5
870
100
AcDbEntity
8
0-00-0
6
CONTINUOUS
62
4
100
AcDbLine
10
886.500000000000
20
418.540000000000
30
0.0
11
886.500000000000
21
417.660000000000
31
0.0
0
LINE
5
871
100
AcDbEntity
8
0-00-0
6
CONTINUOUS
62
4
100
AcDbLine
10
887.110000000000
20
415.720000000000
30
0.0
11
882.400000000000
21
414.930000000000
31
0.0
0
LINE
5
872
100
AcDbEntity
8
0-00-0
6
CONTINUOUS
62
4
100
AcDbLine
10
883.000000000000
20
415.270000000000
30
0.0
11
886.500000000000
21
416.070000000000
31
0.0
0
LINE
5
873
100
AcDbEntity
8
0-00-0
6
CONTINUOUS
62
4
100
AcDbLine
10
883.000000000000
20
414.580000000000
30
0.0
11
886.500000000000
21
415.370000000000
31
0.0
0
LINE
5
874
100
AcDbEntity
8
0-00-0
6
CONTINUOUS
62
4
100
AcDbLine
10
882.400000000000
20
414.930000000000
30
0.0
11
883.000000000000
21
415.270000000000
31
0.0
0
LINE
5
875
100
AcDbEntity
8
0-00-0
6
CONTINUOUS
62
4
100
AcDbLine
10
882.400000000000
20
414.930000000000
30
0.0
11
883.000000000000
21
414.580000000000
31
0.0
0
LINE
5
876
100
AcDbEntity
8
0-00-0
6
CONTINUOUS
62
4
100
AcDbLine
10
883.000000000000
20
416.160000000000
30
0.0
11
883.000000000000
21
415.270000000000
31
0.0
0
LINE
5
877
100
AcDbEntity
8
0-00-0
6
CONTINUOUS
62
4
100
AcDbLine
10
887.110000000000
20
415.720000000000
30
0.0
11
886.500000000000
21
415.370000000000
31
0.0
0
LINE
5
878
100
AcDbEntity
8
0-00-0
6
CONTINUOUS
62
4
100
AcDbLine
10
887.110000000000
20
415.720000000000
30
0.0
11
886.500000000000
21
416.070000000000
31
0.0
0
LINE
5
879
100
AcDbEntity
8
0-00-0
6
CONTINUOUS
62
4
100
AcDbLine
10
886.500000000000
20
416.960000000000
30
0.0
11
886.500000000000
21
416.070000000000
31
0.0
0
LINE
5
87a
100
AcDbEntity
8
0-00-0
6
CONTINUOUS
62
4
100
AcDbLine
10
887.110000000000
20
414.130000000000
30
0.0
11
882.400000000000
21
413.340000000000
31
0.0
0
LINE
5
87b
100
AcDbEntity
8
0-00-0
6
CONTINUOUS
62
4
100
AcDbLine
10
883.000000000000
20
413.690000000000
30
0.0
11
886.500000000000
21
414.480000000000
31
0.0
0
LINE
5
87c
100
AcDbEntity
8
0-00-0
6
CONTINUOUS
62
4
100
AcDbLine
10
883.000000000000
20
412.990000000000
30
0.0
11
886.500000000000
21
413.780000000000
31
0.0
0
LINE
5
87d
100
AcDbEntity
8
0-00-0
6
CONTINUOUS
62
4
100
AcDbLine
10
882.400000000000
20
413.340000000000
30
0.0
11
883.000000000000
21
413.690000000000
31
0.0
0
LINE
5
87e
100
AcDbEntity
8
0-00-0
6
CONTINUOUS
62
4
100
AcDbLine
10
882.400000000000
20
413.340000000000
30
0.0
11
883.000000000000
21
412.990000000000
31
0.0
0
LINE
5
87f
100
AcDbEntity
8
0-00-0
6
CONTINUOUS
62
4
100
AcDbLine
10
883.000000000000
20
414.580000000000
30
0.0
11
883.000000000000
21
413.690000000000
31
0.0
0
LINE
5
880
100
AcDbEntity
8
0-00-0
6
CONTINUOUS
62
4
100
AcDbLine
10
887.110000000000
20
414.130000000000
30
0.0
11
886.500000000000
21
413.780000000000
31
0.0
0
LINE
5
881
100
AcDbEntity
8
0-00-0
6
CONTINUOUS
62
4
100
AcDbLine
10
887.110000000000
20
414.130000000000
30
0.0
11
886.500000000000
21
414.480000000000
31
0.0
0
LINE
5
882
100
AcDbEntity
8
0-00-0
6
CONTINUOUS
62
4
100
AcDbLine
10
886.500000000000
20
415.370000000000
30
0.0
11
886.500000000000
21
414.480000000000
31
0.0
0
LINE
5
883
100
AcDbEntity
8
0-00-0
6
CONTINUOUS
62
4
100
AcDbLine
10
887.110000000000
20
412.540000000000
30
0.0
11
882.400000000000
21
411.750000000000
31
0.0
0
LINE
5
884
100
AcDbEntity
8
0-00-0
6
CONTINUOUS
62
4
100
AcDbLine
10
883.000000000000
20
412.100000000000
30
0.0
11
886.500000000000
21
412.890000000000
31
0.0
0
LINE
5
885
100
AcDbEntity
8
0-00-0
6
CONTINUOUS
62
4
100
AcDbLine
10
883.000000000000
20
411.400000000000
30
0.0
11
886.040000000000
21
412.090000000000
31
0.0
0
LINE
5
886
100
AcDbEntity
8
0-00-0
6
CONTINUOUS
62
4
100
AcDbLine
10
882.400000000000
20
411.750000000000
30
0.0
11
883.000000000000
21
412.100000000000
31
0.0
0
LINE
5
887
100
AcDbEntity
8
0-00-0
6
CONTINUOUS
62
4
100
AcDbLine
10
882.400000000000
20
411.750000000000
30
0.0
11
883.000000000000
21
411.400000000000
31
0.0
0
LINE
5
888
100
AcDbEntity
8
0-00-0
6
CONTINUOUS
62
4
100
AcDbLine
10
883.000000000000
20
412.990000000000
30
0.0
11
883.000000000000
21
412.100000000000
31
0.0
0
LINE
5
889
100
AcDbEntity
8
0-00-0
6
CONTINUOUS
62
4
100
AcDbLine
10
887.110000000000
20
412.540000000000
30
0.0
11
886.500000000000
21
412.190000000000
31
0.0
0
LINE
5
88a
100
AcDbEntity
8
0-00-0
6
CONTINUOUS
62
4
100
AcDbLine
10
887.110000000000
20
412.540000000000
30
0.0
11
886.500000000000
21
412.890000000000
31
0.0
0
LINE
5
88b
100
AcDbEntity
8
0-00-0
6
CONTINUOUS
62
4
100
AcDbLine
10
886.500000000000
20
413.780000000000
30
0.0
11
886.500000000000
21
412.890000000000
31
0.0
0
LINE
5
88c
100
AcDbEntity
8
0-00-0
6
CONTINUOUS
62
4
100
AcDbLine
10
886.860000000000
20
410.810000000000
30
0.0
11
886.710000000000
21
410.730000000000
31
0.0
0
LINE
5
88d
100
AcDbEntity
8
0-00-0
6
CONTINUOUS
62
4
100
AcDbLine
10
886.860000000000
20
411.100000000000
30
0.0
11
886.640000000000
21
411.230000000000
31
0.0
0
LINE
5
88e
100
AcDbEntity
8
0-00-0
6
CONTINUOUS
62
4
100
AcDbLine
10
883.000000000000
20
411.400000000000
30
0.0
11
882.750000000000
21
410.450000000000
31
0.0
0
LINE
5
88f
100
AcDbEntity
8
0-00-0
6
CONTINUOUS
62
4
100
AcDbLine
10
886.500000000000
20
412.190000000000
30
0.0
11
886.640000000000
21
411.230000000000
31
0.0
0
LINE
5
890
100
AcDbEntity
8
0-00-0
6
CONTINUOUS
62
4
100
AcDbLine
10
886.860000000000
20
411.100000000000
30
0.0
11
886.860000000000
21
410.810000000000
31
0.0
0
LINE
5
891
100
AcDbEntity
8
0-00-0
6
CONTINUOUS
62
4
100
AcDbLine
10
886.710000000000
20
410.730000000000
30
0.0
11
886.750000000000
21
410.450000000000
31
0.0
0
LINE
5
892
100
AcDbEntity
8
0-00-0
6
CONTINUOUS
62
4
100
AcDbLine
10
886.710000000000
20
410.730000000000
30
0.0
11
886.690000000000
21
410.730000000000
31
0.0
0
LINE
5
893
100
AcDbEntity
8
0-00-0
6
CONTINUOUS
62
4
100
AcDbLine
10
882.750000000000
20
410.450000000000
30
0.0
11
885.830000000000
21
411.060000000000
31
0.0
0
LINE
5
894
100
AcDbEntity
8
0-00-0
6
CONTINUOUS
62
4
100
AcDbLine
10
886.860000000000
20
411.100000000000
30
0.0
11
886.620000000000
21
411.060000000000
31
0.0
0
LINE
5
895
100
AcDbEntity
8
0-00-0
6
CONTINUOUS
62
4
100
AcDbLine
10
882.750000000000
20
410.450000000000
30
0.0
11
885.780000000000
21
410.720000000000
31
0.0
0
LINE
5
896
100
AcDbEntity
8
0-00-0
6
CONTINUOUS
62
4
100
AcDbLine
10
886.330000000000
20
412.160000000000
30
0.0
11
886.500000000000
21
412.190000000000
31
0.0
0
LINE
5
897
100
AcDbEntity
8
0-00-0
6
CONTINUOUS
62
4
100
AcDbLine
10
886.590000000000
20
411.220000000000
30
0.0
11
886.640000000000
21
411.230000000000
31
0.0
0
LINE
5
898
100
AcDbEntity
8
0-00-0
6
CONTINUOUS
62
4
100
AcDbLine
10
885.810000000000
20
410.930000000000
30
0.0
11
882.750000000000
21
410.450000000000
31
0.0
0
LINE
5
899
100
AcDbEntity
8
0-00-0
6
CONTINUOUS
62
4
100
AcDbLine
10
886.680000000000
20
410.800000000000
30
0.0
11
886.860000000000
21
410.810000000000
31
0.0
0
LINE
5
89a
100
AcDbEntity
8
0-00-0
6
CONTINUOUS
62
4
100
AcDbLine
10
885.770000000000
20
410.660000000000
30
0.0
11
882.750000000000
21
410.450000000000
31
0.0
0
LINE
5
89b
100
AcDbEntity
8
0-00-0
6
DOT
62
4
100
AcDbLine
10
886.950000000000
20
440.400000000000
30
0.0
11
885.900000000000
21
438.280000000000
31
0.0
0
LINE
5
89c
100
AcDbEntity
8
0-00-0
6
DOT
62
4
100
AcDbLine
10
885.900000000000
20
438.280000000000
30
0.0
11
884.750000000000
21
437.670000000000
31
0.0
0
LINE
5
89d
100
AcDbEntity
8
0-00-0
6
DOT
62
4
100
AcDbLine
10
884.750000000000
20
437.670000000000
30
0.0
11
883.610000000000
21
438.280000000000
31
0.0
0
LINE
5
89e
100
AcDbEntity
8
0-00-0
6
DOT
62
4
100
AcDbLine
10
882.550000000000
20
440.400000000000
30
0.0
11
883.610000000000
21
438.280000000000
31
0.0
0
LINE
5
89f
100
AcDbEntity
8
0-00-0
6
CENTER2
62
4
100
AcDbLine
10
884.750000000000
20
441.400000000000
30
0.0
11
884.750000000000
21
403.450000000000
31
0.0
0
LINE
5
8a0
100
AcDbEntity
8
0-00-0
6
CONTINUOUS
62
4
100
AcDbLine
10
885.000000000000
20
404.450000000000
30
0.0
11
884.500000000000
21
404.450000000000
31
0.0
0
LINE
5
8a1
100
AcDbEntity
8
0-00-0
6
CONTINUOUS
62
4
100
AcDbLine
10
882.750000000000
20
405.920000000000
30
0.0
11
883.040000000000
21
406.160000000000
31
0.0
0
LINE
5
8a2
100
AcDbEntity
8
0-00-0
6
CONTINUOUS
62
4
100
AcDbLine
10
883.040000000000
20
406.160000000000
30
0.0
11
883.350000000000
21
406.430000000000
31
0.0
0
LINE
5
8a3
100
AcDbEntity
8
0-00-0
6
CONTINUOUS
62
4
100
AcDbLine
10
883.350000000000
20
406.430000000000
30
0.0
11
883.660000000000
21
406.690000000000
31
0.0
0
LINE
5
8a4
100
AcDbEntity
8
0-00-0
6
CONTINUOUS
62
4
100
AcDbLine
10
883.660000000000
20
406.690000000000
30
0.0
11
883.960000000000
21
406.910000000000
31
0.0
0
LINE
5
8a5
100
AcDbEntity
8
0-00-0
6
CONTINUOUS
62
4
100
AcDbLine
10
883.960000000000
20
406.910000000000
30
0.0
11
884.220000000000
21
407.080000000000
31
0.0
0
LINE
5
8a6
100
AcDbEntity
8
0-00-0
6
CONTINUOUS
62
4
100
AcDbLine
10
884.220000000000
20
407.080000000000
30
0.0
11
884.440000000000
21
407.160000000000
31
0.0
0
LINE
5
8a7
100
AcDbEntity
8
0-00-0
6
CONTINUOUS
62
4
100
AcDbLine
10
884.440000000000
20
407.160000000000
30
0.0
11
884.580000000000
21
407.130000000000
31
0.0
0
LINE
5
8a8
100
AcDbEntity
8
0-00-0
6
CONTINUOUS
62
4
100
AcDbLine
10
884.580000000000
20
407.130000000000
30
0.0
11
884.670000000000
21
406.940000000000
31
0.0
0
LINE
5
8a9
100
AcDbEntity
8
0-00-0
6
CONTINUOUS
62
4
100
AcDbLine
10
884.670000000000
20
406.940000000000
30
0.0
11
884.720000000000
21
406.590000000000
31
0.0
0
LINE
5
8aa
100
AcDbEntity
8
0-00-0
6
CONTINUOUS
62
4
100
AcDbLine
10
884.720000000000
20
406.590000000000
30
0.0
11
884.740000000000
21
406.170000000000
31
0.0
0
LINE
5
8ab
100
AcDbEntity
8
0-00-0
6
CONTINUOUS
62
4
100
AcDbLine
10
884.740000000000
20
406.170000000000
30
0.0
11
884.750000000000
21
405.750000000000
31
0.0
0
LINE
5
8ac
100
AcDbEntity
8
0-00-0
6
CONTINUOUS
62
4
100
AcDbLine
10
884.750000000000
20
405.750000000000
30
0.0
11
884.750000000000
21
405.380000000000
31
0.0
0
LINE
5
8ad
100
AcDbEntity
8
0-00-0
6
CONTINUOUS
62
4
100
AcDbLine
10
884.610000000000
20
404.860000000000
30
0.0
11
886.750000000000
21
406.660000000000
31
0.0
0
LINE
5
8ae
100
AcDbEntity
8
0-00-0
6
CONTINUOUS
62
4
100
AcDbLine
10
885.740000000000
20
409.060000000000
30
0.0
11
884.750000000000
21
405.380000000000
31
0.0
0
LINE
5
8af
100
AcDbEntity
8
0-00-0
6
CONTINUOUS
62
4
100
AcDbLine
10
884.750000000000
20
404.450000000000
30
0.0
11
884.700000000000
21
404.550000000000
31
0.0
0
LINE
5
8b0
100
AcDbEntity
8
0-00-0
6
CONTINUOUS
62
4
100
AcDbLine
10
884.700000000000
20
404.550000000000
30
0.0
11
884.660000000000
21
404.650000000000
31
0.0
0
LINE
5
8b1
100
AcDbEntity
8
0-00-0
6
CONTINUOUS
62
4
100
AcDbLine
10
884.660000000000
20
404.650000000000
30
0.0
11
884.630000000000
21
404.760000000000
31
0.0
0
LINE
5
8b2
100
AcDbEntity
8
0-00-0
6
CONTINUOUS
62
4
100
AcDbLine
10
884.630000000000
20
404.760000000000
30
0.0
11
884.610000000000
21
404.860000000000
31
0.0
0
LINE
5
8b3
100
AcDbEntity
8
0-00-0
6
CONTINUOUS
62
4
100
AcDbLine
10
884.610000000000
20
404.860000000000
30
0.0
11
884.620000000000
21
404.990000000000
31
0.0
0
LINE
5
8b4
100
AcDbEntity
8
0-00-0
6
CONTINUOUS
62
4
100
AcDbLine
10
884.620000000000
20
404.990000000000
30
0.0
11
884.650000000000
21
405.120000000000
31
0.0
0
LINE
5
8b5
100
AcDbEntity
8
0-00-0
6
CONTINUOUS
62
4
100
AcDbLine
10
884.650000000000
20
405.120000000000
30
0.0
11
884.700000000000
21
405.250000000000
31
0.0
0
LINE
5
8b6
100
AcDbEntity
8
0-00-0
6
CONTINUOUS
62
4
100
AcDbLine
10
884.700000000000
20
405.250000000000
30
0.0
11
884.750000000000
21
405.380000000000
31
0.0
0
LINE
5
8b7
100
AcDbEntity
8
0-00-0
6
CONTINUOUS
62
4
100
AcDbLine
10
886.750000000000
20
410.450000000000
30
0.0
11
886.750000000000
21
405.920000000000
31
0.0
0
LINE
5
8b8
100
AcDbEntity
8
0-00-0
6
CONTINUOUS
62
4
100
AcDbLine
10
882.750000000000
20
410.450000000000
30
0.0
11
882.750000000000
21
405.920000000000
31
0.0
0
LINE
5
8b9
100
AcDbEntity
8
0-00-0
6
CONTINUOUS
62
4
100
AcDbLine
10
886.750000000000
20
405.920000000000
30
0.0
11
885.000000000000
21
404.450000000000
31
0.0
0
LINE
5
8ba
100
AcDbEntity
8
0-00-0
6
CONTINUOUS
62
4
100
AcDbLine
10
882.750000000000
20
405.920000000000
30
0.0
11
884.500000000000
21
404.450000000000
31
0.0
0
LINE
5
8bb
100
AcDbEntity
8
0-00-0
6
CONTINUOUS
62
4
100
AcDbLine
10
857.710000000000
20
440.350000000000
30
0.0
11
865.710000000000
21
440.350000000000
31
0.0
0
LINE
5
8bc
100
AcDbEntity
8
0-00-0
6
CONTINUOUS
62
4
100
AcDbLine
10
865.960000000000
20
439.700000000000
30
0.0
11
865.960000000000
21
440.100000000000
31
0.0
0
LINE
5
8bd
100
AcDbEntity
8
0-00-0
6
CONTINUOUS
62
4
100
AcDbLine
10
857.460000000000
20
439.700000000000
30
0.0
11
857.460000000000
21
440.100000000000
31
0.0
0
LINE
5
8be
100
AcDbEntity
8
0-00-0
6
CONTINUOUS
62
4
100
AcDbLine
10
857.710000000000
20
439.450000000000
30
0.0
11
865.710000000000
21
439.450000000000
31
0.0
0
LINE
5
8bf
100
AcDbEntity
8
0-00-0
6
CONTINUOUS
62
4
100
AcDbLine
10
860.030000000000
20
437.950000000000
30
0.0
11
863.400000000000
21
437.950000000000
31
0.0
0
LINE
5
8c0
100
AcDbEntity
8
0-00-0
6
CONTINUOUS
62
4
100
AcDbLine
10
863.400000000000
20
436.450000000000
30
0.0
11
863.400000000000
21
437.950000000000
31
0.0
0
LINE
5
8c1
100
AcDbEntity
8
0-00-0
6
CONTINUOUS
62
4
100
AcDbLine
10
860.030000000000
20
436.450000000000
30
0.0
11
860.030000000000
21
437.950000000000
31
0.0
0
LINE
5
8c2
100
AcDbEntity
8
0-00-0
6
CONTINUOUS
62
4
100
AcDbLine
10
863.960000000000
20
439.450000000000
30
0.0
11
863.400000000000
21
437.950000000000
31
0.0
0
LINE
5
8c3
100
AcDbEntity
8
0-00-0
6
CONTINUOUS
62
4
100
AcDbLine
10
859.460000000000
20
439.450000000000
30
0.0
11
860.030000000000
21
437.950000000000
31
0.0
0
LINE
5
8c4
100
AcDbEntity
8
0-00-0
6
CONTINUOUS
62
4
100
AcDbLine
10
860.030000000000
20
436.450000000000
30
0.0
11
863.400000000000
21
436.450000000000
31
0.0
0
LINE
5
8c5
100
AcDbEntity
8
0-00-0
6
CONTINUOUS
62
4
100
AcDbLine
10
860.160000000000
20
417.790000000000
30
0.0
11
859.310000000000
21
418.280000000000
31
0.0
0
LINE
5
8c6
100
AcDbEntity
8
0-00-0
6
CONTINUOUS
62
4
100
AcDbLine
10
860.160000000000
20
418.770000000000
30
0.0
11
859.310000000000
21
418.280000000000
31
0.0
0
LINE
5
8c7
100
AcDbEntity
8
0-00-0
6
CONTINUOUS
62
4
100
AcDbLine
10
860.160000000000
20
414.620000000000
30
0.0
11
859.310000000000
21
415.110000000000
31
0.0
0
LINE
5
8c8
100
AcDbEntity
8
0-00-0
6
CONTINUOUS
62
4
100
AcDbLine
10
860.160000000000
20
415.600000000000
30
0.0
11
859.310000000000
21
415.110000000000
31
0.0
0
LINE
5
8c9
100
AcDbEntity
8
0-00-0
6
CONTINUOUS
62
4
100
AcDbLine
10
863.260000000000
20
419.380000000000
30
0.0
11
864.110000000000
21
419.870000000000
31
0.0
0
LINE
5
8ca
100
AcDbEntity
8
0-00-0
6
CONTINUOUS
62
4
100
AcDbLine
10
863.260000000000
20
420.360000000000
30
0.0
11
864.110000000000
21
419.870000000000
31
0.0
0
LINE
5
8cb
100
AcDbEntity
8
0-00-0
6
CONTINUOUS
62
4
100
AcDbLine
10
863.260000000000
20
416.200000000000
30
0.0
11
864.110000000000
21
416.690000000000
31
0.0
0
LINE
5
8cc
100
AcDbEntity
8
0-00-0
6
CONTINUOUS
62
4
100
AcDbLine
10
863.260000000000
20
417.190000000000
30
0.0
11
864.110000000000
21
416.690000000000
31
0.0
0
LINE
5
8cd
100
AcDbEntity
8
0-00-0
6
CONTINUOUS
62
4
100
AcDbLine
10
863.260000000000
20
419.380000000000
30
0.0
11
863.260000000000
21
417.190000000000
31
0.0
0
LINE
5
8ce
100
AcDbEntity
8
0-00-0
6
CONTINUOUS
62
4
100
AcDbLine
10
860.160000000000
20
417.790000000000
30
0.0
11
860.160000000000
21
415.600000000000
31
0.0
0
LINE
5
8cf
100
AcDbEntity
8
0-00-0
6
CONTINUOUS
62
4
100
AcDbLine
10
860.160000000000
20
415.600000000000
30
0.0
11
863.260000000000
21
417.190000000000
31
0.0
0
LINE
5
8d0
100
AcDbEntity
8
0-00-0
6
CONTINUOUS
62
4
100
AcDbLine
10
864.110000000000
20
416.690000000000
30
0.0
11
859.310000000000
21
415.110000000000
31
0.0
0
LINE
5
8d1
100
AcDbEntity
8
0-00-0
6
CONTINUOUS
62
4
100
AcDbLine
10
860.160000000000
20
414.620000000000
30
0.0
11
863.260000000000
21
416.200000000000
31
0.0
0
LINE
5
8d2
100
AcDbEntity
8
0-00-0
6
CONTINUOUS
62
4
100
AcDbLine
10
860.160000000000
20
417.790000000000
30
0.0
11
863.260000000000
21
419.380000000000
31
0.0
0
LINE
5
8d3
100
AcDbEntity
8
0-00-0
6
CONTINUOUS
62
4
100
AcDbLine
10
864.110000000000
20
419.870000000000
30
0.0
11
859.310000000000
21
418.280000000000
31
0.0
0
LINE
5
8d4
100
AcDbEntity
8
0-00-0
6
CONTINUOUS
62
4
100
AcDbLine
10
860.160000000000
20
418.770000000000
30
0.0
11
863.260000000000
21
420.360000000000
31
0.0
0
LINE
5
8d5
100
AcDbEntity
8
0-00-0
6
CONTINUOUS
62
4
100
AcDbLine
10
863.260000000000
20
414.160000000000
30
0.0
11
863.120000000000
21
413.560000000000
31
0.0
0
LINE
5
8d6
100
AcDbEntity
8
0-00-0
6
CONTINUOUS
62
4
100
AcDbLine
10
860.160000000000
20
414.160000000000
30
0.0
11
860.560000000000
21
412.420000000000
31
0.0
0
LINE
5
8d7
100
AcDbEntity
8
0-00-0
6
CONTINUOUS
62
4
100
AcDbLine
10
860.700000000000
20
411.850000000000
30
0.0
11
860.130000000000
21
412.020000000000
31
0.0
0
LINE
5
8d8
100
AcDbEntity
8
0-00-0
6
CONTINUOUS
62
4
100
AcDbLine
10
860.560000000000
20
412.420000000000
30
0.0
11
860.130000000000
21
412.020000000000
31
0.0
0
LINE
5
8d9
100
AcDbEntity
8
0-00-0
6
CONTINUOUS
62
4
100
AcDbLine
10
860.160000000000
20
414.160000000000
30
0.0
11
860.160000000000
21
414.620000000000
31
0.0
0
LINE
5
8da
100
AcDbEntity
8
0-00-0
6
CONTINUOUS
62
4
100
AcDbLine
10
862.970000000000
20
412.880000000000
30
0.0
11
863.630000000000
21
413.260000000000
31
0.0
0
LINE
5
8db
100
AcDbEntity
8
0-00-0
6
CONTINUOUS
62
4
100
AcDbLine
10
863.120000000000
20
413.560000000000
30
0.0
11
863.630000000000
21
413.260000000000
31
0.0
0
LINE
5
8dc
100
AcDbEntity
8
0-00-0
6
CONTINUOUS
62
4
100
AcDbLine
10
863.260000000000
20
414.160000000000
30
0.0
11
863.260000000000
21
416.200000000000
31
0.0
0
LINE
5
8dd
100
AcDbEntity
8
0-00-0
6
CONTINUOUS
62
4
100
AcDbLine
10
862.360000000000
20
410.240000000000
30
0.0
11
862.780000000000
21
409.990000000000
31
0.0
0
LINE
5
8de
100
AcDbEntity
8
0-00-0
6
CONTINUOUS
62
4
100
AcDbLine
10
862.970000000000
20
412.880000000000
30
0.0
11
862.360000000000
21
410.240000000000
31
0.0
0
LINE
5
8df
100
AcDbEntity
8
0-00-0
6
CONTINUOUS
62
4
100
AcDbLine
10
862.970000000000
20
412.880000000000
30
0.0
11
860.700000000000
21
411.850000000000
31
0.0
0
LINE
5
8e0
100
AcDbEntity
8
0-00-0
6
CONTINUOUS
62
4
100
AcDbLine
10
860.560000000000
20
412.420000000000
30
0.0
11
863.120000000000
21
413.560000000000
31
0.0
0
LINE
5
8e1
100
AcDbEntity
8
0-00-0
6
CONTINUOUS
62
4
100
AcDbLine
10
863.630000000000
20
413.260000000000
30
0.0
11
860.130000000000
21
412.020000000000
31
0.0
0
LINE
5
8e2
100
AcDbEntity
8
0-00-0
6
CONTINUOUS
62
4
100
AcDbLine
10
863.260000000000
20
422.550000000000
30
0.0
11
864.110000000000
21
423.040000000000
31
0.0
0
LINE
5
8e3
100
AcDbEntity
8
0-00-0
6
CONTINUOUS
62
4
100
AcDbLine
10
863.260000000000
20
423.540000000000
30
0.0
11
864.110000000000
21
423.040000000000
31
0.0
0
LINE
5
8e4
100
AcDbEntity
8
0-00-0
6
CONTINUOUS
62
4
100
AcDbLine
10
863.260000000000
20
422.550000000000
30
0.0
11
863.260000000000
21
420.360000000000
31
0.0
0
LINE
5
8e5
100
AcDbEntity
8
0-00-0
6
CONTINUOUS
62
4
100
AcDbLine
10
860.160000000000
20
420.970000000000
30
0.0
11
863.260000000000
21
422.550000000000
31
0.0
0
LINE
5
8e6
100
AcDbEntity
8
0-00-0
6
CONTINUOUS
62
4
100
AcDbLine
10
864.110000000000
20
423.040000000000
30
0.0
11
859.310000000000
21
421.460000000000
31
0.0
0
LINE
5
8e7
100
AcDbEntity
8
0-00-0
6
CONTINUOUS
62
4
100
AcDbLine
10
860.160000000000
20
421.950000000000
30
0.0
11
863.260000000000
21
423.540000000000
31
0.0
0
LINE
5
8e8
100
AcDbEntity
8
0-00-0
6
CONTINUOUS
62
4
100
AcDbLine
10
860.160000000000
20
420.970000000000
30
0.0
11
859.310000000000
21
421.460000000000
31
0.0
0
LINE
5
8e9
100
AcDbEntity
8
0-00-0
6
CONTINUOUS
62
4
100
AcDbLine
10
860.160000000000
20
421.950000000000
30
0.0
11
859.310000000000
21
421.460000000000
31
0.0
0
LINE
5
8ea
100
AcDbEntity
8
0-00-0
6
CONTINUOUS
62
4
100
AcDbLine
10
860.160000000000
20
420.970000000000
30
0.0
11
860.160000000000
21
418.770000000000
31
0.0
0
LINE
5
8eb
100
AcDbEntity
8
0-00-0
6
CONTINUOUS
62
4
100
AcDbLine
10
863.260000000000
20
425.730000000000
30
0.0
11
864.110000000000
21
426.220000000000
31
0.0
0
LINE
5
8ec
100
AcDbEntity
8
0-00-0
6
CONTINUOUS
62
4
100
AcDbLine
10
863.260000000000
20
426.710000000000
30
0.0
11
864.110000000000
21
426.220000000000
31
0.0
0
LINE
5
8ed
100
AcDbEntity
8
0-00-0
6
CONTINUOUS
62
4
100
AcDbLine
10
863.260000000000
20
425.730000000000
30
0.0
11
863.260000000000
21
423.540000000000
31
0.0
0
LINE
5
8ee
100
AcDbEntity
8
0-00-0
6
CONTINUOUS
62
4
100
AcDbLine
10
860.160000000000
20
424.140000000000
30
0.0
11
863.260000000000
21
425.730000000000
31
0.0
0
LINE
5
8ef
100
AcDbEntity
8
0-00-0
6
CONTINUOUS
62
4
100
AcDbLine
10
864.110000000000
20
426.220000000000
30
0.0
11
859.310000000000
21
424.630000000000
31
0.0
0
LINE
5
8f0
100
AcDbEntity
8
0-00-0
6
CONTINUOUS
62
4
100
AcDbLine
10
860.160000000000
20
425.120000000000
30
0.0
11
863.260000000000
21
426.710000000000
31
0.0
0
LINE
5
8f1
100
AcDbEntity
8
0-00-0
6
CONTINUOUS
62
4
100
AcDbLine
10
860.160000000000
20
424.140000000000
30
0.0
11
859.310000000000
21
424.630000000000
31
0.0
0
LINE
5
8f2
100
AcDbEntity
8
0-00-0
6
CONTINUOUS
62
4
100
AcDbLine
10
860.160000000000
20
425.120000000000
30
0.0
11
859.310000000000
21
424.630000000000
31
0.0
0
LINE
5
8f3
100
AcDbEntity
8
0-00-0
6
CONTINUOUS
62
4
100
AcDbLine
10
860.160000000000
20
424.140000000000
30
0.0
11
860.160000000000
21
421.950000000000
31
0.0
0
LINE
5
8f4
100
AcDbEntity
8
0-00-0
6
CONTINUOUS
62
4
100
AcDbLine
10
863.260000000000
20
428.900000000000
30
0.0
11
864.110000000000
21
429.390000000000
31
0.0
0
LINE
5
8f5
100
AcDbEntity
8
0-00-0
6
CONTINUOUS
62
4
100
AcDbLine
10
863.260000000000
20
429.890000000000
30
0.0
11
864.110000000000
21
429.390000000000
31
0.0
0
LINE
5
8f6
100
AcDbEntity
8
0-00-0
6
CONTINUOUS
62
4
100
AcDbLine
10
863.260000000000
20
428.900000000000
30
0.0
11
863.260000000000
21
426.710000000000
31
0.0
0
LINE
5
8f7
100
AcDbEntity
8
0-00-0
6
CONTINUOUS
62
4
100
AcDbLine
10
860.160000000000
20
427.320000000000
30
0.0
11
863.260000000000
21
428.900000000000
31
0.0
0
LINE
5
8f8
100
AcDbEntity
8
0-00-0
6
CONTINUOUS
62
4
100
AcDbLine
10
864.110000000000
20
429.390000000000
30
0.0
11
859.310000000000
21
427.810000000000
31
0.0
0
LINE
5
8f9
100
AcDbEntity
8
0-00-0
6
CONTINUOUS
62
4
100
AcDbLine
10
860.160000000000
20
428.300000000000
30
0.0
11
863.260000000000
21
429.890000000000
31
0.0
0
LINE
5
8fa
100
AcDbEntity
8
0-00-0
6
CONTINUOUS
62
4
100
AcDbLine
10
860.160000000000
20
427.320000000000
30
0.0
11
859.310000000000
21
427.810000000000
31
0.0
0
LINE
5
8fb
100
AcDbEntity
8
0-00-0
6
CONTINUOUS
62
4
100
AcDbLine
10
860.160000000000
20
428.300000000000
30
0.0
11
859.310000000000
21
427.810000000000
31
0.0
0
LINE
5
8fc
100
AcDbEntity
8
0-00-0
6
CONTINUOUS
62
4
100
AcDbLine
10
860.160000000000
20
427.320000000000
30
0.0
11
860.160000000000
21
425.120000000000
31
0.0
0
LINE
5
8fd
100
AcDbEntity
8
0-00-0
6
CONTINUOUS
62
4
100
AcDbLine
10
863.260000000000
20
432.080000000000
30
0.0
11
864.110000000000
21
432.570000000000
31
0.0
0
LINE
5
8fe
100
AcDbEntity
8
0-00-0
6
CONTINUOUS
62
4
100
AcDbLine
10
863.260000000000
20
433.060000000000
30
0.0
11
864.110000000000
21
432.570000000000
31
0.0
0
LINE
5
8ff
100
AcDbEntity
8
0-00-0
6
CONTINUOUS
62
4
100
AcDbLine
10
863.260000000000
20
432.080000000000
30
0.0
11
863.260000000000
21
429.890000000000
31
0.0
0
LINE
5
900
100
AcDbEntity
8
0-00-0
6
CONTINUOUS
62
4
100
AcDbLine
10
860.160000000000
20
430.490000000000
30
0.0
11
863.260000000000
21
432.080000000000
31
0.0
0
LINE
5
901
100
AcDbEntity
8
0-00-0
6
CONTINUOUS
62
4
100
AcDbLine
10
864.110000000000
20
432.570000000000
30
0.0
11
859.310000000000
21
430.980000000000
31
0.0
0
LINE
5
902
100
AcDbEntity
8
0-00-0
6
CONTINUOUS
62
4
100
AcDbLine
10
860.160000000000
20
431.470000000000
30
0.0
11
863.260000000000
21
433.060000000000
31
0.0
0
LINE
5
903
100
AcDbEntity
8
0-00-0
6
CONTINUOUS
62
4
100
AcDbLine
10
860.160000000000
20
430.490000000000
30
0.0
11
859.310000000000
21
430.980000000000
31
0.0
0
LINE
5
904
100
AcDbEntity
8
0-00-0
6
CONTINUOUS
62
4
100
AcDbLine
10
860.160000000000
20
431.470000000000
30
0.0
11
859.310000000000
21
430.980000000000
31
0.0
0
LINE
5
905
100
AcDbEntity
8
0-00-0
6
CONTINUOUS
62
4
100
AcDbLine
10
860.160000000000
20
430.490000000000
30
0.0
11
860.160000000000
21
428.300000000000
31
0.0
0
LINE
5
906
100
AcDbEntity
8
0-00-0
6
CONTINUOUS
62
4
100
AcDbLine
10
863.700000000000
20
435.510000000000
30
0.0
11
863.260000000000
21
435.250000000000
31
0.0
0
LINE
5
907
100
AcDbEntity
8
0-00-0
6
CONTINUOUS
62
4
100
AcDbLine
10
863.700000000000
20
435.980000000000
30
0.0
11
863.260000000000
21
436.240000000000
31
0.0
0
LINE
5
908
100
AcDbEntity
8
0-00-0
6
CONTINUOUS
62
4
100
AcDbLine
10
863.260000000000
20
435.250000000000
30
0.0
11
863.260000000000
21
433.060000000000
31
0.0
0
LINE
5
909
100
AcDbEntity
8
0-00-0
6
CONTINUOUS
62
4
100
AcDbLine
10
860.160000000000
20
433.670000000000
30
0.0
11
863.260000000000
21
435.250000000000
31
0.0
0
LINE
5
90a
100
AcDbEntity
8
0-00-0
6
CONTINUOUS
62
4
100
AcDbLine
10
860.160000000000
20
434.650000000000
30
0.0
11
863.260000000000
21
436.240000000000
31
0.0
0
LINE
5
90b
100
AcDbEntity
8
0-00-0
6
CONTINUOUS
62
4
100
AcDbLine
10
859.580000000000
20
434.000000000000
30
0.0
11
860.160000000000
21
433.670000000000
31
0.0
0
LINE
5
90c
100
AcDbEntity
8
0-00-0
6
CONTINUOUS
62
4
100
AcDbLine
10
859.580000000000
20
434.310000000000
30
0.0
11
860.160000000000
21
434.650000000000
31
0.0
0
LINE
5
90d
100
AcDbEntity
8
0-00-0
6
CONTINUOUS
62
4
100
AcDbLine
10
860.160000000000
20
433.670000000000
30
0.0
11
860.160000000000
21
431.470000000000
31
0.0
0
LINE
5
90e
100
AcDbEntity
8
0-00-0
6
CONTINUOUS
62
4
100
AcDbLine
10
863.400000000000
20
436.450000000000
30
0.0
11
863.260000000000
21
436.240000000000
31
0.0
0
LINE
5
90f
100
AcDbEntity
8
0-00-0
6
CONTINUOUS
62
4
100
AcDbLine
10
860.030000000000
20
436.450000000000
30
0.0
11
860.160000000000
21
434.650000000000
31
0.0
0
LINE
5
910
100
AcDbEntity
8
0-00-0
6
CONTINUOUS
62
4
100
AcDbLine
10
859.580000000000
20
434.310000000000
30
0.0
11
859.580000000000
21
434.000000000000
31
0.0
0
LINE
5
911
100
AcDbEntity
8
0-00-0
6
CONTINUOUS
62
4
100
AcDbLine
10
863.700000000000
20
435.980000000000
30
0.0
11
863.700000000000
21
435.510000000000
31
0.0
0
LINE
5
912
100
AcDbEntity
8
0-00-0
6
CONTINUOUS
62
4
100
AcDbLine
10
863.700000000000
20
435.510000000000
30
0.0
11
859.580000000000
21
434.000000000000
31
0.0
0
LINE
5
913
100
AcDbEntity
8
0-00-0
6
CONTINUOUS
62
4
100
AcDbLine
10
859.580000000000
20
434.310000000000
30
0.0
11
863.700000000000
21
435.980000000000
31
0.0
0
LINE
5
914
100
AcDbEntity
8
0-00-0
6
DOT
62
4
100
AcDbLine
10
863.760000000000
20
440.350000000000
30
0.0
11
862.860000000000
21
438.530000000000
31
0.0
0
LINE
5
915
100
AcDbEntity
8
0-00-0
6
DOT
62
4
100
AcDbLine
10
862.860000000000
20
438.530000000000
30
0.0
11
861.710000000000
21
437.920000000000
31
0.0
0
LINE
5
916
100
AcDbEntity
8
0-00-0
6
DOT
62
4
100
AcDbLine
10
861.710000000000
20
437.920000000000
30
0.0
11
860.570000000000
21
438.530000000000
31
0.0
0
LINE
5
917
100
AcDbEntity
8
0-00-0
6
DOT
62
4
100
AcDbLine
10
859.660000000000
20
440.350000000000
30
0.0
11
860.570000000000
21
438.530000000000
31
0.0
0
LINE
5
918
100
AcDbEntity
8
0-00-0
6
CONTINUOUS
62
4
100
AcDbLine
10
862.360000000000
20
410.240000000000
30
0.0
11
861.480000000000
21
408.450000000000
31
0.0
0
LINE
5
919
100
AcDbEntity
8
0-00-0
6
CONTINUOUS
62
4
100
AcDbLine
10
862.780000000000
20
409.990000000000
30
0.0
11
861.480000000000
21
408.450000000000
31
0.0
0
LINE
5
91a
100
AcDbEntity
8
0-00-0
6
CONTINUOUS
62
4
100
AcDbLine
10
860.700000000000
20
411.850000000000
30
0.0
11
861.710000000000
21
407.450000000000
31
0.0
0
LINE
5
91b
100
AcDbEntity
8
0-00-0
6
CENTER2
62
4
100
AcDbLine
10
861.710000000000
20
440.350000000000
30
0.0
11
861.710000000000
21
407.450000000000
31
0.0
0
LINE
5
91c
100
AcDbEntity
8
0-00-0
6
CONTINUOUS
62
4
100
AcDbLine
10
862.120000000000
20
409.210000000000
30
0.0
11
861.710000000000
21
407.450000000000
31
0.0
0
LINE
5
91d
100
AcDbEntity
8
0-00-0
6
CONTINUOUS
62
4
100
AcDbLine
10
427.870000000000
20
478.450000000000
30
0.0
11
427.870000000000
21
488.450000000000
31
0.0
0
LINE
5
91e
100
AcDbEntity
8
0-00-0
6
CONTINUOUS
62
4
100
AcDbLine
10
427.870000000000
20
488.450000000000
30
0.0
11
592.870000000000
21
488.450000000000
31
0.0
0
LINE
5
91f
100
AcDbEntity
8
0-00-0
6
CONTINUOUS
62
4
100
AcDbLine
10
592.870000000000
20
478.450000000000
30
0.0
11
592.870000000000
21
488.450000000000
31
0.0
0
LINE
5
920
100
AcDbEntity
8
0-00-0
6
CONTINUOUS
62
4
100
AcDbLine
10
592.870000000000
20
488.450000000000
30
0.0
11
757.870000000000
21
488.450000000000
31
0.0
0
LINE
5
921
100
AcDbEntity
8
0-00-0
6
CONTINUOUS
62
4
100
AcDbLine
10
757.870000000000
20
478.450000000000
30
0.0
11
757.870000000000
21
488.450000000000
31
0.0
0
CIRCLE
5
922
100
AcDbEntity
8
0-30-3
6
CONTINUOUS
62
3
100
AcDbCircle
10
39.860000000000
20
33.550000000000
30
0.0
40
5.656854492520
0
CIRCLE
5
923
100
AcDbEntity
8
0-30-3
6
CONTINUOUS
62
3
100
AcDbCircle
10
39.860000000000
20
33.550000000000
30
0.0
40
6.456854635214
0
CIRCLE
5
924
100
AcDbEntity
8
0-30-3
6
CONTINUOUS
62
4
100
AcDbCircle
10
39.860000000000
20
33.550000000000
30
0.0
40
5.736854893875
0
CIRCLE
5
925
100
AcDbEntity
8
0-30-3
6
CONTINUOUS
62
4
100
AcDbCircle
10
39.860000000000
20
33.550000000000
30
0.0
40
5.896853761158
0
CIRCLE
5
926
100
AcDbEntity
8
0-30-3
6
CONTINUOUS
62
4
100
AcDbCircle
10
39.860000000000
20
33.550000000000
30
0.0
40
6.056854563867
0
CIRCLE
5
927
100
AcDbEntity
8
0-30-3
6
CONTINUOUS
62
4
100
AcDbCircle
10
39.860000000000
20
33.550000000000
30
0.0
40
6.216853431151
0
CIRCLE
5
928
100
AcDbEntity
8
0-30-3
6
CONTINUOUS
62
4
100
AcDbCircle
10
39.860000000000
20
33.550000000000
30
0.0
40
6.376853072605
0
ARC
5
929
100
AcDbEntity
8
0-00-0
6
CONTINUOUS
62
3
100
AcDbCircle
10
288.040000000000
20
439.950000000000
30
0.0
40
0.999999888054
100
AcDbArc
50
21.912094116211
51
158.087875366211
0
ARC
5
92a
100
AcDbEntity
8
0-00-0
6
CONTINUOUS
62
3
100
AcDbCircle
10
288.040000000000
20
439.950000000000
30
0.0
40
1.499999880466
100
AcDbArc
50
21.912094116211
51
158.087875366211
0
ARC
5
92b
100
AcDbEntity
8
0-00-0
6
CONTINUOUS
62
3
100
AcDbCircle
10
290.730000000000
20
439.950000000000
30
0.0
40
0.999999888054
100
AcDbArc
50
201.912628173828
51
270.000000000000
0
ARC
5
92c
100
AcDbEntity
8
0-00-0
6
CONTINUOUS
62
3
100
AcDbCircle
10
290.730000000000
20
439.950000000000
30
0.0
40
1.499999880466
100
AcDbArc
50
201.912628173828
51
270.000000000000
0
ARC
5
92d
100
AcDbEntity
8
0-00-0
6
CONTINUOUS
62
3
100
AcDbCircle
10
285.340000000000
20
439.950000000000
30
0.0
40
0.999999888054
100
AcDbArc
50
270.000000000000
51
338.087341308594
0
ARC
5
92e
100
AcDbEntity
8
0-00-0
6
CONTINUOUS
62
3
100
AcDbCircle
10
285.340000000000
20
439.950000000000
30
0.0
40
1.499999880466
100
AcDbArc
50
270.000000000000
51
338.087341308594
0
ARC
5
92f
100
AcDbEntity
8
0-00-0
6
CONTINUOUS
62
3
100
AcDbCircle
10
171.280000000000
20
456.450000000000
30
0.0
40
0.999999888054
100
AcDbArc
50
3.815338134766
51
90.000000000000
0
ARC
5
930
100
AcDbEntity
8
0-00-0
6
CONTINUOUS
62
3
100
AcDbCircle
10
174.150000000000
20
443.450000000000
30
0.0
40
0.999999888054
100
AcDbArc
50
183.815338134766
51
270.000000000000
0
ARC
5
931
100
AcDbEntity
8
0-00-0
6
CONTINUOUS
62
3
100
AcDbCircle
10
171.280000000000
20
456.450000000000
30
0.0
40
0.499999895641
100
AcDbArc
50
3.815338134766
51
90.000000000000
0
ARC
5
932
100
AcDbEntity
8
0-00-0
6
CONTINUOUS
62
3
100
AcDbCircle
10
174.150000000000
20
443.450000000000
30
0.0
40
1.499999880466
100
AcDbArc
50
183.815338134766
51
270.000000000000
0
ARC
5
933
100
AcDbEntity
8
0-00-0
6
CONTINUOUS
62
3
100
AcDbCircle
10
202.150000000000
20
456.450000000000
30
0.0
40
0.999999888054
100
AcDbArc
50
90.000000000000
51
176.184631347656
0
ARC
5
934
100
AcDbEntity
8
0-00-0
6
CONTINUOUS
62
3
100
AcDbCircle
10
199.280000000000
20
443.450000000000
30
0.0
40
0.999999888054
100
AcDbArc
50
270.000000000000
51
356.184631347656
0
ARC
5
935
100
AcDbEntity
8
0-00-0
6
CONTINUOUS
62
3
100
AcDbCircle
10
202.150000000000
20
456.450000000000
30
0.0
40
0.499999895641
100
AcDbArc
50
90.000000000000
51
176.184631347656
0
ARC
5
936
100
AcDbEntity
8
0-00-0
6
CONTINUOUS
62
3
100
AcDbCircle
10
199.280000000000
20
443.450000000000
30
0.0
40
1.499999880466
100
AcDbArc
50
270.000000000000
51
356.184631347656
0
ARC
5
937
100
AcDbEntity
8
0-00-0
6
CONTINUOUS
62
3
100
AcDbCircle
10
226.280000000000
20
456.450000000000
30
0.0
40
0.999999888054
100
AcDbArc
50
3.815338134766
51
90.000000000000
0
ARC
5
938
100
AcDbEntity
8
0-00-0
6
CONTINUOUS
62
3
100
AcDbCircle
10
229.150000000000
20
443.450000000000
30
0.0
40
0.999999888054
100
AcDbArc
50
183.815338134766
51
270.000000000000
0
ARC
5
939
100
AcDbEntity
8
0-00-0
6
CONTINUOUS
62
3
100
AcDbCircle
10
226.280000000000
20
456.450000000000
30
0.0
40
0.499999895641
100
AcDbArc
50
3.815338134766
51
90.000000000000
0
ARC
5
93a
100
AcDbEntity
8
0-00-0
6
CONTINUOUS
62
3
100
AcDbCircle
10
229.150000000000
20
443.450000000000
30
0.0
40
1.499999880466
100
AcDbArc
50
183.815338134766
51
270.000000000000
0
ARC
5
93b
100
AcDbEntity
8
0-00-0
6
CONTINUOUS
62
3
100
AcDbCircle
10
257.150000000000
20
456.450000000000
30
0.0
40
0.999999888054
100
AcDbArc
50
90.000000000000
51
176.184631347656
0
ARC
5
93c
100
AcDbEntity
8
0-00-0
6
CONTINUOUS
62
3
100
AcDbCircle
10
254.280000000000
20
443.450000000000
30
0.0
40
0.999999888054
100
AcDbArc
50
270.000000000000
51
356.184631347656
0
ARC
5
93d
100
AcDbEntity
8
0-00-0
6
CONTINUOUS
62
3
100
AcDbCircle
10
257.150000000000
20
456.450000000000
30
0.0
40
0.499999895641
100
AcDbArc
50
90.000000000000
51
176.184631347656
0
ARC
5
93e
100
AcDbEntity
8
0-00-0
6
CONTINUOUS
62
3
100
AcDbCircle
10
254.280000000000
20
443.450000000000
30
0.0
40
1.499999880466
100
AcDbArc
50
270.000000000000
51
356.184631347656
0
ARC
5
93f
100
AcDbEntity
8
0-00-0
6
CONTINUOUS
62
3
100
AcDbCircle
10
281.280000000000
20
456.450000000000
30
0.0
40
0.999999888054
100
AcDbArc
50
3.815338134766
51
90.000000000000
0
ARC
5
940
100
AcDbEntity
8
0-00-0
6
CONTINUOUS
62
3
100
AcDbCircle
10
281.280000000000
20
456.450000000000
30
0.0
40
0.499999895641
100
AcDbArc
50
3.815338134766
51
90.000000000000
0
ARC
5
941
100
AcDbEntity
8
0-00-0
6
CONTINUOUS
62
3
100
AcDbCircle
10
273.040000000000
20
440.450000000000
30
0.0
40
2.000009259689
100
AcDbArc
50
90.000000000000
51
270.000000000000
0
ARC
5
942
100
AcDbEntity
8
0-00-0
6
CONTINUOUS
62
3
100
AcDbCircle
10
273.040000000000
20
440.450000000000
30
0.0
40
1.500031718206
100
AcDbArc
50
90.000000000000
51
270.000000000000
0
ARC
5
943
100
AcDbEntity
8
0-00-0
6
CONTINUOUS
62
3
100
AcDbCircle
10
282.180000000000
20
442.950000000000
30
0.0
40
0.499999895641
100
AcDbArc
50
270.000000000000
51
3.818206787109
0
ARC
5
944
100
AcDbEntity
8
0-00-0
6
CONTINUOUS
62
3
100
AcDbCircle
10
282.180000000000
20
442.950000000000
30
0.0
40
0.999999888054
100
AcDbArc
50
270.000000000000
51
3.818206787109
0
ARC
5
945
100
AcDbEntity
8
0-00-0
6
CONTINUOUS
62
3
100
AcDbCircle
10
301.040000000000
20
439.450000000000
30
0.0
40
1.000004629845
100
AcDbArc
50
270.000000000000
51
90.000000000000
0
ARC
5
946
100
AcDbEntity
8
0-00-0
6
CONTINUOUS
62
3
100
AcDbCircle
10
301.040000000000
20
439.450000000000
30
0.0
40
0.500026991590
100
AcDbArc
50
270.000000000000
51
90.000000000000
0
ARC
5
947
100
AcDbEntity
8
0-00-0
6
CONTINUOUS
62
3
100
AcDbCircle
10
147.420000000000
20
456.450000000000
30
0.0
40
0.999999888054
100
AcDbArc
50
90.000000000000
51
176.184631347656
0
ARC
5
948
100
AcDbEntity
8
0-00-0
6
CONTINUOUS
62
3
100
AcDbCircle
10
144.540000000000
20
442.950000000000
30
0.0
40
0.999999888054
100
AcDbArc
50
270.000000000000
51
356.184631347656
0
ARC
5
949
100
AcDbEntity
8
0-00-0
6
CONTINUOUS
62
3
100
AcDbCircle
10
147.420000000000
20
456.450000000000
30
0.0
40
0.499999895641
100
AcDbArc
50
90.000000000000
51
176.184631347656
0
ARC
5
94a
100
AcDbEntity
8
0-00-0
6
CONTINUOUS
62
3
100
AcDbCircle
10
144.540000000000
20
442.950000000000
30
0.0
40
1.499999880466
100
AcDbArc
50
270.000000000000
51
356.184631347656
0
ARC
5
94b
100
AcDbEntity
8
0-00-0
6
CONTINUOUS
62
3
100
AcDbCircle
10
109.480000000000
20
440.950000000000
30
0.0
40
1.000004629845
100
AcDbArc
50
90.000000000000
51
270.000000000000
0
ARC
5
94c
100
AcDbEntity
8
0-00-0
6
CONTINUOUS
62
3
100
AcDbCircle
10
109.480000000000
20
440.950000000000
30
0.0
40
0.500026991590
100
AcDbArc
50
90.000000000000
51
270.000000000000
0
ARC
5
94d
100
AcDbEntity
8
0-00-0
6
CONTINUOUS
62
3
100
AcDbCircle
10
598.690000000000
20
439.950000000000
30
0.0
40
0.999999888054
100
AcDbArc
50
21.912094116211
51
158.087875366211
0
ARC
5
94e
100
AcDbEntity
8
0-00-0
6
CONTINUOUS
62
3
100
AcDbCircle
10
598.690000000000
20
439.950000000000
30
0.0
40
1.499999880466
100
AcDbArc
50
21.912094116211
51
158.087875366211
0
ARC
5
94f
100
AcDbEntity
8
0-00-0
6
CONTINUOUS
62
3
100
AcDbCircle
10
601.380000000000
20
439.950000000000
30
0.0
40
0.999999888054
100
AcDbArc
50
201.912628173828
51
270.000000000000
0
ARC
5
950
100
AcDbEntity
8
0-00-0
6
CONTINUOUS
62
3
100
AcDbCircle
10
601.380000000000
20
439.950000000000
30
0.0
40
1.499999880466
100
AcDbArc
50
201.912628173828
51
270.000000000000
0
ARC
5
951
100
AcDbEntity
8
0-00-0
6
CONTINUOUS
62
3
100
AcDbCircle
10
595.990000000000
20
439.950000000000
30
0.0
40
0.999999888054
100
AcDbArc
50
270.000000000000
51
338.087341308594
0
ARC
5
952
100
AcDbEntity
8
0-00-0
6
CONTINUOUS
62
3
100
AcDbCircle
10
595.990000000000
20
439.950000000000
30
0.0
40
1.499999880466
100
AcDbArc
50
270.000000000000
51
338.087341308594
0
ARC
5
953
100
AcDbEntity
8
0-00-0
6
CONTINUOUS
62
3
100
AcDbCircle
10
481.930000000000
20
456.450000000000
30
0.0
40
0.999999888054
100
AcDbArc
50
3.815338134766
51
90.000000000000
0
ARC
5
954
100
AcDbEntity
8
0-00-0
6
CONTINUOUS
62
3
100
AcDbCircle
10
484.800000000000
20
443.450000000000
30
0.0
40
0.999999888054
100
AcDbArc
50
183.815338134766
51
270.000000000000
0
ARC
5
955
100
AcDbEntity
8
0-00-0
6
CONTINUOUS
62
3
100
AcDbCircle
10
481.930000000000
20
456.450000000000
30
0.0
40
0.499999895641
100
AcDbArc
50
3.815338134766
51
90.000000000000
0
ARC
5
956
100
AcDbEntity
8
0-00-0
6
CONTINUOUS
62
3
100
AcDbCircle
10
484.800000000000
20
443.450000000000
30
0.0
40
1.499999880466
100
AcDbArc
50
183.815338134766
51
270.000000000000
0
ARC
5
957
100
AcDbEntity
8
0-00-0
6
CONTINUOUS
62
3
100
AcDbCircle
10
512.800000000000
20
456.450000000000
30
0.0
40
0.999999888054
100
AcDbArc
50
90.000000000000
51
176.184631347656
0
ARC
5
958
100
AcDbEntity
8
0-00-0
6
CONTINUOUS
62
3
100
AcDbCircle
10
509.930000000000
20
443.450000000000
30
0.0
40
0.999999888054
100
AcDbArc
50
270.000000000000
51
356.184631347656
0
ARC
5
959
100
AcDbEntity
8
0-00-0
6
CONTINUOUS
62
3
100
AcDbCircle
10
512.800000000000
20
456.450000000000
30
0.0
40
0.499999895641
100
AcDbArc
50
90.000000000000
51
176.184631347656
0
ARC
5
95a
100
AcDbEntity
8
0-00-0
6
CONTINUOUS
62
3
100
AcDbCircle
10
509.930000000000
20
443.450000000000
30
0.0
40
1.499999880466
100
AcDbArc
50
270.000000000000
51
356.184631347656
0
ARC
5
95b
100
AcDbEntity
8
0-00-0
6
CONTINUOUS
62
3
100
AcDbCircle
10
536.930000000000
20
456.450000000000
30
0.0
40
0.999999888054
100
AcDbArc
50
3.815338134766
51
90.000000000000
0
ARC
5
95c
100
AcDbEntity
8
0-00-0
6
CONTINUOUS
62
3
100
AcDbCircle
10
539.800000000000
20
443.450000000000
30
0.0
40
0.999999888054
100
AcDbArc
50
183.815338134766
51
270.000000000000
0
ARC
5
95d
100
AcDbEntity
8
0-00-0
6
CONTINUOUS
62
3
100
AcDbCircle
10
536.930000000000
20
456.450000000000
30
0.0
40
0.499999895641
100
AcDbArc
50
3.815338134766
51
90.000000000000
0
ARC
5
95e
100
AcDbEntity
8
0-00-0
6
CONTINUOUS
62
3
100
AcDbCircle
10
539.800000000000
20
443.450000000000
30
0.0
40
1.499999880466
100
AcDbArc
50
183.815338134766
51
270.000000000000
0
ARC
5
95f
100
AcDbEntity
8
0-00-0
6
CONTINUOUS
62
3
100
AcDbCircle
10
567.800000000000
20
456.450000000000
30
0.0
40
0.999999888054
100
AcDbArc
50
90.000000000000
51
176.184631347656
0
ARC
5
960
100
AcDbEntity
8
0-00-0
6
CONTINUOUS
62
3
100
AcDbCircle
10
564.930000000000
20
443.450000000000
30
0.0
40
0.999999888054
100
AcDbArc
50
270.000000000000
51
356.184631347656
0
ARC
5
961
100
AcDbEntity
8
0-00-0
6
CONTINUOUS
62
3
100
AcDbCircle
10
567.800000000000
20
456.450000000000
30
0.0
40
0.499999895641
100
AcDbArc
50
90.000000000000
51
176.184631347656
0
ARC
5
962
100
AcDbEntity
8
0-00-0
6
CONTINUOUS
62
3
100
AcDbCircle
10
564.930000000000
20
443.450000000000
30
0.0
40
1.499999880466
100
AcDbArc
50
270.000000000000
51
356.184631347656
0
ARC
5
963
100
AcDbEntity
8
0-00-0
6
CONTINUOUS
62
3
100
AcDbCircle
10
591.930000000000
20
456.450000000000
30
0.0
40
0.999999888054
100
AcDbArc
50
3.815338134766
51
90.000000000000
0
ARC
5
964
100
AcDbEntity
8
0-00-0
6
CONTINUOUS
62
3
100
AcDbCircle
10
591.930000000000
20
456.450000000000
30
0.0
40
0.499999895641
100
AcDbArc
50
3.815338134766
51
90.000000000000
0
ARC
5
965
100
AcDbEntity
8
0-00-0
6
CONTINUOUS
62
3
100
AcDbCircle
10
583.690000000000
20
440.450000000000
30
0.0
40
2.000009259689
100
AcDbArc
50
90.000000000000
51
270.000000000000
0
ARC
5
966
100
AcDbEntity
8
0-00-0
6
CONTINUOUS
62
3
100
AcDbCircle
10
583.690000000000
20
440.450000000000
30
0.0
40
1.500031718206
100
AcDbArc
50
90.000000000000
51
270.000000000000
0
ARC
5
967
100
AcDbEntity
8
0-00-0
6
CONTINUOUS
62
3
100
AcDbCircle
10
592.830000000000
20
442.950000000000
30
0.0
40
0.499999895641
100
AcDbArc
50
270.000000000000
51
3.818206787109
0
ARC
5
968
100
AcDbEntity
8
0-00-0
6
CONTINUOUS
62
3
100
AcDbCircle
10
592.830000000000
20
442.950000000000
30
0.0
40
0.999999888054
100
AcDbArc
50
270.000000000000
51
3.818206787109
0
ARC
5
969
100
AcDbEntity
8
0-00-0
6
DOT
62
7
100
AcDbCircle
10
787.540000000000
20
456.450000000000
30
0.0
40
0.999999888054
100
AcDbArc
50
90.000000000000
51
176.184631347656
0
ARC
5
96a
100
AcDbEntity
8
0-00-0
6
DOT
62
7
100
AcDbCircle
10
784.660000000000
20
442.950000000000
30
0.0
40
0.999999888054
100
AcDbArc
50
270.000000000000
51
356.184631347656
0
ARC
5
96b
100
AcDbEntity
8
0-00-0
6
DOT
62
7
100
AcDbCircle
10
787.540000000000
20
456.450000000000
30
0.0
40
0.499999895641
100
AcDbArc
50
90.000000000000
51
176.184631347656
0
ARC
5
96c
100
AcDbEntity
8
0-00-0
6
DOT
62
7
100
AcDbCircle
10
784.660000000000
20
442.950000000000
30
0.0
40
1.499999880466
100
AcDbArc
50
270.000000000000
51
356.184631347656
0
ARC
5
96d
100
AcDbEntity
8
0-00-0
6
DOT
62
7
100
AcDbCircle
10
749.600000000000
20
440.950000000000
30
0.0
40
1.000004629845
100
AcDbArc
50
90.000000000000
51
270.000000000000
0
ARC
5
96e
100
AcDbEntity
8
0-00-0
6
DOT
62
7
100
AcDbCircle
10
749.600000000000
20
440.950000000000
30
0.0
40
0.500026991590
100
AcDbArc
50
90.000000000000
51
270.000000000000
0
ARC
5
96f
100
AcDbEntity
8
0-00-0
6
DOT
62
7
100
AcDbCircle
10
433.960000000000
20
439.950000000000
30
0.0
40
0.999999888054
100
AcDbArc
50
21.912094116211
51
158.087875366211
0
ARC
5
970
100
AcDbEntity
8
0-00-0
6
DOT
62
7
100
AcDbCircle
10
433.960000000000
20
439.950000000000
30
0.0
40
1.499999880466
100
AcDbArc
50
21.912094116211
51
158.087875366211
0
ARC
5
971
100
AcDbEntity
8
0-00-0
6
DOT
62
7
100
AcDbCircle
10
436.650000000000
20
439.950000000000
30
0.0
40
0.999999888054
100
AcDbArc
50
201.912628173828
51
270.000000000000
0
ARC
5
972
100
AcDbEntity
8
0-00-0
6
DOT
62
7
100
AcDbCircle
10
436.650000000000
20
439.950000000000
30
0.0
40
1.499999880466
100
AcDbArc
50
201.912628173828
51
270.000000000000
0
ARC
5
973
100
AcDbEntity
8
0-00-0
6
DOT
62
7
100
AcDbCircle
10
431.260000000000
20
439.950000000000
30
0.0
40
0.999999888054
100
AcDbArc
50
270.000000000000
51
338.087341308594
0
ARC
5
974
100
AcDbEntity
8
0-00-0
6
DOT
62
7
100
AcDbCircle
10
431.260000000000
20
439.950000000000
30
0.0
40
1.499999880466
100
AcDbArc
50
270.000000000000
51
338.087341308594
0
ARC
5
975
100
AcDbEntity
8
0-00-0
6
DOT
62
7
100
AcDbCircle
10
427.200000000000
20
456.450000000000
30
0.0
40
0.999999888054
100
AcDbArc
50
3.815338134766
51
90.000000000000
0
ARC
5
976
100
AcDbEntity
8
0-00-0
6
DOT
62
7
100
AcDbCircle
10
427.200000000000
20
456.450000000000
30
0.0
40
0.499999895641
100
AcDbArc
50
3.815338134766
51
90.000000000000
0
ARC
5
977
100
AcDbEntity
8
0-00-0
6
DOT
62
7
100
AcDbCircle
10
418.960000000000
20
440.450000000000
30
0.0
40
2.000009259689
100
AcDbArc
50
90.000000000000
51
270.000000000000
0
ARC
5
978
100
AcDbEntity
8
0-00-0
6
DOT
62
7
100
AcDbCircle
10
418.960000000000
20
440.450000000000
30
0.0
40
1.500031718206
100
AcDbArc
50
90.000000000000
51
270.000000000000
0
ARC
5
979
100
AcDbEntity
8
0-00-0
6
DOT
62
7
100
AcDbCircle
10
428.100000000000
20
442.950000000000
30
0.0
40
0.499999895641
100
AcDbArc
50
270.000000000000
51
3.818206787109
0
ARC
5
97a
100
AcDbEntity
8
0-00-0
6
DOT
62
7
100
AcDbCircle
10
428.100000000000
20
442.950000000000
30
0.0
40
0.999999888054
100
AcDbArc
50
270.000000000000
51
3.818206787109
0
ARC
5
97b
100
AcDbEntity
8
0-00-0
6
CONTINUOUS
62
3
100
AcDbCircle
10
458.070000000000
20
456.450000000000
30
0.0
40
0.999999888054
100
AcDbArc
50
90.000000000000
51
176.184631347656
0
ARC
5
97c
100
AcDbEntity
8
0-00-0
6
CONTINUOUS
62
3
100
AcDbCircle
10
455.200000000000
20
442.950000000000
30
0.0
40
0.999999888054
100
AcDbArc
50
270.000000000000
51
356.184631347656
0
ARC
5
97d
100
AcDbEntity
8
0-00-0
6
CONTINUOUS
62
3
100
AcDbCircle
10
458.070000000000
20
456.450000000000
30
0.0
40
0.499999895641
100
AcDbArc
50
90.000000000000
51
176.184631347656
0
ARC
5
97e
100
AcDbEntity
8
0-00-0
6
CONTINUOUS
62
3
100
AcDbCircle
10
455.200000000000
20
442.950000000000
30
0.0
40
1.499999880466
100
AcDbArc
50
270.000000000000
51
356.184631347656
0
ARC
5
97f
100
AcDbEntity
8
0-00-0
6
CONTINUOUS
62
3
100
AcDbCircle
10
420.130000000000
20
440.950000000000
30
0.0
40
1.000004629845
100
AcDbArc
50
90.000000000000
51
270.000000000000
0
ARC
5
980
100
AcDbEntity
8
0-00-0
6
CONTINUOUS
62
3
100
AcDbCircle
10
420.130000000000
20
440.950000000000
30
0.0
40
0.500026991590
100
AcDbArc
50
90.000000000000
51
270.000000000000
0
ARC
5
981
100
AcDbEntity
8
0-00-0
6
DOT
62
7
100
AcDbCircle
10
403.070000000000
20
456.450000000000
30
0.0
40
0.999999888054
100
AcDbArc
50
90.000000000000
51
176.184631347656
0
ARC
5
982
100
AcDbEntity
8
0-00-0
6
DOT
62
7
100
AcDbCircle
10
400.200000000000
20
443.450000000000
30
0.0
40
0.999999888054
100
AcDbArc
50
270.000000000000
51
356.184631347656
0
ARC
5
983
100
AcDbEntity
8
0-00-0
6
DOT
62
7
100
AcDbCircle
10
403.070000000000
20
456.450000000000
30
0.0
40
0.499999895641
100
AcDbArc
50
90.000000000000
51
176.184631347656
0
ARC
5
984
100
AcDbEntity
8
0-00-0
6
DOT
62
7
100
AcDbCircle
10
400.200000000000
20
443.450000000000
30
0.0
40
1.499999880466
100
AcDbArc
50
270.000000000000
51
356.184631347656
0
ARC
5
985
100
AcDbEntity
8
0-00-0
6
CONTINUOUS
62
3
100
AcDbCircle
10
646.660000000000
20
456.450000000000
30
0.0
40
0.999999888054
100
AcDbArc
50
3.815338134766
51
90.000000000000
0
ARC
5
986
100
AcDbEntity
8
0-00-0
6
CONTINUOUS
62
3
100
AcDbCircle
10
649.540000000000
20
443.450000000000
30
0.0
40
0.999999888054
100
AcDbArc
50
183.815338134766
51
270.000000000000
0
ARC
5
987
100
AcDbEntity
8
0-00-0
6
CONTINUOUS
62
3
100
AcDbCircle
10
646.660000000000
20
456.450000000000
30
0.0
40
0.499999895641
100
AcDbArc
50
3.815338134766
51
90.000000000000
0
ARC
5
988
100
AcDbEntity
8
0-00-0
6
CONTINUOUS
62
3
100
AcDbCircle
10
649.540000000000
20
443.450000000000
30
0.0
40
1.499999880466
100
AcDbArc
50
183.815338134766
51
270.000000000000
0
ARC
5
989
100
AcDbEntity
8
0-00-0
6
CONTINUOUS
62
3
100
AcDbCircle
10
677.540000000000
20
456.450000000000
30
0.0
40
0.999999888054
100
AcDbArc
50
90.000000000000
51
176.184631347656
0
ARC
5
98a
100
AcDbEntity
8
0-00-0
6
CONTINUOUS
62
3
100
AcDbCircle
10
674.660000000000
20
443.450000000000
30
0.0
40
0.999999888054
100
AcDbArc
50
270.000000000000
51
356.184631347656
0
ARC
5
98b
100
AcDbEntity
8
0-00-0
6
CONTINUOUS
62
3
100
AcDbCircle
10
677.540000000000
20
456.450000000000
30
0.0
40
0.499999895641
100
AcDbArc
50
90.000000000000
51
176.184631347656
0
ARC
5
98c
100
AcDbEntity
8
0-00-0
6
CONTINUOUS
62
3
100
AcDbCircle
10
674.660000000000
20
443.450000000000
30
0.0
40
1.499999880466
100
AcDbArc
50
270.000000000000
51
356.184631347656
0
ARC
5
98d
100
AcDbEntity
8
0-00-0
6
CONTINUOUS
62
3
100
AcDbCircle
10
701.660000000000
20
456.450000000000
30
0.0
40
0.999999888054
100
AcDbArc
50
3.815338134766
51
90.000000000000
0
ARC
5
98e
100
AcDbEntity
8
0-00-0
6
CONTINUOUS
62
3
100
AcDbCircle
10
704.540000000000
20
443.450000000000
30
0.0
40
0.999999888054
100
AcDbArc
50
183.815338134766
51
270.000000000000
0
ARC
5
98f
100
AcDbEntity
8
0-00-0
6
CONTINUOUS
62
3
100
AcDbCircle
10
701.660000000000
20
456.450000000000
30
0.0
40
0.499999895641
100
AcDbArc
50
3.815338134766
51
90.000000000000
0
ARC
5
990
100
AcDbEntity
8
0-00-0
6
CONTINUOUS
62
3
100
AcDbCircle
10
704.540000000000
20
443.450000000000
30
0.0
40
1.499999880466
100
AcDbArc
50
183.815338134766
51
270.000000000000
0
ARC
5
991
100
AcDbEntity
8
0-00-0
6
CONTINUOUS
62
3
100
AcDbCircle
10
732.540000000000
20
456.450000000000
30
0.0
40
0.999999888054
100
AcDbArc
50
90.000000000000
51
176.184631347656
0
ARC
5
992
100
AcDbEntity
8
0-00-0
6
CONTINUOUS
62
3
100
AcDbCircle
10
729.660000000000
20
443.450000000000
30
0.0
40
0.999999888054
100
AcDbArc
50
270.000000000000
51
356.184631347656
0
ARC
5
993
100
AcDbEntity
8
0-00-0
6
CONTINUOUS
62
3
100
AcDbCircle
10
732.540000000000
20
456.450000000000
30
0.0
40
0.499999895641
100
AcDbArc
50
90.000000000000
51
176.184631347656
0
ARC
5
994
100
AcDbEntity
8
0-00-0
6
CONTINUOUS
62
3
100
AcDbCircle
10
729.660000000000
20
443.450000000000
30
0.0
40
1.499999880466
100
AcDbArc
50
270.000000000000
51
356.184631347656
0
ARC
5
995
100
AcDbEntity
8
0-00-0
6
CONTINUOUS
62
3
100
AcDbCircle
10
756.660000000000
20
456.450000000000
30
0.0
40
0.999999888054
100
AcDbArc
50
3.815338134766
51
90.000000000000
0
ARC
5
996
100
AcDbEntity
8
0-00-0
6
CONTINUOUS
62
3
100
AcDbCircle
10
756.660000000000
20
456.450000000000
30
0.0
40
0.499999895641
100
AcDbArc
50
3.815338134766
51
90.000000000000
0
ARC
5
997
100
AcDbEntity
8
0-00-0
6
CONTINUOUS
62
3
100
AcDbCircle
10
748.420000000000
20
440.450000000000
30
0.0
40
2.000009259689
100
AcDbArc
50
90.000000000000
51
270.000000000000
0
ARC
5
998
100
AcDbEntity
8
0-00-0
6
CONTINUOUS
62
3
100
AcDbCircle
10
748.420000000000
20
440.450000000000
30
0.0
40
1.500031718206
100
AcDbArc
50
90.000000000000
51
270.000000000000
0
ARC
5
999
100
AcDbEntity
8
0-00-0
6
CONTINUOUS
62
3
100
AcDbCircle
10
757.560000000000
20
442.950000000000
30
0.0
40
0.499999895641
100
AcDbArc
50
270.000000000000
51
3.818206787109
0
ARC
5
99a
100
AcDbEntity
8
0-00-0
6
CONTINUOUS
62
3
100
AcDbCircle
10
757.560000000000
20
442.950000000000
30
0.0
40
0.999999888054
100
AcDbArc
50
270.000000000000
51
3.818206787109
0
ARC
5
99b
100
AcDbEntity
8
0-00-0
6
CONTINUOUS
62
3
100
AcDbCircle
10
622.800000000000
20
456.450000000000
30
0.0
40
0.999999888054
100
AcDbArc
50
90.000000000000
51
176.184631347656
0
ARC
5
99c
100
AcDbEntity
8
0-00-0
6
CONTINUOUS
62
3
100
AcDbCircle
10
619.930000000000
20
442.950000000000
30
0.0
40
0.999999888054
100
AcDbArc
50
270.000000000000
51
356.184631347656
0
ARC
5
99d
100
AcDbEntity
8
0-00-0
6
CONTINUOUS
62
3
100
AcDbCircle
10
622.800000000000
20
456.450000000000
30
0.0
40
0.499999895641
100
AcDbArc
50
90.000000000000
51
176.184631347656
0
ARC
5
99e
100
AcDbEntity
8
0-00-0
6
CONTINUOUS
62
3
100
AcDbCircle
10
619.930000000000
20
442.950000000000
30
0.0
40
1.499999880466
100
AcDbArc
50
270.000000000000
51
356.184631347656
0
ARC
5
99f
100
AcDbEntity
8
0-00-0
6
CONTINUOUS
62
3
100
AcDbCircle
10
584.870000000000
20
440.950000000000
30
0.0
40
1.000004629845
100
AcDbArc
50
90.000000000000
51
270.000000000000
0
ARC
5
9a0
100
AcDbEntity
8
0-00-0
6
CONTINUOUS
62
3
100
AcDbCircle
10
584.870000000000
20
440.950000000000
30
0.0
40
0.500026991590
100
AcDbArc
50
90.000000000000
51
270.000000000000
0
ARC
5
9a1
100
AcDbEntity
8
0-00-0
6
CONTINUOUS
62
4
100
AcDbCircle
10
443.900000000000
20
440.100000000000
30
0.0
40
0.249999996206
100
AcDbArc
50
360.000000000000
51
450.000000000000
0
ARC
5
9a2
100
AcDbEntity
8
0-00-0
6
CONTINUOUS
62
4
100
AcDbCircle
10
443.900000000000
20
439.700000000000
30
0.0
40
0.249999996206
100
AcDbArc
50
270.000000000000
51
360.000000000000
0
ARC
5
9a3
100
AcDbEntity
8
0-00-0
6
CONTINUOUS
62
4
100
AcDbCircle
10
435.900000000000
20
440.100000000000
30
0.0
40
0.249999996206
100
AcDbArc
50
90.000000000000
51
180.000000000000
0
ARC
5
9a4
100
AcDbEntity
8
0-00-0
6
CONTINUOUS
62
4
100
AcDbCircle
10
435.900000000000
20
439.700000000000
30
0.0
40
0.249999996206
100
AcDbArc
50
180.000000000000
51
270.000000000000
0
ARC
5
9a5
100
AcDbEntity
8
0-00-0
6
DOT
62
7
100
AcDbCircle
10
446.960000000000
20
439.450000000000
30
0.0
40
0.500026991590
100
AcDbArc
50
270.000000000000
51
82.126419067383
0
ARC
5
9a6
100
AcDbEntity
8
0-00-0
6
DOT
62
7
100
AcDbCircle
10
446.960000000000
20
439.450000000000
30
0.0
40
1.000004629845
100
AcDbArc
50
270.000000000000
51
90.000000000000
0
ARC
5
9a7
100
AcDbEntity
8
0-00-0
6
CONTINUOUS
62
4
100
AcDbCircle
10
608.630000000000
20
440.100000000000
30
0.0
40
0.249999996206
100
AcDbArc
50
360.000000000000
51
450.000000000000
0
ARC
5
9a8
100
AcDbEntity
8
0-00-0
6
CONTINUOUS
62
4
100
AcDbCircle
10
608.630000000000
20
439.700000000000
30
0.0
40
0.249999996206
100
AcDbArc
50
270.000000000000
51
360.000000000000
0
ARC
5
9a9
100
AcDbEntity
8
0-00-0
6
CONTINUOUS
62
4
100
AcDbCircle
10
600.630000000000
20
440.100000000000
30
0.0
40
0.249999996206
100
AcDbArc
50
90.000000000000
51
180.000000000000
0
ARC
5
9aa
100
AcDbEntity
8
0-00-0
6
CONTINUOUS
62
4
100
AcDbCircle
10
600.630000000000
20
439.700000000000
30
0.0
40
0.249999996206
100
AcDbArc
50
180.000000000000
51
270.000000000000
0
ARC
5
9ab
100
AcDbEntity
8
0-00-0
6
CONTINUOUS
62
3
100
AcDbCircle
10
611.690000000000
20
439.450000000000
30
0.0
40
0.500026991590
100
AcDbArc
50
270.000000000000
51
82.126419067383
0
ARC
5
9ac
100
AcDbEntity
8
0-00-0
6
CONTINUOUS
62
3
100
AcDbCircle
10
611.690000000000
20
439.450000000000
30
0.0
40
1.000004629845
100
AcDbArc
50
270.000000000000
51
90.000000000000
0
ARC
5
9ad
100
AcDbEntity
8
0-00-0
6
CONTINUOUS
62
3
100
AcDbCircle
10
763.420000000000
20
439.950000000000
30
0.0
40
0.999999888054
100
AcDbArc
50
21.912094116211
51
158.087875366211
0
ARC
5
9ae
100
AcDbEntity
8
0-00-0
6
CONTINUOUS
62
3
100
AcDbCircle
10
763.420000000000
20
439.950000000000
30
0.0
40
1.499999880466
100
AcDbArc
50
21.912094116211
51
158.087875366211
0
ARC
5
9af
100
AcDbEntity
8
0-00-0
6
CONTINUOUS
62
3
100
AcDbCircle
10
766.120000000000
20
439.950000000000
30
0.0
40
0.999999888054
100
AcDbArc
50
201.912628173828
51
270.000000000000
0
ARC
5
9b0
100
AcDbEntity
8
0-00-0
6
CONTINUOUS
62
3
100
AcDbCircle
10
766.120000000000
20
439.950000000000
30
0.0
40
1.499999880466
100
AcDbArc
50
201.912628173828
51
270.000000000000
0
ARC
5
9b1
100
AcDbEntity
8
0-00-0
6
CONTINUOUS
62
3
100
AcDbCircle
10
760.730000000000
20
439.950000000000
30
0.0
40
0.999999888054
100
AcDbArc
50
270.000000000000
51
338.087341308594
0
ARC
5
9b2
100
AcDbEntity
8
0-00-0
6
CONTINUOUS
62
3
100
AcDbCircle
10
760.730000000000
20
439.950000000000
30
0.0
40
1.499999880466
100
AcDbArc
50
270.000000000000
51
338.087341308594
0
ARC
5
9b3
100
AcDbEntity
8
0-00-0
6
CONTINUOUS
62
4
100
AcDbCircle
10
773.370000000000
20
440.100000000000
30
0.0
40
0.249999996206
100
AcDbArc
50
360.000000000000
51
450.000000000000
0
ARC
5
9b4
100
AcDbEntity
8
0-00-0
6
CONTINUOUS
62
4
100
AcDbCircle
10
773.370000000000
20
439.700000000000
30
0.0
40
0.249999996206
100
AcDbArc
50
270.000000000000
51
360.000000000000
0
ARC
5
9b5
100
AcDbEntity
8
0-00-0
6
CONTINUOUS
62
4
100
AcDbCircle
10
765.370000000000
20
440.100000000000
30
0.0
40
0.249999996206
100
AcDbArc
50
90.000000000000
51
180.000000000000
0
ARC
5
9b6
100
AcDbEntity
8
0-00-0
6
CONTINUOUS
62
4
100
AcDbCircle
10
765.370000000000
20
439.700000000000
30
0.0
40
0.249999996206
100
AcDbArc
50
180.000000000000
51
270.000000000000
0
ARC
5
9b7
100
AcDbEntity
8
0-00-0
6
CONTINUOUS
62
3
100
AcDbCircle
10
776.420000000000
20
439.450000000000
30
0.0
40
0.500026991590
100
AcDbArc
50
270.000000000000
51
82.126419067383
0
ARC
5
9b8
100
AcDbEntity
8
0-00-0
6
CONTINUOUS
62
3
100
AcDbCircle
10
776.420000000000
20
439.450000000000
30
0.0
40
1.000004629845
100
AcDbArc
50
270.000000000000
51
90.000000000000
0
ARC
5
9b9
100
AcDbEntity
8
0-00-0
6
CONTINUOUS
62
3
100
AcDbCircle
10
486.160000000000
20
298.780000000000
30
0.0
40
0.499999992412
100
AcDbArc
50
180.000000000000
51
270.000000000000
0
ARC
5
9ba
100
AcDbEntity
8
0-00-0
6
CONTINUOUS
62
3
100
AcDbCircle
10
486.160000000000
20
298.780000000000
30
0.0
40
0.999999984825
100
AcDbArc
50
180.000000000000
51
270.000000000000
0
ARC
5
9bb
100
AcDbEntity
8
0-00-0
6
CONTINUOUS
62
3
100
AcDbCircle
10
486.160000000000
20
317.780000000000
30
0.0
40
0.499999992412
100
AcDbArc
50
90.000000000000
51
180.000000000000
0
ARC
5
9bc
100
AcDbEntity
8
0-00-0
6
CONTINUOUS
62
3
100
AcDbCircle
10
486.160000000000
20
317.780000000000
30
0.0
40
0.999999984825
100
AcDbArc
50
90.000000000000
51
180.000000000000
0
ARC
5
9bd
100
AcDbEntity
8
0-00-0
6
CONTINUOUS
62
3
100
AcDbCircle
10
514.410000000000
20
319.030000000000
30
0.0
40
0.750003375612
100
AcDbArc
50
270.000000000000
51
90.000000000000
0
ARC
5
9be
100
AcDbEntity
8
0-00-0
6
CONTINUOUS
62
3
100
AcDbCircle
10
514.410000000000
20
319.030000000000
30
0.0
40
0.250001157461
100
AcDbArc
50
270.000000000000
51
90.000000000000
0
ARC
5
9bf
100
AcDbEntity
8
0-00-0
6
CONTINUOUS
62
3
100
AcDbCircle
10
500.410000000000
20
297.530000000000
30
0.0
40
0.750003375612
100
AcDbArc
50
270.000000000000
51
90.000000000000
0
ARC
5
9c0
100
AcDbEntity
8
0-00-0
6
CONTINUOUS
62
3
100
AcDbCircle
10
500.410000000000
20
297.530000000000
30
0.0
40
0.250001157461
100
AcDbArc
50
270.000000000000
51
90.000000000000
0
ARC
5
9c1
100
AcDbEntity
8
0-00-0
6
CONTINUOUS
62
3
100
AcDbCircle
10
471.910000000000
20
297.530000000000
30
0.0
40
0.750003375612
100
AcDbArc
50
90.000000000000
51
-90.000000000000
0
ARC
5
9c2
100
AcDbEntity
8
0-00-0
6
CONTINUOUS
62
3
100
AcDbCircle
10
471.910000000000
20
297.530000000000
30
0.0
40
0.250001157461
100
AcDbArc
50
90.000000000000
51
-90.000000000000
0
ARC
5
9c3
100
AcDbEntity
8
0-00-0
6
CONTINUOUS
62
3
100
AcDbCircle
10
98.460000000000
20
321.780000000000
30
0.0
40
0.499999895641
100
AcDbArc
50
90.000000000000
51
180.000000000000
0
ARC
5
9c4
100
AcDbEntity
8
0-00-0
6
CONTINUOUS
62
3
100
AcDbCircle
10
116.460000000000
20
293.780000000000
30
0.0
40
0.499999895641
100
AcDbArc
50
270.000000000000
51
0.000000000000
0
ARC
5
9c5
100
AcDbEntity
8
0-00-0
6
CONTINUOUS
62
3
100
AcDbCircle
10
98.460000000000
20
293.780000000000
30
0.0
40
0.499999895641
100
AcDbArc
50
180.000000000000
51
270.000000000000
0
ARC
5
9c6
100
AcDbEntity
8
0-00-0
6
CONTINUOUS
62
3
100
AcDbCircle
10
116.460000000000
20
293.780000000000
30
0.0
40
0.999999888054
100
AcDbArc
50
270.000000000000
51
0.000000000000
0
ARC
5
9c7
100
AcDbEntity
8
0-00-0
6
CONTINUOUS
62
3
100
AcDbCircle
10
98.460000000000
20
321.780000000000
30
0.0
40
0.999999888054
100
AcDbArc
50
90.000000000000
51
180.000000000000
0
ARC
5
9c8
100
AcDbEntity
8
0-00-0
6
CONTINUOUS
62
3
100
AcDbCircle
10
116.460000000000
20
300.780000000000
30
0.0
40
0.499999895641
100
AcDbArc
50
360.000000000000
51
450.000000000000
0
ARC
5
9c9
100
AcDbEntity
8
0-00-0
6
CONTINUOUS
62
3
100
AcDbCircle
10
116.460000000000
20
300.780000000000
30
0.0
40
0.999999888054
100
AcDbArc
50
360.000000000000
51
450.000000000000
0
ARC
5
9ca
100
AcDbEntity
8
0-00-0
6
CONTINUOUS
62
3
100
AcDbCircle
10
116.460000000000
20
293.780000000000
30
0.0
40
0.499999895641
100
AcDbArc
50
270.000000000000
51
0.000000000000
0
ARC
5
9cb
100
AcDbEntity
8
0-00-0
6
CONTINUOUS
62
3
100
AcDbCircle
10
98.460000000000
20
293.780000000000
30
0.0
40
0.999999888054
100
AcDbArc
50
180.000000000000
51
270.000000000000
0
ARC
5
9cc
100
AcDbEntity
8
0-00-0
6
CONTINUOUS
62
3
100
AcDbCircle
10
512.910000000000
20
83.570000000000
30
0.0
40
0.499999895641
100
AcDbArc
50
270.000000000000
51
0.000000000000
0
ARC
5
9cd
100
AcDbEntity
8
0-00-0
6
CONTINUOUS
62
3
100
AcDbCircle
10
451.910000000000
20
83.570000000000
30
0.0
40
0.499999895641
100
AcDbArc
50
180.000000000000
51
270.000000000000
0
ARC
5
9ce
100
AcDbEntity
8
0-00-0
6
CONTINUOUS
62
3
100
AcDbCircle
10
451.910000000000
20
90.570000000000
30
0.0
40
0.499999895641
100
AcDbArc
50
90.000000000000
51
180.000000000000
0
ARC
5
9cf
100
AcDbEntity
8
0-00-0
6
CONTINUOUS
62
3
100
AcDbCircle
10
460.410000000000
20
92.070000000000
30
0.0
40
0.499999895641
100
AcDbArc
50
270.000000000000
51
0.000000000000
0
ARC
5
9d0
100
AcDbEntity
8
0-00-0
6
CONTINUOUS
62
3
100
AcDbCircle
10
460.410000000000
20
110.570000000000
30
0.0
40
0.499999895641
100
AcDbArc
50
360.000000000000
51
450.000000000000
0
ARC
5
9d1
100
AcDbEntity
8
0-00-0
6
CONTINUOUS
62
3
100
AcDbCircle
10
512.910000000000
20
83.570000000000
30
0.0
40
0.999999888054
100
AcDbArc
50
270.000000000000
51
0.000000000000
0
ARC
5
9d2
100
AcDbEntity
8
0-00-0
6
CONTINUOUS
62
3
100
AcDbCircle
10
451.910000000000
20
83.570000000000
30
0.0
40
0.999999888054
100
AcDbArc
50
180.000000000000
51
270.000000000000
0
ARC
5
9d3
100
AcDbEntity
8
0-00-0
6
CONTINUOUS
62
3
100
AcDbCircle
10
451.910000000000
20
90.570000000000
30
0.0
40
0.999999888054
100
AcDbArc
50
90.000000000000
51
180.000000000000
0
ARC
5
9d4
100
AcDbEntity
8
0-00-0
6
CONTINUOUS
62
3
100
AcDbCircle
10
460.410000000000
20
92.070000000000
30
0.0
40
0.999999888054
100
AcDbArc
50
270.000000000000
51
0.000000000000
0
ARC
5
9d5
100
AcDbEntity
8
0-00-0
6
CONTINUOUS
62
3
100
AcDbCircle
10
460.410000000000
20
110.570000000000
30
0.0
40
0.999999888054
100
AcDbArc
50
360.000000000000
51
450.000000000000
0
ARC
5
9d6
100
AcDbEntity
8
0-00-0
6
CONTINUOUS
62
3
100
AcDbCircle
10
139.650000000000
20
177.070000000000
30
0.0
40
0.499999895641
100
AcDbArc
50
360.000000000000
51
450.000000000000
0
ARC
5
9d7
100
AcDbEntity
8
0-00-0
6
CONTINUOUS
62
3
100
AcDbCircle
10
86.650000000000
20
177.070000000000
30
0.0
40
0.499999895641
100
AcDbArc
50
90.000000000000
51
180.000000000000
0
ARC
5
9d8
100
AcDbEntity
8
0-00-0
6
CONTINUOUS
62
3
100
AcDbCircle
10
86.650000000000
20
124.070000000000
30
0.0
40
0.499999895641
100
AcDbArc
50
180.000000000000
51
-90.000000000000
0
ARC
5
9d9
100
AcDbEntity
8
0-00-0
6
CONTINUOUS
62
3
100
AcDbCircle
10
100.650000000000
20
122.570000000000
30
0.0
40
0.499999895641
100
AcDbArc
50
360.000000000000
51
450.000000000000
0
ARC
5
9da
100
AcDbEntity
8
0-00-0
6
CONTINUOUS
62
3
100
AcDbCircle
10
139.650000000000
20
177.070000000000
30
0.0
40
0.999999888054
100
AcDbArc
50
360.000000000000
51
450.000000000000
0
ARC
5
9db
100
AcDbEntity
8
0-00-0
6
CONTINUOUS
62
3
100
AcDbCircle
10
86.650000000000
20
177.070000000000
30
0.0
40
0.999999888054
100
AcDbArc
50
90.000000000000
51
180.000000000000
0
ARC
5
9dc
100
AcDbEntity
8
0-00-0
6
CONTINUOUS
62
3
100
AcDbCircle
10
86.650000000000
20
124.070000000000
30
0.0
40
0.999999888054
100
AcDbArc
50
180.000000000000
51
-90.000000000000
0
ARC
5
9dd
100
AcDbEntity
8
0-00-0
6
CONTINUOUS
62
3
100
AcDbCircle
10
100.650000000000
20
122.570000000000
30
0.0
40
0.999999888054
100
AcDbArc
50
360.000000000000
51
450.000000000000
0
ARC
5
9de
100
AcDbEntity
8
0-00-0
6
CONTINUOUS
62
3
100
AcDbCircle
10
651.250000000000
20
145.570000000000
30
0.0
40
0.499999895641
100
AcDbArc
50
270.000000000000
51
0.000000000000
0
ARC
5
9df
100
AcDbEntity
8
0-00-0
6
CONTINUOUS
62
3
100
AcDbCircle
10
651.250000000000
20
163.570000000000
30
0.0
40
0.499999895641
100
AcDbArc
50
360.000000000000
51
450.000000000000
0
ARC
5
9e0
100
AcDbEntity
8
0-00-0
6
CONTINUOUS
62
3
100
AcDbCircle
10
642.750000000000
20
165.070000000000
30
0.0
40
0.499999895641
100
AcDbArc
50
180.000000000000
51
270.000000000000
0
ARC
5
9e1
100
AcDbEntity
8
0-00-0
6
CONTINUOUS
62
3
100
AcDbCircle
10
642.750000000000
20
172.070000000000
30
0.0
40
0.499999895641
100
AcDbArc
50
90.000000000000
51
180.000000000000
0
ARC
5
9e2
100
AcDbEntity
8
0-00-0
6
CONTINUOUS
62
3
100
AcDbCircle
10
703.750000000000
20
172.070000000000
30
0.0
40
0.499999895641
100
AcDbArc
50
360.000000000000
51
450.000000000000
0
ARC
5
9e3
100
AcDbEntity
8
0-00-0
6
CONTINUOUS
62
3
100
AcDbCircle
10
703.750000000000
20
172.070000000000
30
0.0
40
0.999999888054
100
AcDbArc
50
360.000000000000
51
450.000000000000
0
ARC
5
9e4
100
AcDbEntity
8
0-00-0
6
CONTINUOUS
62
3
100
AcDbCircle
10
642.750000000000
20
172.070000000000
30
0.0
40
0.999999888054
100
AcDbArc
50
90.000000000000
51
180.000000000000
0
ARC
5
9e5
100
AcDbEntity
8
0-00-0
6
CONTINUOUS
62
3
100
AcDbCircle
10
642.750000000000
20
165.070000000000
30
0.0
40
0.999999888054
100
AcDbArc
50
180.000000000000
51
270.000000000000
0
ARC
5
9e6
100
AcDbEntity
8
0-00-0
6
CONTINUOUS
62
3
100
AcDbCircle
10
651.250000000000
20
163.570000000000
30
0.0
40
0.999999888054
100
AcDbArc
50
360.000000000000
51
450.000000000000
0
ARC
5
9e7
100
AcDbEntity
8
0-00-0
6
CONTINUOUS
62
3
100
AcDbCircle
10
651.250000000000
20
145.570000000000
30
0.0
40
0.999999888054
100
AcDbArc
50
270.000000000000
51
0.000000000000
0
ARC
5
9e8
100
AcDbEntity
8
0-00-0
6
CONTINUOUS
62
3
100
AcDbCircle
10
703.750000000000
20
111.070000000000
30
0.0
40
0.499999895641
100
AcDbArc
50
270.000000000000
51
0.000000000000
0
ARC
5
9e9
100
AcDbEntity
8
0-00-0
6
CONTINUOUS
62
3
100
AcDbCircle
10
696.750000000000
20
111.070000000000
30
0.0
40
0.499999895641
100
AcDbArc
50
180.000000000000
51
270.000000000000
0
ARC
5
9ea
100
AcDbEntity
8
0-00-0
6
CONTINUOUS
62
3
100
AcDbCircle
10
695.250000000000
20
119.570000000000
30
0.0
40
0.499999895641
100
AcDbArc
50
360.000000000000
51
450.000000000000
0
ARC
5
9eb
100
AcDbEntity
8
0-00-0
6
CONTINUOUS
62
3
100
AcDbCircle
10
677.250000000000
20
119.570000000000
30
0.0
40
0.499999895641
100
AcDbArc
50
90.000000000000
51
180.000000000000
0
ARC
5
9ec
100
AcDbEntity
8
0-00-0
6
CONTINUOUS
62
3
100
AcDbCircle
10
677.250000000000
20
119.570000000000
30
0.0
40
0.999999888054
100
AcDbArc
50
90.000000000000
51
180.000000000000
0
ARC
5
9ed
100
AcDbEntity
8
0-00-0
6
CONTINUOUS
62
3
100
AcDbCircle
10
695.250000000000
20
119.570000000000
30
0.0
40
0.999999888054
100
AcDbArc
50
360.000000000000
51
450.000000000000
0
ARC
5
9ee
100
AcDbEntity
8
0-00-0
6
CONTINUOUS
62
3
100
AcDbCircle
10
696.750000000000
20
111.070000000000
30
0.0
40
0.999999888054
100
AcDbArc
50
180.000000000000
51
270.000000000000
0
ARC
5
9ef
100
AcDbEntity
8
0-00-0
6
CONTINUOUS
62
3
100
AcDbCircle
10
703.750000000000
20
111.070000000000
30
0.0
40
0.999999888054
100
AcDbArc
50
270.000000000000
51
0.000000000000
0
ARC
5
9f0
100
AcDbEntity
8
0-00-0
6
CONTINUOUS
62
3
100
AcDbCircle
10
479.410000000000
20
148.540000000000
30
0.0
40
0.499999895641
100
AcDbArc
50
180.000000000000
51
265.914367675781
0
ARC
5
9f1
100
AcDbEntity
8
0-00-0
6
CONTINUOUS
62
3
100
AcDbCircle
10
512.910000000000
20
144.640000000000
30
0.0
40
0.499999895641
100
AcDbArc
50
360.000000000000
51
445.914367675781
0
ARC
5
9f2
100
AcDbEntity
8
0-00-0
6
CONTINUOUS
62
3
100
AcDbCircle
10
479.410000000000
20
148.540000000000
30
0.0
40
0.999999888054
100
AcDbArc
50
180.000000000000
51
265.914367675781
0
ARC
5
9f3
100
AcDbEntity
8
0-00-0
6
CONTINUOUS
62
3
100
AcDbCircle
10
512.910000000000
20
144.640000000000
30
0.0
40
0.999999888054
100
AcDbArc
50
360.000000000000
51
445.914367675781
0
ARC
5
9f4
100
AcDbEntity
8
0-00-0
6
CONTINUOUS
62
3
100
AcDbCircle
10
145.470000000000
20
160.070000000000
30
0.0
40
0.999999888054
100
AcDbArc
50
21.912094116211
51
158.087875366211
0
ARC
5
9f5
100
AcDbEntity
8
0-00-0
6
CONTINUOUS
62
3
100
AcDbCircle
10
145.470000000000
20
160.070000000000
30
0.0
40
1.499999880466
100
AcDbArc
50
21.912094116211
51
158.087875366211
0
ARC
5
9f6
100
AcDbEntity
8
0-00-0
6
CONTINUOUS
62
3
100
AcDbCircle
10
148.170000000000
20
160.070000000000
30
0.0
40
0.999999888054
100
AcDbArc
50
201.912628173828
51
270.000000000000
0
ARC
5
9f7
100
AcDbEntity
8
0-00-0
6
CONTINUOUS
62
3
100
AcDbCircle
10
148.170000000000
20
160.070000000000
30
0.0
40
1.499999880466
100
AcDbArc
50
201.912628173828
51
270.000000000000
0
ARC
5
9f8
100
AcDbEntity
8
0-00-0
6
CONTINUOUS
62
3
100
AcDbCircle
10
142.780000000000
20
160.070000000000
30
0.0
40
0.999999888054
100
AcDbArc
50
270.000000000000
51
338.087341308594
0
ARC
5
9f9
100
AcDbEntity
8
0-00-0
6
CONTINUOUS
62
3
100
AcDbCircle
10
142.780000000000
20
160.070000000000
30
0.0
40
1.499999880466
100
AcDbArc
50
270.000000000000
51
338.087341308594
0
ARC
5
9fa
100
AcDbEntity
8
0-00-0
6
CONTINUOUS
62
3
100
AcDbCircle
10
130.470000000000
20
160.570000000000
30
0.0
40
2.000009259689
100
AcDbArc
50
90.000000000000
51
270.000000000000
0
ARC
5
9fb
100
AcDbEntity
8
0-00-0
6
CONTINUOUS
62
3
100
AcDbCircle
10
130.470000000000
20
160.570000000000
30
0.0
40
1.500031718206
100
AcDbArc
50
90.000000000000
51
270.000000000000
0
ARC
5
9fc
100
AcDbEntity
8
0-00-0
6
CONTINUOUS
62
3
100
AcDbCircle
10
139.650000000000
20
163.070000000000
30
0.0
40
0.499999992412
100
AcDbArc
50
270.000000000000
51
360.000000000000
0
ARC
5
9fd
100
AcDbEntity
8
0-00-0
6
CONTINUOUS
62
3
100
AcDbCircle
10
139.650000000000
20
163.070000000000
30
0.0
40
0.999999984825
100
AcDbArc
50
270.000000000000
51
360.000000000000
0
ARC
5
9fe
100
AcDbEntity
8
0-00-0
6
CONTINUOUS
62
3
100
AcDbCircle
10
349.060000000000
20
158.570000000000
30
0.0
40
0.499999895641
100
AcDbArc
50
90.000000000000
51
180.000000000000
0
ARC
5
9ff
100
AcDbEntity
8
0-00-0
6
CONTINUOUS
62
3
100
AcDbCircle
10
349.060000000000
20
158.570000000000
30
0.0
40
0.999999888054
100
AcDbArc
50
90.000000000000
51
180.000000000000
0
ARC
5
a00
100
AcDbEntity
8
0-00-0
6
CONTINUOUS
62
3
100
AcDbCircle
10
366.060000000000
20
164.390000000000
30
0.0
40
0.999999888054
100
AcDbArc
50
111.912094116211
51
248.087875366211
0
ARC
5
a01
100
AcDbEntity
8
0-00-0
6
CONTINUOUS
62
3
100
AcDbCircle
10
366.060000000000
20
164.390000000000
30
0.0
40
1.499999880466
100
AcDbArc
50
111.912094116211
51
248.087875366211
0
ARC
5
a02
100
AcDbEntity
8
0-00-0
6
CONTINUOUS
62
3
100
AcDbCircle
10
366.060000000000
20
167.090000000000
30
0.0
40
0.999999888054
100
AcDbArc
50
291.912628173828
51
360.000000000000
0
ARC
5
a03
100
AcDbEntity
8
0-00-0
6
CONTINUOUS
62
3
100
AcDbCircle
10
366.060000000000
20
167.090000000000
30
0.0
40
1.499999880466
100
AcDbArc
50
291.912628173828
51
360.000000000000
0
ARC
5
a04
100
AcDbEntity
8
0-00-0
6
CONTINUOUS
62
3
100
AcDbCircle
10
366.060000000000
20
161.700000000000
30
0.0
40
0.999999888054
100
AcDbArc
50
360.000000000000
51
428.087341308594
0
ARC
5
a05
100
AcDbEntity
8
0-00-0
6
CONTINUOUS
62
3
100
AcDbCircle
10
366.060000000000
20
161.700000000000
30
0.0
40
1.499999880466
100
AcDbArc
50
360.000000000000
51
428.087341308594
0
ARC
5
a06
100
AcDbEntity
8
0-00-0
6
CONTINUOUS
62
3
100
AcDbCircle
10
365.560000000000
20
149.390000000000
30
0.0
40
2.000009259689
100
AcDbArc
50
180.000000000000
51
360.000000000000
0
ARC
5
a07
100
AcDbEntity
8
0-00-0
6
CONTINUOUS
62
3
100
AcDbCircle
10
365.560000000000
20
149.390000000000
30
0.0
40
1.500031718206
100
AcDbArc
50
180.000000000000
51
360.000000000000
0
ARC
5
a08
100
AcDbEntity
8
0-00-0
6
CONTINUOUS
62
3
100
AcDbCircle
10
363.060000000000
20
158.570000000000
30
0.0
40
0.499999992412
100
AcDbArc
50
360.000000000000
51
450.000000000000
0
ARC
5
a09
100
AcDbEntity
8
0-00-0
6
CONTINUOUS
62
3
100
AcDbCircle
10
363.060000000000
20
158.570000000000
30
0.0
40
0.999999984825
100
AcDbArc
50
360.000000000000
51
450.000000000000
0
ARC
5
a0a
100
AcDbEntity
8
0-00-0
6
CONTINUOUS
62
3
100
AcDbCircle
10
294.060000000000
20
103.570000000000
30
0.0
40
0.499999895641
100
AcDbArc
50
90.000000000000
51
-180.000000000000
0
ARC
5
a0b
100
AcDbEntity
8
0-00-0
6
CONTINUOUS
62
3
100
AcDbCircle
10
292.560000000000
20
89.570000000000
30
0.0
40
0.499999895641
100
AcDbArc
50
270.000000000000
51
360.000000000000
0
ARC
5
a0c
100
AcDbEntity
8
0-00-0
6
CONTINUOUS
62
3
100
AcDbCircle
10
294.060000000000
20
103.570000000000
30
0.0
40
0.999999888054
100
AcDbArc
50
90.000000000000
51
-180.000000000000
0
ARC
5
a0d
100
AcDbEntity
8
0-00-0
6
CONTINUOUS
62
3
100
AcDbCircle
10
292.560000000000
20
89.570000000000
30
0.0
40
0.999999888054
100
AcDbArc
50
270.000000000000
51
360.000000000000
0
ARC
5
a0e
100
AcDbEntity
8
0-00-0
6
CONTINUOUS
62
3
100
AcDbCircle
10
347.560000000000
20
105.070000000000
30
0.0
40
0.499999992412
100
AcDbArc
50
270.000000000000
51
0.000000000000
0
ARC
5
a0f
100
AcDbEntity
8
0-00-0
6
CONTINUOUS
62
3
100
AcDbCircle
10
347.560000000000
20
105.070000000000
30
0.0
40
0.999999984825
100
AcDbArc
50
270.000000000000
51
0.000000000000
0
ARC
5
a10
100
AcDbEntity
8
0-00-0
6
CONTINUOUS
62
3
100
AcDbCircle
10
670.750000000000
20
256.480000000000
30
0.0
40
0.499999895641
100
AcDbArc
50
270.000000000000
51
360.000000000000
0
ARC
5
a11
100
AcDbEntity
8
0-00-0
6
CONTINUOUS
62
3
100
AcDbCircle
10
670.750000000000
20
256.480000000000
30
0.0
40
0.999999888054
100
AcDbArc
50
270.000000000000
51
360.000000000000
0
ARC
5
a12
100
AcDbEntity
8
0-00-0
6
CONTINUOUS
62
3
100
AcDbCircle
10
663.750000000000
20
256.480000000000
30
0.0
40
0.499999895641
100
AcDbArc
50
180.000000000000
51
270.000000000000
0
ARC
5
a13
100
AcDbEntity
8
0-00-0
6
CONTINUOUS
62
3
100
AcDbCircle
10
663.750000000000
20
256.480000000000
30
0.0
40
0.999999888054
100
AcDbArc
50
180.000000000000
51
270.000000000000
0
ARC
5
a14
100
AcDbEntity
8
0-00-0
6
CONTINUOUS
62
3
100
AcDbCircle
10
670.750000000000
20
256.480000000000
30
0.0
40
0.499999895641
100
AcDbArc
50
270.000000000000
51
360.000000000000
0
ARC
5
a15
100
AcDbEntity
8
0-00-0
6
CONTINUOUS
62
3
100
AcDbCircle
10
642.750000000000
20
283.780000000000
30
0.0
40
0.499999895641
100
AcDbArc
50
180.000000000000
51
265.914367675781
0
ARC
5
a16
100
AcDbEntity
8
0-00-0
6
CONTINUOUS
62
3
100
AcDbCircle
10
642.750000000000
20
283.780000000000
30
0.0
40
0.999999888054
100
AcDbArc
50
180.000000000000
51
265.914367675781
0
ARC
5
a17
100
AcDbEntity
8
0-00-0
6
CONTINUOUS
62
3
100
AcDbCircle
10
670.750000000000
20
279.570000000000
30
0.0
40
0.499999895641
100
AcDbArc
50
360.000000000000
51
444.387145996094
0
ARC
5
a18
100
AcDbEntity
8
0-00-0
6
CONTINUOUS
62
3
100
AcDbCircle
10
670.750000000000
20
279.570000000000
30
0.0
40
0.999999888054
100
AcDbArc
50
360.000000000000
51
444.387145996094
0
ARC
5
a19
100
AcDbEntity
8
0-00-0
6
CONTINUOUS
62
3
100
AcDbCircle
10
283.370000000000
20
321.780000000000
30
0.0
40
0.499999895641
100
AcDbArc
50
90.000000000000
51
180.000000000000
0
ARC
5
a1a
100
AcDbEntity
8
0-00-0
6
CONTINUOUS
62
3
100
AcDbCircle
10
301.370000000000
20
293.780000000000
30
0.0
40
0.499999895641
100
AcDbArc
50
270.000000000000
51
0.000000000000
0
ARC
5
a1b
100
AcDbEntity
8
0-00-0
6
CONTINUOUS
62
3
100
AcDbCircle
10
283.370000000000
20
293.780000000000
30
0.0
40
0.499999895641
100
AcDbArc
50
180.000000000000
51
270.000000000000
0
ARC
5
a1c
100
AcDbEntity
8
0-00-0
6
CONTINUOUS
62
3
100
AcDbCircle
10
301.370000000000
20
293.780000000000
30
0.0
40
0.999999888054
100
AcDbArc
50
270.000000000000
51
0.000000000000
0
ARC
5
a1d
100
AcDbEntity
8
0-00-0
6
CONTINUOUS
62
3
100
AcDbCircle
10
283.370000000000
20
321.780000000000
30
0.0
40
0.999999888054
100
AcDbArc
50
90.000000000000
51
180.000000000000
0
ARC
5
a1e
100
AcDbEntity
8
0-00-0
6
CONTINUOUS
62
3
100
AcDbCircle
10
301.370000000000
20
300.780000000000
30
0.0
40
0.499999895641
100
AcDbArc
50
360.000000000000
51
450.000000000000
0
ARC
5
a1f
100
AcDbEntity
8
0-00-0
6
CONTINUOUS
62
3
100
AcDbCircle
10
301.370000000000
20
300.780000000000
30
0.0
40
0.999999888054
100
AcDbArc
50
360.000000000000
51
450.000000000000
0
ARC
5
a20
100
AcDbEntity
8
0-00-0
6
CONTINUOUS
62
3
100
AcDbCircle
10
301.370000000000
20
293.780000000000
30
0.0
40
0.499999895641
100
AcDbArc
50
270.000000000000
51
0.000000000000
0
ARC
5
a21
100
AcDbEntity
8
0-00-0
6
CONTINUOUS
62
3
100
AcDbCircle
10
283.370000000000
20
293.780000000000
30
0.0
40
0.999999888054
100
AcDbArc
50
180.000000000000
51
270.000000000000
0
ARC
5
a22
100
AcDbEntity
8
0-00-0
6
CONTINUOUS
62
4
100
AcDbCircle
10
882.200000000000
20
439.150000000000
30
0.0
40
0.300000005125
100
AcDbArc
50
10.386993408203
51
90.000000000000
0
ARC
5
a23
100
AcDbEntity
8
0-00-0
6
CONTINUOUS
62
4
100
AcDbCircle
10
887.300000000000
20
439.150000000000
30
0.0
40
0.300000005125
100
AcDbArc
50
90.000000000000
51
169.608993530273
0
ARC
5
a24
100
AcDbEntity
8
0-00-0
6
CONTINUOUS
62
4
100
AcDbCircle
10
889.500000000000
20
440.150000000000
30
0.0
40
0.249999996206
100
AcDbArc
50
360.000000000000
51
450.000000000000
0
ARC
5
a25
100
AcDbEntity
8
0-00-0
6
CONTINUOUS
62
4
100
AcDbCircle
10
889.500000000000
20
439.700000000000
30
0.0
40
0.249999996206
100
AcDbArc
50
270.000000000000
51
360.000000000000
0
ARC
5
a26
100
AcDbEntity
8
0-00-0
6
CONTINUOUS
62
4
100
AcDbCircle
10
880.000000000000
20
440.150000000000
30
0.0
40
0.249999996206
100
AcDbArc
50
90.000000000000
51
180.000000000000
0
ARC
5
a27
100
AcDbEntity
8
0-00-0
6
CONTINUOUS
62
4
100
AcDbCircle
10
880.000000000000
20
439.700000000000
30
0.0
40
0.249999996206
100
AcDbArc
50
180.000000000000
51
-90.000000000000
0
ARC
5
a28
100
AcDbEntity
8
0-00-0
6
CONTINUOUS
62
4
100
AcDbCircle
10
865.710000000000
20
440.100000000000
30
0.0
40
0.249999996206
100
AcDbArc
50
360.000000000000
51
450.000000000000
0
ARC
5
a29
100
AcDbEntity
8
0-00-0
6
CONTINUOUS
62
4
100
AcDbCircle
10
865.710000000000
20
439.700000000000
30
0.0
40
0.249999996206
100
AcDbArc
50
270.000000000000
51
360.000000000000
0
ARC
5
a2a
100
AcDbEntity
8
0-00-0
6
CONTINUOUS
62
4
100
AcDbCircle
10
857.710000000000
20
440.100000000000
30
0.0
40
0.249999996206
100
AcDbArc
50
90.000000000000
51
180.000000000000
0
ARC
5
a2b
100
AcDbEntity
8
0-00-0
6
CONTINUOUS
62
4
100
AcDbCircle
10
857.710000000000
20
439.700000000000
30
0.0
40
0.249999996206
100
AcDbArc
50
180.000000000000
51
270.000000000000
0
TEXT
5
a2c
100
AcDbEntity
8
0-30-3
62
3
100
AcDbText
10
265.928
20
37.427
30
0.0
40
2.925
1
変　　　　　　更　　　　　　記　　　　　　事
41
1.167
50
0.000
100
AcDbText
0
TEXT
5
a2d
100
AcDbEntity
8
0-30-3
62
3
100
AcDbText
10
407.795
20
37.027
30
0.0
40
2.925
1
受領　　日附
41
1.167
50
0.000
100
AcDbText
0
TEXT
5
a2e
100
AcDbEntity
8
0-30-3
62
3
100
AcDbText
10
506.904
20
22.311
30
0.0
40
2.925
1
施工者
41
1.167
50
0.000
100
AcDbText
0
TEXT
5
a2f
100
AcDbEntity
8
0-30-3
62
3
100
AcDbText
10
506.904
20
37.126
30
0.0
40
2.925
1
設計者
41
1.167
50
0.000
100
AcDbText
0
TEXT
5
a30
100
AcDbEntity
8
0-30-3
62
3
100
AcDbText
10
609.646
20
22.040
30
0.0
40
2.925
1
作図
41
1.167
50
0.000
100
AcDbText
0
TEXT
5
a31
100
AcDbEntity
8
0-30-3
62
3
100
AcDbText
10
645.559
20
22.305
30
0.0
40
2.925
1
図面名
41
1.167
50
0.000
100
AcDbText
0
TEXT
5
a32
100
AcDbEntity
8
0-30-3
62
3
100
AcDbText
10
609.646
20
36.854
30
0.0
40
2.925
1
日附
41
1.167
50
0.000
100
AcDbText
0
TEXT
5
a33
100
AcDbEntity
8
0-30-3
62
3
100
AcDbText
10
645.559
20
37.120
30
0.0
40
2.925
1
工事件名
41
1.167
50
0.000
100
AcDbText
0
TEXT
5
a34
100
AcDbEntity
8
0-30-3
62
3
100
AcDbText
10
620.714
20
36.729
30
0.0
40
2.925
1
年　月　日
41
1.167
50
0.000
100
AcDbText
0
TEXT
5
a35
100
AcDbEntity
8
0-30-3
62
3
100
AcDbText
10
620.714
20
21.914
30
0.0
40
2.925
1
年　月　日
41
1.167
50
0.000
100
AcDbText
0
TEXT
5
a36
100
AcDbEntity
8
0-30-3
62
3
100
AcDbText
10
771.731
20
37.120
30
0.0
40
2.925
1
設計番号
41
1.167
50
0.000
100
AcDbText
0
TEXT
5
a37
100
AcDbEntity
8
0-30-3
62
3
100
AcDbText
10
193.389
20
33.735
30
0.0
40
2.925
1
. 　.　 
41
1.167
50
0.000
100
AcDbText
0
TEXT
5
a38
100
AcDbEntity
8
0-30-3
62
3
100
AcDbText
10
193.389
20
28.797
30
0.0
40
2.925
1
. 　.　 
41
1.167
50
0.000
100
AcDbText
0
TEXT
5
a39
100
AcDbEntity
8
0-30-3
62
3
100
AcDbText
10
193.389
20
23.859
30
0.0
40
2.925
1
. 　.　 
41
1.167
50
0.000
100
AcDbText
0
TEXT
5
a3a
100
AcDbEntity
8
0-30-3
62
3
100
AcDbText
10
193.389
20
18.920
30
0.0
40
2.925
1
. 　.　 
41
1.167
50
0.000
100
AcDbText
0
TEXT
5
a3b
100
AcDbEntity
8
0-30-3
62
3
100
AcDbText
10
193.389
20
13.982
30
0.0
40
2.925
1
. 　.　 
41
1.167
50
0.000
100
AcDbText
0
TEXT
5
a3c
100
AcDbEntity
8
0-30-3
62
3
100
AcDbText
10
517.035
20
30.588
30
0.0
40
3.900
1
　　　　　　　　　　
41
1.125
50
0.000
100
AcDbText
0
TEXT
5
a3d
100
AcDbEntity
8
0-30-3
62
3
100
AcDbText
10
517.035
20
15.773
30
0.0
40
3.900
1
　　　　　　　　　　
41
1.125
50
0.000
100
AcDbText
0
TEXT
5
a3e
100
AcDbEntity
8
0-30-3
62
3
100
AcDbText
10
658.767
20
31.361
30
0.0
40
3.900
1
　　　　　　　　　　　　　
41
1.125
50
0.000
100
AcDbText
0
TEXT
5
a3f
100
AcDbEntity
8
0-30-3
62
3
100
AcDbText
10
188.903
20
37.395
30
0.0
40
2.925
1
年　月　日
41
1.167
50
0.000
100
AcDbText
0
TEXT
5
a40
100
AcDbEntity
8
0-30-3
62
3
100
AcDbText
10
436.381
20
36.735
30
0.0
40
2.925
1
年　　月　　日
41
1.167
50
0.000
100
AcDbText
0
TEXT
5
a41
100
AcDbEntity
8
0-30-3
62
3
100
AcDbText
10
442.657
20
31.524
30
0.0
40
2.925
1
.　 　.
41
1.167
50
0.000
100
AcDbText
0
TEXT
5
a42
100
AcDbEntity
8
0-30-3
62
3
100
AcDbText
10
407.795
20
22.212
30
0.0
40
2.925
1
受領　　日附
41
1.167
50
0.000
100
AcDbText
0
TEXT
5
a43
100
AcDbEntity
8
0-30-3
62
3
100
AcDbText
10
436.381
20
21.920
30
0.0
40
2.925
1
年　　月　　日
41
1.167
50
0.000
100
AcDbText
0
TEXT
5
a44
100
AcDbEntity
8
0-30-3
62
3
100
AcDbText
10
442.657
20
16.709
30
0.0
40
2.925
1
.　 　.
41
1.167
50
0.000
100
AcDbText
0
TEXT
5
a45
100
AcDbEntity
8
0-30-3
62
3
100
AcDbText
10
624.100
20
30.667
30
0.0
40
2.925
1
.　　.　
41
1.167
50
0.000
100
AcDbText
0
TEXT
5
a46
100
AcDbEntity
8
0-30-3
62
3
100
AcDbText
10
771.731
20
22.305
30
0.0
40
2.925
1
縮　尺
41
1.167
50
0.000
100
AcDbText
0
TEXT
5
a47
100
AcDbEntity
8
0-30-3
62
3
100
AcDbText
10
783.350
20
20.225
30
0.0
40
3.900
1
Ａ１－１／１　
41
1.125
50
0.000
100
AcDbText
0
TEXT
5
a48
100
AcDbEntity
8
0-30-3
62
3
100
AcDbText
10
783.350
20
12.817
30
0.0
40
3.900
1
Ａ３－１／２　
41
1.125
50
0.000
100
AcDbText
0
TEXT
5
a49
100
AcDbEntity
8
0-30-3
62
3
100
AcDbText
10
771.740
20
29.845
30
0.0
40
4.875
1
ＫＳ－ＮＫ－０１
41
1.100
50
0.000
100
AcDbText
0
TEXT
5
a4a
100
AcDbEntity
8
0-30-3
62
3
100
AcDbText
10
83.178
20
13.785
30
0.0
40
3.900
1
電話（０５４）２６３－２２８０（代表）
41
1.125
50
0.000
100
AcDbText
0
TEXT
5
a4b
100
AcDbEntity
8
0-30-3
62
3
100
AcDbText
10
61.073
20
29.382
30
0.0
40
7.800
1
小　池　弥　太　郎　商　店
41
1.125
50
0.000
100
AcDbText
0
TEXT
5
a4c
100
AcDbEntity
8
0-30-3
62
3
100
AcDbText
10
83.176
20
21.201
30
0.0
40
3.900
1
静岡県静岡市葵区流通センター１６番
41
1.125
50
0.000
100
AcDbText
0
TEXT
5
a4d
100
AcDbEntity
8
0-30-3
62
3
100
AcDbText
10
49.950
20
33.676
30
0.0
40
2.925
1
株
41
1.167
50
0.000
100
AcDbText
0
TEXT
5
a4e
100
AcDbEntity
8
0-30-3
62
3
100
AcDbText
10
53.525
20
30.051
30
0.0
40
2.925
1
社
41
1.167
50
0.000
100
AcDbText
0
TEXT
5
a4f
100
AcDbEntity
8
0-30-3
62
3
100
AcDbText
10
49.925
20
30.051
30
0.0
40
2.925
1
会
41
1.167
50
0.000
100
AcDbText
0
TEXT
5
a50
100
AcDbEntity
8
0-30-3
62
3
100
AcDbText
10
53.325
20
33.576
30
0.0
40
2.925
1
式
41
1.167
50
0.000
100
AcDbText
0
TEXT
5
a51
100
AcDbEntity
8
0-30-3
62
3
100
AcDbText
10
658.767
20
16.546
30
0.0
40
3.900
1
ＮＫスパン１６５　断面図
41
1.125
50
0.000
100
AcDbText
0
TEXT
5
a52
100
AcDbEntity
8
0-00-0
62
3
100
AcDbText
10
273.375
20
419.448
30
0.0
40
6.825
1
12
41
1.143
50
0.000
100
AcDbText
0
TEXT
5
a53
100
AcDbEntity
8
0-00-0
62
3
100
AcDbText
10
282.786
20
409.448
30
0.0
40
6.825
1
31
41
1.143
50
0.000
100
AcDbText
0
TEXT
5
a54
100
AcDbEntity
8
0-00-0
62
3
100
AcDbText
10
182.963
20
489.448
30
0.0
40
6.825
1
29
41
1.143
50
0.000
100
AcDbText
0
TEXT
5
a55
100
AcDbEntity
8
0-00-0
62
3
100
AcDbText
10
155.463
20
489.448
30
0.0
40
6.825
1
26
41
1.143
50
0.000
100
AcDbText
0
TEXT
5
a56
100
AcDbEntity
8
0-00-0
62
3
100
AcDbText
10
237.963
20
489.448
30
0.0
40
6.825
1
29
41
1.143
50
0.000
100
AcDbText
0
TEXT
5
a57
100
AcDbEntity
8
0-00-0
62
3
100
AcDbText
10
210.463
20
489.448
30
0.0
40
6.825
1
26
41
1.143
50
0.000
100
AcDbText
0
TEXT
5
a58
100
AcDbEntity
8
0-00-0
62
3
100
AcDbText
10
265.463
20
489.448
30
0.0
40
6.825
1
26
41
1.143
50
0.000
100
AcDbText
0
TEXT
5
a59
100
AcDbEntity
8
0-00-0
62
3
100
AcDbText
10
123.597
20
409.448
30
0.0
40
6.825
1
38
41
1.143
50
0.000
100
AcDbText
0
TEXT
5
a5a
100
AcDbEntity
8
0-00-0
62
3
100
AcDbText
10
80.881
20
446.430
30
0.0
40
7.800
1
15
41
1.125
50
0.000
100
AcDbText
0
TEXT
5
a5b
100
AcDbEntity
8
0-00-0
62
3
100
AcDbText
10
208.463
20
499.448
30
0.0
40
6.825
1
136
41
1.143
50
0.000
100
AcDbText
0
TEXT
5
a5c
100
AcDbEntity
8
0-00-0
62
3
100
AcDbText
10
193.963
20
509.448
30
0.0
40
6.825
1
165
41
1.143
50
0.000
100
AcDbText
0
TEXT
5
a5d
100
AcDbEntity
8
0-00-0
62
3
100
AcDbText
10
288.875
20
419.448
30
0.0
40
6.825
1
19
41
1.143
50
0.000
100
AcDbText
0
TEXT
5
a5e
100
AcDbEntity
8
0-00-0
62
3
100
AcDbText
10
320.415
20
444.467
30
0.0
40
7.800
1
18
41
1.125
50
0.000
100
AcDbText
0
TEXT
5
a5f
100
AcDbEntity
8
0-00-0
62
3
100
AcDbText
10
127.963
20
489.448
30
0.0
40
6.825
1
29
41
1.143
50
0.000
100
AcDbText
0
TEXT
5
a60
100
AcDbEntity
8
0-00-0
62
3
100
AcDbText
10
76.463
20
543.023
30
0.0
40
6.825
1
ＮＫスパン１６５
41
1.143
50
0.000
100
AcDbText
0
TEXT
5
a61
100
AcDbEntity
8
0-00-0
62
3
100
AcDbText
10
387.116
20
525.423
30
0.0
40
6.825
1
ＮＫスパン１６５（嵌合参考図）
41
1.143
50
0.000
100
AcDbText
0
TEXT
5
a62
100
AcDbEntity
8
0-00-0
62
3
100
AcDbText
10
438.967
20
359.355
30
0.0
40
6.825
1
ＮＫ－４００（Ｈ型接続）
41
1.143
50
0.000
100
AcDbText
0
TEXT
5
a63
100
AcDbEntity
8
0-00-0
62
3
100
AcDbText
10
438.967
20
349.355
30
0.0
40
6.825
1
Ｌ＝２０００～３０００
41
1.143
50
0.000
100
AcDbText
0
TEXT
5
a64
100
AcDbEntity
8
0-00-0
62
3
100
AcDbText
10
481.406
20
330.780
30
0.0
40
6.825
1
60
41
1.143
50
0.000
100
AcDbText
0
TEXT
5
a65
100
AcDbEntity
8
0-00-0
62
3
100
AcDbText
10
525.717
20
305.613
30
0.0
40
6.825
1
20
41
1.143
50
0.000
100
AcDbText
0
TEXT
5
a66
100
AcDbEntity
8
0-00-0
62
3
100
AcDbText
10
482.406
20
263.780
30
0.0
40
6.825
1
30
41
1.143
50
0.000
100
AcDbText
0
TEXT
5
a67
100
AcDbEntity
8
0-00-0
62
3
100
AcDbText
10
473.406
20
278.780
30
0.0
40
6.825
1
8
41
1.143
50
0.000
100
AcDbText
0
TEXT
5
a68
100
AcDbEntity
8
0-00-0
62
3
100
AcDbText
10
489.406
20
278.780
30
0.0
40
6.825
1
16
41
1.143
50
0.000
100
AcDbText
0
TEXT
5
a69
100
AcDbEntity
8
0-00-0
62
3
100
AcDbText
10
118.213
20
333.779
30
0.0
40
6.825
1
50
41
1.143
50
0.000
100
AcDbText
0
TEXT
5
a6a
100
AcDbEntity
8
0-00-0
62
3
100
AcDbText
10
129.963
20
293.779
30
0.0
40
6.825
1
9
41
1.143
50
0.000
100
AcDbText
0
TEXT
5
a6b
100
AcDbEntity
8
0-00-0
62
3
100
AcDbText
10
77.463
20
359.355
30
0.0
40
6.825
1
ＮＫ－１０１（廻り縁）
41
1.143
50
0.000
100
AcDbText
0
TEXT
5
a6c
100
AcDbEntity
8
0-00-0
62
3
100
AcDbText
10
77.967
20
304.790
30
0.0
40
6.825
1
30
41
1.143
50
0.000
100
AcDbText
0
TEXT
5
a6d
100
AcDbEntity
8
0-00-0
62
3
100
AcDbText
10
103.713
20
259.779
30
0.0
40
6.825
1
20
41
1.143
50
0.000
100
AcDbText
0
TEXT
5
a6e
100
AcDbEntity
8
0-00-0
62
3
100
AcDbText
10
111.713
20
274.780
30
0.0
40
6.825
1
8
41
1.143
50
0.000
100
AcDbText
0
TEXT
5
a6f
100
AcDbEntity
8
0-00-0
62
3
100
AcDbText
10
77.463
20
349.355
30
0.0
40
6.825
1
Ｌ＝２０００～３０００
41
1.143
50
0.000
100
AcDbText
0
TEXT
5
a70
100
AcDbEntity
8
0-00-0
62
3
100
AcDbText
10
458.441
20
164.441
30
0.0
40
6.825
1
40
41
1.143
50
0.000
100
AcDbText
0
TEXT
5
a71
100
AcDbEntity
8
0-00-0
62
3
100
AcDbText
10
492.156
20
159.570
30
0.0
40
6.825
1
35
41
1.143
50
0.000
100
AcDbText
0
TEXT
5
a72
100
AcDbEntity
8
0-00-0
62
3
100
AcDbText
10
444.656
20
137.070
30
0.0
40
6.825
1
25
41
1.143
50
0.000
100
AcDbText
0
TEXT
5
a73
100
AcDbEntity
8
0-00-0
62
3
100
AcDbText
10
451.656
20
123.070
30
0.0
40
6.825
1
10
41
1.143
50
0.000
100
AcDbText
0
TEXT
5
a74
100
AcDbEntity
8
0-00-0
62
3
100
AcDbText
10
437.329
20
83.437
30
0.0
40
6.825
1
9
41
1.143
50
0.000
100
AcDbText
0
TEXT
5
a75
100
AcDbEntity
8
0-00-0
62
3
100
AcDbText
10
698.498
20
92.070
30
0.0
40
6.825
1
9
41
1.143
50
0.000
100
AcDbText
0
TEXT
5
a76
100
AcDbEntity
8
0-00-0
62
3
100
AcDbText
10
625.473
20
165.168
30
0.0
40
6.825
1
9
41
1.143
50
0.000
100
AcDbText
0
TEXT
5
a77
100
AcDbEntity
8
0-00-0
62
3
100
AcDbText
10
524.791
20
143.878
30
0.0
40
6.825
1
 3
41
1.143
50
0.000
100
AcDbText
0
TEXT
5
a78
100
AcDbEntity
8
0-00-0
62
3
100
AcDbText
10
438.967
20
212.645
30
0.0
40
6.825
1
ＮＫ－１５０（天井正面接続）
41
1.143
50
0.000
100
AcDbText
0
TEXT
5
a79
100
AcDbEntity
8
0-00-0
62
3
100
AcDbText
10
473.656
20
98.563
30
0.0
40
6.825
1
20
41
1.143
50
0.000
100
AcDbText
0
TEXT
5
a7a
100
AcDbEntity
8
0-00-0
62
3
100
AcDbText
10
605.560
20
212.645
30
0.0
40
6.825
1
ＮＫ－３００（横張用・出隅）
41
1.143
50
0.000
100
AcDbText
0
TEXT
5
a7b
100
AcDbEntity
8
0-00-0
62
3
100
AcDbText
10
662.006
20
151.064
30
0.0
40
6.825
1
20
41
1.143
50
0.000
100
AcDbText
0
TEXT
5
a7c
100
AcDbEntity
8
0-00-0
62
3
100
AcDbText
10
681.498
20
127.570
30
0.0
40
6.825
1
20
41
1.143
50
0.000
100
AcDbText
0
TEXT
5
a7d
100
AcDbEntity
8
0-00-0
62
3
100
AcDbText
10
140.902
20
125.070
30
0.0
40
6.825
1
30
41
1.143
50
0.000
100
AcDbText
0
TEXT
5
a7e
100
AcDbEntity
8
0-00-0
62
3
100
AcDbText
10
130.902
20
135.070
30
0.0
40
6.825
1
12
41
1.143
50
0.000
100
AcDbText
0
TEXT
5
a7f
100
AcDbEntity
8
0-00-0
62
3
100
AcDbText
10
170.277
20
165.343
30
0.0
40
6.825
1
20
41
1.143
50
0.000
100
AcDbText
0
TEXT
5
a80
100
AcDbEntity
8
0-00-0
62
3
100
AcDbText
10
156.131
20
167.680
30
0.0
40
6.825
1
16
41
1.143
50
0.000
100
AcDbText
0
TEXT
5
a81
100
AcDbEntity
8
0-00-0
62
3
100
AcDbText
10
90.402
20
68.570
30
0.0
40
6.825
1
16
41
1.143
50
0.000
100
AcDbText
0
TEXT
5
a82
100
AcDbEntity
8
0-00-0
62
3
100
AcDbText
10
113.312
20
103.472
30
0.0
40
6.825
1
37
41
1.143
50
0.000
100
AcDbText
0
TEXT
5
a83
100
AcDbEntity
8
0-00-0
62
3
100
AcDbText
10
65.171
20
149.049
30
0.0
40
6.825
1
55
41
1.143
50
0.000
100
AcDbText
0
TEXT
5
a84
100
AcDbEntity
8
0-00-0
62
3
100
AcDbText
10
109.402
20
189.070
30
0.0
40
6.825
1
55
41
1.143
50
0.000
100
AcDbText
0
TEXT
5
a85
100
AcDbEntity
8
0-00-0
62
3
100
AcDbText
10
316.814
20
116.070
30
0.0
40
6.825
1
55
41
1.143
50
0.000
100
AcDbText
0
TEXT
5
a86
100
AcDbEntity
8
0-00-0
62
3
100
AcDbText
10
271.314
20
70.570
30
0.0
40
6.825
1
37
41
1.143
50
0.000
100
AcDbText
0
TEXT
5
a87
100
AcDbEntity
8
0-00-0
62
3
100
AcDbText
10
329.015
20
132.260
30
0.0
40
6.825
1
55
41
1.143
50
0.000
100
AcDbText
0
TEXT
5
a88
100
AcDbEntity
8
0-00-0
62
3
100
AcDbText
10
236.602
20
94.759
30
0.0
40
6.825
1
16
41
1.143
50
0.000
100
AcDbText
0
TEXT
5
a89
100
AcDbEntity
8
0-00-0
62
3
100
AcDbText
10
352.314
20
175.070
30
0.0
40
6.825
1
16
41
1.143
50
0.000
100
AcDbText
0
TEXT
5
a8a
100
AcDbEntity
8
0-00-0
62
3
100
AcDbText
10
354.314
20
189.070
30
0.0
40
6.825
1
20
41
1.143
50
0.000
100
AcDbText
0
TEXT
5
a8b
100
AcDbEntity
8
0-00-0
62
3
100
AcDbText
10
394.614
20
158.289
30
0.0
40
6.825
1
30
41
1.143
50
0.000
100
AcDbText
0
TEXT
5
a8c
100
AcDbEntity
8
0-00-0
62
3
100
AcDbText
10
383.743
20
150.885
30
0.0
40
6.825
1
12
41
1.143
50
0.000
100
AcDbText
0
TEXT
5
a8d
100
AcDbEntity
8
0-00-0
62
3
100
AcDbText
10
669.498
20
184.070
30
0.0
40
6.825
1
63
41
1.143
50
0.000
100
AcDbText
0
TEXT
5
a8e
100
AcDbEntity
8
0-00-0
62
3
100
AcDbText
10
717.460
20
138.842
30
0.0
40
6.825
1
63
41
1.143
50
0.000
100
AcDbText
0
TEXT
5
a8f
100
AcDbEntity
8
0-00-0
62
3
100
AcDbText
10
77.463
20
202.645
30
0.0
40
6.825
1
Ｌ＝２０００～３０００
41
1.143
50
0.000
100
AcDbText
0
TEXT
5
a90
100
AcDbEntity
8
0-00-0
62
3
100
AcDbText
10
262.375
20
202.645
30
0.0
40
6.825
1
Ｌ＝２０００～３０００
41
1.143
50
0.000
100
AcDbText
0
TEXT
5
a91
100
AcDbEntity
8
0-00-0
62
3
100
AcDbText
10
438.967
20
202.645
30
0.0
40
6.825
1
Ｌ＝２０００～３０００
41
1.143
50
0.000
100
AcDbText
0
TEXT
5
a92
100
AcDbEntity
8
0-00-0
62
3
100
AcDbText
10
605.560
20
202.645
30
0.0
40
6.825
1
Ｌ＝２０００～３０００
41
1.143
50
0.000
100
AcDbText
0
TEXT
5
a93
100
AcDbEntity
8
0-00-0
62
3
100
AcDbText
10
643.248
20
127.570
30
0.0
40
6.825
1
10
41
1.143
50
0.000
100
AcDbText
0
TEXT
5
a94
100
AcDbEntity
8
0-00-0
62
3
100
AcDbText
10
625.998
20
116.570
30
0.0
40
6.825
1
45
41
1.143
50
0.000
100
AcDbText
0
TEXT
5
a95
100
AcDbEntity
8
0-00-0
62
3
100
AcDbText
10
646.389
20
95.042
30
0.0
40
6.825
1
45
41
1.143
50
0.000
100
AcDbText
0
TEXT
5
a96
100
AcDbEntity
8
0-00-0
62
3
100
AcDbText
10
658.813
20
111.994
30
0.0
40
6.825
1
10
41
1.143
50
0.000
100
AcDbText
0
TEXT
5
a97
100
AcDbEntity
8
0-00-0
62
3
100
AcDbText
10
77.463
20
212.645
30
0.0
40
6.825
1
ＮＫＲ－３０３（出　隅）
41
1.143
50
0.000
100
AcDbText
0
TEXT
5
a98
100
AcDbEntity
8
0-00-0
62
3
100
AcDbText
10
262.375
20
212.645
30
0.0
40
6.825
1
ＮＫＲ－３０４（入　隅）
41
1.143
50
0.000
100
AcDbText
0
TEXT
5
a99
100
AcDbEntity
8
0-00-0
62
3
100
AcDbText
10
478.656
20
64.570
30
0.0
40
6.825
1
63
41
1.143
50
0.000
100
AcDbText
0
TEXT
5
a9a
100
AcDbEntity
8
0-00-0
62
3
100
AcDbText
10
526.475
20
111.078
30
0.0
40
6.825
1
63
41
1.143
50
0.000
100
AcDbText
0
TEXT
5
a9b
100
AcDbEntity
8
0-00-0
62
3
100
AcDbText
10
620.133
20
303.758
30
0.0
40
6.825
1
50
41
1.143
50
0.000
100
AcDbText
0
TEXT
5
a9c
100
AcDbEntity
8
0-00-0
62
3
100
AcDbText
10
684.330
20
263.477
30
0.0
40
6.825
1
25
41
1.143
50
0.000
100
AcDbText
0
TEXT
5
a9d
100
AcDbEntity
8
0-00-0
62
3
100
AcDbText
10
665.248
20
236.476
30
0.0
40
6.825
1
9
41
1.143
50
0.000
100
AcDbText
0
TEXT
5
a9e
100
AcDbEntity
8
0-00-0
62
3
100
AcDbText
10
682.633
20
278.784
30
0.0
40
6.825
1
 3
41
1.143
50
0.000
100
AcDbText
0
TEXT
5
a9f
100
AcDbEntity
8
0-00-0
62
3
100
AcDbText
10
605.560
20
359.355
30
0.0
40
6.825
1
ＮＫ－２０２（水切接続）
41
1.143
50
0.000
100
AcDbText
0
TEXT
5
aa0
100
AcDbEntity
8
0-00-0
62
3
100
AcDbText
10
652.998
20
294.280
30
0.0
40
6.825
1
30
41
1.143
50
0.000
100
AcDbText
0
TEXT
5
aa1
100
AcDbEntity
8
0-00-0
62
3
100
AcDbText
10
649.073
20
256.016
30
0.0
40
6.825
1
8
41
1.143
50
0.000
100
AcDbText
0
TEXT
5
aa2
100
AcDbEntity
8
0-00-0
62
3
100
AcDbText
10
605.560
20
349.355
30
0.0
40
6.825
1
Ｌ＝２０００～３０００
41
1.143
50
0.000
100
AcDbText
0
TEXT
5
aa3
100
AcDbEntity
8
0-00-0
62
3
100
AcDbText
10
314.875
20
293.779
30
0.0
40
6.825
1
9
41
1.143
50
0.000
100
AcDbText
0
TEXT
5
aa4
100
AcDbEntity
8
0-00-0
62
3
100
AcDbText
10
262.879
20
304.790
30
0.0
40
6.825
1
30
41
1.143
50
0.000
100
AcDbText
0
TEXT
5
aa5
100
AcDbEntity
8
0-00-0
62
3
100
AcDbText
10
288.625
20
259.779
30
0.0
40
6.825
1
20
41
1.143
50
0.000
100
AcDbText
0
TEXT
5
aa6
100
AcDbEntity
8
0-00-0
62
3
100
AcDbText
10
262.375
20
359.355
30
0.0
40
6.825
1
ＮＫＲ－１０１（廻り縁）
41
1.143
50
0.000
100
AcDbText
0
TEXT
5
aa7
100
AcDbEntity
8
0-00-0
62
3
100
AcDbText
10
298.125
20
274.780
30
0.0
40
6.825
1
5
41
1.143
50
0.000
100
AcDbText
0
TEXT
5
aa8
100
AcDbEntity
8
0-00-0
62
3
100
AcDbText
10
262.375
20
349.355
30
0.0
40
6.825
1
Ｌ＝２０００～３０００
41
1.143
50
0.000
100
AcDbText
0
TEXT
5
aa9
100
AcDbEntity
8
0-00-0
62
3
100
AcDbText
10
303.125
20
333.779
30
0.0
40
6.825
1
53
41
1.143
50
0.000
100
AcDbText
0
TEXT
5
aaa
100
AcDbEntity
8
0-00-0
62
3
100
AcDbText
10
504.616
20
489.448
30
0.0
40
6.825
1
165
41
1.143
50
0.000
100
AcDbText
0
TEXT
5
aab
100
AcDbEntity
8
0-00-0
62
3
100
AcDbText
10
669.617
20
489.448
30
0.0
40
6.825
1
165
41
1.143
50
0.000
100
AcDbText
0
TEXT
5
aac
100
AcDbEntity
8
0-30-3
62
3
100
AcDbText
10
611.241
20
15.334
30
0.0
40
2.925
1
   2020-10-16
41
1.167
50
0.000
100
AcDbText
0
POINT
5
aad
100
AcDbEntity
8
0-30-3
62
3
100
AcDbPoint
10
27.380000000000
20
571.820000000000
30
0.0
0
POINT
5
aae
100
AcDbEntity
8
0-00-0
62
3
100
AcDbPoint
10
146.210000000000
20
488.450000000000
30
0.0
0
POINT
5
aaf
100
AcDbEntity
8
0-00-0
62
3
100
AcDbPoint
10
172.210000000000
20
488.450000000000
30
0.0
0
POINT
5
ab0
100
AcDbEntity
8
0-00-0
62
3
100
AcDbPoint
10
201.210000000000
20
488.450000000000
30
0.0
0
POINT
5
ab1
100
AcDbEntity
8
0-00-0
62
3
100
AcDbPoint
10
271.040000000000
20
418.450000000000
30
0.0
0
POINT
5
ab2
100
AcDbEntity
8
0-00-0
62
3
100
AcDbPoint
10
302.040000000000
20
418.450000000000
30
0.0
0
POINT
5
ab3
100
AcDbEntity
8
0-00-0
62
3
100
AcDbPoint
10
271.040000000000
20
408.450000000000
30
0.0
0
POINT
5
ab4
100
AcDbEntity
8
0-00-0
62
3
100
AcDbPoint
10
302.040000000000
20
408.450000000000
30
0.0
0
POINT
5
ab5
100
AcDbEntity
8
0-00-0
62
3
100
AcDbPoint
10
108.480000000000
20
408.450000000000
30
0.0
0
POINT
5
ab6
100
AcDbEntity
8
0-00-0
62
3
100
AcDbPoint
10
146.210000000000
20
408.450000000000
30
0.0
0
POINT
5
ab7
100
AcDbEntity
8
0-00-0
62
3
100
AcDbPoint
10
146.210000000000
20
498.450000000000
30
0.0
0
POINT
5
ab8
100
AcDbEntity
8
0-00-0
62
3
100
AcDbPoint
10
282.210000000000
20
498.450000000000
30
0.0
0
POINT
5
ab9
100
AcDbEntity
8
0-00-0
62
3
100
AcDbPoint
10
117.210000000000
20
508.450000000000
30
0.0
0
POINT
5
aba
100
AcDbEntity
8
0-00-0
62
3
100
AcDbPoint
10
282.210000000000
20
508.450000000000
30
0.0
0
POINT
5
abb
100
AcDbEntity
8
0-00-0
62
3
100
AcDbPoint
10
317.210000000000
20
438.450000000000
30
0.0
0
POINT
5
abc
100
AcDbEntity
8
0-00-0
62
3
100
AcDbPoint
10
317.210000000000
20
457.450000000000
30
0.0
0
POINT
5
abd
100
AcDbEntity
8
0-00-0
62
3
100
AcDbPoint
10
92.210000000000
20
442.450000000000
30
0.0
0
POINT
5
abe
100
AcDbEntity
8
0-00-0
62
3
100
AcDbPoint
10
92.210000000000
20
457.450000000000
30
0.0
0
POINT
5
abf
100
AcDbEntity
8
0-00-0
62
3
100
AcDbPoint
10
283.210000000000
20
418.450000000000
30
0.0
0
POINT
5
ac0
100
AcDbEntity
8
0-00-0
62
3
100
AcDbPoint
10
227.210000000000
20
488.450000000000
30
0.0
0
POINT
5
ac1
100
AcDbEntity
8
0-00-0
62
3
100
AcDbPoint
10
256.210000000000
20
488.450000000000
30
0.0
0
POINT
5
ac2
100
AcDbEntity
8
0-00-0
62
3
100
AcDbPoint
10
282.210000000000
20
488.450000000000
30
0.0
0
POINT
5
ac3
100
AcDbEntity
8
0-00-0
62
3
100
AcDbPoint
10
117.210000000000
20
488.450000000000
30
0.0
0
POINT
5
ac4
100
AcDbEntity
8
0-00-0
62
3
100
AcDbPoint
10
455.160000000000
20
329.780000000000
30
0.0
0
POINT
5
ac5
100
AcDbEntity
8
0-00-0
62
3
100
AcDbPoint
10
515.160000000000
20
329.780000000000
30
0.0
0
POINT
5
ac6
100
AcDbEntity
8
0-00-0
62
3
100
AcDbPoint
10
523.910000000000
20
318.280000000000
30
0.0
0
POINT
5
ac7
100
AcDbEntity
8
0-00-0
62
3
100
AcDbPoint
10
523.910000000000
20
298.280000000000
30
0.0
0
POINT
5
ac8
100
AcDbEntity
8
0-00-0
62
3
100
AcDbPoint
10
471.160000000000
20
286.780000000000
30
0.0
0
POINT
5
ac9
100
AcDbEntity
8
0-00-0
62
3
100
AcDbPoint
10
501.160000000000
20
286.780000000000
30
0.0
0
POINT
5
aca
100
AcDbEntity
8
0-00-0
62
3
100
AcDbPoint
10
501.160000000000
20
271.780000000000
30
0.0
0
POINT
5
acb
100
AcDbEntity
8
0-00-0
62
3
100
AcDbPoint
10
471.160000000000
20
271.780000000000
30
0.0
0
POINT
5
acc
100
AcDbEntity
8
0-00-0
62
3
100
AcDbPoint
10
479.160000000000
20
286.780000000000
30
0.0
0
POINT
5
acd
100
AcDbEntity
8
0-00-0
62
3
100
AcDbPoint
10
485.160000000000
20
286.780000000000
30
0.0
0
POINT
5
ace
100
AcDbEntity
8
0-00-0
62
3
100
AcDbPoint
10
97.460000000000
20
332.780000000000
30
0.0
0
POINT
5
acf
100
AcDbEntity
8
0-00-0
62
3
100
AcDbPoint
10
147.460000000000
20
332.780000000000
30
0.0
0
POINT
5
ad0
100
AcDbEntity
8
0-00-0
62
3
100
AcDbPoint
10
117.460000000000
20
282.780000000000
30
0.0
0
POINT
5
ad1
100
AcDbEntity
8
0-00-0
62
3
100
AcDbPoint
10
87.460000000000
20
322.780000000000
30
0.0
0
POINT
5
ad2
100
AcDbEntity
8
0-00-0
62
3
100
AcDbPoint
10
87.460000000000
20
292.780000000000
30
0.0
0
POINT
5
ad3
100
AcDbEntity
8
0-00-0
62
3
100
AcDbPoint
10
127.460000000000
20
301.780000000000
30
0.0
0
POINT
5
ad4
100
AcDbEntity
8
0-00-0
62
3
100
AcDbPoint
10
127.460000000000
20
292.780000000000
30
0.0
0
POINT
5
ad5
100
AcDbEntity
8
0-00-0
62
3
100
AcDbPoint
10
109.460000000000
20
282.780000000000
30
0.0
0
POINT
5
ad6
100
AcDbEntity
8
0-00-0
62
3
100
AcDbPoint
10
97.460000000000
20
267.780000000000
30
0.0
0
POINT
5
ad7
100
AcDbEntity
8
0-00-0
62
3
100
AcDbPoint
10
117.460000000000
20
267.780000000000
30
0.0
0
POINT
5
ad8
100
AcDbEntity
8
0-00-0
62
3
100
AcDbPoint
10
468.410000000000
20
188.070000000000
30
0.0
0
POINT
5
ad9
100
AcDbEntity
8
0-00-0
62
3
100
AcDbPoint
10
468.410000000000
20
148.070000000000
30
0.0
0
POINT
5
ada
100
AcDbEntity
8
0-00-0
62
3
100
AcDbPoint
10
478.910000000000
20
158.570000000000
30
0.0
0
POINT
5
adb
100
AcDbEntity
8
0-00-0
62
3
100
AcDbPoint
10
513.910000000000
20
158.570000000000
30
0.0
0
POINT
5
adc
100
AcDbEntity
8
0-00-0
62
3
100
AcDbPoint
10
450.910000000000
20
122.070000000000
30
0.0
0
POINT
5
add
100
AcDbEntity
8
0-00-0
62
3
100
AcDbPoint
10
461.410000000000
20
122.070000000000
30
0.0
0
POINT
5
ade
100
AcDbEntity
8
0-00-0
62
3
100
AcDbPoint
10
450.910000000000
20
72.570000000000
30
0.0
0
POINT
5
adf
100
AcDbEntity
8
0-00-0
62
3
100
AcDbPoint
10
513.910000000000
20
72.570000000000
30
0.0
0
POINT
5
ae0
100
AcDbEntity
8
0-00-0
62
3
100
AcDbPoint
10
443.410000000000
20
82.570000000000
30
0.0
0
POINT
5
ae1
100
AcDbEntity
8
0-00-0
62
3
100
AcDbPoint
10
443.410000000000
20
91.570000000000
30
0.0
0
POINT
5
ae2
100
AcDbEntity
8
0-00-0
62
3
100
AcDbPoint
10
471.410000000000
20
91.570000000000
30
0.0
0
POINT
5
ae3
100
AcDbEntity
8
0-00-0
62
3
100
AcDbPoint
10
471.410000000000
20
111.570000000000
30
0.0
0
POINT
5
ae4
100
AcDbEntity
8
0-00-0
62
3
100
AcDbPoint
10
523.910000000000
20
82.570000000000
30
0.0
0
POINT
5
ae5
100
AcDbEntity
8
0-00-0
62
3
100
AcDbPoint
10
523.910000000000
20
145.570000000000
30
0.0
0
POINT
5
ae6
100
AcDbEntity
8
0-00-0
62
3
100
AcDbPoint
10
158.650000000000
20
133.070000000000
30
0.0
0
POINT
5
ae7
100
AcDbEntity
8
0-00-0
62
3
100
AcDbPoint
10
128.650000000000
20
133.070000000000
30
0.0
0
POINT
5
ae8
100
AcDbEntity
8
0-00-0
62
3
100
AcDbPoint
10
140.650000000000
20
188.070000000000
30
0.0
0
POINT
5
ae9
100
AcDbEntity
8
0-00-0
62
3
100
AcDbPoint
10
85.650000000000
20
188.070000000000
30
0.0
0
POINT
5
aea
100
AcDbEntity
8
0-00-0
62
3
100
AcDbPoint
10
75.150000000000
20
123.070000000000
30
0.0
0
POINT
5
aeb
100
AcDbEntity
8
0-00-0
62
3
100
AcDbPoint
10
75.150000000000
20
178.070000000000
30
0.0
0
POINT
5
aec
100
AcDbEntity
8
0-00-0
62
3
100
AcDbPoint
10
155.150000000000
20
162.070000000000
30
0.0
0
POINT
5
aed
100
AcDbEntity
8
0-00-0
62
3
100
AcDbPoint
10
155.150000000000
20
178.070000000000
30
0.0
0
POINT
5
aee
100
AcDbEntity
8
0-00-0
62
3
100
AcDbPoint
10
169.150000000000
20
158.570000000000
30
0.0
0
POINT
5
aef
100
AcDbEntity
8
0-00-0
62
3
100
AcDbPoint
10
169.150000000000
20
178.070000000000
30
0.0
0
POINT
5
af0
100
AcDbEntity
8
0-00-0
62
3
100
AcDbPoint
10
101.650000000000
20
76.570000000000
30
0.0
0
POINT
5
af1
100
AcDbEntity
8
0-00-0
62
3
100
AcDbPoint
10
85.650000000000
20
76.570000000000
30
0.0
0
POINT
5
af2
100
AcDbEntity
8
0-00-0
62
3
100
AcDbPoint
10
111.650000000000
20
86.570000000000
30
0.0
0
POINT
5
af3
100
AcDbEntity
8
0-00-0
62
3
100
AcDbPoint
10
111.650000000000
20
123.570000000000
30
0.0
0
POINT
5
af4
100
AcDbEntity
8
0-00-0
62
3
100
AcDbPoint
10
641.750000000000
20
135.570000000000
30
0.0
0
POINT
5
af5
100
AcDbEntity
8
0-00-0
62
3
100
AcDbPoint
10
652.250000000000
20
135.570000000000
30
0.0
0
POINT
5
af6
100
AcDbEntity
8
0-00-0
62
3
100
AcDbPoint
10
660.750000000000
20
144.570000000000
30
0.0
0
POINT
5
af7
100
AcDbEntity
8
0-00-0
62
3
100
AcDbPoint
10
660.750000000000
20
164.570000000000
30
0.0
0
POINT
5
af8
100
AcDbEntity
8
0-00-0
62
3
100
AcDbPoint
10
676.250000000000
20
126.570000000000
30
0.0
0
POINT
5
af9
100
AcDbEntity
8
0-00-0
62
3
100
AcDbPoint
10
696.250000000000
20
126.570000000000
30
0.0
0
POINT
5
afa
100
AcDbEntity
8
0-00-0
62
3
100
AcDbPoint
10
631.750000000000
20
173.070000000000
30
0.0
0
POINT
5
afb
100
AcDbEntity
8
0-00-0
62
3
100
AcDbPoint
10
631.750000000000
20
164.070000000000
30
0.0
0
POINT
5
afc
100
AcDbEntity
8
0-00-0
62
3
100
AcDbPoint
10
641.750000000000
20
183.070000000000
30
0.0
0
POINT
5
afd
100
AcDbEntity
8
0-00-0
62
3
100
AcDbPoint
10
704.750000000000
20
183.070000000000
30
0.0
0
POINT
5
afe
100
AcDbEntity
8
0-00-0
62
3
100
AcDbPoint
10
715.250000000000
20
110.070000000000
30
0.0
0
POINT
5
aff
100
AcDbEntity
8
0-00-0
62
3
100
AcDbPoint
10
715.250000000000
20
173.070000000000
30
0.0
0
POINT
5
b00
100
AcDbEntity
8
0-00-0
62
3
100
AcDbPoint
10
704.750000000000
20
100.070000000000
30
0.0
0
POINT
5
b01
100
AcDbEntity
8
0-00-0
62
3
100
AcDbPoint
10
695.750000000000
20
100.070000000000
30
0.0
0
POINT
5
b02
100
AcDbEntity
8
0-00-0
62
3
100
AcDbPoint
10
523.910000000000
20
148.570000000000
30
0.0
0
POINT
5
b03
100
AcDbEntity
8
0-00-0
62
3
100
AcDbPoint
10
140.650000000000
20
143.070000000000
30
0.0
0
POINT
5
b04
100
AcDbEntity
8
0-00-0
62
3
100
AcDbPoint
10
128.650000000000
20
143.070000000000
30
0.0
0
POINT
5
b05
100
AcDbEntity
8
0-00-0
62
3
100
AcDbPoint
10
393.060000000000
20
177.570000000000
30
0.0
0
POINT
5
b06
100
AcDbEntity
8
0-00-0
62
3
100
AcDbPoint
10
393.060000000000
20
147.570000000000
30
0.0
0
POINT
5
b07
100
AcDbEntity
8
0-00-0
62
3
100
AcDbPoint
10
338.060000000000
20
159.570000000000
30
0.0
0
POINT
5
b08
100
AcDbEntity
8
0-00-0
62
3
100
AcDbPoint
10
364.060000000000
20
174.070000000000
30
0.0
0
POINT
5
b09
100
AcDbEntity
8
0-00-0
62
3
100
AcDbPoint
10
348.060000000000
20
174.070000000000
30
0.0
0
POINT
5
b0a
100
AcDbEntity
8
0-00-0
62
3
100
AcDbPoint
10
367.560000000000
20
188.070000000000
30
0.0
0
POINT
5
b0b
100
AcDbEntity
8
0-00-0
62
3
100
AcDbPoint
10
348.060000000000
20
188.070000000000
30
0.0
0
POINT
5
b0c
100
AcDbEntity
8
0-00-0
62
3
100
AcDbPoint
10
383.060000000000
20
159.570000000000
30
0.0
0
POINT
5
b0d
100
AcDbEntity
8
0-00-0
62
3
100
AcDbPoint
10
383.060000000000
20
147.570000000000
30
0.0
0
POINT
5
b0e
100
AcDbEntity
8
0-00-0
62
3
100
AcDbPoint
10
293.060000000000
20
115.070000000000
30
0.0
0
POINT
5
b0f
100
AcDbEntity
8
0-00-0
62
3
100
AcDbPoint
10
246.560000000000
20
88.570000000000
30
0.0
0
POINT
5
b10
100
AcDbEntity
8
0-00-0
62
3
100
AcDbPoint
10
246.560000000000
20
104.570000000000
30
0.0
0
POINT
5
b11
100
AcDbEntity
8
0-00-0
62
3
100
AcDbPoint
10
256.560000000000
20
78.570000000000
30
0.0
0
POINT
5
b12
100
AcDbEntity
8
0-00-0
62
3
100
AcDbPoint
10
293.560000000000
20
78.570000000000
30
0.0
0
POINT
5
b13
100
AcDbEntity
8
0-00-0
62
3
100
AcDbPoint
10
607.250000000000
20
124.570000000000
30
0.0
0
POINT
5
b14
100
AcDbEntity
8
0-00-0
62
3
100
AcDbPoint
10
652.250000000000
20
124.570000000000
30
0.0
0
POINT
5
b15
100
AcDbEntity
8
0-00-0
62
3
100
AcDbPoint
10
667.250000000000
20
110.070000000000
30
0.0
0
POINT
5
b16
100
AcDbEntity
8
0-00-0
62
3
100
AcDbPoint
10
667.250000000000
20
120.570000000000
30
0.0
0
POINT
5
b17
100
AcDbEntity
8
0-00-0
62
3
100
AcDbPoint
10
656.250000000000
20
75.570000000000
30
0.0
0
POINT
5
b18
100
AcDbEntity
8
0-00-0
62
3
100
AcDbPoint
10
656.250000000000
20
120.570000000000
30
0.0
0
POINT
5
b19
100
AcDbEntity
8
0-00-0
62
3
100
AcDbPoint
10
436.410000000000
20
136.070000000000
30
0.0
0
POINT
5
b1a
100
AcDbEntity
8
0-00-0
62
3
100
AcDbPoint
10
461.410000000000
20
136.070000000000
30
0.0
0
POINT
5
b1b
100
AcDbEntity
8
0-00-0
62
3
100
AcDbPoint
10
348.060000000000
20
115.070000000000
30
0.0
0
POINT
5
b1c
100
AcDbEntity
8
0-00-0
62
3
100
AcDbPoint
10
338.060000000000
20
104.570000000000
30
0.0
0
POINT
5
b1d
100
AcDbEntity
8
0-00-0
62
3
100
AcDbPoint
10
631.750000000000
20
282.780000000000
30
0.0
0
POINT
5
b1e
100
AcDbEntity
8
0-00-0
62
3
100
AcDbPoint
10
631.750000000000
20
332.780000000000
30
0.0
0
POINT
5
b1f
100
AcDbEntity
8
0-00-0
62
3
100
AcDbPoint
10
655.250000000000
20
263.480000000000
30
0.0
0
POINT
5
b20
100
AcDbEntity
8
0-00-0
62
3
100
AcDbPoint
10
655.250000000000
20
255.480000000000
30
0.0
0
POINT
5
b21
100
AcDbEntity
8
0-00-0
62
3
100
AcDbPoint
10
681.750000000000
20
280.480000000000
30
0.0
0
POINT
5
b22
100
AcDbEntity
8
0-00-0
62
3
100
AcDbPoint
10
681.750000000000
20
255.480000000000
30
0.0
0
POINT
5
b23
100
AcDbEntity
8
0-00-0
62
3
100
AcDbPoint
10
642.250000000000
20
293.280000000000
30
0.0
0
POINT
5
b24
100
AcDbEntity
8
0-00-0
62
3
100
AcDbPoint
10
671.750000000000
20
293.280000000000
30
0.0
0
POINT
5
b25
100
AcDbEntity
8
0-00-0
62
3
100
AcDbPoint
10
662.750000000000
20
245.480000000000
30
0.0
0
POINT
5
b26
100
AcDbEntity
8
0-00-0
62
3
100
AcDbPoint
10
671.750000000000
20
245.480000000000
30
0.0
0
POINT
5
b27
100
AcDbEntity
8
0-00-0
62
3
100
AcDbPoint
10
681.750000000000
20
283.480000000000
30
0.0
0
POINT
5
b28
100
AcDbEntity
8
0-00-0
62
3
100
AcDbPoint
10
282.370000000000
20
332.780000000000
30
0.0
0
POINT
5
b29
100
AcDbEntity
8
0-00-0
62
3
100
AcDbPoint
10
335.370000000000
20
332.780000000000
30
0.0
0
POINT
5
b2a
100
AcDbEntity
8
0-00-0
62
3
100
AcDbPoint
10
302.370000000000
20
282.780000000000
30
0.0
0
POINT
5
b2b
100
AcDbEntity
8
0-00-0
62
3
100
AcDbPoint
10
272.370000000000
20
322.780000000000
30
0.0
0
POINT
5
b2c
100
AcDbEntity
8
0-00-0
62
3
100
AcDbPoint
10
272.370000000000
20
292.780000000000
30
0.0
0
POINT
5
b2d
100
AcDbEntity
8
0-00-0
62
3
100
AcDbPoint
10
312.370000000000
20
301.780000000000
30
0.0
0
POINT
5
b2e
100
AcDbEntity
8
0-00-0
62
3
100
AcDbPoint
10
312.370000000000
20
292.780000000000
30
0.0
0
POINT
5
b2f
100
AcDbEntity
8
0-00-0
62
3
100
AcDbPoint
10
297.370000000000
20
282.780000000000
30
0.0
0
POINT
5
b30
100
AcDbEntity
8
0-00-0
62
3
100
AcDbPoint
10
282.370000000000
20
267.780000000000
30
0.0
0
POINT
5
b31
100
AcDbEntity
8
0-00-0
62
3
100
AcDbPoint
10
302.370000000000
20
267.780000000000
30
0.0
0
POINT
5
b32
100
AcDbEntity
8
0-00-0
62
3
100
AcDbPoint
10
427.870000000000
20
488.450000000000
30
0.0
0
ENDSEC
0
EOF
