0
SECTION
2
HEADER
9
$ACADVER
1
AC1009
9
$DWGCODEPAGE
3
ANSI_932
9
$EXTMIN
10
0.000
20
0.000
30
0.0
9
$EXTMAX
10
1682.000
20
1188.000
30
0.0
9
$LTSCALE
40
2.000
9
$PDMODE
70
0
9
$PDSIZE
40
40.0
0
ENDSEC
0
SECTION
2
TABLES
0
TABLE
2
LTYPE
70
9
0
LTYPE
5
1f4
2
CONTINUOUS
70
64
3
SolidLine
72
65
73
0
40
0.0
0
LTYPE
5
1f5
2
DOT
70
64
3
--  --  --  --  --  --  --  --     
72
65
73
2
40
3.000
49
1.000
49
-2.000
0
LTYPE
5
1f6
2
DASHED
70
64
3
----    ----    ----    ----    
72
65
73
2
40
5.000
49
2.000
49
-3.000
0
LTYPE
5
1f7
2
DASHED2
70
64
3
------  ------  ------  ------ 
72
65
73
2
40
10.000
49
4.000
49
-6.000
0
LTYPE
5
1f8
2
CENTER
70
64
3
----- - ----- - ----- - ----- - 
72
65
73
4
40
10.000
49
6.000
49
-3.000
49
1.000
49
-3.000
0
LTYPE
5
1f9
2
CENTER2
70
64
3
----------  --  ----------  -- 
72
65
73
4
40
17.000
49
12.000
49
-5.000
49
2.000
49
-5.000
0
LTYPE
5
1fa
2
PHANTOM
70
64
3
--- - - --- - - --- - - --- - -
72
65
73
6
40
13.000
49
5.000
49
-3.000
49
1.000
49
-3.000
49
1.000
49
-3.000
0
LTYPE
5
1fb
2
PHANTOM2
70
64
3
--------  -  -  --------  -  -
72
65
73
6
40
20.000
49
6.000
49
-5.000
49
2.000
49
-5.000
49
2.000
49
-5.000
0
LTYPE
5
1fc
2
HIDDEN
70
64
3
-   -   -   -   -   -   -   -   
72
65
73
2
40
3.000
49
0.500
49
-2.500
0
ENDTAB
0
TABLE
2
STYLE
70
1
0
STYLE
5
1fd
100
AcDbSymbolTableRecord
100
AcDbTextStyleTableRecord
2
STANDARD
70
0
40
0.0
41
1.0
50
0.0
71
0
42
0.0
3
txt.shx
4
extfont.shx
0
STYLE
5
1fe
100
AcDbSymbolTableRecord
100
AcDbTextStyleTableRecord
2
TATEGAKI
70
4
40
0.0
41
1.0
50
0.0
71
0
42
0.0
3
txt.shx
4
extfont.shx
0
STYLE
5
1ff
100
AcDbSymbolTableRecord
100
AcDbTextStyleTableRecord
2
DIM
70
0
40
0.0
41
0.75
50
0.0
71
0
42
0.0
3
txt.shx
4
extfont.shx
0
STYLE
5
200
100
AcDbSymbolTableRecord
100
AcDbTextStyleTableRecord
2
_Gothic__
70
0
40
0.0
41
1.0
50
0.0
71
0
42
0.0
3
MS Gothic
4

0
STYLE
5
201
100
AcDbSymbolTableRecord
100
AcDbTextStyleTableRecord
2
_TateGothic_
70
4
40
0.0
41
1.0
50
0.0
71
0
42
0.0
3
@MS Gothic
4

0
ENDTAB
0
TABLE
2
LAYER
5
403
100
AcDbSymbolTable
70
10
0
LAYER
5
404
100
AcDbSymbolTableRecord
100
AcDbLayerTableRecord
2
0-00
70
0
62
7
6
CONTINUOUS
0
LAYER
5
405
100
AcDbSymbolTableRecord
100
AcDbLayerTableRecord
2
0-1_2_0
70
0
62
7
6
CONTINUOUS
0
LAYER
5
406
100
AcDbSymbolTableRecord
100
AcDbLayerTableRecord
2
0-2_2_1
70
0
62
7
6
CONTINUOUS
0
LAYER
5
407
100
AcDbSymbolTableRecord
100
AcDbLayerTableRecord
2
0-3_2_2
70
0
62
7
6
CONTINUOUS
0
LAYER
5
408
100
AcDbSymbolTableRecord
100
AcDbLayerTableRecord
2
0-4_2_3
70
0
62
7
6
CONTINUOUS
0
LAYER
5
409
100
AcDbSymbolTableRecord
100
AcDbLayerTableRecord
2
0-5_2_4
70
0
62
7
6
CONTINUOUS
0
LAYER
5
40a
100
AcDbSymbolTableRecord
100
AcDbLayerTableRecord
2
F-0
70
0
62
7
6
CONTINUOUS
0
LAYER
5
40b
100
AcDbSymbolTableRecord
100
AcDbLayerTableRecord
2
F-E_J_ADD
70
0
62
-7
6
CONTINUOUS
0
LAYER
5
40c
100
AcDbSymbolTableRecord
100
AcDbLayerTableRecord
2
F-F
70
0
62
7
6
CONTINUOUS
0
ENDTAB
0
ENDSEC
0
SECTION
2
ENTITIES
0
LINE
5
40d
100
AcDbEntity
8
0-4_2_3
6
CONTINUOUS
62
3
100
AcDbLine
10
872.130000000000
20
274.250000000000
30
0.0
11
826.730000000000
21
274.250000000000
31
0.0
0
LINE
5
40e
100
AcDbEntity
8
0-4_2_3
6
CONTINUOUS
62
3
100
AcDbLine
10
824.430000000000
20
369.650000000000
30
0.0
11
824.430000000000
21
274.250000000000
31
0.0
0
LINE
5
40f
100
AcDbEntity
8
0-4_2_3
6
CONTINUOUS
62
3
100
AcDbLine
10
826.730000000000
20
274.250000000000
30
0.0
11
826.730000000000
21
369.650000000000
31
0.0
0
LINE
5
410
100
AcDbEntity
8
0-4_2_3
6
CONTINUOUS
62
3
100
AcDbLine
10
872.130000000000
20
371.950000000000
30
0.0
11
826.730000000000
21
371.950000000000
31
0.0
0
LINE
5
411
100
AcDbEntity
8
0-4_2_3
6
CONTINUOUS
62
3
100
AcDbLine
10
826.730000000000
20
369.650000000000
30
0.0
11
872.130000000000
21
369.650000000000
31
0.0
0
LINE
5
412
100
AcDbEntity
8
0-4_2_3
6
CONTINUOUS
62
3
100
AcDbLine
10
874.430000000000
20
351.950000000000
30
0.0
11
874.430000000000
21
369.650000000000
31
0.0
0
LINE
5
413
100
AcDbEntity
8
0-4_2_3
6
CONTINUOUS
62
3
100
AcDbLine
10
872.130000000000
20
369.650000000000
30
0.0
11
872.130000000000
21
351.950000000000
31
0.0
0
LINE
5
414
100
AcDbEntity
8
0-4_2_3
6
CONTINUOUS
62
3
100
AcDbLine
10
872.130000000000
20
351.950000000000
30
0.0
11
874.430000000000
21
351.950000000000
31
0.0
0
LINE
5
415
100
AcDbEntity
8
0-4_2_3
6
CONTINUOUS
62
3
100
AcDbLine
10
872.130000000000
20
291.950000000000
30
0.0
11
872.130000000000
21
274.250000000000
31
0.0
0
LINE
5
416
100
AcDbEntity
8
0-4_2_3
6
CONTINUOUS
62
3
100
AcDbLine
10
874.430000000000
20
274.250000000000
30
0.0
11
874.430000000000
21
291.950000000000
31
0.0
0
LINE
5
417
100
AcDbEntity
8
0-4_2_3
6
CONTINUOUS
62
3
100
AcDbLine
10
874.430000000000
20
291.950000000000
30
0.0
11
872.130000000000
21
291.950000000000
31
0.0
0
LINE
5
418
100
AcDbEntity
8
0-4_2_3
6
CONTINUOUS
62
3
100
AcDbLine
10
826.730000000000
20
271.950000000000
30
0.0
11
872.130000000000
21
271.950000000000
31
0.0
0
LINE
5
419
100
AcDbEntity
8
0-4_2_3
6
CONTINUOUS
62
3
100
AcDbLine
10
754.430000000000
20
396.950000000000
30
0.0
11
754.430000000000
21
371.950000000000
31
0.0
0
LINE
5
41a
100
AcDbEntity
8
0-4_2_3
6
CONTINUOUS
62
7
100
AcDbLine
10
754.630000000000
20
356.440000000000
30
0.0
11
755.230000000000
21
356.440000000000
31
0.0
0
LINE
5
41b
100
AcDbEntity
8
0-4_2_3
6
CONTINUOUS
62
7
100
AcDbLine
10
755.830000000000
20
356.380000000000
30
0.0
11
755.830000000000
21
364.950000000000
31
0.0
0
LINE
5
41c
100
AcDbEntity
8
0-4_2_3
6
CONTINUOUS
62
7
100
AcDbLine
10
755.830000000000
20
364.950000000000
30
0.0
11
756.430000000000
21
364.950000000000
31
0.0
0
LINE
5
41d
100
AcDbEntity
8
0-4_2_3
6
CONTINUOUS
62
7
100
AcDbLine
10
756.430000000000
20
364.950000000000
30
0.0
11
756.430000000000
21
356.440000000000
31
0.0
0
LINE
5
41e
100
AcDbEntity
8
0-4_2_3
6
CONTINUOUS
62
7
100
AcDbLine
10
803.280000000000
20
398.740000000000
30
0.0
11
803.280000000000
21
398.140000000000
31
0.0
0
LINE
5
41f
100
AcDbEntity
8
0-4_2_3
6
CONTINUOUS
62
7
100
AcDbLine
10
747.430000000000
20
394.650000000000
30
0.0
11
737.290000000000
21
394.650000000000
31
0.0
0
LINE
5
420
100
AcDbEntity
8
0-4_2_3
6
CONTINUOUS
62
7
100
AcDbLine
10
747.430000000000
20
394.650000000000
30
0.0
11
747.430000000000
21
394.050000000000
31
0.0
0
LINE
5
421
100
AcDbEntity
8
0-4_2_3
6
CONTINUOUS
62
7
100
AcDbLine
10
747.430000000000
20
394.050000000000
30
0.0
11
737.290000000000
21
394.050000000000
31
0.0
0
LINE
5
422
100
AcDbEntity
8
0-4_2_3
6
CONTINUOUS
62
7
100
AcDbLine
10
818.540000000000
20
396.950000000000
30
0.0
11
742.290000000000
21
397.590000000000
31
0.0
0
LINE
5
423
100
AcDbEntity
8
0-4_2_3
6
CONTINUOUS
62
7
100
AcDbLine
10
742.290000000000
20
398.190000000000
30
0.0
11
818.540000000000
21
397.550000000000
31
0.0
0
LINE
5
424
100
AcDbEntity
8
0-4_2_3
6
DASHED
62
7
100
AcDbLine
10
801.040000000000
20
398.740000000000
30
0.0
11
742.290000000000
21
398.740000000000
31
0.0
0
LINE
5
425
100
AcDbEntity
8
0-4_2_3
6
DASHED
62
7
100
AcDbLine
10
802.840000000000
20
399.340000000000
30
0.0
11
801.040000000000
21
398.740000000000
31
0.0
0
LINE
5
426
100
AcDbEntity
8
0-4_2_3
6
CONTINUOUS
62
7
100
AcDbLine
10
803.280000000000
20
398.740000000000
30
0.0
11
818.540000000000
21
398.740000000000
31
0.0
0
LINE
5
427
100
AcDbEntity
8
0-4_2_3
6
CONTINUOUS
62
7
100
AcDbLine
10
818.540000000000
20
398.150000000000
30
0.0
11
803.280000000000
21
398.150000000000
31
0.0
0
LINE
5
428
100
AcDbEntity
8
0-4_2_3
6
DASHED
62
7
100
AcDbLine
10
802.840000000000
20
399.340000000000
30
0.0
11
819.830000000000
21
399.340000000000
31
0.0
0
LINE
5
429
100
AcDbEntity
8
0-4_2_3
6
CONTINUOUS
62
7
100
AcDbLine
10
753.430000000000
20
356.330000000000
30
0.0
11
753.430000000000
21
395.190000000000
31
0.0
0
LINE
5
42a
100
AcDbEntity
8
0-4_2_3
6
CONTINUOUS
62
7
100
AcDbLine
10
754.030000000000
20
395.190000000000
30
0.0
11
754.030000000000
21
356.440000000000
31
0.0
0
LINE
5
42b
100
AcDbEntity
8
0-4_2_3
6
CONTINUOUS
62
7
100
AcDbLine
10
753.430000000000
20
395.790000000000
30
0.0
11
737.290000000000
21
395.790000000000
31
0.0
0
LINE
5
42c
100
AcDbEntity
8
0-4_2_3
6
CONTINUOUS
62
7
100
AcDbLine
10
737.290000000000
20
397.590000000000
30
0.0
11
742.290000000000
21
397.590000000000
31
0.0
0
LINE
5
42d
100
AcDbEntity
8
0-4_2_3
6
CONTINUOUS
62
7
100
AcDbLine
10
742.290000000000
20
398.190000000000
30
0.0
11
737.290000000000
21
398.180000000000
31
0.0
0
LINE
5
42e
100
AcDbEntity
8
0-4_2_3
6
CONTINUOUS
62
7
100
AcDbLine
10
753.430000000000
20
395.190000000000
30
0.0
11
737.290000000000
21
395.190000000000
31
0.0
0
LINE
5
42f
100
AcDbEntity
8
0-4_2_3
6
CONTINUOUS
62
7
100
AcDbLine
10
737.280000000000
20
399.770000000000
30
0.0
11
742.260000000000
21
399.770000000000
31
0.0
0
LINE
5
430
100
AcDbEntity
8
0-4_2_3
6
CONTINUOUS
62
7
100
AcDbLine
10
755.230000000000
20
356.440000000000
30
0.0
11
755.230000000000
21
370.950000000000
31
0.0
0
LINE
5
431
100
AcDbEntity
8
0-4_2_3
6
CONTINUOUS
62
7
100
AcDbLine
10
754.630000000000
20
370.950000000000
30
0.0
11
754.630000000000
21
356.440000000000
31
0.0
0
LINE
5
432
100
AcDbEntity
8
0-4_2_3
6
CONTINUOUS
62
7
100
AcDbLine
10
737.280000000000
20
399.170000000000
30
0.0
11
742.280000000000
21
399.170000000000
31
0.0
0
LINE
5
433
100
AcDbEntity
8
0-4_2_3
6
CONTINUOUS
62
7
100
AcDbLine
10
755.230000000000
20
370.950000000000
30
0.0
11
802.230000000000
21
370.950000000000
31
0.0
0
LINE
5
434
100
AcDbEntity
8
0-4_2_3
6
CONTINUOUS
62
7
100
AcDbLine
10
802.230000000000
20
371.550000000000
30
0.0
11
755.230000000000
21
371.550000000000
31
0.0
0
LINE
5
435
100
AcDbEntity
8
0-4_2_3
6
CONTINUOUS
62
7
100
AcDbLine
10
802.230000000000
20
321.950000000000
30
0.0
11
802.230000000000
21
370.950000000000
31
0.0
0
LINE
5
436
100
AcDbEntity
8
0-4_2_3
6
CONTINUOUS
62
7
100
AcDbLine
10
802.830000000000
20
370.950000000000
30
0.0
11
802.830000000000
21
321.950000000000
31
0.0
0
LINE
5
437
100
AcDbEntity
8
0-4_2_3
6
CONTINUOUS
62
7
100
AcDbLine
10
803.430000000000
20
321.950000000000
30
0.0
11
803.430000000000
21
331.950000000000
31
0.0
0
LINE
5
438
100
AcDbEntity
8
0-4_2_3
6
CONTINUOUS
62
7
100
AcDbLine
10
803.430000000000
20
331.950000000000
30
0.0
11
804.030000000000
21
331.950000000000
31
0.0
0
LINE
5
439
100
AcDbEntity
8
0-4_2_3
6
CONTINUOUS
62
7
100
AcDbLine
10
804.030000000000
20
331.950000000000
30
0.0
11
804.030000000000
21
321.950000000000
31
0.0
0
LINE
5
43a
100
AcDbEntity
8
0-4_2_3
6
CONTINUOUS
62
3
100
AcDbLine
10
951.710000000000
20
371.950000000000
30
0.0
11
754.430000000000
21
371.950000000000
31
0.0
0
LINE
5
43b
100
AcDbEntity
8
0-4_2_3
6
CONTINUOUS
62
7
100
AcDbLine
10
819.430000000000
20
369.650000000000
30
0.0
11
804.430000000000
21
369.650000000000
31
0.0
0
LINE
5
43c
100
AcDbEntity
8
0-4_2_3
6
CONTINUOUS
62
4
100
AcDbLine
10
943.250000000000
20
371.950000000000
30
0.0
11
951.710000000000
21
380.420000000000
31
0.0
0
LINE
5
43d
100
AcDbEntity
8
0-4_2_3
6
CONTINUOUS
62
4
100
AcDbLine
10
914.960000000000
20
371.950000000000
30
0.0
11
939.960000000000
21
396.950000000000
31
0.0
0
LINE
5
43e
100
AcDbEntity
8
0-4_2_3
6
CONTINUOUS
62
4
100
AcDbLine
10
886.680000000000
20
371.950000000000
30
0.0
11
911.680000000000
21
396.950000000000
31
0.0
0
LINE
5
43f
100
AcDbEntity
8
0-4_2_3
6
CONTINUOUS
62
4
100
AcDbLine
10
858.390000000000
20
371.950000000000
30
0.0
11
883.390000000000
21
396.950000000000
31
0.0
0
LINE
5
440
100
AcDbEntity
8
0-4_2_3
6
CONTINUOUS
62
4
100
AcDbLine
10
830.110000000000
20
371.950000000000
30
0.0
11
855.110000000000
21
396.950000000000
31
0.0
0
LINE
5
441
100
AcDbEntity
8
0-4_2_3
6
CONTINUOUS
62
4
100
AcDbLine
10
801.830000000000
20
371.950000000000
30
0.0
11
826.830000000000
21
396.950000000000
31
0.0
0
LINE
5
442
100
AcDbEntity
8
0-4_2_3
6
CONTINUOUS
62
4
100
AcDbLine
10
773.540000000000
20
371.950000000000
30
0.0
11
798.540000000000
21
396.950000000000
31
0.0
0
LINE
5
443
100
AcDbEntity
8
0-4_2_3
6
CONTINUOUS
62
4
100
AcDbLine
10
754.430000000000
20
381.130000000000
30
0.0
11
770.260000000000
21
396.950000000000
31
0.0
0
LINE
5
444
100
AcDbEntity
8
0-4_2_3
6
CONTINUOUS
62
4
100
AcDbLine
10
757.530000000000
20
396.950000000000
30
0.0
11
782.530000000000
21
371.950000000000
31
0.0
0
LINE
5
445
100
AcDbEntity
8
0-4_2_3
6
CONTINUOUS
62
4
100
AcDbLine
10
785.810000000000
20
396.950000000000
30
0.0
11
810.810000000000
21
371.950000000000
31
0.0
0
LINE
5
446
100
AcDbEntity
8
0-4_2_3
6
CONTINUOUS
62
4
100
AcDbLine
10
814.100000000000
20
396.950000000000
30
0.0
11
839.100000000000
21
371.950000000000
31
0.0
0
LINE
5
447
100
AcDbEntity
8
0-4_2_3
6
CONTINUOUS
62
4
100
AcDbLine
10
842.380000000000
20
396.950000000000
30
0.0
11
867.380000000000
21
371.950000000000
31
0.0
0
LINE
5
448
100
AcDbEntity
8
0-4_2_3
6
CONTINUOUS
62
4
100
AcDbLine
10
870.660000000000
20
396.950000000000
30
0.0
11
895.660000000000
21
371.950000000000
31
0.0
0
LINE
5
449
100
AcDbEntity
8
0-4_2_3
6
CONTINUOUS
62
4
100
AcDbLine
10
898.950000000000
20
396.950000000000
30
0.0
11
923.950000000000
21
371.950000000000
31
0.0
0
LINE
5
44a
100
AcDbEntity
8
0-4_2_3
6
CONTINUOUS
62
4
100
AcDbLine
10
927.230000000000
20
396.950000000000
30
0.0
11
951.710000000000
21
372.470000000000
31
0.0
0
LINE
5
44b
100
AcDbEntity
8
0-4_2_3
6
CONTINUOUS
62
3
100
AcDbLine
10
951.710000000000
20
396.950000000000
30
0.0
11
754.430000000000
21
396.950000000000
31
0.0
0
LINE
5
44c
100
AcDbEntity
8
0-4_2_3
6
CONTINUOUS
62
4
100
AcDbLine
10
804.430000000000
20
260.010000000000
30
0.0
11
819.430000000000
21
275.010000000000
31
0.0
0
LINE
5
44d
100
AcDbEntity
8
0-4_2_3
6
CONTINUOUS
62
4
100
AcDbLine
10
804.430000000000
20
262.840000000000
30
0.0
11
819.430000000000
21
277.840000000000
31
0.0
0
LINE
5
44e
100
AcDbEntity
8
0-4_2_3
6
CONTINUOUS
62
4
100
AcDbLine
10
804.430000000000
20
288.290000000000
30
0.0
11
819.430000000000
21
303.290000000000
31
0.0
0
LINE
5
44f
100
AcDbEntity
8
0-4_2_3
6
CONTINUOUS
62
4
100
AcDbLine
10
804.430000000000
20
291.120000000000
30
0.0
11
819.430000000000
21
306.120000000000
31
0.0
0
LINE
5
450
100
AcDbEntity
8
0-4_2_3
6
CONTINUOUS
62
4
100
AcDbLine
10
804.430000000000
20
316.580000000000
30
0.0
11
819.430000000000
21
331.580000000000
31
0.0
0
LINE
5
451
100
AcDbEntity
8
0-4_2_3
6
CONTINUOUS
62
4
100
AcDbLine
10
804.430000000000
20
319.410000000000
30
0.0
11
819.430000000000
21
334.410000000000
31
0.0
0
LINE
5
452
100
AcDbEntity
8
0-4_2_3
6
CONTINUOUS
62
4
100
AcDbLine
10
804.430000000000
20
344.860000000000
30
0.0
11
819.430000000000
21
359.860000000000
31
0.0
0
LINE
5
453
100
AcDbEntity
8
0-4_2_3
6
CONTINUOUS
62
4
100
AcDbLine
10
804.430000000000
20
347.690000000000
30
0.0
11
819.430000000000
21
362.690000000000
31
0.0
0
LINE
5
454
100
AcDbEntity
8
0-4_2_3
6
CONTINUOUS
62
3
100
AcDbLine
10
879.430000000000
20
351.950000000000
30
0.0
11
951.710000000000
21
351.950000000000
31
0.0
0
LINE
5
455
100
AcDbEntity
8
0-4_2_3
6
CONTINUOUS
62
3
100
AcDbLine
10
879.430000000000
20
291.950000000000
30
0.0
11
951.710000000000
21
291.950000000000
31
0.0
0
LINE
5
456
100
AcDbEntity
8
0-4_2_3
6
CONTINUOUS
62
3
100
AcDbLine
10
879.430000000000
20
271.950000000000
30
0.0
11
951.710000000000
21
271.950000000000
31
0.0
0
LINE
5
457
100
AcDbEntity
8
0-4_2_3
6
CONTINUOUS
62
4
100
AcDbLine
10
734.430000000000
20
447.780000000000
30
0.0
11
734.430000000000
21
464.540000000000
31
0.0
0
LINE
5
458
100
AcDbEntity
8
0-4_2_3
6
CONTINUOUS
62
4
100
AcDbLine
10
871.710000000000
20
447.780000000000
30
0.0
11
871.710000000000
21
464.540000000000
31
0.0
0
LINE
5
459
100
AcDbEntity
8
0-4_2_3
6
CONTINUOUS
62
4
100
AcDbLine
10
734.430000000000
20
464.540000000000
30
0.0
11
866.930000000000
21
464.540000000000
31
0.0
0
LINE
5
45a
100
AcDbEntity
8
0-3_2_2
6
CONTINUOUS
62
3
100
AcDbLine
10
359.800000000000
20
263.650000000000
30
0.0
11
315.290000000000
21
254.750000000000
31
0.0
0
LINE
5
45b
100
AcDbEntity
8
0-3_2_2
6
CONTINUOUS
62
3
100
AcDbLine
10
315.290000000000
20
254.750000000000
30
0.0
11
296.580000000000
21
348.300000000000
31
0.0
0
LINE
5
45c
100
AcDbEntity
8
0-3_2_2
6
CONTINUOUS
62
3
100
AcDbLine
10
340.640000000000
20
359.450000000000
30
0.0
11
296.120000000000
21
350.550000000000
31
0.0
0
LINE
5
45d
100
AcDbEntity
8
0-3_2_2
6
CONTINUOUS
62
3
100
AcDbLine
10
296.580000000000
20
348.300000000000
30
0.0
11
341.090000000000
21
357.200000000000
31
0.0
0
LINE
5
45e
100
AcDbEntity
8
0-3_2_2
6
CONTINUOUS
62
3
100
AcDbLine
10
346.820000000000
20
340.290000000000
30
0.0
11
343.350000000000
21
357.650000000000
31
0.0
0
LINE
5
45f
100
AcDbEntity
8
0-3_2_2
6
CONTINUOUS
62
3
100
AcDbLine
10
341.090000000000
20
357.200000000000
30
0.0
11
344.570000000000
21
339.840000000000
31
0.0
0
LINE
5
460
100
AcDbEntity
8
0-3_2_2
6
CONTINUOUS
62
3
100
AcDbLine
10
344.570000000000
20
339.840000000000
30
0.0
11
346.820000000000
21
340.290000000000
31
0.0
0
LINE
5
461
100
AcDbEntity
8
0-3_2_2
6
CONTINUOUS
62
3
100
AcDbLine
10
356.330000000000
20
281.010000000000
30
0.0
11
359.800000000000
21
263.650000000000
31
0.0
0
LINE
5
462
100
AcDbEntity
8
0-3_2_2
6
CONTINUOUS
62
3
100
AcDbLine
10
362.060000000000
20
264.100000000000
30
0.0
11
358.590000000000
21
281.460000000000
31
0.0
0
LINE
5
463
100
AcDbEntity
8
0-3_2_2
6
CONTINUOUS
62
3
100
AcDbLine
10
358.590000000000
20
281.460000000000
30
0.0
11
356.330000000000
21
281.010000000000
31
0.0
0
LINE
5
464
100
AcDbEntity
8
0-3_2_2
6
CONTINUOUS
62
3
100
AcDbLine
10
315.740000000000
20
252.490000000000
30
0.0
11
360.250000000000
21
261.400000000000
31
0.0
0
LINE
5
465
100
AcDbEntity
8
0-3_2_2
6
CONTINUOUS
62
3
100
AcDbLine
10
220.330000000000
20
360.890000000000
30
0.0
11
225.230000000000
21
336.370000000000
31
0.0
0
LINE
5
466
100
AcDbEntity
8
0-3_2_2
6
CONTINUOUS
62
7
100
AcDbLine
10
228.460000000000
20
321.200000000000
30
0.0
11
229.050000000000
21
321.320000000000
31
0.0
0
LINE
5
467
100
AcDbEntity
8
0-3_2_2
6
CONTINUOUS
62
7
100
AcDbLine
10
229.650000000000
20
321.370000000000
30
0.0
11
227.970000000000
21
329.780000000000
31
0.0
0
LINE
5
468
100
AcDbEntity
8
0-3_2_2
6
CONTINUOUS
62
7
100
AcDbLine
10
227.970000000000
20
329.780000000000
30
0.0
11
228.560000000000
21
329.900000000000
31
0.0
0
LINE
5
469
100
AcDbEntity
8
0-3_2_2
6
CONTINUOUS
62
7
100
AcDbLine
10
228.560000000000
20
329.900000000000
30
0.0
11
230.230000000000
21
321.550000000000
31
0.0
0
LINE
5
46a
100
AcDbEntity
8
0-3_2_2
6
CONTINUOUS
62
7
100
AcDbLine
10
267.870000000000
20
372.220000000000
30
0.0
11
267.990000000000
21
371.630000000000
31
0.0
0
LINE
5
46b
100
AcDbEntity
8
0-3_2_2
6
CONTINUOUS
62
7
100
AcDbLine
10
214.230000000000
20
355.690000000000
30
0.0
11
204.280000000000
21
353.700000000000
31
0.0
0
LINE
5
46c
100
AcDbEntity
8
0-3_2_2
6
CONTINUOUS
62
7
100
AcDbLine
10
214.230000000000
20
355.690000000000
30
0.0
11
214.110000000000
21
356.280000000000
31
0.0
0
LINE
5
46d
100
AcDbEntity
8
0-3_2_2
6
CONTINUOUS
62
7
100
AcDbLine
10
214.110000000000
20
356.280000000000
30
0.0
11
204.160000000000
21
354.290000000000
31
0.0
0
LINE
5
46e
100
AcDbEntity
8
0-3_2_2
6
CONTINUOUS
62
7
100
AcDbLine
10
283.180000000000
20
373.460000000000
30
0.0
11
208.290000000000
21
359.120000000000
31
0.0
0
LINE
5
46f
100
AcDbEntity
8
0-3_2_2
6
CONTINUOUS
62
7
100
AcDbLine
10
208.170000000000
20
359.710000000000
30
0.0
11
283.070000000000
21
374.050000000000
31
0.0
0
LINE
5
470
100
AcDbEntity
8
0-3_2_2
6
DASHED
62
7
100
AcDbLine
10
283.980000000000
20
376.060000000000
30
0.0
11
288.330000000000
21
375.510000000000
31
0.0
0
LINE
5
471
100
AcDbEntity
8
0-3_2_2
6
DASHED
62
7
100
AcDbLine
10
267.330000000000
20
372.730000000000
30
0.0
11
265.680000000000
21
371.780000000000
31
0.0
0
LINE
5
472
100
AcDbEntity
8
0-3_2_2
6
CONTINUOUS
62
7
100
AcDbLine
10
267.870000000000
20
372.220000000000
30
0.0
11
282.840000000000
21
375.220000000000
31
0.0
0
LINE
5
473
100
AcDbEntity
8
0-3_2_2
6
CONTINUOUS
62
7
100
AcDbLine
10
282.950000000000
20
374.630000000000
30
0.0
11
267.980000000000
21
371.640000000000
31
0.0
0
LINE
5
474
100
AcDbEntity
8
0-3_2_2
6
DASHED
62
7
100
AcDbLine
10
267.330000000000
20
372.730000000000
30
0.0
11
283.980000000000
21
376.060000000000
31
0.0
0
LINE
5
475
100
AcDbEntity
8
0-3_2_2
6
CONTINUOUS
62
7
100
AcDbLine
10
227.310000000000
20
320.850000000000
30
0.0
11
219.690000000000
21
358.960000000000
31
0.0
0
LINE
5
476
100
AcDbEntity
8
0-3_2_2
6
CONTINUOUS
62
7
100
AcDbLine
10
220.280000000000
20
359.070000000000
30
0.0
11
227.880000000000
21
321.080000000000
31
0.0
0
LINE
5
477
100
AcDbEntity
8
0-3_2_2
6
CONTINUOUS
62
7
100
AcDbLine
10
219.570000000000
20
359.540000000000
30
0.0
11
203.740000000000
21
356.380000000000
31
0.0
0
LINE
5
478
100
AcDbEntity
8
0-3_2_2
6
CONTINUOUS
62
7
100
AcDbLine
10
203.390000000000
20
358.140000000000
30
0.0
11
208.290000000000
21
359.120000000000
31
0.0
0
LINE
5
479
100
AcDbEntity
8
0-3_2_2
6
CONTINUOUS
62
7
100
AcDbLine
10
208.170000000000
20
359.710000000000
30
0.0
11
203.270000000000
21
358.730000000000
31
0.0
0
LINE
5
47a
100
AcDbEntity
8
0-3_2_2
6
CONTINUOUS
62
7
100
AcDbLine
10
219.690000000000
20
358.960000000000
30
0.0
11
203.860000000000
21
355.790000000000
31
0.0
0
LINE
5
47b
100
AcDbEntity
8
0-3_2_2
6
CONTINUOUS
62
7
100
AcDbLine
10
202.950000000000
20
360.290000000000
30
0.0
11
207.840000000000
21
361.260000000000
31
0.0
0
LINE
5
47c
100
AcDbEntity
8
0-3_2_2
6
CONTINUOUS
62
7
100
AcDbLine
10
229.050000000000
20
321.320000000000
30
0.0
11
226.210000000000
21
335.550000000000
31
0.0
0
LINE
5
47d
100
AcDbEntity
8
0-3_2_2
6
CONTINUOUS
62
7
100
AcDbLine
10
225.620000000000
20
335.430000000000
30
0.0
11
228.460000000000
21
321.200000000000
31
0.0
0
LINE
5
47e
100
AcDbEntity
8
0-3_2_2
6
CONTINUOUS
62
4
100
AcDbLine
10
315.000000000000
20
382.370000000000
30
0.0
11
324.810000000000
21
384.330000000000
31
0.0
0
LINE
5
47f
100
AcDbEntity
8
0-3_2_2
6
CONTINUOUS
62
4
100
AcDbLine
10
316.860000000000
20
383.250000000000
30
0.0
11
322.750000000000
21
384.430000000000
31
0.0
0
LINE
5
480
100
AcDbEntity
8
0-3_2_2
6
CONTINUOUS
62
4
100
AcDbLine
10
324.810000000000
20
384.330000000000
30
0.0
11
324.880000000000
21
383.940000000000
31
0.0
0
LINE
5
481
100
AcDbEntity
8
0-3_2_2
6
CONTINUOUS
62
4
100
AcDbLine
10
322.750000000000
20
384.430000000000
30
0.0
11
324.320000000000
21
384.230000000000
31
0.0
0
LINE
5
482
100
AcDbEntity
8
0-3_2_2
6
CONTINUOUS
62
4
100
AcDbLine
10
324.390000000000
20
373.160000000000
30
0.0
11
319.530000000000
21
373.000000000000
31
0.0
0
LINE
5
483
100
AcDbEntity
8
0-3_2_2
6
CONTINUOUS
62
4
100
AcDbLine
10
324.700000000000
20
371.590000000000
30
0.0
11
319.840000000000
21
371.440000000000
31
0.0
0
LINE
5
484
100
AcDbEntity
8
0-3_2_2
6
CONTINUOUS
62
4
100
AcDbLine
10
325.020000000000
20
370.020000000000
30
0.0
11
320.150000000000
21
369.870000000000
31
0.0
0
LINE
5
485
100
AcDbEntity
8
0-3_2_2
6
CONTINUOUS
62
4
100
AcDbLine
10
324.080000000000
20
374.730000000000
30
0.0
11
319.210000000000
21
374.570000000000
31
0.0
0
LINE
5
486
100
AcDbEntity
8
0-3_2_2
6
CONTINUOUS
62
4
100
AcDbLine
10
315.000000000000
20
382.370000000000
30
0.0
11
315.080000000000
21
381.980000000000
31
0.0
0
LINE
5
487
100
AcDbEntity
8
0-3_2_2
6
CONTINUOUS
62
4
100
AcDbLine
10
316.860000000000
20
383.250000000000
30
0.0
11
315.490000000000
21
382.470000000000
31
0.0
0
LINE
5
488
100
AcDbEntity
8
0-3_2_2
6
CONTINUOUS
62
4
100
AcDbLine
10
325.640000000000
20
366.890000000000
30
0.0
11
320.780000000000
21
366.730000000000
31
0.0
0
LINE
5
489
100
AcDbEntity
8
0-3_2_2
6
CONTINUOUS
62
4
100
AcDbLine
10
325.330000000000
20
368.450000000000
30
0.0
11
320.470000000000
21
368.300000000000
31
0.0
0
LINE
5
48a
100
AcDbEntity
8
0-3_2_2
6
CONTINUOUS
62
4
100
AcDbLine
10
325.960000000000
20
365.320000000000
30
0.0
11
321.090000000000
21
365.160000000000
31
0.0
0
LINE
5
48b
100
AcDbEntity
8
0-3_2_2
6
CONTINUOUS
62
4
100
AcDbLine
10
326.270000000000
20
363.750000000000
30
0.0
11
321.410000000000
21
363.590000000000
31
0.0
0
LINE
5
48c
100
AcDbEntity
8
0-3_2_2
6
CONTINUOUS
62
4
100
AcDbLine
10
327.830000000000
20
343.740000000000
30
0.0
11
325.550000000000
21
344.910000000000
31
0.0
0
LINE
5
48d
100
AcDbEntity
8
0-3_2_2
6
CONTINUOUS
62
4
100
AcDbLine
10
329.470000000000
20
345.700000000000
30
0.0
11
327.830000000000
21
343.740000000000
31
0.0
0
LINE
5
48e
100
AcDbEntity
8
0-3_2_2
6
CONTINUOUS
62
4
100
AcDbLine
10
315.080000000000
20
381.980000000000
30
0.0
11
324.880000000000
21
383.940000000000
31
0.0
0
LINE
5
48f
100
AcDbEntity
8
0-3_2_2
6
CONTINUOUS
62
4
100
AcDbLine
10
323.450000000000
20
377.870000000000
30
0.0
11
318.580000000000
21
377.710000000000
31
0.0
0
LINE
5
490
100
AcDbEntity
8
0-3_2_2
6
CONTINUOUS
62
4
100
AcDbLine
10
323.760000000000
20
376.300000000000
30
0.0
11
318.900000000000
21
376.140000000000
31
0.0
0
LINE
5
491
100
AcDbEntity
8
0-3_2_2
6
CONTINUOUS
62
4
100
AcDbLine
10
323.130000000000
20
379.440000000000
30
0.0
11
318.270000000000
21
379.280000000000
31
0.0
0
LINE
5
492
100
AcDbEntity
8
0-3_2_2
6
CONTINUOUS
62
4
100
AcDbLine
10
326.590000000000
20
362.180000000000
30
0.0
11
321.720000000000
21
362.020000000000
31
0.0
0
LINE
5
493
100
AcDbEntity
8
0-3_2_2
6
CONTINUOUS
62
4
100
AcDbLine
10
326.900000000000
20
360.610000000000
30
0.0
11
322.040000000000
21
360.450000000000
31
0.0
0
LINE
5
494
100
AcDbEntity
8
0-3_2_2
6
CONTINUOUS
62
4
100
AcDbLine
10
327.210000000000
20
359.040000000000
30
0.0
11
322.350000000000
21
358.880000000000
31
0.0
0
LINE
5
495
100
AcDbEntity
8
0-3_2_2
6
CONTINUOUS
62
4
100
AcDbLine
10
327.530000000000
20
357.470000000000
30
0.0
11
322.660000000000
21
357.310000000000
31
0.0
0
LINE
5
496
100
AcDbEntity
8
0-3_2_2
6
CONTINUOUS
62
4
100
AcDbLine
10
327.840000000000
20
355.900000000000
30
0.0
11
322.980000000000
21
355.750000000000
31
0.0
0
LINE
5
497
100
AcDbEntity
8
0-3_2_2
6
CONTINUOUS
62
7
100
AcDbLine
10
203.070000000000
20
359.700000000000
30
0.0
11
207.970000000000
21
360.680000000000
31
0.0
0
LINE
5
498
100
AcDbEntity
8
0-3_2_2
6
CONTINUOUS
62
4
100
AcDbLine
10
328.150000000000
20
354.330000000000
30
0.0
11
323.290000000000
21
354.180000000000
31
0.0
0
LINE
5
499
100
AcDbEntity
8
0-3_2_2
6
CONTINUOUS
62
4
100
AcDbLine
10
328.470000000000
20
352.770000000000
30
0.0
11
323.600000000000
21
352.610000000000
31
0.0
0
LINE
5
49a
100
AcDbEntity
8
0-3_2_2
6
CONTINUOUS
62
4
100
AcDbLine
10
328.780000000000
20
351.200000000000
30
0.0
11
323.920000000000
21
351.040000000000
31
0.0
0
LINE
5
49b
100
AcDbEntity
8
0-3_2_2
6
CONTINUOUS
62
4
100
AcDbLine
10
329.100000000000
20
349.630000000000
30
0.0
11
324.230000000000
21
349.470000000000
31
0.0
0
LINE
5
49c
100
AcDbEntity
8
0-3_2_2
6
CONTINUOUS
62
4
100
AcDbLine
10
329.470000000000
20
345.700000000000
30
0.0
11
321.940000000000
21
383.350000000000
31
0.0
0
LINE
5
49d
100
AcDbEntity
8
0-3_2_2
6
CONTINUOUS
62
4
100
AcDbLine
10
325.550000000000
20
344.910000000000
30
0.0
11
318.020000000000
21
382.570000000000
31
0.0
0
LINE
5
49e
100
AcDbEntity
8
0-3_2_2
6
CONTINUOUS
62
7
100
AcDbLine
10
226.210000000000
20
335.550000000000
30
0.0
11
272.300000000000
21
344.770000000000
31
0.0
0
LINE
5
49f
100
AcDbEntity
8
0-3_2_2
6
CONTINUOUS
62
7
100
AcDbLine
10
272.180000000000
20
345.350000000000
30
0.0
11
226.090000000000
21
336.140000000000
31
0.0
0
LINE
5
4a0
100
AcDbEntity
8
0-3_2_2
6
CONTINUOUS
62
7
100
AcDbLine
10
281.910000000000
20
296.720000000000
30
0.0
11
272.300000000000
21
344.770000000000
31
0.0
0
LINE
5
4a1
100
AcDbEntity
8
0-3_2_2
6
CONTINUOUS
62
7
100
AcDbLine
10
272.890000000000
20
344.880000000000
30
0.0
11
282.490000000000
21
296.830000000000
31
0.0
0
LINE
5
4a2
100
AcDbEntity
8
0-3_2_2
6
CONTINUOUS
62
7
100
AcDbLine
10
283.080000000000
20
296.950000000000
30
0.0
11
281.120000000000
21
306.760000000000
31
0.0
0
LINE
5
4a3
100
AcDbEntity
8
0-3_2_2
6
CONTINUOUS
62
7
100
AcDbLine
10
281.120000000000
20
306.760000000000
30
0.0
11
281.710000000000
21
306.880000000000
31
0.0
0
LINE
5
4a4
100
AcDbEntity
8
0-3_2_2
6
CONTINUOUS
62
7
100
AcDbLine
10
281.710000000000
20
306.880000000000
30
0.0
11
283.670000000000
21
297.070000000000
31
0.0
0
LINE
5
4a5
100
AcDbEntity
8
0-3_2_2
6
CONTINUOUS
62
3
100
AcDbLine
10
418.680000000000
20
375.060000000000
30
0.0
11
225.230000000000
21
336.370000000000
31
0.0
0
LINE
5
4a6
100
AcDbEntity
8
0-3_2_2
6
DASHED
62
7
100
AcDbLine
10
413.580000000000
20
400.560000000000
30
0.0
11
288.330000000000
21
375.510000000000
31
0.0
0
LINE
5
4a7
100
AcDbEntity
8
0-3_2_2
6
CONTINUOUS
62
4
100
AcDbLine
10
410.380000000000
20
373.400000000000
30
0.0
11
417.020000000000
21
383.360000000000
31
0.0
0
LINE
5
4a8
100
AcDbEntity
8
0-3_2_2
6
CONTINUOUS
62
4
100
AcDbLine
10
382.640000000000
20
367.850000000000
30
0.0
11
402.250000000000
21
397.270000000000
31
0.0
0
LINE
5
4a9
100
AcDbEntity
8
0-3_2_2
6
CONTINUOUS
62
4
100
AcDbLine
10
354.910000000000
20
362.310000000000
30
0.0
11
374.520000000000
21
391.720000000000
31
0.0
0
LINE
5
4aa
100
AcDbEntity
8
0-3_2_2
6
CONTINUOUS
62
4
100
AcDbLine
10
327.170000000000
20
356.760000000000
30
0.0
11
346.780000000000
21
386.180000000000
31
0.0
0
LINE
5
4ab
100
AcDbEntity
8
0-3_2_2
6
CONTINUOUS
62
4
100
AcDbLine
10
299.440000000000
20
351.210000000000
30
0.0
11
319.050000000000
21
380.630000000000
31
0.0
0
LINE
5
4ac
100
AcDbEntity
8
0-3_2_2
6
CONTINUOUS
62
4
100
AcDbLine
10
271.700000000000
20
345.670000000000
30
0.0
11
291.310000000000
21
375.080000000000
31
0.0
0
LINE
5
4ad
100
AcDbEntity
8
0-3_2_2
6
CONTINUOUS
62
4
100
AcDbLine
10
243.970000000000
20
340.120000000000
30
0.0
11
263.580000000000
21
369.540000000000
31
0.0
0
LINE
5
4ae
100
AcDbEntity
8
0-3_2_2
6
CONTINUOUS
62
4
100
AcDbLine
10
223.430000000000
20
345.370000000000
30
0.0
11
235.840000000000
21
363.990000000000
31
0.0
0
LINE
5
4af
100
AcDbEntity
8
0-3_2_2
6
CONTINUOUS
62
4
100
AcDbLine
10
223.360000000000
20
361.490000000000
30
0.0
11
252.780000000000
21
341.880000000000
31
0.0
0
LINE
5
4b0
100
AcDbEntity
8
0-3_2_2
6
CONTINUOUS
62
4
100
AcDbLine
10
251.100000000000
20
367.040000000000
30
0.0
11
280.510000000000
21
347.430000000000
31
0.0
0
LINE
5
4b1
100
AcDbEntity
8
0-3_2_2
6
CONTINUOUS
62
4
100
AcDbLine
10
278.830000000000
20
372.590000000000
30
0.0
11
308.250000000000
21
352.980000000000
31
0.0
0
LINE
5
4b2
100
AcDbEntity
8
0-3_2_2
6
CONTINUOUS
62
4
100
AcDbLine
10
306.570000000000
20
378.130000000000
30
0.0
11
335.980000000000
21
358.520000000000
31
0.0
0
LINE
5
4b3
100
AcDbEntity
8
0-3_2_2
6
CONTINUOUS
62
4
100
AcDbLine
10
334.300000000000
20
383.680000000000
30
0.0
11
363.720000000000
21
364.070000000000
31
0.0
0
LINE
5
4b4
100
AcDbEntity
8
0-3_2_2
6
CONTINUOUS
62
4
100
AcDbLine
10
362.040000000000
20
389.230000000000
30
0.0
11
391.450000000000
21
369.620000000000
31
0.0
0
LINE
5
4b5
100
AcDbEntity
8
0-3_2_2
6
CONTINUOUS
62
4
100
AcDbLine
10
389.770000000000
20
394.770000000000
30
0.0
11
418.580000000000
21
375.570000000000
31
0.0
0
LINE
5
4b6
100
AcDbEntity
8
0-3_2_2
6
CONTINUOUS
62
3
100
AcDbLine
10
413.780000000000
20
399.580000000000
30
0.0
11
220.330000000000
21
360.890000000000
31
0.0
0
LINE
5
4b7
100
AcDbEntity
8
0-3_2_2
6
CONTINUOUS
62
7
100
AcDbLine
10
413.050000000000
20
403.200000000000
30
0.0
11
268.190000000000
21
374.230000000000
31
0.0
0
LINE
5
4b8
100
AcDbEntity
8
0-3_2_2
6
CONTINUOUS
62
7
100
AcDbLine
10
413.170000000000
20
402.620000000000
30
0.0
11
268.310000000000
21
373.640000000000
31
0.0
0
LINE
5
4b9
100
AcDbEntity
8
0-3_2_2
6
CONTINUOUS
62
4
100
AcDbLine
10
181.580000000000
20
452.650000000000
30
0.0
11
301.260000000000
21
476.590000000000
31
0.0
0
LINE
5
4ba
100
AcDbEntity
8
0-3_2_2
6
CONTINUOUS
62
3
100
AcDbLine
10
323.290000000000
20
203.010000000000
30
0.0
11
303.680000000000
21
199.090000000000
31
0.0
0
LINE
5
4bb
100
AcDbEntity
8
0-3_2_2
6
CONTINUOUS
62
7
100
AcDbLine
10
443.880000000000
20
249.060000000000
30
0.0
11
320.050000000000
21
224.290000000000
31
0.0
0
LINE
5
4bc
100
AcDbEntity
8
0-3_2_2
6
CONTINUOUS
62
7
100
AcDbLine
10
320.050000000000
20
224.290000000000
30
0.0
11
321.330000000000
21
217.920000000000
31
0.0
0
LINE
5
4bd
100
AcDbEntity
8
0-3_2_2
6
CONTINUOUS
62
7
100
AcDbLine
10
445.150000000000
20
242.680000000000
30
0.0
11
321.330000000000
21
217.920000000000
31
0.0
0
LINE
5
4be
100
AcDbEntity
8
0-3_2_2
6
CONTINUOUS
62
3
100
AcDbLine
10
294.320000000000
20
347.840000000000
30
0.0
11
313.030000000000
21
254.300000000000
31
0.0
0
LINE
5
4bf
100
AcDbEntity
8
0-3_2_2
6
CONTINUOUS
62
3
100
AcDbLine
10
294.320000000000
20
347.840000000000
30
0.0
11
274.710000000000
21
343.920000000000
31
0.0
0
LINE
5
4c0
100
AcDbEntity
8
0-3_2_2
6
CONTINUOUS
62
4
100
AcDbLine
10
303.330000000000
20
200.820000000000
30
0.0
11
320.330000000000
21
217.820000000000
31
0.0
0
LINE
5
4c1
100
AcDbEntity
8
0-3_2_2
6
CONTINUOUS
62
4
100
AcDbLine
10
300.970000000000
20
212.600000000000
30
0.0
11
317.970000000000
21
229.600000000000
31
0.0
0
LINE
5
4c2
100
AcDbEntity
8
0-3_2_2
6
CONTINUOUS
62
4
100
AcDbLine
10
298.620000000000
20
224.390000000000
30
0.0
11
315.610000000000
21
241.390000000000
31
0.0
0
LINE
5
4c3
100
AcDbEntity
8
0-3_2_2
6
CONTINUOUS
62
4
100
AcDbLine
10
296.260000000000
20
236.180000000000
30
0.0
11
313.260000000000
21
253.170000000000
31
0.0
0
LINE
5
4c4
100
AcDbEntity
8
0-3_2_2
6
CONTINUOUS
62
4
100
AcDbLine
10
293.900000000000
20
247.960000000000
30
0.0
11
310.900000000000
21
264.960000000000
31
0.0
0
LINE
5
4c5
100
AcDbEntity
8
0-3_2_2
6
CONTINUOUS
62
4
100
AcDbLine
10
291.540000000000
20
259.750000000000
30
0.0
11
308.540000000000
21
276.740000000000
31
0.0
0
LINE
5
4c6
100
AcDbEntity
8
0-3_2_2
6
CONTINUOUS
62
4
100
AcDbLine
10
289.190000000000
20
271.530000000000
30
0.0
11
306.180000000000
21
288.530000000000
31
0.0
0
LINE
5
4c7
100
AcDbEntity
8
0-3_2_2
6
CONTINUOUS
62
4
100
AcDbLine
10
286.830000000000
20
283.320000000000
30
0.0
11
303.830000000000
21
300.310000000000
31
0.0
0
LINE
5
4c8
100
AcDbEntity
8
0-3_2_2
6
CONTINUOUS
62
4
100
AcDbLine
10
284.470000000000
20
295.100000000000
30
0.0
11
301.470000000000
21
312.100000000000
31
0.0
0
LINE
5
4c9
100
AcDbEntity
8
0-3_2_2
6
CONTINUOUS
62
4
100
AcDbLine
10
282.120000000000
20
306.890000000000
30
0.0
11
299.110000000000
21
323.880000000000
31
0.0
0
LINE
5
4ca
100
AcDbEntity
8
0-3_2_2
6
CONTINUOUS
62
4
100
AcDbLine
10
279.760000000000
20
318.670000000000
30
0.0
11
296.760000000000
21
335.670000000000
31
0.0
0
LINE
5
4cb
100
AcDbEntity
8
0-3_2_2
6
CONTINUOUS
62
4
100
AcDbLine
10
277.400000000000
20
330.460000000000
30
0.0
11
294.400000000000
21
347.450000000000
31
0.0
0
LINE
5
4cc
100
AcDbEntity
8
0-3_2_2
6
CONTINUOUS
62
4
100
AcDbLine
10
275.050000000000
20
342.240000000000
30
0.0
11
277.230000000000
21
344.430000000000
31
0.0
0
LINE
5
4cd
100
AcDbEntity
8
0-3_2_2
6
CONTINUOUS
62
3
100
AcDbLine
10
274.710000000000
20
343.920000000000
30
0.0
11
303.680000000000
21
199.090000000000
31
0.0
0
LINE
5
4ce
100
AcDbEntity
8
0-3_2_2
6
CONTINUOUS
62
3
100
AcDbLine
10
313.030000000000
20
254.300000000000
30
0.0
11
323.290000000000
21
203.010000000000
31
0.0
0
LINE
5
4cf
100
AcDbEntity
8
0-3_2_2
6
CONTINUOUS
62
4
100
AcDbLine
10
318.760000000000
20
202.110000000000
30
0.0
11
322.680000000000
21
206.030000000000
31
0.0
0
LINE
5
4d0
100
AcDbEntity
8
0-2_2_1
6
CONTINUOUS
62
4
100
AcDbLine
10
1269.490000000000
20
974.070000000000
30
0.0
11
1434.270000000000
21
1007.030000000000
31
0.0
0
LINE
5
4d1
100
AcDbEntity
8
0-2_2_1
6
CONTINUOUS
62
3
100
AcDbLine
10
1461.280000000000
20
931.210000000000
30
0.0
11
1461.280000000000
21
976.610000000000
31
0.0
0
LINE
5
4d2
100
AcDbEntity
8
0-2_2_1
6
CONTINUOUS
62
3
100
AcDbLine
10
1556.680000000000
20
978.910000000000
30
0.0
11
1461.280000000000
21
978.910000000000
31
0.0
0
LINE
5
4d3
100
AcDbEntity
8
0-2_2_1
6
CONTINUOUS
62
3
100
AcDbLine
10
1461.280000000000
20
976.610000000000
30
0.0
11
1556.680000000000
21
976.610000000000
31
0.0
0
LINE
5
4d4
100
AcDbEntity
8
0-2_2_1
6
CONTINUOUS
62
3
100
AcDbLine
10
1558.980000000000
20
931.210000000000
30
0.0
11
1558.980000000000
21
976.610000000000
31
0.0
0
LINE
5
4d5
100
AcDbEntity
8
0-2_2_1
6
CONTINUOUS
62
3
100
AcDbLine
10
1556.680000000000
20
976.610000000000
30
0.0
11
1556.680000000000
21
931.210000000000
31
0.0
0
LINE
5
4d6
100
AcDbEntity
8
0-2_2_1
6
CONTINUOUS
62
3
100
AcDbLine
10
1538.980000000000
20
928.910000000000
30
0.0
11
1556.680000000000
21
928.910000000000
31
0.0
0
LINE
5
4d7
100
AcDbEntity
8
0-2_2_1
6
CONTINUOUS
62
3
100
AcDbLine
10
1556.680000000000
20
931.210000000000
30
0.0
11
1538.980000000000
21
931.210000000000
31
0.0
0
LINE
5
4d8
100
AcDbEntity
8
0-2_2_1
6
CONTINUOUS
62
3
100
AcDbLine
10
1538.980000000000
20
931.210000000000
30
0.0
11
1538.980000000000
21
928.910000000000
31
0.0
0
LINE
5
4d9
100
AcDbEntity
8
0-2_2_1
6
CONTINUOUS
62
3
100
AcDbLine
10
1478.980000000000
20
931.210000000000
30
0.0
11
1461.280000000000
21
931.210000000000
31
0.0
0
LINE
5
4da
100
AcDbEntity
8
0-2_2_1
6
CONTINUOUS
62
3
100
AcDbLine
10
1461.280000000000
20
928.910000000000
30
0.0
11
1478.980000000000
21
928.910000000000
31
0.0
0
LINE
5
4db
100
AcDbEntity
8
0-2_2_1
6
CONTINUOUS
62
3
100
AcDbLine
10
1478.980000000000
20
928.910000000000
30
0.0
11
1478.980000000000
21
931.210000000000
31
0.0
0
LINE
5
4dc
100
AcDbEntity
8
0-2_2_1
6
CONTINUOUS
62
3
100
AcDbLine
10
1458.980000000000
20
976.610000000000
30
0.0
11
1458.980000000000
21
931.210000000000
31
0.0
0
LINE
5
4dd
100
AcDbEntity
8
0-2_2_1
6
CONTINUOUS
62
7
100
AcDbLine
10
1456.980000000000
20
881.020000000000
30
0.0
11
1456.980000000000
21
976.610000000000
31
0.0
0
LINE
5
4de
100
AcDbEntity
8
0-2_2_1
6
CONTINUOUS
62
7
100
AcDbLine
10
1456.380000000000
20
881.020000000000
30
0.0
11
1456.380000000000
21
976.610000000000
31
0.0
0
LINE
5
4df
100
AcDbEntity
8
0-2_2_1
6
CONTINUOUS
62
3
100
AcDbLine
10
1458.980000000000
20
976.610000000000
30
0.0
11
1458.980000000000
21
1019.450000000000
31
0.0
0
LINE
5
4e0
100
AcDbEntity
8
0-2_2_1
6
CONTINUOUS
62
7
100
AcDbLine
10
1438.980000000000
20
883.910000000000
30
0.0
11
1438.980000000000
21
1019.450000000000
31
0.0
0
LINE
5
4e1
100
AcDbEntity
8
0-2_2_1
6
CONTINUOUS
62
7
100
AcDbLine
10
1438.980000000000
20
883.910000000000
30
0.0
11
1453.980000000000
21
883.910000000000
31
0.0
0
LINE
5
4e2
100
AcDbEntity
8
0-2_2_1
6
CONTINUOUS
62
7
100
AcDbLine
10
1453.980000000000
20
883.910000000000
30
0.0
11
1453.980000000000
21
1019.450000000000
31
0.0
0
LINE
5
4e3
100
AcDbEntity
8
0-2_2_1
6
DASHED
62
7
100
AcDbLine
10
1456.980000000000
20
981.160000000000
30
0.0
11
1456.980000000000
21
1019.450000000000
31
0.0
0
LINE
5
4e4
100
AcDbEntity
8
0-2_2_1
6
DASHED
62
7
100
AcDbLine
10
1456.980000000000
20
981.160000000000
30
0.0
11
1454.580000000000
21
977.460000000000
31
0.0
0
LINE
5
4e5
100
AcDbEntity
8
0-2_2_1
6
CONTINUOUS
62
4
100
AcDbLine
10
1448.240000000000
20
883.910000000000
30
0.0
11
1453.980000000000
21
889.650000000000
31
0.0
0
LINE
5
4e6
100
AcDbEntity
8
0-2_2_1
6
CONTINUOUS
62
4
100
AcDbLine
10
1445.410000000000
20
883.910000000000
30
0.0
11
1453.980000000000
21
892.480000000000
31
0.0
0
LINE
5
4e7
100
AcDbEntity
8
0-2_2_1
6
CONTINUOUS
62
4
100
AcDbLine
10
1438.980000000000
20
902.930000000000
30
0.0
11
1453.980000000000
21
917.930000000000
31
0.0
0
LINE
5
4e8
100
AcDbEntity
8
0-2_2_1
6
CONTINUOUS
62
4
100
AcDbLine
10
1438.980000000000
20
905.760000000000
30
0.0
11
1453.980000000000
21
920.760000000000
31
0.0
0
LINE
5
4e9
100
AcDbEntity
8
0-2_2_1
6
CONTINUOUS
62
4
100
AcDbLine
10
1438.980000000000
20
931.210000000000
30
0.0
11
1453.980000000000
21
946.210000000000
31
0.0
0
LINE
5
4ea
100
AcDbEntity
8
0-2_2_1
6
CONTINUOUS
62
4
100
AcDbLine
10
1438.980000000000
20
934.040000000000
30
0.0
11
1453.980000000000
21
949.040000000000
31
0.0
0
LINE
5
4eb
100
AcDbEntity
8
0-2_2_1
6
CONTINUOUS
62
4
100
AcDbLine
10
1438.980000000000
20
959.500000000000
30
0.0
11
1453.980000000000
21
974.500000000000
31
0.0
0
LINE
5
4ec
100
AcDbEntity
8
0-2_2_1
6
CONTINUOUS
62
4
100
AcDbLine
10
1438.980000000000
20
962.330000000000
30
0.0
11
1453.980000000000
21
977.330000000000
31
0.0
0
LINE
5
4ed
100
AcDbEntity
8
0-2_2_1
6
CONTINUOUS
62
4
100
AcDbLine
10
1438.980000000000
20
987.780000000000
30
0.0
11
1453.980000000000
21
1002.780000000000
31
0.0
0
LINE
5
4ee
100
AcDbEntity
8
0-2_2_1
6
CONTINUOUS
62
4
100
AcDbLine
10
1438.980000000000
20
990.610000000000
30
0.0
11
1453.980000000000
21
1005.610000000000
31
0.0
0
LINE
5
4ef
100
AcDbEntity
8
0-2_2_1
6
CONTINUOUS
62
4
100
AcDbLine
10
1438.980000000000
20
1016.070000000000
30
0.0
11
1442.370000000000
21
1019.450000000000
31
0.0
0
LINE
5
4f0
100
AcDbEntity
8
0-2_2_1
6
CONTINUOUS
62
4
100
AcDbLine
10
1438.980000000000
20
1018.900000000000
30
0.0
11
1439.540000000000
21
1019.450000000000
31
0.0
0
LINE
5
4f1
100
AcDbEntity
8
0-2_2_1
6
CONTINUOUS
62
4
100
AcDbLine
10
1465.130000000000
20
841.450000000000
30
0.0
11
1507.070000000000
21
841.450000000000
31
0.0
0
LINE
5
4f2
100
AcDbEntity
8
0-4_2_3
6
CONTINUOUS
62
4
100
AcDbLine
10
956.490000000000
20
464.540000000000
30
0.0
11
950.700000000000
21
466.090000000000
31
0.0
0
LINE
5
4f3
100
AcDbEntity
8
0-3_2_2
6
CONTINUOUS
62
7
100
AcDbLine
10
367.820000000000
20
373.990000000000
30
0.0
11
379.370000000000
21
353.990000000000
31
0.0
0
LINE
5
4f4
100
AcDbEntity
8
0-4_2_3
6
CONTINUOUS
62
7
100
AcDbLine
10
936.880000000000
20
381.750000000000
30
0.0
11
948.430000000000
21
361.750000000000
31
0.0
0
LINE
5
4f5
100
AcDbEntity
8
0-3_2_2
6
CONTINUOUS
62
7
100
AcDbLine
10
368.980000000000
20
391.570000000000
30
0.0
11
384.470000000000
21
437.350000000000
31
0.0
0
LINE
5
4f6
100
AcDbEntity
8
0-2_2_1
6
CONTINUOUS
62
7
100
AcDbLine
10
1403.530000000000
20
820.130000000000
30
0.0
11
1415.080000000000
21
800.130000000000
31
0.0
0
LINE
5
4f7
100
AcDbEntity
8
F-F
6
CONTINUOUS
62
3
100
AcDbLine
10
580.390000000000
20
82.890000000000
30
0.0
11
580.390000000000
21
1143.640000000000
31
0.0
0
LINE
5
4f8
100
AcDbEntity
8
F-F
6
CONTINUOUS
62
3
100
AcDbLine
10
1106.020000000000
20
82.890000000000
30
0.0
11
1106.020000000000
21
1143.640000000000
31
0.0
0
LINE
5
4f9
100
AcDbEntity
8
F-F
6
CONTINUOUS
62
3
100
AcDbLine
10
54.760000000000
20
613.270000000000
30
0.0
11
1631.650000000000
21
613.270000000000
31
0.0
0
LINE
5
4fa
100
AcDbEntity
8
F-F
6
CONTINUOUS
62
3
100
AcDbLine
10
54.760000000000
20
1103.640000000000
30
0.0
11
1631.650000000000
21
1103.640000000000
31
0.0
0
LINE
5
4fb
100
AcDbEntity
8
F-F
6
CONTINUOUS
62
3
100
AcDbLine
10
54.760000000000
20
573.270000000000
30
0.0
11
1631.650000000000
21
573.270000000000
31
0.0
0
LINE
5
4fc
100
AcDbEntity
8
F-F
6
CONTINUOUS
62
2
100
AcDbLine
10
54.760000000000
20
23.630000000000
30
0.0
11
54.760000000000
21
1143.640000000000
31
0.0
0
LINE
5
4fd
100
AcDbEntity
8
F-F
6
CONTINUOUS
62
2
100
AcDbLine
10
1284.760000000000
20
82.890000000000
30
0.0
11
1284.760000000000
21
23.630000000000
31
0.0
0
LINE
5
4fe
100
AcDbEntity
8
F-F
6
CONTINUOUS
62
2
100
AcDbLine
10
1214.540000000000
20
82.890000000000
30
0.0
11
1214.540000000000
21
23.630000000000
31
0.0
0
LINE
5
4ff
100
AcDbEntity
8
F-F
6
CONTINUOUS
62
2
100
AcDbLine
10
1537.120000000000
20
23.630000000000
30
0.0
11
1537.120000000000
21
82.890000000000
31
0.0
0
LINE
5
500
100
AcDbEntity
8
F-F
6
CONTINUOUS
62
2
100
AcDbLine
10
806.890000000000
20
82.890000000000
30
0.0
11
806.890000000000
21
23.630000000000
31
0.0
0
LINE
5
501
100
AcDbEntity
8
F-F
6
CONTINUOUS
62
2
100
AcDbLine
10
1009.740000000000
20
82.890000000000
30
0.0
11
1009.740000000000
21
23.630000000000
31
0.0
0
LINE
5
502
100
AcDbEntity
8
F-F
6
CONTINUOUS
62
2
100
AcDbLine
10
806.890000000000
20
63.140000000000
30
0.0
11
369.760000000000
21
63.140000000000
31
0.0
0
LINE
5
503
100
AcDbEntity
8
F-F
6
CONTINUOUS
62
2
100
AcDbLine
10
806.890000000000
20
43.390000000000
30
0.0
11
369.760000000000
21
43.390000000000
31
0.0
0
LINE
5
504
100
AcDbEntity
8
F-F
6
CONTINUOUS
62
2
100
AcDbLine
10
806.890000000000
20
33.510000000000
30
0.0
11
369.760000000000
21
33.510000000000
31
0.0
0
LINE
5
505
100
AcDbEntity
8
F-F
6
CONTINUOUS
62
2
100
AcDbLine
10
806.890000000000
20
73.020000000000
30
0.0
11
369.760000000000
21
73.020000000000
31
0.0
0
LINE
5
506
100
AcDbEntity
8
F-F
6
CONTINUOUS
62
2
100
AcDbLine
10
422.420000000000
20
82.890000000000
30
0.0
11
422.420000000000
21
23.630000000000
31
0.0
0
LINE
5
507
100
AcDbEntity
8
F-F
6
CONTINUOUS
62
2
100
AcDbLine
10
369.760000000000
20
82.890000000000
30
0.0
11
369.760000000000
21
23.630000000000
31
0.0
0
LINE
5
508
100
AcDbEntity
8
F-F
6
CONTINUOUS
62
2
100
AcDbLine
10
1631.650000000000
20
23.630000000000
30
0.0
11
1631.650000000000
21
1143.640000000000
31
0.0
0
LINE
5
509
100
AcDbEntity
8
F-F
6
CONTINUOUS
62
2
100
AcDbLine
10
54.760000000000
20
1143.640000000000
30
0.0
11
1631.650000000000
21
1143.640000000000
31
0.0
0
LINE
5
50a
100
AcDbEntity
8
F-F
6
CONTINUOUS
62
2
100
AcDbLine
10
54.760000000000
20
23.630000000000
30
0.0
11
1631.650000000000
21
23.630000000000
31
0.0
0
LINE
5
50b
100
AcDbEntity
8
F-F
6
CONTINUOUS
62
2
100
AcDbLine
10
1631.650000000000
20
82.890000000000
30
0.0
11
54.760000000000
21
82.890000000000
31
0.0
0
LINE
5
50c
100
AcDbEntity
8
F-F
6
CONTINUOUS
62
2
100
AcDbLine
10
369.760000000000
20
53.260000000000
30
0.0
11
1631.650000000000
21
53.260000000000
31
0.0
0
LINE
5
50d
100
AcDbEntity
8
F-F
6
CONTINUOUS
62
3
100
AcDbLine
10
80.840000000000
20
58.090000000000
30
0.0
11
80.840000000000
21
74.090000000000
31
0.0
0
LINE
5
50e
100
AcDbEntity
8
F-F
6
CONTINUOUS
62
3
100
AcDbLine
10
80.840000000000
20
74.090000000000
30
0.0
11
96.840000000000
21
74.090000000000
31
0.0
0
LINE
5
50f
100
AcDbEntity
8
F-F
6
CONTINUOUS
62
3
100
AcDbLine
10
96.840000000000
20
74.090000000000
30
0.0
11
96.840000000000
21
58.090000000000
31
0.0
0
LINE
5
510
100
AcDbEntity
8
F-F
6
CONTINUOUS
62
3
100
AcDbLine
10
96.840000000000
20
58.090000000000
30
0.0
11
80.840000000000
21
58.090000000000
31
0.0
0
LINE
5
511
100
AcDbEntity
8
F-F
6
CONTINUOUS
62
3
100
AcDbLine
10
82.440000000000
20
60.260000000000
30
0.0
11
82.440000000000
21
72.490000000000
31
0.0
0
LINE
5
512
100
AcDbEntity
8
F-F
6
CONTINUOUS
62
3
100
AcDbLine
10
95.240000000000
20
59.690000000000
30
0.0
11
83.000000000000
21
59.690000000000
31
0.0
0
LINE
5
513
100
AcDbEntity
8
F-F
6
CONTINUOUS
62
3
100
AcDbLine
10
82.440000000000
20
72.490000000000
30
0.0
11
94.670000000000
21
72.490000000000
31
0.0
0
LINE
5
514
100
AcDbEntity
8
F-F
6
CONTINUOUS
62
3
100
AcDbLine
10
94.670000000000
20
72.490000000000
30
0.0
11
82.440000000000
21
60.260000000000
31
0.0
0
LINE
5
515
100
AcDbEntity
8
F-F
6
CONTINUOUS
62
3
100
AcDbLine
10
95.240000000000
20
71.930000000000
30
0.0
11
83.000000000000
21
59.690000000000
31
0.0
0
LINE
5
516
100
AcDbEntity
8
F-F
6
CONTINUOUS
62
3
100
AcDbLine
10
95.240000000000
20
71.930000000000
30
0.0
11
95.240000000000
21
59.690000000000
31
0.0
0
LINE
5
517
100
AcDbEntity
8
F-F
6
CONTINUOUS
62
4
100
AcDbLine
10
80.840000000000
20
73.930000000000
30
0.0
11
96.840000000000
21
73.930000000000
31
0.0
0
LINE
5
518
100
AcDbEntity
8
F-F
6
CONTINUOUS
62
4
100
AcDbLine
10
80.840000000000
20
73.610000000000
30
0.0
11
96.840000000000
21
73.610000000000
31
0.0
0
LINE
5
519
100
AcDbEntity
8
F-F
6
CONTINUOUS
62
4
100
AcDbLine
10
80.840000000000
20
73.290000000000
30
0.0
11
96.840000000000
21
73.290000000000
31
0.0
0
LINE
5
51a
100
AcDbEntity
8
F-F
6
CONTINUOUS
62
4
100
AcDbLine
10
80.840000000000
20
72.970000000000
30
0.0
11
96.840000000000
21
72.970000000000
31
0.0
0
LINE
5
51b
100
AcDbEntity
8
F-F
6
CONTINUOUS
62
4
100
AcDbLine
10
80.840000000000
20
72.650000000000
30
0.0
11
96.840000000000
21
72.650000000000
31
0.0
0
LINE
5
51c
100
AcDbEntity
8
F-F
6
CONTINUOUS
62
4
100
AcDbLine
10
80.840000000000
20
59.530000000000
30
0.0
11
96.840000000000
21
59.530000000000
31
0.0
0
LINE
5
51d
100
AcDbEntity
8
F-F
6
CONTINUOUS
62
4
100
AcDbLine
10
80.840000000000
20
59.210000000000
30
0.0
11
96.840000000000
21
59.210000000000
31
0.0
0
LINE
5
51e
100
AcDbEntity
8
F-F
6
CONTINUOUS
62
4
100
AcDbLine
10
80.840000000000
20
58.890000000000
30
0.0
11
96.840000000000
21
58.890000000000
31
0.0
0
LINE
5
51f
100
AcDbEntity
8
F-F
6
CONTINUOUS
62
4
100
AcDbLine
10
80.840000000000
20
58.570000000000
30
0.0
11
96.840000000000
21
58.570000000000
31
0.0
0
LINE
5
520
100
AcDbEntity
8
F-F
6
CONTINUOUS
62
4
100
AcDbLine
10
80.840000000000
20
58.250000000000
30
0.0
11
96.840000000000
21
58.250000000000
31
0.0
0
LINE
5
521
100
AcDbEntity
8
F-F
6
CONTINUOUS
62
4
100
AcDbLine
10
80.840000000000
20
60.490000000000
30
0.0
11
82.440000000000
21
60.490000000000
31
0.0
0
LINE
5
522
100
AcDbEntity
8
F-F
6
CONTINUOUS
62
4
100
AcDbLine
10
80.840000000000
20
60.810000000000
30
0.0
11
82.440000000000
21
60.810000000000
31
0.0
0
LINE
5
523
100
AcDbEntity
8
F-F
6
CONTINUOUS
62
4
100
AcDbLine
10
80.840000000000
20
61.130000000000
30
0.0
11
82.440000000000
21
61.130000000000
31
0.0
0
LINE
5
524
100
AcDbEntity
8
F-F
6
CONTINUOUS
62
4
100
AcDbLine
10
80.840000000000
20
61.450000000000
30
0.0
11
82.440000000000
21
61.450000000000
31
0.0
0
LINE
5
525
100
AcDbEntity
8
F-F
6
CONTINUOUS
62
4
100
AcDbLine
10
80.840000000000
20
61.770000000000
30
0.0
11
82.440000000000
21
61.770000000000
31
0.0
0
LINE
5
526
100
AcDbEntity
8
F-F
6
CONTINUOUS
62
4
100
AcDbLine
10
80.840000000000
20
62.090000000000
30
0.0
11
82.440000000000
21
62.090000000000
31
0.0
0
LINE
5
527
100
AcDbEntity
8
F-F
6
CONTINUOUS
62
4
100
AcDbLine
10
80.840000000000
20
62.410000000000
30
0.0
11
82.440000000000
21
62.410000000000
31
0.0
0
LINE
5
528
100
AcDbEntity
8
F-F
6
CONTINUOUS
62
4
100
AcDbLine
10
80.840000000000
20
62.730000000000
30
0.0
11
82.440000000000
21
62.730000000000
31
0.0
0
LINE
5
529
100
AcDbEntity
8
F-F
6
CONTINUOUS
62
4
100
AcDbLine
10
80.840000000000
20
63.050000000000
30
0.0
11
82.440000000000
21
63.050000000000
31
0.0
0
LINE
5
52a
100
AcDbEntity
8
F-F
6
CONTINUOUS
62
4
100
AcDbLine
10
80.840000000000
20
63.370000000000
30
0.0
11
82.440000000000
21
63.370000000000
31
0.0
0
LINE
5
52b
100
AcDbEntity
8
F-F
6
CONTINUOUS
62
4
100
AcDbLine
10
80.840000000000
20
63.690000000000
30
0.0
11
82.440000000000
21
63.690000000000
31
0.0
0
LINE
5
52c
100
AcDbEntity
8
F-F
6
CONTINUOUS
62
4
100
AcDbLine
10
80.840000000000
20
64.010000000000
30
0.0
11
82.440000000000
21
64.010000000000
31
0.0
0
LINE
5
52d
100
AcDbEntity
8
F-F
6
CONTINUOUS
62
4
100
AcDbLine
10
80.840000000000
20
64.330000000000
30
0.0
11
82.440000000000
21
64.330000000000
31
0.0
0
LINE
5
52e
100
AcDbEntity
8
F-F
6
CONTINUOUS
62
4
100
AcDbLine
10
80.840000000000
20
64.650000000000
30
0.0
11
82.440000000000
21
64.650000000000
31
0.0
0
LINE
5
52f
100
AcDbEntity
8
F-F
6
CONTINUOUS
62
4
100
AcDbLine
10
80.840000000000
20
64.970000000000
30
0.0
11
82.440000000000
21
64.970000000000
31
0.0
0
LINE
5
530
100
AcDbEntity
8
F-F
6
CONTINUOUS
62
4
100
AcDbLine
10
80.840000000000
20
65.290000000000
30
0.0
11
82.440000000000
21
65.290000000000
31
0.0
0
LINE
5
531
100
AcDbEntity
8
F-F
6
CONTINUOUS
62
4
100
AcDbLine
10
80.840000000000
20
65.610000000000
30
0.0
11
82.440000000000
21
65.610000000000
31
0.0
0
LINE
5
532
100
AcDbEntity
8
F-F
6
CONTINUOUS
62
4
100
AcDbLine
10
80.840000000000
20
65.930000000000
30
0.0
11
82.440000000000
21
65.930000000000
31
0.0
0
LINE
5
533
100
AcDbEntity
8
F-F
6
CONTINUOUS
62
4
100
AcDbLine
10
80.840000000000
20
66.250000000000
30
0.0
11
82.440000000000
21
66.250000000000
31
0.0
0
LINE
5
534
100
AcDbEntity
8
F-F
6
CONTINUOUS
62
4
100
AcDbLine
10
80.840000000000
20
66.570000000000
30
0.0
11
82.440000000000
21
66.570000000000
31
0.0
0
LINE
5
535
100
AcDbEntity
8
F-F
6
CONTINUOUS
62
4
100
AcDbLine
10
80.840000000000
20
66.890000000000
30
0.0
11
82.440000000000
21
66.890000000000
31
0.0
0
LINE
5
536
100
AcDbEntity
8
F-F
6
CONTINUOUS
62
4
100
AcDbLine
10
80.840000000000
20
67.210000000000
30
0.0
11
82.440000000000
21
67.210000000000
31
0.0
0
LINE
5
537
100
AcDbEntity
8
F-F
6
CONTINUOUS
62
4
100
AcDbLine
10
80.840000000000
20
67.530000000000
30
0.0
11
82.440000000000
21
67.530000000000
31
0.0
0
LINE
5
538
100
AcDbEntity
8
F-F
6
CONTINUOUS
62
4
100
AcDbLine
10
80.840000000000
20
67.850000000000
30
0.0
11
82.440000000000
21
67.850000000000
31
0.0
0
LINE
5
539
100
AcDbEntity
8
F-F
6
CONTINUOUS
62
4
100
AcDbLine
10
80.840000000000
20
68.810000000000
30
0.0
11
82.440000000000
21
68.810000000000
31
0.0
0
LINE
5
53a
100
AcDbEntity
8
F-F
6
CONTINUOUS
62
4
100
AcDbLine
10
80.840000000000
20
69.770000000000
30
0.0
11
82.440000000000
21
69.770000000000
31
0.0
0
LINE
5
53b
100
AcDbEntity
8
F-F
6
CONTINUOUS
62
4
100
AcDbLine
10
80.840000000000
20
70.090000000000
30
0.0
11
82.440000000000
21
70.090000000000
31
0.0
0
LINE
5
53c
100
AcDbEntity
8
F-F
6
CONTINUOUS
62
4
100
AcDbLine
10
80.840000000000
20
70.410000000000
30
0.0
11
82.440000000000
21
70.410000000000
31
0.0
0
LINE
5
53d
100
AcDbEntity
8
F-F
6
CONTINUOUS
62
4
100
AcDbLine
10
80.840000000000
20
70.730000000000
30
0.0
11
82.440000000000
21
70.730000000000
31
0.0
0
LINE
5
53e
100
AcDbEntity
8
F-F
6
CONTINUOUS
62
4
100
AcDbLine
10
80.840000000000
20
72.330000000000
30
0.0
11
82.440000000000
21
72.330000000000
31
0.0
0
LINE
5
53f
100
AcDbEntity
8
F-F
6
CONTINUOUS
62
4
100
AcDbLine
10
80.840000000000
20
72.010000000000
30
0.0
11
82.440000000000
21
72.010000000000
31
0.0
0
LINE
5
540
100
AcDbEntity
8
F-F
6
CONTINUOUS
62
4
100
AcDbLine
10
80.840000000000
20
71.690000000000
30
0.0
11
82.440000000000
21
71.690000000000
31
0.0
0
LINE
5
541
100
AcDbEntity
8
F-F
6
CONTINUOUS
62
4
100
AcDbLine
10
80.840000000000
20
71.370000000000
30
0.0
11
82.440000000000
21
71.370000000000
31
0.0
0
LINE
5
542
100
AcDbEntity
8
F-F
6
CONTINUOUS
62
4
100
AcDbLine
10
80.840000000000
20
71.050000000000
30
0.0
11
82.440000000000
21
71.050000000000
31
0.0
0
LINE
5
543
100
AcDbEntity
8
F-F
6
CONTINUOUS
62
4
100
AcDbLine
10
80.840000000000
20
69.130000000000
30
0.0
11
82.440000000000
21
69.130000000000
31
0.0
0
LINE
5
544
100
AcDbEntity
8
F-F
6
CONTINUOUS
62
4
100
AcDbLine
10
80.840000000000
20
69.450000000000
30
0.0
11
82.440000000000
21
69.450000000000
31
0.0
0
LINE
5
545
100
AcDbEntity
8
F-F
6
CONTINUOUS
62
4
100
AcDbLine
10
80.840000000000
20
68.490000000000
30
0.0
11
82.440000000000
21
68.490000000000
31
0.0
0
LINE
5
546
100
AcDbEntity
8
F-F
6
CONTINUOUS
62
4
100
AcDbLine
10
80.840000000000
20
68.170000000000
30
0.0
11
82.440000000000
21
68.170000000000
31
0.0
0
LINE
5
547
100
AcDbEntity
8
F-F
6
CONTINUOUS
62
4
100
AcDbLine
10
82.990000000000
20
60.810000000000
30
0.0
11
84.120000000000
21
60.810000000000
31
0.0
0
LINE
5
548
100
AcDbEntity
8
F-F
6
CONTINUOUS
62
4
100
AcDbLine
10
82.670000000000
20
60.490000000000
30
0.0
11
83.800000000000
21
60.490000000000
31
0.0
0
LINE
5
549
100
AcDbEntity
8
F-F
6
CONTINUOUS
62
4
100
AcDbLine
10
80.840000000000
20
60.170000000000
30
0.0
11
83.480000000000
21
60.170000000000
31
0.0
0
LINE
5
54a
100
AcDbEntity
8
F-F
6
CONTINUOUS
62
4
100
AcDbLine
10
80.840000000000
20
59.850000000000
30
0.0
11
83.160000000000
21
59.850000000000
31
0.0
0
LINE
5
54b
100
AcDbEntity
8
F-F
6
CONTINUOUS
62
4
100
AcDbLine
10
84.910000000000
20
62.730000000000
30
0.0
11
86.040000000000
21
62.730000000000
31
0.0
0
LINE
5
54c
100
AcDbEntity
8
F-F
6
CONTINUOUS
62
4
100
AcDbLine
10
84.590000000000
20
62.410000000000
30
0.0
11
85.720000000000
21
62.410000000000
31
0.0
0
LINE
5
54d
100
AcDbEntity
8
F-F
6
CONTINUOUS
62
4
100
AcDbLine
10
84.270000000000
20
62.090000000000
30
0.0
11
85.400000000000
21
62.090000000000
31
0.0
0
LINE
5
54e
100
AcDbEntity
8
F-F
6
CONTINUOUS
62
4
100
AcDbLine
10
83.950000000000
20
61.770000000000
30
0.0
11
85.080000000000
21
61.770000000000
31
0.0
0
LINE
5
54f
100
AcDbEntity
8
F-F
6
CONTINUOUS
62
4
100
AcDbLine
10
83.630000000000
20
61.450000000000
30
0.0
11
84.760000000000
21
61.450000000000
31
0.0
0
LINE
5
550
100
AcDbEntity
8
F-F
6
CONTINUOUS
62
4
100
AcDbLine
10
83.310000000000
20
61.130000000000
30
0.0
11
84.440000000000
21
61.130000000000
31
0.0
0
LINE
5
551
100
AcDbEntity
8
F-F
6
CONTINUOUS
62
4
100
AcDbLine
10
82.440000000000
20
72.490000000000
30
0.0
11
82.440000000000
21
72.810000000000
31
0.0
0
LINE
5
552
100
AcDbEntity
8
F-F
6
CONTINUOUS
62
4
100
AcDbLine
10
95.240000000000
20
60.490000000000
30
0.0
11
96.840000000000
21
60.490000000000
31
0.0
0
LINE
5
553
100
AcDbEntity
8
F-F
6
CONTINUOUS
62
4
100
AcDbLine
10
95.240000000000
20
60.810000000000
30
0.0
11
96.840000000000
21
60.810000000000
31
0.0
0
LINE
5
554
100
AcDbEntity
8
F-F
6
CONTINUOUS
62
4
100
AcDbLine
10
95.240000000000
20
61.130000000000
30
0.0
11
96.840000000000
21
61.130000000000
31
0.0
0
LINE
5
555
100
AcDbEntity
8
F-F
6
CONTINUOUS
62
4
100
AcDbLine
10
95.240000000000
20
61.450000000000
30
0.0
11
96.840000000000
21
61.450000000000
31
0.0
0
LINE
5
556
100
AcDbEntity
8
F-F
6
CONTINUOUS
62
4
100
AcDbLine
10
95.240000000000
20
61.770000000000
30
0.0
11
96.840000000000
21
61.770000000000
31
0.0
0
LINE
5
557
100
AcDbEntity
8
F-F
6
CONTINUOUS
62
4
100
AcDbLine
10
95.240000000000
20
62.090000000000
30
0.0
11
96.840000000000
21
62.090000000000
31
0.0
0
LINE
5
558
100
AcDbEntity
8
F-F
6
CONTINUOUS
62
4
100
AcDbLine
10
95.240000000000
20
62.410000000000
30
0.0
11
96.840000000000
21
62.410000000000
31
0.0
0
LINE
5
559
100
AcDbEntity
8
F-F
6
CONTINUOUS
62
4
100
AcDbLine
10
95.240000000000
20
62.730000000000
30
0.0
11
96.840000000000
21
62.730000000000
31
0.0
0
LINE
5
55a
100
AcDbEntity
8
F-F
6
CONTINUOUS
62
4
100
AcDbLine
10
95.240000000000
20
63.050000000000
30
0.0
11
96.840000000000
21
63.050000000000
31
0.0
0
LINE
5
55b
100
AcDbEntity
8
F-F
6
CONTINUOUS
62
4
100
AcDbLine
10
95.240000000000
20
63.370000000000
30
0.0
11
96.840000000000
21
63.370000000000
31
0.0
0
LINE
5
55c
100
AcDbEntity
8
F-F
6
CONTINUOUS
62
4
100
AcDbLine
10
95.240000000000
20
63.690000000000
30
0.0
11
96.840000000000
21
63.690000000000
31
0.0
0
LINE
5
55d
100
AcDbEntity
8
F-F
6
CONTINUOUS
62
4
100
AcDbLine
10
95.240000000000
20
64.010000000000
30
0.0
11
96.840000000000
21
64.010000000000
31
0.0
0
LINE
5
55e
100
AcDbEntity
8
F-F
6
CONTINUOUS
62
4
100
AcDbLine
10
95.240000000000
20
64.330000000000
30
0.0
11
96.840000000000
21
64.330000000000
31
0.0
0
LINE
5
55f
100
AcDbEntity
8
F-F
6
CONTINUOUS
62
4
100
AcDbLine
10
95.240000000000
20
64.970000000000
30
0.0
11
96.840000000000
21
64.970000000000
31
0.0
0
LINE
5
560
100
AcDbEntity
8
F-F
6
CONTINUOUS
62
4
100
AcDbLine
10
95.240000000000
20
65.290000000000
30
0.0
11
96.840000000000
21
65.290000000000
31
0.0
0
LINE
5
561
100
AcDbEntity
8
F-F
6
CONTINUOUS
62
4
100
AcDbLine
10
95.240000000000
20
65.610000000000
30
0.0
11
96.840000000000
21
65.610000000000
31
0.0
0
LINE
5
562
100
AcDbEntity
8
F-F
6
CONTINUOUS
62
4
100
AcDbLine
10
95.240000000000
20
65.930000000000
30
0.0
11
96.840000000000
21
65.930000000000
31
0.0
0
LINE
5
563
100
AcDbEntity
8
F-F
6
CONTINUOUS
62
4
100
AcDbLine
10
95.240000000000
20
66.250000000000
30
0.0
11
96.840000000000
21
66.250000000000
31
0.0
0
LINE
5
564
100
AcDbEntity
8
F-F
6
CONTINUOUS
62
4
100
AcDbLine
10
95.240000000000
20
66.570000000000
30
0.0
11
96.840000000000
21
66.570000000000
31
0.0
0
LINE
5
565
100
AcDbEntity
8
F-F
6
CONTINUOUS
62
4
100
AcDbLine
10
95.240000000000
20
66.890000000000
30
0.0
11
96.840000000000
21
66.890000000000
31
0.0
0
LINE
5
566
100
AcDbEntity
8
F-F
6
CONTINUOUS
62
4
100
AcDbLine
10
95.240000000000
20
67.210000000000
30
0.0
11
96.840000000000
21
67.210000000000
31
0.0
0
LINE
5
567
100
AcDbEntity
8
F-F
6
CONTINUOUS
62
4
100
AcDbLine
10
95.240000000000
20
67.530000000000
30
0.0
11
96.840000000000
21
67.530000000000
31
0.0
0
LINE
5
568
100
AcDbEntity
8
F-F
6
CONTINUOUS
62
4
100
AcDbLine
10
95.240000000000
20
67.850000000000
30
0.0
11
96.840000000000
21
67.850000000000
31
0.0
0
LINE
5
569
100
AcDbEntity
8
F-F
6
CONTINUOUS
62
4
100
AcDbLine
10
95.240000000000
20
68.810000000000
30
0.0
11
96.840000000000
21
68.810000000000
31
0.0
0
LINE
5
56a
100
AcDbEntity
8
F-F
6
CONTINUOUS
62
4
100
AcDbLine
10
95.240000000000
20
69.770000000000
30
0.0
11
96.840000000000
21
69.770000000000
31
0.0
0
LINE
5
56b
100
AcDbEntity
8
F-F
6
CONTINUOUS
62
4
100
AcDbLine
10
95.240000000000
20
70.090000000000
30
0.0
11
96.840000000000
21
70.090000000000
31
0.0
0
LINE
5
56c
100
AcDbEntity
8
F-F
6
CONTINUOUS
62
4
100
AcDbLine
10
95.240000000000
20
70.410000000000
30
0.0
11
96.840000000000
21
70.410000000000
31
0.0
0
LINE
5
56d
100
AcDbEntity
8
F-F
6
CONTINUOUS
62
4
100
AcDbLine
10
95.240000000000
20
70.730000000000
30
0.0
11
96.840000000000
21
70.730000000000
31
0.0
0
LINE
5
56e
100
AcDbEntity
8
F-F
6
CONTINUOUS
62
4
100
AcDbLine
10
95.240000000000
20
71.690000000000
30
0.0
11
96.840000000000
21
71.690000000000
31
0.0
0
LINE
5
56f
100
AcDbEntity
8
F-F
6
CONTINUOUS
62
4
100
AcDbLine
10
95.240000000000
20
71.370000000000
30
0.0
11
96.840000000000
21
71.370000000000
31
0.0
0
LINE
5
570
100
AcDbEntity
8
F-F
6
CONTINUOUS
62
4
100
AcDbLine
10
95.240000000000
20
71.050000000000
30
0.0
11
96.840000000000
21
71.050000000000
31
0.0
0
LINE
5
571
100
AcDbEntity
8
F-F
6
CONTINUOUS
62
4
100
AcDbLine
10
95.240000000000
20
69.130000000000
30
0.0
11
96.840000000000
21
69.130000000000
31
0.0
0
LINE
5
572
100
AcDbEntity
8
F-F
6
CONTINUOUS
62
4
100
AcDbLine
10
95.240000000000
20
69.450000000000
30
0.0
11
96.840000000000
21
69.450000000000
31
0.0
0
LINE
5
573
100
AcDbEntity
8
F-F
6
CONTINUOUS
62
4
100
AcDbLine
10
95.240000000000
20
68.490000000000
30
0.0
11
96.840000000000
21
68.490000000000
31
0.0
0
LINE
5
574
100
AcDbEntity
8
F-F
6
CONTINUOUS
62
4
100
AcDbLine
10
95.240000000000
20
68.170000000000
30
0.0
11
96.840000000000
21
68.170000000000
31
0.0
0
LINE
5
575
100
AcDbEntity
8
F-F
6
CONTINUOUS
62
4
100
AcDbLine
10
95.240000000000
20
59.850000000000
30
0.0
11
96.840000000000
21
59.850000000000
31
0.0
0
LINE
5
576
100
AcDbEntity
8
F-F
6
CONTINUOUS
62
4
100
AcDbLine
10
95.240000000000
20
60.170000000000
30
0.0
11
96.840000000000
21
60.170000000000
31
0.0
0
LINE
5
577
100
AcDbEntity
8
F-F
6
CONTINUOUS
62
4
100
AcDbLine
10
94.510000000000
20
72.330000000000
30
0.0
11
96.840000000000
21
72.330000000000
31
0.0
0
LINE
5
578
100
AcDbEntity
8
F-F
6
CONTINUOUS
62
4
100
AcDbLine
10
94.190000000000
20
72.010000000000
30
0.0
11
96.840000000000
21
72.010000000000
31
0.0
0
LINE
5
579
100
AcDbEntity
8
F-F
6
CONTINUOUS
62
4
100
AcDbLine
10
86.190000000000
20
64.010000000000
30
0.0
11
87.320000000000
21
64.010000000000
31
0.0
0
LINE
5
57a
100
AcDbEntity
8
F-F
6
CONTINUOUS
62
4
100
AcDbLine
10
85.870000000000
20
63.690000000000
30
0.0
11
87.000000000000
21
63.690000000000
31
0.0
0
LINE
5
57b
100
AcDbEntity
8
F-F
6
CONTINUOUS
62
4
100
AcDbLine
10
85.550000000000
20
63.370000000000
30
0.0
11
86.680000000000
21
63.370000000000
31
0.0
0
LINE
5
57c
100
AcDbEntity
8
F-F
6
CONTINUOUS
62
4
100
AcDbLine
10
85.230000000000
20
63.050000000000
30
0.0
11
86.360000000000
21
63.050000000000
31
0.0
0
LINE
5
57d
100
AcDbEntity
8
F-F
6
CONTINUOUS
62
4
100
AcDbLine
10
87.470000000000
20
65.290000000000
30
0.0
11
88.600000000000
21
65.290000000000
31
0.0
0
LINE
5
57e
100
AcDbEntity
8
F-F
6
CONTINUOUS
62
4
100
AcDbLine
10
87.150000000000
20
64.970000000000
30
0.0
11
88.280000000000
21
64.970000000000
31
0.0
0
LINE
5
57f
100
AcDbEntity
8
F-F
6
CONTINUOUS
62
4
100
AcDbLine
10
86.830000000000
20
64.650000000000
30
0.0
11
87.960000000000
21
64.650000000000
31
0.0
0
LINE
5
580
100
AcDbEntity
8
F-F
6
CONTINUOUS
62
4
100
AcDbLine
10
86.510000000000
20
64.330000000000
30
0.0
11
87.640000000000
21
64.330000000000
31
0.0
0
LINE
5
581
100
AcDbEntity
8
F-F
6
CONTINUOUS
62
4
100
AcDbLine
10
88.750000000000
20
66.570000000000
30
0.0
11
89.880000000000
21
66.570000000000
31
0.0
0
LINE
5
582
100
AcDbEntity
8
F-F
6
CONTINUOUS
62
4
100
AcDbLine
10
88.430000000000
20
66.250000000000
30
0.0
11
89.560000000000
21
66.250000000000
31
0.0
0
LINE
5
583
100
AcDbEntity
8
F-F
6
CONTINUOUS
62
4
100
AcDbLine
10
88.110000000000
20
65.930000000000
30
0.0
11
89.240000000000
21
65.930000000000
31
0.0
0
LINE
5
584
100
AcDbEntity
8
F-F
6
CONTINUOUS
62
4
100
AcDbLine
10
87.790000000000
20
65.610000000000
30
0.0
11
88.920000000000
21
65.610000000000
31
0.0
0
LINE
5
585
100
AcDbEntity
8
F-F
6
CONTINUOUS
62
4
100
AcDbLine
10
90.030000000000
20
67.850000000000
30
0.0
11
91.160000000000
21
67.850000000000
31
0.0
0
LINE
5
586
100
AcDbEntity
8
F-F
6
CONTINUOUS
62
4
100
AcDbLine
10
89.710000000000
20
67.530000000000
30
0.0
11
90.840000000000
21
67.530000000000
31
0.0
0
LINE
5
587
100
AcDbEntity
8
F-F
6
CONTINUOUS
62
4
100
AcDbLine
10
89.390000000000
20
67.210000000000
30
0.0
11
90.520000000000
21
67.210000000000
31
0.0
0
LINE
5
588
100
AcDbEntity
8
F-F
6
CONTINUOUS
62
4
100
AcDbLine
10
89.070000000000
20
66.890000000000
30
0.0
11
90.200000000000
21
66.890000000000
31
0.0
0
LINE
5
589
100
AcDbEntity
8
F-F
6
CONTINUOUS
62
4
100
AcDbLine
10
91.310000000000
20
69.130000000000
30
0.0
11
92.440000000000
21
69.130000000000
31
0.0
0
LINE
5
58a
100
AcDbEntity
8
F-F
6
CONTINUOUS
62
4
100
AcDbLine
10
90.990000000000
20
68.810000000000
30
0.0
11
92.120000000000
21
68.810000000000
31
0.0
0
LINE
5
58b
100
AcDbEntity
8
F-F
6
CONTINUOUS
62
4
100
AcDbLine
10
90.670000000000
20
68.490000000000
30
0.0
11
91.800000000000
21
68.490000000000
31
0.0
0
LINE
5
58c
100
AcDbEntity
8
F-F
6
CONTINUOUS
62
4
100
AcDbLine
10
90.350000000000
20
68.170000000000
30
0.0
11
91.480000000000
21
68.170000000000
31
0.0
0
LINE
5
58d
100
AcDbEntity
8
F-F
6
CONTINUOUS
62
4
100
AcDbLine
10
92.590000000000
20
70.410000000000
30
0.0
11
93.720000000000
21
70.410000000000
31
0.0
0
LINE
5
58e
100
AcDbEntity
8
F-F
6
CONTINUOUS
62
4
100
AcDbLine
10
92.270000000000
20
70.090000000000
30
0.0
11
93.400000000000
21
70.090000000000
31
0.0
0
LINE
5
58f
100
AcDbEntity
8
F-F
6
CONTINUOUS
62
4
100
AcDbLine
10
91.950000000000
20
69.770000000000
30
0.0
11
93.080000000000
21
69.770000000000
31
0.0
0
LINE
5
590
100
AcDbEntity
8
F-F
6
CONTINUOUS
62
4
100
AcDbLine
10
91.630000000000
20
69.450000000000
30
0.0
11
92.760000000000
21
69.450000000000
31
0.0
0
LINE
5
591
100
AcDbEntity
8
F-F
6
CONTINUOUS
62
4
100
AcDbLine
10
93.870000000000
20
71.690000000000
30
0.0
11
95.000000000000
21
71.690000000000
31
0.0
0
LINE
5
592
100
AcDbEntity
8
F-F
6
CONTINUOUS
62
4
100
AcDbLine
10
93.550000000000
20
71.370000000000
30
0.0
11
94.680000000000
21
71.370000000000
31
0.0
0
LINE
5
593
100
AcDbEntity
8
F-F
6
CONTINUOUS
62
4
100
AcDbLine
10
93.230000000000
20
71.050000000000
30
0.0
11
94.360000000000
21
71.050000000000
31
0.0
0
LINE
5
594
100
AcDbEntity
8
F-F
6
CONTINUOUS
62
4
100
AcDbLine
10
92.910000000000
20
70.730000000000
30
0.0
11
94.040000000000
21
70.730000000000
31
0.0
0
LINE
5
595
100
AcDbEntity
8
F-F
6
CONTINUOUS
62
4
100
AcDbLine
10
95.240000000000
20
64.650000000000
30
0.0
11
96.840000000000
21
64.650000000000
31
0.0
0
LINE
5
596
100
AcDbEntity
8
0-00
6
CONTINUOUS
62
4
100
AcDbLine
10
160.320000000000
20
970.210000000000
30
0.0
11
170.320000000000
21
970.210000000000
31
0.0
0
LINE
5
597
100
AcDbEntity
8
0-00
6
CONTINUOUS
62
4
100
AcDbLine
10
162.320000000000
20
970.710000000000
30
0.0
11
168.320000000000
21
970.710000000000
31
0.0
0
LINE
5
598
100
AcDbEntity
8
0-00
6
CONTINUOUS
62
4
100
AcDbLine
10
170.320000000000
20
970.210000000000
30
0.0
11
170.320000000000
21
969.810000000000
31
0.0
0
LINE
5
599
100
AcDbEntity
8
0-00
6
CONTINUOUS
62
4
100
AcDbLine
10
168.320000000000
20
970.710000000000
30
0.0
11
169.820000000000
21
970.210000000000
31
0.0
0
LINE
5
59a
100
AcDbEntity
8
0-00
6
CONTINUOUS
62
4
100
AcDbLine
10
167.720000000000
20
959.340000000000
30
0.0
11
162.920000000000
21
960.140000000000
31
0.0
0
LINE
5
59b
100
AcDbEntity
8
0-00
6
CONTINUOUS
62
4
100
AcDbLine
10
167.720000000000
20
957.740000000000
30
0.0
11
162.920000000000
21
958.540000000000
31
0.0
0
LINE
5
59c
100
AcDbEntity
8
0-00
6
CONTINUOUS
62
4
100
AcDbLine
10
167.720000000000
20
956.140000000000
30
0.0
11
162.920000000000
21
956.940000000000
31
0.0
0
LINE
5
59d
100
AcDbEntity
8
0-00
6
CONTINUOUS
62
4
100
AcDbLine
10
167.720000000000
20
960.940000000000
30
0.0
11
162.920000000000
21
961.740000000000
31
0.0
0
LINE
5
59e
100
AcDbEntity
8
0-00
6
CONTINUOUS
62
4
100
AcDbLine
10
160.320000000000
20
970.210000000000
30
0.0
11
160.320000000000
21
969.810000000000
31
0.0
0
LINE
5
59f
100
AcDbEntity
8
0-00
6
CONTINUOUS
62
4
100
AcDbLine
10
162.320000000000
20
970.710000000000
30
0.0
11
160.820000000000
21
970.210000000000
31
0.0
0
LINE
5
5a0
100
AcDbEntity
8
0-00
6
CONTINUOUS
62
4
100
AcDbLine
10
167.720000000000
20
952.940000000000
30
0.0
11
162.920000000000
21
953.740000000000
31
0.0
0
LINE
5
5a1
100
AcDbEntity
8
0-00
6
CONTINUOUS
62
4
100
AcDbLine
10
167.720000000000
20
954.540000000000
30
0.0
11
162.920000000000
21
955.340000000000
31
0.0
0
LINE
5
5a2
100
AcDbEntity
8
0-00
6
CONTINUOUS
62
4
100
AcDbLine
10
167.720000000000
20
951.340000000000
30
0.0
11
162.920000000000
21
952.140000000000
31
0.0
0
LINE
5
5a3
100
AcDbEntity
8
0-00
6
CONTINUOUS
62
4
100
AcDbLine
10
167.720000000000
20
949.740000000000
30
0.0
11
162.920000000000
21
950.540000000000
31
0.0
0
LINE
5
5a4
100
AcDbEntity
8
0-00
6
CONTINUOUS
62
4
100
AcDbLine
10
165.320000000000
20
934.810000000000
30
0.0
11
163.320000000000
21
936.410000000000
31
0.0
0
LINE
5
5a5
100
AcDbEntity
8
0-00
6
CONTINUOUS
62
4
100
AcDbLine
10
167.320000000000
20
936.410000000000
30
0.0
11
165.320000000000
21
934.810000000000
31
0.0
0
LINE
5
5a6
100
AcDbEntity
8
0-00
6
CONTINUOUS
62
4
100
AcDbLine
10
160.320000000000
20
969.810000000000
30
0.0
11
170.320000000000
21
969.810000000000
31
0.0
0
LINE
5
5a7
100
AcDbEntity
8
0-00
6
CONTINUOUS
62
3
100
AcDbLine
10
317.570000000000
20
947.710000000000
30
0.0
11
126.570000000000
21
947.710000000000
31
0.0
0
LINE
5
5a8
100
AcDbEntity
8
0-00
6
CONTINUOUS
62
4
100
AcDbLine
10
286.410000000000
20
947.710000000000
30
0.0
11
306.410000000000
21
967.710000000000
31
0.0
0
LINE
5
5a9
100
AcDbEntity
8
0-00
6
CONTINUOUS
62
4
100
AcDbLine
10
272.270000000000
20
947.710000000000
30
0.0
11
292.270000000000
21
967.710000000000
31
0.0
0
LINE
5
5aa
100
AcDbEntity
8
0-00
6
CONTINUOUS
62
4
100
AcDbLine
10
258.120000000000
20
947.710000000000
30
0.0
11
278.120000000000
21
967.710000000000
31
0.0
0
LINE
5
5ab
100
AcDbEntity
8
0-00
6
CONTINUOUS
62
4
100
AcDbLine
10
243.980000000000
20
947.710000000000
30
0.0
11
263.980000000000
21
967.710000000000
31
0.0
0
LINE
5
5ac
100
AcDbEntity
8
0-00
6
CONTINUOUS
62
4
100
AcDbLine
10
229.840000000000
20
947.710000000000
30
0.0
11
249.840000000000
21
967.710000000000
31
0.0
0
LINE
5
5ad
100
AcDbEntity
8
0-00
6
CONTINUOUS
62
4
100
AcDbLine
10
215.700000000000
20
947.710000000000
30
0.0
11
235.700000000000
21
967.710000000000
31
0.0
0
LINE
5
5ae
100
AcDbEntity
8
0-00
6
CONTINUOUS
62
4
100
AcDbLine
10
201.560000000000
20
947.710000000000
30
0.0
11
221.560000000000
21
967.710000000000
31
0.0
0
LINE
5
5af
100
AcDbEntity
8
0-00
6
CONTINUOUS
62
4
100
AcDbLine
10
187.410000000000
20
947.710000000000
30
0.0
11
207.410000000000
21
967.710000000000
31
0.0
0
LINE
5
5b0
100
AcDbEntity
8
0-00
6
CONTINUOUS
62
4
100
AcDbLine
10
173.270000000000
20
947.710000000000
30
0.0
11
193.270000000000
21
967.710000000000
31
0.0
0
LINE
5
5b1
100
AcDbEntity
8
0-00
6
CONTINUOUS
62
4
100
AcDbLine
10
159.130000000000
20
947.710000000000
30
0.0
11
179.130000000000
21
967.710000000000
31
0.0
0
LINE
5
5b2
100
AcDbEntity
8
0-00
6
CONTINUOUS
62
4
100
AcDbLine
10
144.990000000000
20
947.710000000000
30
0.0
11
164.990000000000
21
967.710000000000
31
0.0
0
LINE
5
5b3
100
AcDbEntity
8
0-00
6
CONTINUOUS
62
4
100
AcDbLine
10
130.850000000000
20
947.710000000000
30
0.0
11
150.850000000000
21
967.710000000000
31
0.0
0
LINE
5
5b4
100
AcDbEntity
8
0-00
6
CONTINUOUS
62
4
100
AcDbLine
10
116.700000000000
20
947.710000000000
30
0.0
11
136.700000000000
21
967.710000000000
31
0.0
0
LINE
5
5b5
100
AcDbEntity
8
0-00
6
CONTINUOUS
62
4
100
AcDbLine
10
102.560000000000
20
947.710000000000
30
0.0
11
122.560000000000
21
967.710000000000
31
0.0
0
LINE
5
5b6
100
AcDbEntity
8
0-00
6
CONTINUOUS
62
4
100
AcDbLine
10
88.420000000000
20
947.710000000000
30
0.0
11
108.420000000000
21
967.710000000000
31
0.0
0
LINE
5
5b7
100
AcDbEntity
8
0-00
6
CONTINUOUS
62
4
100
AcDbLine
10
74.280000000000
20
947.710000000000
30
0.0
11
94.280000000000
21
967.710000000000
31
0.0
0
LINE
5
5b8
100
AcDbEntity
8
0-00
6
CONTINUOUS
62
4
100
AcDbLine
10
167.720000000000
20
964.140000000000
30
0.0
11
162.920000000000
21
964.940000000000
31
0.0
0
LINE
5
5b9
100
AcDbEntity
8
0-00
6
CONTINUOUS
62
4
100
AcDbLine
10
167.720000000000
20
962.540000000000
30
0.0
11
162.920000000000
21
963.340000000000
31
0.0
0
LINE
5
5ba
100
AcDbEntity
8
0-00
6
CONTINUOUS
62
4
100
AcDbLine
10
167.720000000000
20
965.740000000000
30
0.0
11
162.920000000000
21
966.540000000000
31
0.0
0
LINE
5
5bb
100
AcDbEntity
8
0-00
6
CONTINUOUS
62
4
100
AcDbLine
10
163.320000000000
20
936.410000000000
30
0.0
11
163.320000000000
21
969.810000000000
31
0.0
0
LINE
5
5bc
100
AcDbEntity
8
0-00
6
CONTINUOUS
62
4
100
AcDbLine
10
167.320000000000
20
936.410000000000
30
0.0
11
167.320000000000
21
969.810000000000
31
0.0
0
LINE
5
5bd
100
AcDbEntity
8
0-00
6
CONTINUOUS
62
4
100
AcDbLine
10
167.720000000000
20
948.140000000000
30
0.0
11
162.920000000000
21
948.940000000000
31
0.0
0
LINE
5
5be
100
AcDbEntity
8
0-00
6
CONTINUOUS
62
4
100
AcDbLine
10
167.720000000000
20
946.540000000000
30
0.0
11
162.920000000000
21
947.340000000000
31
0.0
0
LINE
5
5bf
100
AcDbEntity
8
0-00
6
CONTINUOUS
62
4
100
AcDbLine
10
167.720000000000
20
944.940000000000
30
0.0
11
162.920000000000
21
945.740000000000
31
0.0
0
LINE
5
5c0
100
AcDbEntity
8
0-00
6
CONTINUOUS
62
4
100
AcDbLine
10
167.720000000000
20
943.340000000000
30
0.0
11
162.920000000000
21
944.140000000000
31
0.0
0
LINE
5
5c1
100
AcDbEntity
8
0-00
6
CONTINUOUS
62
4
100
AcDbLine
10
167.720000000000
20
941.740000000000
30
0.0
11
162.920000000000
21
942.540000000000
31
0.0
0
LINE
5
5c2
100
AcDbEntity
8
0-00
6
CONTINUOUS
62
4
100
AcDbLine
10
300.550000000000
20
947.710000000000
30
0.0
11
320.550000000000
21
967.710000000000
31
0.0
0
LINE
5
5c3
100
AcDbEntity
8
0-00
6
CONTINUOUS
62
4
100
AcDbLine
10
314.690000000000
20
947.710000000000
30
0.0
11
334.690000000000
21
967.710000000000
31
0.0
0
LINE
5
5c4
100
AcDbEntity
8
0-00
6
CONTINUOUS
62
4
100
AcDbLine
10
385.400000000000
20
947.710000000000
30
0.0
11
405.400000000000
21
967.710000000000
31
0.0
0
LINE
5
5c5
100
AcDbEntity
8
0-00
6
CONTINUOUS
62
4
100
AcDbLine
10
371.260000000000
20
947.710000000000
30
0.0
11
391.260000000000
21
967.710000000000
31
0.0
0
LINE
5
5c6
100
AcDbEntity
8
0-00
6
CONTINUOUS
62
4
100
AcDbLine
10
357.120000000000
20
947.710000000000
30
0.0
11
377.120000000000
21
967.710000000000
31
0.0
0
LINE
5
5c7
100
AcDbEntity
8
0-00
6
CONTINUOUS
62
4
100
AcDbLine
10
342.980000000000
20
947.710000000000
30
0.0
11
362.980000000000
21
967.710000000000
31
0.0
0
LINE
5
5c8
100
AcDbEntity
8
0-00
6
CONTINUOUS
62
4
100
AcDbLine
10
328.840000000000
20
947.710000000000
30
0.0
11
348.840000000000
21
967.710000000000
31
0.0
0
LINE
5
5c9
100
AcDbEntity
8
0-00
6
CONTINUOUS
62
4
100
AcDbLine
10
399.550000000000
20
947.710000000000
30
0.0
11
419.550000000000
21
967.710000000000
31
0.0
0
LINE
5
5ca
100
AcDbEntity
8
0-00
6
CONTINUOUS
62
4
100
AcDbLine
10
413.690000000000
20
947.710000000000
30
0.0
11
433.690000000000
21
967.710000000000
31
0.0
0
LINE
5
5cb
100
AcDbEntity
8
0-00
6
CONTINUOUS
62
4
100
AcDbLine
10
470.260000000000
20
947.710000000000
30
0.0
11
490.260000000000
21
967.710000000000
31
0.0
0
LINE
5
5cc
100
AcDbEntity
8
0-00
6
CONTINUOUS
62
4
100
AcDbLine
10
456.110000000000
20
947.710000000000
30
0.0
11
476.110000000000
21
967.710000000000
31
0.0
0
LINE
5
5cd
100
AcDbEntity
8
0-00
6
CONTINUOUS
62
4
100
AcDbLine
10
441.970000000000
20
947.710000000000
30
0.0
11
461.970000000000
21
967.710000000000
31
0.0
0
LINE
5
5ce
100
AcDbEntity
8
0-00
6
CONTINUOUS
62
4
100
AcDbLine
10
427.830000000000
20
947.710000000000
30
0.0
11
447.830000000000
21
967.710000000000
31
0.0
0
LINE
5
5cf
100
AcDbEntity
8
0-00
6
CONTINUOUS
62
4
100
AcDbLine
10
512.680000000000
20
947.710000000000
30
0.0
11
532.680000000000
21
967.710000000000
31
0.0
0
LINE
5
5d0
100
AcDbEntity
8
0-00
6
CONTINUOUS
62
4
100
AcDbLine
10
540.970000000000
20
947.710000000000
30
0.0
11
560.970000000000
21
967.710000000000
31
0.0
0
LINE
5
5d1
100
AcDbEntity
8
0-00
6
CONTINUOUS
62
4
100
AcDbLine
10
526.830000000000
20
947.710000000000
30
0.0
11
546.830000000000
21
967.710000000000
31
0.0
0
LINE
5
5d2
100
AcDbEntity
8
0-00
6
CONTINUOUS
62
4
100
AcDbLine
10
570.390000000000
20
1054.630000000000
30
0.0
11
564.590000000000
21
1053.080000000000
31
0.0
0
LINE
5
5d3
100
AcDbEntity
8
0-00
6
CONTINUOUS
62
4
100
AcDbLine
10
570.390000000000
20
1054.630000000000
30
0.0
11
564.590000000000
21
1056.180000000000
31
0.0
0
LINE
5
5d4
100
AcDbEntity
8
0-00
6
CONTINUOUS
62
4
100
AcDbLine
10
64.760000000000
20
1054.630000000000
30
0.0
11
70.550000000000
21
1053.080000000000
31
0.0
0
LINE
5
5d5
100
AcDbEntity
8
0-00
6
CONTINUOUS
62
4
100
AcDbLine
10
64.760000000000
20
1054.630000000000
30
0.0
11
70.550000000000
21
1056.180000000000
31
0.0
0
LINE
5
5d6
100
AcDbEntity
8
0-00
6
CONTINUOUS
62
7
100
AcDbLine
10
254.720000000000
20
952.000000000000
30
0.0
11
272.210000000000
21
921.710000000000
31
0.0
0
LINE
5
5d7
100
AcDbEntity
8
0-00
6
CONTINUOUS
62
4
100
AcDbLine
10
498.700000000000
20
947.710000000000
30
0.0
11
518.700000000000
21
967.710000000000
31
0.0
0
LINE
5
5d8
100
AcDbEntity
8
0-00
6
CONTINUOUS
62
4
100
AcDbLine
10
484.560000000000
20
947.710000000000
30
0.0
11
504.560000000000
21
967.710000000000
31
0.0
0
LINE
5
5d9
100
AcDbEntity
8
0-00
6
CENTER2
62
4
100
AcDbLine
10
165.320000000000
20
971.620000000000
30
0.0
11
165.320000000000
21
931.470000000000
31
0.0
0
LINE
5
5da
100
AcDbEntity
8
0-00
6
CONTINUOUS
62
4
100
AcDbLine
10
153.170000000000
20
1054.630000000000
30
0.0
11
64.760000000000
21
1054.630000000000
31
0.0
0
LINE
5
5db
100
AcDbEntity
8
0-00
6
CONTINUOUS
62
4
100
AcDbLine
10
153.170000000000
20
1054.630000000000
30
0.0
11
481.970000000000
21
1054.630000000000
31
0.0
0
LINE
5
5dc
100
AcDbEntity
8
0-00
6
CONTINUOUS
62
4
100
AcDbLine
10
481.970000000000
20
1054.630000000000
30
0.0
11
570.390000000000
21
1054.630000000000
31
0.0
0
LINE
5
5dd
100
AcDbEntity
8
0-3_2_2
6
DOT
62
7
100
AcDbLine
10
413.360000000000
20
401.640000000000
30
0.0
11
284.890000000000
21
375.940000000000
31
0.0
0
LINE
5
5de
100
AcDbEntity
8
0-3_2_2
6
DOT
62
7
100
AcDbLine
10
286.770000000000
20
375.700000000000
30
0.0
11
413.480000000000
21
401.050000000000
31
0.0
0
LINE
5
5df
100
AcDbEntity
8
0-3_2_2
6
DASHED
62
7
100
AcDbLine
10
265.680000000000
20
371.780000000000
30
0.0
11
208.070000000000
21
360.260000000000
31
0.0
0
LINE
5
5e0
100
AcDbEntity
8
0-3_2_2
6
CONTINUOUS
62
7
100
AcDbLine
10
293.900000000000
20
247.960000000000
30
0.0
11
276.080000000000
21
217.100000000000
31
0.0
0
LINE
5
5e1
100
AcDbEntity
8
0-4_2_3
6
CONTINUOUS
62
7
100
AcDbLine
10
804.430000000000
20
291.120000000000
30
0.0
11
787.970000000000
21
262.620000000000
31
0.0
0
LINE
5
5e2
100
AcDbEntity
8
0-4_2_3
6
CONTINUOUS
62
7
100
AcDbLine
10
753.430000000000
20
373.440000000000
30
0.0
11
738.930000000000
21
348.340000000000
31
0.0
0
LINE
5
5e3
100
AcDbEntity
8
0-3_2_2
6
CONTINUOUS
62
4
100
AcDbLine
10
326.890000000000
20
344.360000000000
30
0.0
11
327.510000000000
21
345.300000000000
31
0.0
0
LINE
5
5e4
100
AcDbEntity
8
0-3_2_2
6
CONTINUOUS
62
4
100
AcDbLine
10
327.510000000000
20
345.300000000000
30
0.0
11
326.770000000000
21
346.270000000000
31
0.0
0
LINE
5
5e5
100
AcDbEntity
8
0-3_2_2
6
CONTINUOUS
62
4
100
AcDbLine
10
326.770000000000
20
346.270000000000
30
0.0
11
327.830000000000
21
347.190000000000
31
0.0
0
LINE
5
5e6
100
AcDbEntity
8
0-3_2_2
6
CONTINUOUS
62
4
100
AcDbLine
10
327.830000000000
20
347.190000000000
30
0.0
11
329.470000000000
21
345.700000000000
31
0.0
0
LINE
5
5e7
100
AcDbEntity
8
0-00
6
CONTINUOUS
62
4
100
AcDbLine
10
164.520000000000
20
935.610000000000
30
0.0
11
165.320000000000
21
936.410000000000
31
0.0
0
LINE
5
5e8
100
AcDbEntity
8
0-00
6
CONTINUOUS
62
4
100
AcDbLine
10
165.320000000000
20
936.410000000000
30
0.0
11
164.780000000000
21
937.500000000000
31
0.0
0
LINE
5
5e9
100
AcDbEntity
8
0-00
6
CONTINUOUS
62
4
100
AcDbLine
10
164.780000000000
20
937.500000000000
30
0.0
11
166.000000000000
21
938.200000000000
31
0.0
0
LINE
5
5ea
100
AcDbEntity
8
0-00
6
CONTINUOUS
62
4
100
AcDbLine
10
166.000000000000
20
938.200000000000
30
0.0
11
167.320000000000
21
936.410000000000
31
0.0
0
LINE
5
5eb
100
AcDbEntity
8
0-00
6
CONTINUOUS
62
7
100
AcDbLine
10
170.080000000000
20
1010.790000000000
30
0.0
11
162.830000000000
21
1010.790000000000
31
0.0
0
LINE
5
5ec
100
AcDbEntity
8
0-00
6
DASHED
62
7
100
AcDbLine
10
564.070000000000
20
968.210000000000
30
0.0
11
71.070000000000
21
968.210000000000
31
0.0
0
LINE
5
5ed
100
AcDbEntity
8
0-00
6
CONTINUOUS
62
7
100
AcDbLine
10
266.780000000000
20
968.210000000000
30
0.0
11
272.400000000000
21
984.820000000000
31
0.0
0
LINE
5
5ee
100
AcDbEntity
8
F-0
6
CONTINUOUS
62
7
100
AcDbLine
10
384.300000000000
20
710.340000000000
30
0.0
11
227.540000000000
21
710.340000000000
31
0.0
0
LINE
5
5ef
100
AcDbEntity
8
F-0
6
CONTINUOUS
62
7
100
AcDbLine
10
333.920000000000
20
714.840000000000
30
0.0
11
344.020000000000
21
732.330000000000
31
0.0
0
LINE
5
5f0
100
AcDbEntity
8
F-0
6
CONTINUOUS
62
7
100
AcDbLine
10
361.800000000000
20
700.340000000000
30
0.0
11
371.800000000000
21
710.340000000000
31
0.0
0
LINE
5
5f1
100
AcDbEntity
8
F-0
6
CONTINUOUS
62
7
100
AcDbLine
10
347.660000000000
20
700.340000000000
30
0.0
11
357.660000000000
21
710.340000000000
31
0.0
0
LINE
5
5f2
100
AcDbEntity
8
F-0
6
CONTINUOUS
62
7
100
AcDbLine
10
333.520000000000
20
700.340000000000
30
0.0
11
343.520000000000
21
710.340000000000
31
0.0
0
LINE
5
5f3
100
AcDbEntity
8
F-0
6
CONTINUOUS
62
7
100
AcDbLine
10
319.380000000000
20
700.340000000000
30
0.0
11
329.380000000000
21
710.340000000000
31
0.0
0
LINE
5
5f4
100
AcDbEntity
8
F-0
6
CONTINUOUS
62
7
100
AcDbLine
10
305.240000000000
20
700.340000000000
30
0.0
11
315.240000000000
21
710.340000000000
31
0.0
0
LINE
5
5f5
100
AcDbEntity
8
F-0
6
CONTINUOUS
62
7
100
AcDbLine
10
291.090000000000
20
700.340000000000
30
0.0
11
301.090000000000
21
710.340000000000
31
0.0
0
LINE
5
5f6
100
AcDbEntity
8
F-0
6
CONTINUOUS
62
7
100
AcDbLine
10
276.950000000000
20
700.340000000000
30
0.0
11
286.950000000000
21
710.340000000000
31
0.0
0
LINE
5
5f7
100
AcDbEntity
8
F-0
6
CONTINUOUS
62
7
100
AcDbLine
10
262.810000000000
20
700.340000000000
30
0.0
11
272.810000000000
21
710.340000000000
31
0.0
0
LINE
5
5f8
100
AcDbEntity
8
F-0
6
CONTINUOUS
62
7
100
AcDbLine
10
248.670000000000
20
700.340000000000
30
0.0
11
258.670000000000
21
710.340000000000
31
0.0
0
LINE
5
5f9
100
AcDbEntity
8
F-0
6
CONTINUOUS
62
7
100
AcDbLine
10
234.530000000000
20
700.340000000000
30
0.0
11
244.530000000000
21
710.340000000000
31
0.0
0
LINE
5
5fa
100
AcDbEntity
8
F-0
6
CONTINUOUS
62
7
100
AcDbLine
10
321.240000000000
20
778.410000000000
30
0.0
11
314.000000000000
21
778.410000000000
31
0.0
0
LINE
5
5fb
100
AcDbEntity
8
F-0
6
CONTINUOUS
62
7
100
AcDbLine
10
375.950000000000
20
700.340000000000
30
0.0
11
385.950000000000
21
710.340000000000
31
0.0
0
LINE
5
5fc
100
AcDbEntity
8
F-0
6
CONTINUOUS
62
7
100
AcDbLine
10
220.380000000000
20
700.340000000000
30
0.0
11
230.380000000000
21
710.340000000000
31
0.0
0
LINE
5
5fd
100
AcDbEntity
8
F-0
6
CONTINUOUS
62
7
100
AcDbLine
10
206.240000000000
20
700.340000000000
30
0.0
11
216.240000000000
21
710.340000000000
31
0.0
0
LINE
5
5fe
100
AcDbEntity
8
F-0
6
CONTINUOUS
62
7
100
AcDbLine
10
192.100000000000
20
700.340000000000
30
0.0
11
202.100000000000
21
710.340000000000
31
0.0
0
LINE
5
5ff
100
AcDbEntity
8
F-0
6
CONTINUOUS
62
7
100
AcDbLine
10
390.090000000000
20
700.340000000000
30
0.0
11
400.090000000000
21
710.340000000000
31
0.0
0
LINE
5
600
100
AcDbEntity
8
F-0
6
CONTINUOUS
62
7
100
AcDbLine
10
404.230000000000
20
700.340000000000
30
0.0
11
414.230000000000
21
710.340000000000
31
0.0
0
LINE
5
601
100
AcDbEntity
8
F-0
6
DASHED
62
7
100
AcDbLine
10
417.530000000000
20
711.340000000000
30
0.0
11
190.640000000000
21
711.340000000000
31
0.0
0
LINE
5
602
100
AcDbEntity
8
F-0
6
CONTINUOUS
62
7
100
AcDbLine
10
417.530000000000
20
710.340000000000
30
0.0
11
190.640000000000
21
710.340000000000
31
0.0
0
LINE
5
603
100
AcDbEntity
8
F-0
6
CONTINUOUS
62
7
100
AcDbLine
10
417.530000000000
20
700.340000000000
30
0.0
11
190.640000000000
21
700.340000000000
31
0.0
0
LINE
5
604
100
AcDbEntity
8
F-0
6
CONTINUOUS
62
7
100
AcDbLine
10
362.030000000000
20
688.070000000000
30
0.0
11
354.950000000000
21
700.340000000000
31
0.0
0
LINE
5
605
100
AcDbEntity
8
F-0
6
CONTINUOUS
62
7
100
AcDbLine
10
266.520000000000
20
688.630000000000
30
0.0
11
279.630000000000
21
711.340000000000
31
0.0
0
LINE
5
606
100
AcDbEntity
8
0-00
6
CONTINUOUS
62
7
100
AcDbLine
10
479.910000000000
20
1000.210000000000
30
0.0
11
467.890000000000
21
1021.030000000000
31
0.0
0
LINE
5
607
100
AcDbEntity
8
0-00
6
CONTINUOUS
62
4
100
AcDbLine
10
455.360000000000
20
931.900000000000
30
0.0
11
354.950000000000
21
806.670000000000
31
0.0
0
LINE
5
608
100
AcDbEntity
8
0-00
6
CONTINUOUS
62
4
100
AcDbLine
10
354.950000000000
20
806.670000000000
30
0.0
11
357.360000000000
21
812.160000000000
31
0.0
0
LINE
5
609
100
AcDbEntity
8
0-00
6
CONTINUOUS
62
4
100
AcDbLine
10
354.950000000000
20
806.670000000000
30
0.0
11
359.780000000000
21
810.220000000000
31
0.0
0
LINE
5
60a
100
AcDbEntity
8
0-00
6
CONTINUOUS
62
4
100
AcDbLine
10
357.360000000000
20
812.160000000000
30
0.0
11
359.770000000000
21
817.660000000000
31
0.0
0
LINE
5
60b
100
AcDbEntity
8
0-00
6
CONTINUOUS
62
4
100
AcDbLine
10
359.780000000000
20
810.220000000000
30
0.0
11
364.620000000000
21
813.770000000000
31
0.0
0
LINE
5
60c
100
AcDbEntity
8
0-3_2_2
6
CONTINUOUS
62
4
100
AcDbLine
10
187.460000000000
20
423.240000000000
30
0.0
11
181.580000000000
21
452.650000000000
31
0.0
0
LINE
5
60d
100
AcDbEntity
8
0-3_2_2
6
CONTINUOUS
62
4
100
AcDbLine
10
307.140000000000
20
447.170000000000
30
0.0
11
301.260000000000
21
476.590000000000
31
0.0
0
LINE
5
60e
100
AcDbEntity
8
0-3_2_2
6
CONTINUOUS
62
7
100
AcDbLine
10
177.990000000000
20
378.080000000000
30
0.0
11
162.270000000000
21
350.840000000000
31
0.0
0
LINE
5
60f
100
AcDbEntity
8
0-3_2_2
6
CONTINUOUS
62
7
100
AcDbLine
10
223.070000000000
20
342.070000000000
30
0.0
11
207.390000000000
21
314.910000000000
31
0.0
0
LINE
5
610
100
AcDbEntity
8
0-3_2_2
6
CONTINUOUS
62
7
100
AcDbLine
10
412.710000000000
20
236.190000000000
30
0.0
11
401.550000000000
21
216.870000000000
31
0.0
0
LINE
5
611
100
AcDbEntity
8
0-3_2_2
6
CONTINUOUS
62
7
100
AcDbLine
10
177.990000000000
20
378.080000000000
30
0.0
11
195.410000000000
21
378.080000000000
31
0.0
0
LINE
5
612
100
AcDbEntity
8
0-2_2_1
6
CONTINUOUS
62
4
100
AcDbLine
10
1275.250000000000
20
941.570000000000
30
0.0
11
1269.490000000000
21
974.070000000000
31
0.0
0
LINE
5
613
100
AcDbEntity
8
0-2_2_1
6
CONTINUOUS
62
4
100
AcDbLine
10
1440.030000000000
20
974.530000000000
30
0.0
11
1434.270000000000
21
1007.030000000000
31
0.0
0
LINE
5
614
100
AcDbEntity
8
0-2_2_1
6
CONTINUOUS
62
7
100
AcDbLine
10
1357.560000000000
20
832.340000000000
30
0.0
11
1389.710000000000
21
776.660000000000
31
0.0
0
LINE
5
615
100
AcDbEntity
8
0-2_2_1
6
CONTINUOUS
62
3
100
AcDbLine
10
1458.980000000000
20
931.210000000000
30
0.0
11
1458.980000000000
21
799.100000000000
31
0.0
0
LINE
5
616
100
AcDbEntity
8
0-3_2_2
6
CENTER2
62
4
100
AcDbLine
10
319.810000000000
20
383.840000000000
30
0.0
11
329.140000000000
21
337.200000000000
31
0.0
0
LINE
5
617
100
AcDbEntity
8
0-1_2_0
6
CONTINUOUS
62
3
100
AcDbLine
10
797.620000000000
20
758.940000000000
30
0.0
11
753.100000000000
21
750.040000000000
31
0.0
0
LINE
5
618
100
AcDbEntity
8
0-1_2_0
6
CONTINUOUS
62
3
100
AcDbLine
10
753.100000000000
20
750.040000000000
30
0.0
11
734.390000000000
21
843.580000000000
31
0.0
0
LINE
5
619
100
AcDbEntity
8
0-1_2_0
6
CONTINUOUS
62
3
100
AcDbLine
10
778.460000000000
20
854.740000000000
30
0.0
11
733.940000000000
21
845.840000000000
31
0.0
0
LINE
5
61a
100
AcDbEntity
8
0-1_2_0
6
CONTINUOUS
62
3
100
AcDbLine
10
734.390000000000
20
843.580000000000
30
0.0
11
778.910000000000
21
852.490000000000
31
0.0
0
LINE
5
61b
100
AcDbEntity
8
0-1_2_0
6
CONTINUOUS
62
3
100
AcDbLine
10
784.640000000000
20
835.580000000000
30
0.0
11
781.160000000000
21
852.940000000000
31
0.0
0
LINE
5
61c
100
AcDbEntity
8
0-1_2_0
6
CONTINUOUS
62
3
100
AcDbLine
10
778.910000000000
20
852.490000000000
30
0.0
11
782.380000000000
21
835.130000000000
31
0.0
0
LINE
5
61d
100
AcDbEntity
8
0-1_2_0
6
CONTINUOUS
62
3
100
AcDbLine
10
782.380000000000
20
835.130000000000
30
0.0
11
784.640000000000
21
835.580000000000
31
0.0
0
LINE
5
61e
100
AcDbEntity
8
0-1_2_0
6
CONTINUOUS
62
3
100
AcDbLine
10
794.150000000000
20
776.300000000000
30
0.0
11
797.620000000000
21
758.940000000000
31
0.0
0
LINE
5
61f
100
AcDbEntity
8
0-1_2_0
6
CONTINUOUS
62
3
100
AcDbLine
10
799.870000000000
20
759.390000000000
30
0.0
11
796.400000000000
21
776.750000000000
31
0.0
0
LINE
5
620
100
AcDbEntity
8
0-1_2_0
6
CONTINUOUS
62
3
100
AcDbLine
10
796.400000000000
20
776.750000000000
30
0.0
11
794.150000000000
21
776.300000000000
31
0.0
0
LINE
5
621
100
AcDbEntity
8
0-1_2_0
6
CONTINUOUS
62
3
100
AcDbLine
10
753.550000000000
20
747.780000000000
30
0.0
11
798.070000000000
21
756.680000000000
31
0.0
0
LINE
5
622
100
AcDbEntity
8
0-1_2_0
6
CONTINUOUS
62
4
100
AcDbLine
10
745.900000000000
20
876.280000000000
30
0.0
11
755.710000000000
21
878.240000000000
31
0.0
0
LINE
5
623
100
AcDbEntity
8
0-1_2_0
6
CONTINUOUS
62
4
100
AcDbLine
10
747.770000000000
20
877.160000000000
30
0.0
11
753.650000000000
21
878.340000000000
31
0.0
0
LINE
5
624
100
AcDbEntity
8
0-1_2_0
6
CONTINUOUS
62
4
100
AcDbLine
10
755.710000000000
20
878.240000000000
30
0.0
11
755.790000000000
21
877.850000000000
31
0.0
0
LINE
5
625
100
AcDbEntity
8
0-1_2_0
6
CONTINUOUS
62
4
100
AcDbLine
10
753.650000000000
20
878.340000000000
30
0.0
11
755.220000000000
21
878.140000000000
31
0.0
0
LINE
5
626
100
AcDbEntity
8
0-1_2_0
6
CONTINUOUS
62
4
100
AcDbLine
10
755.290000000000
20
867.070000000000
30
0.0
11
750.430000000000
21
866.910000000000
31
0.0
0
LINE
5
627
100
AcDbEntity
8
0-1_2_0
6
CONTINUOUS
62
4
100
AcDbLine
10
755.600000000000
20
865.500000000000
30
0.0
11
750.740000000000
21
865.340000000000
31
0.0
0
LINE
5
628
100
AcDbEntity
8
0-1_2_0
6
CONTINUOUS
62
4
100
AcDbLine
10
755.920000000000
20
863.930000000000
30
0.0
11
751.050000000000
21
863.770000000000
31
0.0
0
LINE
5
629
100
AcDbEntity
8
0-1_2_0
6
CONTINUOUS
62
4
100
AcDbLine
10
754.980000000000
20
868.640000000000
30
0.0
11
750.110000000000
21
868.480000000000
31
0.0
0
LINE
5
62a
100
AcDbEntity
8
0-1_2_0
6
CONTINUOUS
62
4
100
AcDbLine
10
745.900000000000
20
876.280000000000
30
0.0
11
745.980000000000
21
875.880000000000
31
0.0
0
LINE
5
62b
100
AcDbEntity
8
0-1_2_0
6
CONTINUOUS
62
4
100
AcDbLine
10
747.770000000000
20
877.160000000000
30
0.0
11
746.390000000000
21
876.370000000000
31
0.0
0
LINE
5
62c
100
AcDbEntity
8
0-1_2_0
6
CONTINUOUS
62
4
100
AcDbLine
10
756.550000000000
20
860.790000000000
30
0.0
11
751.680000000000
21
860.630000000000
31
0.0
0
LINE
5
62d
100
AcDbEntity
8
0-1_2_0
6
CONTINUOUS
62
4
100
AcDbLine
10
756.230000000000
20
862.360000000000
30
0.0
11
751.370000000000
21
862.200000000000
31
0.0
0
LINE
5
62e
100
AcDbEntity
8
0-1_2_0
6
CONTINUOUS
62
4
100
AcDbLine
10
756.860000000000
20
859.220000000000
30
0.0
11
752.000000000000
21
859.070000000000
31
0.0
0
LINE
5
62f
100
AcDbEntity
8
0-1_2_0
6
CONTINUOUS
62
4
100
AcDbLine
10
757.170000000000
20
857.650000000000
30
0.0
11
752.310000000000
21
857.500000000000
31
0.0
0
LINE
5
630
100
AcDbEntity
8
0-1_2_0
6
CONTINUOUS
62
4
100
AcDbLine
10
758.730000000000
20
837.640000000000
30
0.0
11
756.450000000000
21
838.820000000000
31
0.0
0
LINE
5
631
100
AcDbEntity
8
0-1_2_0
6
CONTINUOUS
62
4
100
AcDbLine
10
760.380000000000
20
839.600000000000
30
0.0
11
758.730000000000
21
837.640000000000
31
0.0
0
LINE
5
632
100
AcDbEntity
8
0-1_2_0
6
CONTINUOUS
62
4
100
AcDbLine
10
745.980000000000
20
875.880000000000
30
0.0
11
755.790000000000
21
877.850000000000
31
0.0
0
LINE
5
633
100
AcDbEntity
8
0-1_2_0
6
CONTINUOUS
62
4
100
AcDbLine
10
754.350000000000
20
871.770000000000
30
0.0
11
749.490000000000
21
871.620000000000
31
0.0
0
LINE
5
634
100
AcDbEntity
8
0-1_2_0
6
CONTINUOUS
62
4
100
AcDbLine
10
754.660000000000
20
870.210000000000
30
0.0
11
749.800000000000
21
870.050000000000
31
0.0
0
LINE
5
635
100
AcDbEntity
8
0-1_2_0
6
CONTINUOUS
62
4
100
AcDbLine
10
754.040000000000
20
873.340000000000
30
0.0
11
749.170000000000
21
873.190000000000
31
0.0
0
LINE
5
636
100
AcDbEntity
8
0-1_2_0
6
CONTINUOUS
62
4
100
AcDbLine
10
757.490000000000
20
856.080000000000
30
0.0
11
752.620000000000
21
855.930000000000
31
0.0
0
LINE
5
637
100
AcDbEntity
8
0-1_2_0
6
CONTINUOUS
62
4
100
AcDbLine
10
757.800000000000
20
854.520000000000
30
0.0
11
752.940000000000
21
854.360000000000
31
0.0
0
LINE
5
638
100
AcDbEntity
8
0-1_2_0
6
CONTINUOUS
62
4
100
AcDbLine
10
758.120000000000
20
852.950000000000
30
0.0
11
753.250000000000
21
852.790000000000
31
0.0
0
LINE
5
639
100
AcDbEntity
8
0-1_2_0
6
CONTINUOUS
62
4
100
AcDbLine
10
758.430000000000
20
851.380000000000
30
0.0
11
753.560000000000
21
851.220000000000
31
0.0
0
LINE
5
63a
100
AcDbEntity
8
0-1_2_0
6
CONTINUOUS
62
4
100
AcDbLine
10
758.740000000000
20
849.810000000000
30
0.0
11
753.880000000000
21
849.650000000000
31
0.0
0
LINE
5
63b
100
AcDbEntity
8
0-1_2_0
6
CONTINUOUS
62
4
100
AcDbLine
10
759.060000000000
20
848.240000000000
30
0.0
11
754.190000000000
21
848.080000000000
31
0.0
0
LINE
5
63c
100
AcDbEntity
8
0-1_2_0
6
CONTINUOUS
62
4
100
AcDbLine
10
759.370000000000
20
846.670000000000
30
0.0
11
754.510000000000
21
846.510000000000
31
0.0
0
LINE
5
63d
100
AcDbEntity
8
0-1_2_0
6
CONTINUOUS
62
4
100
AcDbLine
10
759.680000000000
20
845.100000000000
30
0.0
11
754.820000000000
21
844.950000000000
31
0.0
0
LINE
5
63e
100
AcDbEntity
8
0-1_2_0
6
CONTINUOUS
62
4
100
AcDbLine
10
760.000000000000
20
843.530000000000
30
0.0
11
755.130000000000
21
843.380000000000
31
0.0
0
LINE
5
63f
100
AcDbEntity
8
0-1_2_0
6
CENTER2
62
4
100
AcDbLine
10
750.690000000000
20
877.850000000000
30
0.0
11
760.040000000000
21
831.100000000000
31
0.0
0
LINE
5
640
100
AcDbEntity
8
0-1_2_0
6
CONTINUOUS
62
4
100
AcDbLine
10
760.380000000000
20
839.600000000000
30
0.0
11
752.850000000000
21
877.260000000000
31
0.0
0
LINE
5
641
100
AcDbEntity
8
0-1_2_0
6
CONTINUOUS
62
4
100
AcDbLine
10
756.450000000000
20
838.820000000000
30
0.0
11
748.920000000000
21
876.470000000000
31
0.0
0
LINE
5
642
100
AcDbEntity
8
0-1_2_0
6
CONTINUOUS
62
4
100
AcDbLine
10
820.460000000000
20
863.140000000000
30
0.0
11
840.070000000000
21
892.560000000000
31
0.0
0
LINE
5
643
100
AcDbEntity
8
0-1_2_0
6
CONTINUOUS
62
4
100
AcDbLine
10
792.720000000000
20
857.600000000000
30
0.0
11
812.330000000000
21
887.010000000000
31
0.0
0
LINE
5
644
100
AcDbEntity
8
0-1_2_0
6
CONTINUOUS
62
4
100
AcDbLine
10
764.990000000000
20
852.050000000000
30
0.0
11
784.600000000000
21
881.470000000000
31
0.0
0
LINE
5
645
100
AcDbEntity
8
0-1_2_0
6
CONTINUOUS
62
4
100
AcDbLine
10
737.250000000000
20
846.500000000000
30
0.0
11
756.860000000000
21
875.920000000000
31
0.0
0
LINE
5
646
100
AcDbEntity
8
0-1_2_0
6
CONTINUOUS
62
4
100
AcDbLine
10
709.520000000000
20
840.950000000000
30
0.0
11
729.130000000000
21
870.370000000000
31
0.0
0
LINE
5
647
100
AcDbEntity
8
0-1_2_0
6
CONTINUOUS
62
4
100
AcDbLine
10
681.780000000000
20
835.410000000000
30
0.0
11
701.390000000000
21
864.820000000000
31
0.0
0
LINE
5
648
100
AcDbEntity
8
0-1_2_0
6
CONTINUOUS
62
4
100
AcDbLine
10
661.240000000000
20
840.660000000000
30
0.0
11
673.660000000000
21
859.280000000000
31
0.0
0
LINE
5
649
100
AcDbEntity
8
0-1_2_0
6
CONTINUOUS
62
4
100
AcDbLine
10
661.180000000000
20
856.780000000000
30
0.0
11
690.590000000000
21
837.170000000000
31
0.0
0
LINE
5
64a
100
AcDbEntity
8
0-1_2_0
6
CONTINUOUS
62
4
100
AcDbLine
10
688.910000000000
20
862.330000000000
30
0.0
11
718.330000000000
21
842.720000000000
31
0.0
0
LINE
5
64b
100
AcDbEntity
8
0-1_2_0
6
CONTINUOUS
62
4
100
AcDbLine
10
716.650000000000
20
867.880000000000
30
0.0
11
746.060000000000
21
848.260000000000
31
0.0
0
LINE
5
64c
100
AcDbEntity
8
0-1_2_0
6
CONTINUOUS
62
4
100
AcDbLine
10
744.380000000000
20
873.420000000000
30
0.0
11
773.800000000000
21
853.810000000000
31
0.0
0
LINE
5
64d
100
AcDbEntity
8
0-1_2_0
6
CONTINUOUS
62
4
100
AcDbLine
10
772.120000000000
20
878.970000000000
30
0.0
11
801.530000000000
21
859.360000000000
31
0.0
0
LINE
5
64e
100
AcDbEntity
8
0-1_2_0
6
CONTINUOUS
62
4
100
AcDbLine
10
799.850000000000
20
884.520000000000
30
0.0
11
829.270000000000
21
864.900000000000
31
0.0
0
LINE
5
64f
100
AcDbEntity
8
0-1_2_0
6
CONTINUOUS
62
3
100
AcDbLine
10
732.140000000000
20
843.130000000000
30
0.0
11
750.850000000000
21
749.590000000000
31
0.0
0
LINE
5
650
100
AcDbEntity
8
0-1_2_0
6
CONTINUOUS
62
7
100
AcDbLine
10
723.740000000000
20
897.140000000000
30
0.0
11
723.860000000000
21
896.550000000000
31
0.0
0
LINE
5
651
100
AcDbEntity
8
0-1_2_0
6
CONTINUOUS
62
7
100
AcDbLine
10
723.740000000000
20
897.140000000000
30
0.0
11
709.040000000000
21
894.190000000000
31
0.0
0
LINE
5
652
100
AcDbEntity
8
0-1_2_0
6
CONTINUOUS
62
7
100
AcDbLine
10
723.860000000000
20
896.550000000000
30
0.0
11
709.150000000000
21
893.610000000000
31
0.0
0
LINE
5
653
100
AcDbEntity
8
0-1_2_0
6
CONTINUOUS
62
7
100
AcDbLine
10
728.530000000000
20
898.710000000000
30
0.0
11
708.920000000000
21
894.780000000000
31
0.0
0
LINE
5
654
100
AcDbEntity
8
0-1_2_0
6
CONTINUOUS
62
7
100
AcDbLine
10
728.410000000000
20
899.290000000000
30
0.0
11
708.800000000000
21
895.370000000000
31
0.0
0
LINE
5
655
100
AcDbEntity
8
0-1_2_0
6
CONTINUOUS
62
7
100
AcDbLine
10
752.930000000000
20
904.200000000000
30
0.0
11
753.040000000000
21
903.610000000000
31
0.0
0
LINE
5
656
100
AcDbEntity
8
0-1_2_0
6
CONTINUOUS
62
7
100
AcDbLine
10
757.950000000000
20
904.590000000000
30
0.0
11
753.040000000000
21
903.610000000000
31
0.0
0
LINE
5
657
100
AcDbEntity
8
0-1_2_0
6
CONTINUOUS
62
7
100
AcDbLine
10
757.830000000000
20
905.180000000000
30
0.0
11
752.930000000000
21
904.200000000000
31
0.0
0
LINE
5
658
100
AcDbEntity
8
0-1_2_0
6
CONTINUOUS
62
7
100
AcDbLine
10
738.530000000000
20
900.090000000000
30
0.0
11
758.060000000000
21
904.000000000000
31
0.0
0
LINE
5
659
100
AcDbEntity
8
0-1_2_0
6
CONTINUOUS
62
7
100
AcDbLine
10
728.810000000000
20
899.980000000000
30
0.0
11
708.680000000000
21
895.960000000000
31
0.0
0
LINE
5
65a
100
AcDbEntity
8
0-1_2_0
6
CONTINUOUS
62
7
100
AcDbLine
10
738.490000000000
20
899.490000000000
30
0.0
11
728.960000000000
21
900.000000000000
31
0.0
0
LINE
5
65b
100
AcDbEntity
8
0-1_2_0
6
CONTINUOUS
62
7
100
AcDbLine
10
738.640000000000
20
899.500000000000
30
0.0
11
758.180000000000
21
903.410000000000
31
0.0
0
LINE
5
65c
100
AcDbEntity
8
0-1_2_0
6
CONTINUOUS
62
7
100
AcDbLine
10
728.690000000000
20
900.570000000000
30
0.0
11
708.560000000000
21
896.550000000000
31
0.0
0
LINE
5
65d
100
AcDbEntity
8
0-1_2_0
6
CONTINUOUS
62
7
100
AcDbLine
10
728.840000000000
20
900.580000000000
30
0.0
11
738.380000000000
21
900.080000000000
31
0.0
0
LINE
5
65e
100
AcDbEntity
8
0-1_2_0
6
CONTINUOUS
62
4
100
AcDbLine
10
746.870000000000
20
890.030000000000
30
0.0
11
744.620000000000
21
901.310000000000
31
0.0
0
LINE
5
65f
100
AcDbEntity
8
0-1_2_0
6
CONTINUOUS
62
4
100
AcDbLine
10
747.070000000000
20
901.800000000000
30
0.0
11
749.330000000000
21
890.520000000000
31
0.0
0
LINE
5
660
100
AcDbEntity
8
0-1_2_0
6
CONTINUOUS
62
4
100
AcDbLine
10
740.860000000000
20
900.970000000000
30
0.0
11
750.670000000000
21
902.930000000000
31
0.0
0
LINE
5
661
100
AcDbEntity
8
0-1_2_0
6
CONTINUOUS
62
4
100
AcDbLine
10
742.730000000000
20
901.850000000000
30
0.0
11
748.610000000000
21
903.030000000000
31
0.0
0
LINE
5
662
100
AcDbEntity
8
0-1_2_0
6
CONTINUOUS
62
4
100
AcDbLine
10
750.670000000000
20
902.930000000000
30
0.0
11
750.750000000000
21
902.540000000000
31
0.0
0
LINE
5
663
100
AcDbEntity
8
0-1_2_0
6
CONTINUOUS
62
4
100
AcDbLine
10
748.610000000000
20
903.030000000000
30
0.0
11
750.180000000000
21
902.830000000000
31
0.0
0
LINE
5
664
100
AcDbEntity
8
0-1_2_0
6
CONTINUOUS
62
4
100
AcDbLine
10
747.990000000000
20
898.500000000000
30
0.0
11
744.950000000000
21
898.400000000000
31
0.0
0
LINE
5
665
100
AcDbEntity
8
0-1_2_0
6
CONTINUOUS
62
4
100
AcDbLine
10
748.180000000000
20
897.520000000000
30
0.0
11
745.140000000000
21
897.420000000000
31
0.0
0
LINE
5
666
100
AcDbEntity
8
0-1_2_0
6
CONTINUOUS
62
4
100
AcDbLine
10
748.380000000000
20
896.540000000000
30
0.0
11
745.340000000000
21
896.440000000000
31
0.0
0
LINE
5
667
100
AcDbEntity
8
0-1_2_0
6
CONTINUOUS
62
4
100
AcDbLine
10
747.790000000000
20
899.480000000000
30
0.0
11
744.750000000000
21
899.380000000000
31
0.0
0
LINE
5
668
100
AcDbEntity
8
0-1_2_0
6
CONTINUOUS
62
4
100
AcDbLine
10
740.860000000000
20
900.970000000000
30
0.0
11
740.940000000000
21
900.580000000000
31
0.0
0
LINE
5
669
100
AcDbEntity
8
0-1_2_0
6
CONTINUOUS
62
4
100
AcDbLine
10
742.730000000000
20
901.850000000000
30
0.0
11
741.350000000000
21
901.070000000000
31
0.0
0
LINE
5
66a
100
AcDbEntity
8
0-1_2_0
6
CONTINUOUS
62
4
100
AcDbLine
10
748.770000000000
20
894.570000000000
30
0.0
11
745.730000000000
21
894.480000000000
31
0.0
0
LINE
5
66b
100
AcDbEntity
8
0-1_2_0
6
CONTINUOUS
62
4
100
AcDbLine
10
748.570000000000
20
895.560000000000
30
0.0
11
745.530000000000
21
895.460000000000
31
0.0
0
LINE
5
66c
100
AcDbEntity
8
0-1_2_0
6
CONTINUOUS
62
4
100
AcDbLine
10
748.970000000000
20
893.590000000000
30
0.0
11
745.930000000000
21
893.500000000000
31
0.0
0
LINE
5
66d
100
AcDbEntity
8
0-1_2_0
6
CONTINUOUS
62
4
100
AcDbLine
10
749.160000000000
20
892.610000000000
30
0.0
11
746.120000000000
21
892.520000000000
31
0.0
0
LINE
5
66e
100
AcDbEntity
8
0-1_2_0
6
CONTINUOUS
62
4
100
AcDbLine
10
748.300000000000
20
889.300000000000
30
0.0
11
746.870000000000
21
890.030000000000
31
0.0
0
LINE
5
66f
100
AcDbEntity
8
0-1_2_0
6
CONTINUOUS
62
4
100
AcDbLine
10
749.330000000000
20
890.520000000000
30
0.0
11
748.300000000000
21
889.300000000000
31
0.0
0
LINE
5
670
100
AcDbEntity
8
0-1_2_0
6
CONTINUOUS
62
4
100
AcDbLine
10
740.940000000000
20
900.580000000000
30
0.0
11
750.750000000000
21
902.540000000000
31
0.0
0
LINE
5
671
100
AcDbEntity
8
0-1_2_0
6
CONTINUOUS
62
7
100
AcDbLine
10
728.530000000000
20
901.760000000000
30
0.0
11
708.330000000000
21
897.720000000000
31
0.0
0
LINE
5
672
100
AcDbEntity
8
0-1_2_0
6
CONTINUOUS
62
7
100
AcDbLine
10
728.650000000000
20
901.180000000000
30
0.0
11
708.450000000000
21
897.140000000000
31
0.0
0
LINE
5
673
100
AcDbEntity
8
0-1_2_0
6
DOT
62
7
100
AcDbLine
10
848.840000000000
20
897.070000000000
30
0.0
11
848.510000000000
21
898.710000000000
31
0.0
0
LINE
5
674
100
AcDbEntity
8
0-1_2_0
6
DOT
62
7
100
AcDbLine
10
848.900000000000
20
899.840000000000
30
0.0
11
849.430000000000
21
897.190000000000
31
0.0
0
LINE
5
675
100
AcDbEntity
8
0-1_2_0
6
CONTINUOUS
62
7
100
AcDbLine
10
734.160000000000
20
879.500000000000
30
0.0
11
735.940000000000
21
888.110000000000
31
0.0
0
LINE
5
676
100
AcDbEntity
8
0-1_2_0
6
CONTINUOUS
62
7
100
AcDbLine
10
735.940000000000
20
888.110000000000
30
0.0
11
736.530000000000
21
887.990000000000
31
0.0
0
LINE
5
677
100
AcDbEntity
8
0-1_2_0
6
CONTINUOUS
62
7
100
AcDbLine
10
734.750000000000
20
879.380000000000
30
0.0
11
736.530000000000
21
887.990000000000
31
0.0
0
LINE
5
678
100
AcDbEntity
8
0-1_2_0
6
CONTINUOUS
62
4
100
AcDbLine
10
757.790000000000
20
838.270000000000
30
0.0
11
758.420000000000
21
839.210000000000
31
0.0
0
LINE
5
679
100
AcDbEntity
8
0-1_2_0
6
CONTINUOUS
62
4
100
AcDbLine
10
758.420000000000
20
839.210000000000
30
0.0
11
757.670000000000
21
840.180000000000
31
0.0
0
LINE
5
67a
100
AcDbEntity
8
0-1_2_0
6
CONTINUOUS
62
4
100
AcDbLine
10
757.670000000000
20
840.180000000000
30
0.0
11
758.730000000000
21
841.100000000000
31
0.0
0
LINE
5
67b
100
AcDbEntity
8
0-1_2_0
6
CONTINUOUS
62
4
100
AcDbLine
10
758.730000000000
20
841.100000000000
30
0.0
11
760.380000000000
21
839.600000000000
31
0.0
0
LINE
5
67c
100
AcDbEntity
8
0-1_2_0
6
CONTINUOUS
62
4
100
AcDbLine
10
747.710000000000
20
889.690000000000
30
0.0
11
748.100000000000
21
890.280000000000
31
0.0
0
LINE
5
67d
100
AcDbEntity
8
0-1_2_0
6
CONTINUOUS
62
4
100
AcDbLine
10
748.100000000000
20
890.280000000000
30
0.0
11
747.640000000000
21
890.880000000000
31
0.0
0
LINE
5
67e
100
AcDbEntity
8
0-1_2_0
6
CONTINUOUS
62
4
100
AcDbLine
10
747.640000000000
20
890.880000000000
30
0.0
11
748.300000000000
21
891.460000000000
31
0.0
0
LINE
5
67f
100
AcDbEntity
8
0-1_2_0
6
CONTINUOUS
62
4
100
AcDbLine
10
748.300000000000
20
891.460000000000
30
0.0
11
749.330000000000
21
890.520000000000
31
0.0
0
LINE
5
680
100
AcDbEntity
8
0-1_2_0
6
CONTINUOUS
62
7
100
AcDbLine
10
788.970000000000
20
874.180000000000
30
0.0
11
821.120000000000
21
818.500000000000
31
0.0
0
LINE
5
681
100
AcDbEntity
8
0-1_2_0
6
CONTINUOUS
62
4
100
AcDbLine
10
691.300000000000
20
972.180000000000
30
0.0
11
838.390000000000
21
1001.600000000000
31
0.0
0
LINE
5
682
100
AcDbEntity
8
0-1_2_0
6
CONTINUOUS
62
7
100
AcDbLine
10
853.850000000000
20
923.970000000000
30
0.0
11
728.540000000000
21
901.770000000000
31
0.0
0
LINE
5
683
100
AcDbEntity
8
0-1_2_0
6
CONTINUOUS
62
7
100
AcDbLine
10
728.650000000000
20
901.180000000000
30
0.0
11
853.850000000000
21
923.360000000000
31
0.0
0
LINE
5
684
100
AcDbEntity
8
0-1_2_0
6
CONTINUOUS
62
7
100
AcDbLine
10
843.270000000000
20
919.820000000000
30
0.0
11
653.020000000000
21
881.770000000000
31
0.0
0
LINE
5
685
100
AcDbEntity
8
0-1_2_0
6
CONTINUOUS
62
7
100
AcDbLine
10
847.130000000000
20
898.460000000000
30
0.0
11
657.280000000000
21
860.490000000000
31
0.0
0
LINE
5
686
100
AcDbEntity
8
0-1_2_0
6
CONTINUOUS
62
7
100
AcDbLine
10
847.250000000000
20
897.870000000000
30
0.0
11
657.400000000000
21
859.900000000000
31
0.0
0
LINE
5
687
100
AcDbEntity
8
0-1_2_0
6
DOT
62
7
100
AcDbLine
10
848.370000000000
20
896.360000000000
30
0.0
11
657.730000000000
21
858.230000000000
31
0.0
0
LINE
5
688
100
AcDbEntity
8
0-1_2_0
6
DOT
62
7
100
AcDbLine
10
848.570000000000
20
895.890000000000
30
0.0
11
657.830000000000
21
857.740000000000
31
0.0
0
LINE
5
689
100
AcDbEntity
8
0-1_2_0
6
CONTINUOUS
62
3
100
AcDbLine
10
910.070000000000
20
758.940000000000
30
0.0
11
954.590000000000
21
750.040000000000
31
0.0
0
LINE
5
68a
100
AcDbEntity
8
0-1_2_0
6
CONTINUOUS
62
3
100
AcDbLine
10
954.590000000000
20
750.040000000000
30
0.0
11
973.300000000000
21
843.580000000000
31
0.0
0
LINE
5
68b
100
AcDbEntity
8
0-1_2_0
6
CONTINUOUS
62
3
100
AcDbLine
10
929.230000000000
20
854.740000000000
30
0.0
11
973.750000000000
21
845.840000000000
31
0.0
0
LINE
5
68c
100
AcDbEntity
8
0-1_2_0
6
CONTINUOUS
62
3
100
AcDbLine
10
973.300000000000
20
843.580000000000
30
0.0
11
928.780000000000
21
852.490000000000
31
0.0
0
LINE
5
68d
100
AcDbEntity
8
0-1_2_0
6
CONTINUOUS
62
3
100
AcDbLine
10
923.060000000000
20
835.580000000000
30
0.0
11
926.530000000000
21
852.940000000000
31
0.0
0
LINE
5
68e
100
AcDbEntity
8
0-1_2_0
6
CONTINUOUS
62
3
100
AcDbLine
10
928.780000000000
20
852.490000000000
30
0.0
11
925.310000000000
21
835.130000000000
31
0.0
0
LINE
5
68f
100
AcDbEntity
8
0-1_2_0
6
CONTINUOUS
62
3
100
AcDbLine
10
925.310000000000
20
835.130000000000
30
0.0
11
923.060000000000
21
835.580000000000
31
0.0
0
LINE
5
690
100
AcDbEntity
8
0-1_2_0
6
CONTINUOUS
62
3
100
AcDbLine
10
913.540000000000
20
776.300000000000
30
0.0
11
910.070000000000
21
758.940000000000
31
0.0
0
LINE
5
691
100
AcDbEntity
8
0-1_2_0
6
CONTINUOUS
62
3
100
AcDbLine
10
907.820000000000
20
759.390000000000
30
0.0
11
911.290000000000
21
776.750000000000
31
0.0
0
LINE
5
692
100
AcDbEntity
8
0-1_2_0
6
CONTINUOUS
62
3
100
AcDbLine
10
911.290000000000
20
776.750000000000
30
0.0
11
913.540000000000
21
776.300000000000
31
0.0
0
LINE
5
693
100
AcDbEntity
8
0-1_2_0
6
CONTINUOUS
62
3
100
AcDbLine
10
954.140000000000
20
747.780000000000
30
0.0
11
909.620000000000
21
756.680000000000
31
0.0
0
LINE
5
694
100
AcDbEntity
8
0-1_2_0
6
CONTINUOUS
62
4
100
AcDbLine
10
961.790000000000
20
876.280000000000
30
0.0
11
951.980000000000
21
878.240000000000
31
0.0
0
LINE
5
695
100
AcDbEntity
8
0-1_2_0
6
CONTINUOUS
62
4
100
AcDbLine
10
959.930000000000
20
877.160000000000
30
0.0
11
954.040000000000
21
878.340000000000
31
0.0
0
LINE
5
696
100
AcDbEntity
8
0-1_2_0
6
CONTINUOUS
62
4
100
AcDbLine
10
951.980000000000
20
878.240000000000
30
0.0
11
951.900000000000
21
877.850000000000
31
0.0
0
LINE
5
697
100
AcDbEntity
8
0-1_2_0
6
CONTINUOUS
62
4
100
AcDbLine
10
954.040000000000
20
878.340000000000
30
0.0
11
952.470000000000
21
878.140000000000
31
0.0
0
LINE
5
698
100
AcDbEntity
8
0-1_2_0
6
CONTINUOUS
62
4
100
AcDbLine
10
952.400000000000
20
867.070000000000
30
0.0
11
957.260000000000
21
866.910000000000
31
0.0
0
LINE
5
699
100
AcDbEntity
8
0-1_2_0
6
CONTINUOUS
62
4
100
AcDbLine
10
952.090000000000
20
865.500000000000
30
0.0
11
956.950000000000
21
865.340000000000
31
0.0
0
LINE
5
69a
100
AcDbEntity
8
0-1_2_0
6
CONTINUOUS
62
4
100
AcDbLine
10
951.770000000000
20
863.930000000000
30
0.0
11
956.640000000000
21
863.770000000000
31
0.0
0
LINE
5
69b
100
AcDbEntity
8
0-1_2_0
6
CONTINUOUS
62
4
100
AcDbLine
10
952.710000000000
20
868.640000000000
30
0.0
11
957.580000000000
21
868.480000000000
31
0.0
0
LINE
5
69c
100
AcDbEntity
8
0-1_2_0
6
CONTINUOUS
62
4
100
AcDbLine
10
961.790000000000
20
876.280000000000
30
0.0
11
961.710000000000
21
875.880000000000
31
0.0
0
LINE
5
69d
100
AcDbEntity
8
0-1_2_0
6
CONTINUOUS
62
4
100
AcDbLine
10
959.930000000000
20
877.160000000000
30
0.0
11
961.300000000000
21
876.370000000000
31
0.0
0
LINE
5
69e
100
AcDbEntity
8
0-1_2_0
6
CONTINUOUS
62
4
100
AcDbLine
10
951.140000000000
20
860.790000000000
30
0.0
11
956.010000000000
21
860.630000000000
31
0.0
0
LINE
5
69f
100
AcDbEntity
8
0-1_2_0
6
CONTINUOUS
62
4
100
AcDbLine
10
951.460000000000
20
862.360000000000
30
0.0
11
956.320000000000
21
862.200000000000
31
0.0
0
LINE
5
6a0
100
AcDbEntity
8
0-1_2_0
6
CONTINUOUS
62
4
100
AcDbLine
10
950.830000000000
20
859.220000000000
30
0.0
11
955.700000000000
21
859.070000000000
31
0.0
0
LINE
5
6a1
100
AcDbEntity
8
0-1_2_0
6
CONTINUOUS
62
4
100
AcDbLine
10
950.520000000000
20
857.650000000000
30
0.0
11
955.380000000000
21
857.500000000000
31
0.0
0
LINE
5
6a2
100
AcDbEntity
8
0-1_2_0
6
CONTINUOUS
62
4
100
AcDbLine
10
948.960000000000
20
837.640000000000
30
0.0
11
951.240000000000
21
838.820000000000
31
0.0
0
LINE
5
6a3
100
AcDbEntity
8
0-1_2_0
6
CONTINUOUS
62
4
100
AcDbLine
10
947.310000000000
20
839.600000000000
30
0.0
11
948.960000000000
21
837.640000000000
31
0.0
0
LINE
5
6a4
100
AcDbEntity
8
0-1_2_0
6
CONTINUOUS
62
4
100
AcDbLine
10
961.710000000000
20
875.880000000000
30
0.0
11
951.900000000000
21
877.850000000000
31
0.0
0
LINE
5
6a5
100
AcDbEntity
8
0-1_2_0
6
CONTINUOUS
62
4
100
AcDbLine
10
953.340000000000
20
871.770000000000
30
0.0
11
958.210000000000
21
871.620000000000
31
0.0
0
LINE
5
6a6
100
AcDbEntity
8
0-1_2_0
6
CONTINUOUS
62
4
100
AcDbLine
10
953.030000000000
20
870.210000000000
30
0.0
11
957.890000000000
21
870.050000000000
31
0.0
0
LINE
5
6a7
100
AcDbEntity
8
0-1_2_0
6
CONTINUOUS
62
4
100
AcDbLine
10
953.660000000000
20
873.340000000000
30
0.0
11
958.520000000000
21
873.190000000000
31
0.0
0
LINE
5
6a8
100
AcDbEntity
8
0-1_2_0
6
CONTINUOUS
62
4
100
AcDbLine
10
950.200000000000
20
856.080000000000
30
0.0
11
955.070000000000
21
855.930000000000
31
0.0
0
LINE
5
6a9
100
AcDbEntity
8
0-1_2_0
6
CONTINUOUS
62
4
100
AcDbLine
10
949.890000000000
20
854.520000000000
30
0.0
11
954.750000000000
21
854.360000000000
31
0.0
0
LINE
5
6aa
100
AcDbEntity
8
0-1_2_0
6
CONTINUOUS
62
4
100
AcDbLine
10
949.580000000000
20
852.950000000000
30
0.0
11
954.440000000000
21
852.790000000000
31
0.0
0
LINE
5
6ab
100
AcDbEntity
8
0-1_2_0
6
CONTINUOUS
62
4
100
AcDbLine
10
949.260000000000
20
851.380000000000
30
0.0
11
954.130000000000
21
851.220000000000
31
0.0
0
LINE
5
6ac
100
AcDbEntity
8
0-1_2_0
6
CONTINUOUS
62
4
100
AcDbLine
10
948.950000000000
20
849.810000000000
30
0.0
11
953.810000000000
21
849.650000000000
31
0.0
0
LINE
5
6ad
100
AcDbEntity
8
0-1_2_0
6
CONTINUOUS
62
4
100
AcDbLine
10
948.630000000000
20
848.240000000000
30
0.0
11
953.500000000000
21
848.080000000000
31
0.0
0
LINE
5
6ae
100
AcDbEntity
8
0-1_2_0
6
CONTINUOUS
62
4
100
AcDbLine
10
948.320000000000
20
846.670000000000
30
0.0
11
953.190000000000
21
846.510000000000
31
0.0
0
LINE
5
6af
100
AcDbEntity
8
0-1_2_0
6
CONTINUOUS
62
4
100
AcDbLine
10
948.010000000000
20
845.100000000000
30
0.0
11
952.870000000000
21
844.950000000000
31
0.0
0
LINE
5
6b0
100
AcDbEntity
8
0-1_2_0
6
CONTINUOUS
62
4
100
AcDbLine
10
947.690000000000
20
843.530000000000
30
0.0
11
952.560000000000
21
843.380000000000
31
0.0
0
LINE
5
6b1
100
AcDbEntity
8
0-1_2_0
6
CENTER2
62
4
100
AcDbLine
10
957.000000000000
20
877.850000000000
30
0.0
11
947.650000000000
21
831.100000000000
31
0.0
0
LINE
5
6b2
100
AcDbEntity
8
0-1_2_0
6
CONTINUOUS
62
4
100
AcDbLine
10
947.310000000000
20
839.600000000000
30
0.0
11
954.850000000000
21
877.260000000000
31
0.0
0
LINE
5
6b3
100
AcDbEntity
8
0-1_2_0
6
CONTINUOUS
62
4
100
AcDbLine
10
951.240000000000
20
838.820000000000
30
0.0
11
958.770000000000
21
876.470000000000
31
0.0
0
LINE
5
6b4
100
AcDbEntity
8
0-1_2_0
6
CONTINUOUS
62
4
100
AcDbLine
10
887.230000000000
20
863.140000000000
30
0.0
11
867.620000000000
21
892.560000000000
31
0.0
0
LINE
5
6b5
100
AcDbEntity
8
0-1_2_0
6
CONTINUOUS
62
4
100
AcDbLine
10
914.970000000000
20
857.600000000000
30
0.0
11
895.360000000000
21
887.010000000000
31
0.0
0
LINE
5
6b6
100
AcDbEntity
8
0-1_2_0
6
CONTINUOUS
62
4
100
AcDbLine
10
942.700000000000
20
852.050000000000
30
0.0
11
923.090000000000
21
881.470000000000
31
0.0
0
LINE
5
6b7
100
AcDbEntity
8
0-1_2_0
6
CONTINUOUS
62
4
100
AcDbLine
10
970.440000000000
20
846.500000000000
30
0.0
11
950.830000000000
21
875.920000000000
31
0.0
0
LINE
5
6b8
100
AcDbEntity
8
0-1_2_0
6
CONTINUOUS
62
4
100
AcDbLine
10
998.170000000000
20
840.950000000000
30
0.0
11
978.560000000000
21
870.370000000000
31
0.0
0
LINE
5
6b9
100
AcDbEntity
8
0-1_2_0
6
CONTINUOUS
62
4
100
AcDbLine
10
1025.910000000000
20
835.410000000000
30
0.0
11
1006.300000000000
21
864.820000000000
31
0.0
0
LINE
5
6ba
100
AcDbEntity
8
0-1_2_0
6
CONTINUOUS
62
4
100
AcDbLine
10
1046.450000000000
20
840.660000000000
30
0.0
11
1034.030000000000
21
859.280000000000
31
0.0
0
LINE
5
6bb
100
AcDbEntity
8
0-1_2_0
6
CONTINUOUS
62
4
100
AcDbLine
10
1046.520000000000
20
856.780000000000
30
0.0
11
1017.100000000000
21
837.170000000000
31
0.0
0
LINE
5
6bc
100
AcDbEntity
8
0-1_2_0
6
CONTINUOUS
62
4
100
AcDbLine
10
1018.780000000000
20
862.330000000000
30
0.0
11
989.360000000000
21
842.720000000000
31
0.0
0
LINE
5
6bd
100
AcDbEntity
8
0-1_2_0
6
CONTINUOUS
62
4
100
AcDbLine
10
991.050000000000
20
867.880000000000
30
0.0
11
961.630000000000
21
848.260000000000
31
0.0
0
LINE
5
6be
100
AcDbEntity
8
0-1_2_0
6
CONTINUOUS
62
4
100
AcDbLine
10
963.310000000000
20
873.420000000000
30
0.0
11
933.890000000000
21
853.810000000000
31
0.0
0
LINE
5
6bf
100
AcDbEntity
8
0-1_2_0
6
CONTINUOUS
62
4
100
AcDbLine
10
935.580000000000
20
878.970000000000
30
0.0
11
906.160000000000
21
859.360000000000
31
0.0
0
LINE
5
6c0
100
AcDbEntity
8
0-1_2_0
6
CONTINUOUS
62
4
100
AcDbLine
10
907.840000000000
20
884.520000000000
30
0.0
11
878.420000000000
21
864.900000000000
31
0.0
0
LINE
5
6c1
100
AcDbEntity
8
0-1_2_0
6
CONTINUOUS
62
3
100
AcDbLine
10
975.560000000000
20
843.130000000000
30
0.0
11
956.850000000000
21
749.590000000000
31
0.0
0
LINE
5
6c2
100
AcDbEntity
8
0-1_2_0
6
CONTINUOUS
62
7
100
AcDbLine
10
983.950000000000
20
897.140000000000
30
0.0
11
983.830000000000
21
896.550000000000
31
0.0
0
LINE
5
6c3
100
AcDbEntity
8
0-1_2_0
6
CONTINUOUS
62
7
100
AcDbLine
10
983.950000000000
20
897.140000000000
30
0.0
11
998.660000000000
21
894.190000000000
31
0.0
0
LINE
5
6c4
100
AcDbEntity
8
0-1_2_0
6
CONTINUOUS
62
7
100
AcDbLine
10
983.830000000000
20
896.550000000000
30
0.0
11
998.540000000000
21
893.610000000000
31
0.0
0
LINE
5
6c5
100
AcDbEntity
8
0-1_2_0
6
CONTINUOUS
62
7
100
AcDbLine
10
979.160000000000
20
898.710000000000
30
0.0
11
998.770000000000
21
894.780000000000
31
0.0
0
LINE
5
6c6
100
AcDbEntity
8
0-1_2_0
6
CONTINUOUS
62
7
100
AcDbLine
10
979.280000000000
20
899.290000000000
30
0.0
11
998.890000000000
21
895.370000000000
31
0.0
0
LINE
5
6c7
100
AcDbEntity
8
0-1_2_0
6
CONTINUOUS
62
7
100
AcDbLine
10
954.770000000000
20
904.200000000000
30
0.0
11
954.650000000000
21
903.610000000000
31
0.0
0
LINE
5
6c8
100
AcDbEntity
8
0-1_2_0
6
CONTINUOUS
62
7
100
AcDbLine
10
949.740000000000
20
904.590000000000
30
0.0
11
954.650000000000
21
903.610000000000
31
0.0
0
LINE
5
6c9
100
AcDbEntity
8
0-1_2_0
6
CONTINUOUS
62
7
100
AcDbLine
10
949.860000000000
20
905.180000000000
30
0.0
11
954.770000000000
21
904.200000000000
31
0.0
0
LINE
5
6ca
100
AcDbEntity
8
0-1_2_0
6
CONTINUOUS
62
7
100
AcDbLine
10
969.160000000000
20
900.090000000000
30
0.0
11
949.630000000000
21
904.000000000000
31
0.0
0
LINE
5
6cb
100
AcDbEntity
8
0-1_2_0
6
CONTINUOUS
62
7
100
AcDbLine
10
978.880000000000
20
899.980000000000
30
0.0
11
999.010000000000
21
895.960000000000
31
0.0
0
LINE
5
6cc
100
AcDbEntity
8
0-1_2_0
6
CONTINUOUS
62
7
100
AcDbLine
10
969.200000000000
20
899.490000000000
30
0.0
11
978.730000000000
21
900.000000000000
31
0.0
0
LINE
5
6cd
100
AcDbEntity
8
0-1_2_0
6
CONTINUOUS
62
7
100
AcDbLine
10
969.050000000000
20
899.500000000000
30
0.0
11
949.510000000000
21
903.410000000000
31
0.0
0
LINE
5
6ce
100
AcDbEntity
8
0-1_2_0
6
CONTINUOUS
62
7
100
AcDbLine
10
979.000000000000
20
900.570000000000
30
0.0
11
999.130000000000
21
896.550000000000
31
0.0
0
LINE
5
6cf
100
AcDbEntity
8
0-1_2_0
6
CONTINUOUS
62
7
100
AcDbLine
10
978.850000000000
20
900.580000000000
30
0.0
11
969.310000000000
21
900.080000000000
31
0.0
0
LINE
5
6d0
100
AcDbEntity
8
0-1_2_0
6
CONTINUOUS
62
4
100
AcDbLine
10
960.820000000000
20
890.030000000000
30
0.0
11
963.070000000000
21
901.310000000000
31
0.0
0
LINE
5
6d1
100
AcDbEntity
8
0-1_2_0
6
CONTINUOUS
62
4
100
AcDbLine
10
960.620000000000
20
901.800000000000
30
0.0
11
958.370000000000
21
890.520000000000
31
0.0
0
LINE
5
6d2
100
AcDbEntity
8
0-1_2_0
6
CONTINUOUS
62
4
100
AcDbLine
10
966.830000000000
20
900.970000000000
30
0.0
11
957.020000000000
21
902.930000000000
31
0.0
0
LINE
5
6d3
100
AcDbEntity
8
0-1_2_0
6
CONTINUOUS
62
4
100
AcDbLine
10
964.970000000000
20
901.850000000000
30
0.0
11
959.080000000000
21
903.030000000000
31
0.0
0
LINE
5
6d4
100
AcDbEntity
8
0-1_2_0
6
CONTINUOUS
62
4
100
AcDbLine
10
957.020000000000
20
902.930000000000
30
0.0
11
956.940000000000
21
902.540000000000
31
0.0
0
LINE
5
6d5
100
AcDbEntity
8
0-1_2_0
6
CONTINUOUS
62
4
100
AcDbLine
10
959.080000000000
20
903.030000000000
30
0.0
11
957.510000000000
21
902.830000000000
31
0.0
0
LINE
5
6d6
100
AcDbEntity
8
0-1_2_0
6
CONTINUOUS
62
4
100
AcDbLine
10
959.710000000000
20
898.500000000000
30
0.0
11
962.750000000000
21
898.400000000000
31
0.0
0
LINE
5
6d7
100
AcDbEntity
8
0-1_2_0
6
CONTINUOUS
62
4
100
AcDbLine
10
959.510000000000
20
897.520000000000
30
0.0
11
962.550000000000
21
897.420000000000
31
0.0
0
LINE
5
6d8
100
AcDbEntity
8
0-1_2_0
6
CONTINUOUS
62
4
100
AcDbLine
10
959.310000000000
20
896.540000000000
30
0.0
11
962.350000000000
21
896.440000000000
31
0.0
0
LINE
5
6d9
100
AcDbEntity
8
0-1_2_0
6
CONTINUOUS
62
4
100
AcDbLine
10
959.900000000000
20
899.480000000000
30
0.0
11
962.940000000000
21
899.380000000000
31
0.0
0
LINE
5
6da
100
AcDbEntity
8
0-1_2_0
6
CONTINUOUS
62
4
100
AcDbLine
10
966.830000000000
20
900.970000000000
30
0.0
11
966.750000000000
21
900.580000000000
31
0.0
0
LINE
5
6db
100
AcDbEntity
8
0-1_2_0
6
CONTINUOUS
62
4
100
AcDbLine
10
964.970000000000
20
901.850000000000
30
0.0
11
966.340000000000
21
901.070000000000
31
0.0
0
LINE
5
6dc
100
AcDbEntity
8
0-1_2_0
6
CONTINUOUS
62
4
100
AcDbLine
10
958.920000000000
20
894.570000000000
30
0.0
11
961.960000000000
21
894.480000000000
31
0.0
0
LINE
5
6dd
100
AcDbEntity
8
0-1_2_0
6
CONTINUOUS
62
4
100
AcDbLine
10
959.120000000000
20
895.560000000000
30
0.0
11
962.160000000000
21
895.460000000000
31
0.0
0
LINE
5
6de
100
AcDbEntity
8
0-1_2_0
6
CONTINUOUS
62
4
100
AcDbLine
10
958.730000000000
20
893.590000000000
30
0.0
11
961.770000000000
21
893.500000000000
31
0.0
0
LINE
5
6df
100
AcDbEntity
8
0-1_2_0
6
CONTINUOUS
62
4
100
AcDbLine
10
958.530000000000
20
892.610000000000
30
0.0
11
961.570000000000
21
892.520000000000
31
0.0
0
LINE
5
6e0
100
AcDbEntity
8
0-1_2_0
6
CONTINUOUS
62
4
100
AcDbLine
10
959.400000000000
20
889.300000000000
30
0.0
11
960.820000000000
21
890.030000000000
31
0.0
0
LINE
5
6e1
100
AcDbEntity
8
0-1_2_0
6
CONTINUOUS
62
4
100
AcDbLine
10
958.370000000000
20
890.520000000000
30
0.0
11
959.400000000000
21
889.300000000000
31
0.0
0
LINE
5
6e2
100
AcDbEntity
8
0-1_2_0
6
CONTINUOUS
62
4
100
AcDbLine
10
966.750000000000
20
900.580000000000
30
0.0
11
956.940000000000
21
902.540000000000
31
0.0
0
LINE
5
6e3
100
AcDbEntity
8
0-1_2_0
6
CONTINUOUS
62
7
100
AcDbLine
10
979.160000000000
20
901.760000000000
30
0.0
11
999.360000000000
21
897.720000000000
31
0.0
0
LINE
5
6e4
100
AcDbEntity
8
0-1_2_0
6
CONTINUOUS
62
7
100
AcDbLine
10
979.040000000000
20
901.180000000000
30
0.0
11
999.240000000000
21
897.140000000000
31
0.0
0
LINE
5
6e5
100
AcDbEntity
8
0-1_2_0
6
DOT
62
7
100
AcDbLine
10
858.850000000000
20
897.070000000000
30
0.0
11
859.180000000000
21
898.710000000000
31
0.0
0
LINE
5
6e6
100
AcDbEntity
8
0-1_2_0
6
DOT
62
7
100
AcDbLine
10
858.790000000000
20
899.840000000000
30
0.0
11
858.260000000000
21
897.190000000000
31
0.0
0
LINE
5
6e7
100
AcDbEntity
8
0-1_2_0
6
CONTINUOUS
62
4
100
AcDbLine
10
949.900000000000
20
838.270000000000
30
0.0
11
949.280000000000
21
839.210000000000
31
0.0
0
LINE
5
6e8
100
AcDbEntity
8
0-1_2_0
6
CONTINUOUS
62
4
100
AcDbLine
10
949.280000000000
20
839.210000000000
30
0.0
11
950.020000000000
21
840.180000000000
31
0.0
0
LINE
5
6e9
100
AcDbEntity
8
0-1_2_0
6
CONTINUOUS
62
4
100
AcDbLine
10
950.020000000000
20
840.180000000000
30
0.0
11
948.960000000000
21
841.100000000000
31
0.0
0
LINE
5
6ea
100
AcDbEntity
8
0-1_2_0
6
CONTINUOUS
62
4
100
AcDbLine
10
948.960000000000
20
841.100000000000
30
0.0
11
947.310000000000
21
839.600000000000
31
0.0
0
LINE
5
6eb
100
AcDbEntity
8
0-1_2_0
6
CONTINUOUS
62
4
100
AcDbLine
10
959.980000000000
20
889.690000000000
30
0.0
11
959.590000000000
21
890.280000000000
31
0.0
0
LINE
5
6ec
100
AcDbEntity
8
0-1_2_0
6
CONTINUOUS
62
4
100
AcDbLine
10
959.590000000000
20
890.280000000000
30
0.0
11
960.060000000000
21
890.880000000000
31
0.0
0
LINE
5
6ed
100
AcDbEntity
8
0-1_2_0
6
CONTINUOUS
62
4
100
AcDbLine
10
960.060000000000
20
890.880000000000
30
0.0
11
959.390000000000
21
891.460000000000
31
0.0
0
LINE
5
6ee
100
AcDbEntity
8
0-1_2_0
6
CONTINUOUS
62
4
100
AcDbLine
10
959.390000000000
20
891.460000000000
30
0.0
11
958.370000000000
21
890.520000000000
31
0.0
0
LINE
5
6ef
100
AcDbEntity
8
0-1_2_0
6
CONTINUOUS
62
7
100
AcDbLine
10
853.850000000000
20
923.970000000000
30
0.0
11
979.150000000000
21
901.770000000000
31
0.0
0
LINE
5
6f0
100
AcDbEntity
8
0-1_2_0
6
CONTINUOUS
62
7
100
AcDbLine
10
979.040000000000
20
901.180000000000
30
0.0
11
853.850000000000
21
923.360000000000
31
0.0
0
LINE
5
6f1
100
AcDbEntity
8
0-1_2_0
6
CONTINUOUS
62
7
100
AcDbLine
10
864.420000000000
20
919.820000000000
30
0.0
11
1054.670000000000
21
881.770000000000
31
0.0
0
LINE
5
6f2
100
AcDbEntity
8
0-1_2_0
6
DASHED
62
7
100
AcDbLine
10
855.610000000000
20
895.980000000000
30
0.0
11
1049.750000000000
21
857.160000000000
31
0.0
0
LINE
5
6f3
100
AcDbEntity
8
0-1_2_0
6
CENTER2
62
4
100
AcDbLine
10
853.850000000000
20
843.370000000000
30
0.0
11
853.850000000000
21
1006.160000000000
31
0.0
0
LINE
5
6f4
100
AcDbEntity
8
0-1_2_0
6
CENTER2
62
4
100
AcDbLine
10
853.850000000000
20
751.390000000000
30
0.0
11
853.850000000000
21
795.180000000000
31
0.0
0
LINE
5
6f5
100
AcDbEntity
8
0-1_2_0
6
CENTER2
62
4
100
AcDbLine
10
853.850000000000
20
814.100000000000
30
0.0
11
853.850000000000
21
828.380000000000
31
0.0
0
LINE
5
6f6
100
AcDbEntity
8
0-1_2_0
6
CONTINUOUS
62
4
100
AcDbLine
10
844.860000000000
20
969.240000000000
30
0.0
11
838.390000000000
21
1001.600000000000
31
0.0
0
LINE
5
6f7
100
AcDbEntity
8
0-1_2_0
6
CONTINUOUS
62
4
100
AcDbLine
10
697.770000000000
20
939.820000000000
30
0.0
11
691.300000000000
21
972.180000000000
31
0.0
0
LINE
5
6f8
100
AcDbEntity
8
0-1_2_0
6
CONTINUOUS
62
4
100
AcDbLine
10
1016.390000000000
20
972.180000000000
30
0.0
11
869.300000000000
21
1001.600000000000
31
0.0
0
LINE
5
6f9
100
AcDbEntity
8
0-1_2_0
6
CONTINUOUS
62
4
100
AcDbLine
10
862.830000000000
20
969.240000000000
30
0.0
11
869.300000000000
21
1001.600000000000
31
0.0
0
LINE
5
6fa
100
AcDbEntity
8
0-1_2_0
6
CONTINUOUS
62
4
100
AcDbLine
10
1009.920000000000
20
939.820000000000
30
0.0
11
1016.390000000000
21
972.180000000000
31
0.0
0
LINE
5
6fb
100
AcDbEntity
8
0-00
6
CONTINUOUS
62
4
100
AcDbLine
10
555.110000000000
20
947.710000000000
30
0.0
11
564.070000000000
21
956.670000000000
31
0.0
0
LINE
5
6fc
100
AcDbEntity
8
0-00
6
CONTINUOUS
62
3
100
AcDbLine
10
564.070000000000
20
847.710000000000
30
0.0
11
71.070000000000
21
847.710000000000
31
0.0
0
LINE
5
6fd
100
AcDbEntity
8
0-00
6
CONTINUOUS
62
3
100
AcDbLine
10
564.070000000000
20
867.710000000000
30
0.0
11
71.070000000000
21
867.710000000000
31
0.0
0
LINE
5
6fe
100
AcDbEntity
8
0-00
6
CONTINUOUS
62
3
100
AcDbLine
10
564.070000000000
20
927.710000000000
30
0.0
11
71.070000000000
21
927.710000000000
31
0.0
0
LINE
5
6ff
100
AcDbEntity
8
0-00
6
CONTINUOUS
62
3
100
AcDbLine
10
71.070000000000
20
947.710000000000
30
0.0
11
126.570000000000
21
947.710000000000
31
0.0
0
LINE
5
700
100
AcDbEntity
8
0-00
6
CONTINUOUS
62
4
100
AcDbLine
10
71.070000000000
20
958.640000000000
30
0.0
11
80.130000000000
21
967.710000000000
31
0.0
0
LINE
5
701
100
AcDbEntity
8
0-00
6
CONTINUOUS
62
3
100
AcDbLine
10
317.570000000000
20
967.710000000000
30
0.0
11
71.070000000000
21
967.710000000000
31
0.0
0
LINE
5
702
100
AcDbEntity
8
0-00
6
CONTINUOUS
62
3
100
AcDbLine
10
317.570000000000
20
967.710000000000
30
0.0
11
564.070000000000
21
967.710000000000
31
0.0
0
LINE
5
703
100
AcDbEntity
8
0-00
6
CONTINUOUS
62
3
100
AcDbLine
10
317.570000000000
20
947.710000000000
30
0.0
11
564.070000000000
21
947.710000000000
31
0.0
0
LINE
5
704
100
AcDbEntity
8
0-4_2_3
6
CENTER2
62
4
100
AcDbLine
10
871.710000000000
20
380.810000000000
30
0.0
11
871.710000000000
21
447.780000000000
31
0.0
0
LINE
5
705
100
AcDbEntity
8
0-4_2_3
6
CONTINUOUS
62
7
100
AcDbLine
10
902.550000000000
20
397.450000000000
30
0.0
11
934.360000000000
21
342.370000000000
31
0.0
0
LINE
5
706
100
AcDbEntity
8
0-5_2_4
6
CONTINUOUS
62
4
100
AcDbLine
10
1363.260000000000
20
324.610000000000
30
0.0
11
1388.260000000000
21
349.610000000000
31
0.0
0
LINE
5
707
100
AcDbEntity
8
0-5_2_4
6
CONTINUOUS
62
4
100
AcDbLine
10
1334.980000000000
20
324.610000000000
30
0.0
11
1359.980000000000
21
349.610000000000
31
0.0
0
LINE
5
708
100
AcDbEntity
8
0-5_2_4
6
CONTINUOUS
62
4
100
AcDbLine
10
1306.700000000000
20
324.610000000000
30
0.0
11
1331.700000000000
21
349.610000000000
31
0.0
0
LINE
5
709
100
AcDbEntity
8
0-5_2_4
6
CONTINUOUS
62
4
100
AcDbLine
10
1278.410000000000
20
324.610000000000
30
0.0
11
1303.410000000000
21
349.610000000000
31
0.0
0
LINE
5
70a
100
AcDbEntity
8
0-5_2_4
6
CONTINUOUS
62
4
100
AcDbLine
10
1250.130000000000
20
324.610000000000
30
0.0
11
1275.130000000000
21
349.610000000000
31
0.0
0
LINE
5
70b
100
AcDbEntity
8
0-5_2_4
6
CONTINUOUS
62
4
100
AcDbLine
10
1221.840000000000
20
324.610000000000
30
0.0
11
1246.840000000000
21
349.610000000000
31
0.0
0
LINE
5
70c
100
AcDbEntity
8
0-5_2_4
6
CONTINUOUS
62
4
100
AcDbLine
10
1202.730000000000
20
333.790000000000
30
0.0
11
1218.560000000000
21
349.610000000000
31
0.0
0
LINE
5
70d
100
AcDbEntity
8
0-5_2_4
6
CONTINUOUS
62
4
100
AcDbLine
10
1205.830000000000
20
349.610000000000
30
0.0
11
1230.830000000000
21
324.610000000000
31
0.0
0
LINE
5
70e
100
AcDbEntity
8
0-5_2_4
6
CONTINUOUS
62
4
100
AcDbLine
10
1234.110000000000
20
349.610000000000
30
0.0
11
1259.110000000000
21
324.610000000000
31
0.0
0
LINE
5
70f
100
AcDbEntity
8
0-5_2_4
6
CONTINUOUS
62
4
100
AcDbLine
10
1262.400000000000
20
349.610000000000
30
0.0
11
1287.400000000000
21
324.610000000000
31
0.0
0
LINE
5
710
100
AcDbEntity
8
0-5_2_4
6
CONTINUOUS
62
4
100
AcDbLine
10
1290.680000000000
20
349.610000000000
30
0.0
11
1315.680000000000
21
324.610000000000
31
0.0
0
LINE
5
711
100
AcDbEntity
8
0-5_2_4
6
CONTINUOUS
62
4
100
AcDbLine
10
1318.960000000000
20
349.610000000000
30
0.0
11
1343.960000000000
21
324.610000000000
31
0.0
0
LINE
5
712
100
AcDbEntity
8
0-5_2_4
6
CONTINUOUS
62
4
100
AcDbLine
10
1347.250000000000
20
349.610000000000
30
0.0
11
1372.250000000000
21
324.610000000000
31
0.0
0
LINE
5
713
100
AcDbEntity
8
0-5_2_4
6
CONTINUOUS
62
3
100
AcDbLine
10
1477.350000000000
20
375.710000000000
30
0.0
11
1417.350000000000
21
375.710000000000
31
0.0
0
LINE
5
714
100
AcDbEntity
8
0-5_2_4
6
CONTINUOUS
62
3
100
AcDbLine
10
1481.650000000000
20
441.910000000000
30
0.0
11
1481.650000000000
21
487.310000000000
31
0.0
0
LINE
5
715
100
AcDbEntity
8
0-5_2_4
6
CONTINUOUS
62
3
100
AcDbLine
10
1577.050000000000
20
489.610000000000
30
0.0
11
1481.650000000000
21
489.610000000000
31
0.0
0
LINE
5
716
100
AcDbEntity
8
0-5_2_4
6
CONTINUOUS
62
3
100
AcDbLine
10
1481.650000000000
20
487.310000000000
30
0.0
11
1577.050000000000
21
487.310000000000
31
0.0
0
LINE
5
717
100
AcDbEntity
8
0-5_2_4
6
CONTINUOUS
62
3
100
AcDbLine
10
1579.350000000000
20
441.910000000000
30
0.0
11
1579.350000000000
21
487.310000000000
31
0.0
0
LINE
5
718
100
AcDbEntity
8
0-5_2_4
6
CONTINUOUS
62
3
100
AcDbLine
10
1577.050000000000
20
487.310000000000
30
0.0
11
1577.050000000000
21
441.910000000000
31
0.0
0
LINE
5
719
100
AcDbEntity
8
0-5_2_4
6
CONTINUOUS
62
3
100
AcDbLine
10
1559.350000000000
20
439.610000000000
30
0.0
11
1577.050000000000
21
439.610000000000
31
0.0
0
LINE
5
71a
100
AcDbEntity
8
0-5_2_4
6
CONTINUOUS
62
3
100
AcDbLine
10
1577.050000000000
20
441.910000000000
30
0.0
11
1559.350000000000
21
441.910000000000
31
0.0
0
LINE
5
71b
100
AcDbEntity
8
0-5_2_4
6
CONTINUOUS
62
3
100
AcDbLine
10
1559.350000000000
20
441.910000000000
30
0.0
11
1559.350000000000
21
439.610000000000
31
0.0
0
LINE
5
71c
100
AcDbEntity
8
0-5_2_4
6
CONTINUOUS
62
3
100
AcDbLine
10
1499.350000000000
20
441.910000000000
30
0.0
11
1481.650000000000
21
441.910000000000
31
0.0
0
LINE
5
71d
100
AcDbEntity
8
0-5_2_4
6
CONTINUOUS
62
3
100
AcDbLine
10
1481.650000000000
20
439.610000000000
30
0.0
11
1499.350000000000
21
439.610000000000
31
0.0
0
LINE
5
71e
100
AcDbEntity
8
0-5_2_4
6
CONTINUOUS
62
3
100
AcDbLine
10
1499.350000000000
20
439.610000000000
30
0.0
11
1499.350000000000
21
441.910000000000
31
0.0
0
LINE
5
71f
100
AcDbEntity
8
0-5_2_4
6
CONTINUOUS
62
3
100
AcDbLine
10
1479.350000000000
20
487.310000000000
30
0.0
11
1479.350000000000
21
441.910000000000
31
0.0
0
LINE
5
720
100
AcDbEntity
8
0-5_2_4
6
CONTINUOUS
62
4
100
AcDbLine
10
1459.350000000000
20
411.740000000000
30
0.0
11
1474.350000000000
21
426.740000000000
31
0.0
0
LINE
5
721
100
AcDbEntity
8
0-5_2_4
6
CONTINUOUS
62
4
100
AcDbLine
10
1459.350000000000
20
414.570000000000
30
0.0
11
1474.350000000000
21
429.570000000000
31
0.0
0
LINE
5
722
100
AcDbEntity
8
0-5_2_4
6
CONTINUOUS
62
4
100
AcDbLine
10
1459.350000000000
20
440.020000000000
30
0.0
11
1474.350000000000
21
455.020000000000
31
0.0
0
LINE
5
723
100
AcDbEntity
8
0-5_2_4
6
CONTINUOUS
62
4
100
AcDbLine
10
1459.350000000000
20
442.850000000000
30
0.0
11
1474.350000000000
21
457.850000000000
31
0.0
0
LINE
5
724
100
AcDbEntity
8
0-5_2_4
6
CONTINUOUS
62
4
100
AcDbLine
10
1459.350000000000
20
468.310000000000
30
0.0
11
1474.350000000000
21
483.310000000000
31
0.0
0
LINE
5
725
100
AcDbEntity
8
0-5_2_4
6
CONTINUOUS
62
4
100
AcDbLine
10
1459.350000000000
20
471.130000000000
30
0.0
11
1474.350000000000
21
486.130000000000
31
0.0
0
LINE
5
726
100
AcDbEntity
8
0-5_2_4
6
CONTINUOUS
62
4
100
AcDbLine
10
1459.350000000000
20
496.590000000000
30
0.0
11
1474.350000000000
21
511.590000000000
31
0.0
0
LINE
5
727
100
AcDbEntity
8
0-5_2_4
6
CONTINUOUS
62
4
100
AcDbLine
10
1459.350000000000
20
499.420000000000
30
0.0
11
1474.350000000000
21
514.420000000000
31
0.0
0
LINE
5
728
100
AcDbEntity
8
0-5_2_4
6
CONTINUOUS
62
4
100
AcDbLine
10
1459.350000000000
20
524.870000000000
30
0.0
11
1462.740000000000
21
528.260000000000
31
0.0
0
LINE
5
729
100
AcDbEntity
8
0-5_2_4
6
CONTINUOUS
62
4
100
AcDbLine
10
1459.350000000000
20
527.700000000000
30
0.0
11
1459.910000000000
21
528.260000000000
31
0.0
0
LINE
5
72a
100
AcDbEntity
8
0-5_2_4
6
DASHED
62
7
100
AcDbLine
10
1478.350000000000
20
386.710000000000
30
0.0
11
1478.350000000000
21
485.410000000000
31
0.0
0
LINE
5
72b
100
AcDbEntity
8
0-5_2_4
6
CONTINUOUS
62
7
100
AcDbLine
10
1474.750000000000
20
380.510000000000
30
0.0
11
1398.850000000000
21
380.510000000000
31
0.0
0
LINE
5
72c
100
AcDbEntity
8
0-5_2_4
6
CONTINUOUS
62
3
100
AcDbLine
10
1479.350000000000
20
349.610000000000
30
0.0
11
1479.350000000000
21
324.610000000000
31
0.0
0
LINE
5
72d
100
AcDbEntity
8
0-5_2_4
6
CONTINUOUS
62
3
100
AcDbLine
10
1479.350000000000
20
324.610000000000
30
0.0
11
1202.730000000000
21
324.610000000000
31
0.0
0
LINE
5
72e
100
AcDbEntity
8
0-5_2_4
6
CONTINUOUS
62
4
100
AcDbLine
10
1391.550000000000
20
324.610000000000
30
0.0
11
1416.550000000000
21
349.610000000000
31
0.0
0
LINE
5
72f
100
AcDbEntity
8
0-5_2_4
6
CONTINUOUS
62
4
100
AcDbLine
10
1375.530000000000
20
349.610000000000
30
0.0
11
1400.530000000000
21
324.610000000000
31
0.0
0
LINE
5
730
100
AcDbEntity
8
0-5_2_4
6
CONTINUOUS
62
4
100
AcDbLine
10
1419.830000000000
20
324.610000000000
30
0.0
11
1444.830000000000
21
349.610000000000
31
0.0
0
LINE
5
731
100
AcDbEntity
8
0-5_2_4
6
CONTINUOUS
62
4
100
AcDbLine
10
1448.120000000000
20
324.610000000000
30
0.0
11
1473.120000000000
21
349.610000000000
31
0.0
0
LINE
5
732
100
AcDbEntity
8
0-5_2_4
6
CONTINUOUS
62
4
100
AcDbLine
10
1403.820000000000
20
349.610000000000
30
0.0
11
1428.820000000000
21
324.610000000000
31
0.0
0
LINE
5
733
100
AcDbEntity
8
0-5_2_4
6
CONTINUOUS
62
4
100
AcDbLine
10
1432.100000000000
20
349.610000000000
30
0.0
11
1457.100000000000
21
324.610000000000
31
0.0
0
LINE
5
734
100
AcDbEntity
8
0-5_2_4
6
CONTINUOUS
62
4
100
AcDbLine
10
1460.390000000000
20
349.610000000000
30
0.0
11
1479.350000000000
21
330.650000000000
31
0.0
0
LINE
5
735
100
AcDbEntity
8
0-5_2_4
6
CONTINUOUS
62
4
100
AcDbLine
10
1476.400000000000
20
324.610000000000
30
0.0
11
1479.350000000000
21
327.560000000000
31
0.0
0
LINE
5
736
100
AcDbEntity
8
0-5_2_4
6
CONTINUOUS
62
3
100
AcDbLine
10
1431.650000000000
20
226.910000000000
30
0.0
11
1477.050000000000
21
226.910000000000
31
0.0
0
LINE
5
737
100
AcDbEntity
8
0-5_2_4
6
CONTINUOUS
62
3
100
AcDbLine
10
1477.050000000000
20
226.910000000000
30
0.0
11
1477.050000000000
21
322.310000000000
31
0.0
0
LINE
5
738
100
AcDbEntity
8
0-5_2_4
6
CONTINUOUS
62
3
100
AcDbLine
10
1477.050000000000
20
322.310000000000
30
0.0
11
1431.650000000000
21
322.310000000000
31
0.0
0
LINE
5
739
100
AcDbEntity
8
0-5_2_4
6
CONTINUOUS
62
3
100
AcDbLine
10
1429.350000000000
20
304.610000000000
30
0.0
11
1429.350000000000
21
322.310000000000
31
0.0
0
LINE
5
73a
100
AcDbEntity
8
0-5_2_4
6
CONTINUOUS
62
3
100
AcDbLine
10
1431.650000000000
20
322.310000000000
30
0.0
11
1431.650000000000
21
304.610000000000
31
0.0
0
LINE
5
73b
100
AcDbEntity
8
0-5_2_4
6
CONTINUOUS
62
3
100
AcDbLine
10
1431.650000000000
20
304.610000000000
30
0.0
11
1429.350000000000
21
304.610000000000
31
0.0
0
LINE
5
73c
100
AcDbEntity
8
0-5_2_4
6
CONTINUOUS
62
3
100
AcDbLine
10
1431.650000000000
20
244.610000000000
30
0.0
11
1431.650000000000
21
226.910000000000
31
0.0
0
LINE
5
73d
100
AcDbEntity
8
0-5_2_4
6
CONTINUOUS
62
3
100
AcDbLine
10
1429.350000000000
20
226.910000000000
30
0.0
11
1429.350000000000
21
244.610000000000
31
0.0
0
LINE
5
73e
100
AcDbEntity
8
0-5_2_4
6
CONTINUOUS
62
3
100
AcDbLine
10
1429.350000000000
20
244.610000000000
30
0.0
11
1431.650000000000
21
244.610000000000
31
0.0
0
LINE
5
73f
100
AcDbEntity
8
0-5_2_4
6
CONTINUOUS
62
3
100
AcDbLine
10
1477.050000000000
20
224.610000000000
30
0.0
11
1431.650000000000
21
224.610000000000
31
0.0
0
LINE
5
740
100
AcDbEntity
8
0-5_2_4
6
CONTINUOUS
62
3
100
AcDbLine
10
1431.650000000000
20
324.610000000000
30
0.0
11
1479.350000000000
21
324.610000000000
31
0.0
0
LINE
5
741
100
AcDbEntity
8
0-5_2_4
6
CONTINUOUS
62
3
100
AcDbLine
10
1424.350000000000
20
224.610000000000
30
0.0
11
1424.350000000000
21
324.610000000000
31
0.0
0
LINE
5
742
100
AcDbEntity
8
0-5_2_4
6
CONTINUOUS
62
3
100
AcDbLine
10
1479.350000000000
20
485.410000000000
30
0.0
11
1479.350000000000
21
528.260000000000
31
0.0
0
LINE
5
743
100
AcDbEntity
8
0-5_2_4
6
CONTINUOUS
62
3
100
AcDbLine
10
1202.730000000000
20
304.610000000000
30
0.0
11
1424.350000000000
21
304.610000000000
31
0.0
0
LINE
5
744
100
AcDbEntity
8
0-5_2_4
6
CONTINUOUS
62
3
100
AcDbLine
10
1202.730000000000
20
244.610000000000
30
0.0
11
1424.350000000000
21
244.610000000000
31
0.0
0
LINE
5
745
100
AcDbEntity
8
0-5_2_4
6
CONTINUOUS
62
3
100
AcDbLine
10
1202.730000000000
20
224.610000000000
30
0.0
11
1424.350000000000
21
224.610000000000
31
0.0
0
LINE
5
746
100
AcDbEntity
8
0-5_2_4
6
CONTINUOUS
62
7
100
AcDbLine
10
1358.100000000000
20
334.060000000000
30
0.0
11
1369.640000000000
21
314.060000000000
31
0.0
0
LINE
5
747
100
AcDbEntity
8
0-5_2_4
6
CONTINUOUS
62
7
100
AcDbLine
10
1474.750000000000
20
379.910000000000
30
0.0
11
1398.850000000000
21
379.910000000000
31
0.0
0
LINE
5
748
100
AcDbEntity
8
0-5_2_4
6
CONTINUOUS
62
3
100
AcDbLine
10
1479.350000000000
20
324.610000000000
30
0.0
11
1479.350000000000
21
226.910000000000
31
0.0
0
LINE
5
749
100
AcDbEntity
8
0-5_2_4
6
CONTINUOUS
62
3
100
AcDbLine
10
1479.350000000000
20
322.310000000000
30
0.0
11
1479.350000000000
21
226.910000000000
31
0.0
0
LINE
5
74a
100
AcDbEntity
8
0-5_2_4
6
CONTINUOUS
62
7
100
AcDbLine
10
1422.390000000000
20
487.290000000000
30
0.0
11
1427.290000000000
21
478.800000000000
31
0.0
0
LINE
5
74b
100
AcDbEntity
8
0-5_2_4
6
CONTINUOUS
62
7
100
AcDbLine
10
1427.290000000000
20
478.800000000000
30
0.0
11
1459.350000000000
21
478.800000000000
31
0.0
0
LINE
5
74c
100
AcDbEntity
8
0-5_2_4
6
DASHED
62
7
100
AcDbLine
10
1478.350000000000
20
386.710000000000
30
0.0
11
1478.350000000000
21
350.110000000000
31
0.0
0
LINE
5
74d
100
AcDbEntity
8
0-5_2_4
6
CONTINUOUS
62
3
100
AcDbLine
10
1477.350000000000
20
351.610000000000
30
0.0
11
1417.350000000000
21
351.610000000000
31
0.0
0
LINE
5
74e
100
AcDbEntity
8
0-5_2_4
6
CONTINUOUS
62
4
100
AcDbLine
10
1485.500000000000
20
349.610000000000
30
0.0
11
1527.440000000000
21
349.610000000000
31
0.0
0
LINE
5
74f
100
AcDbEntity
8
0-5_2_4
6
CONTINUOUS
62
4
100
AcDbLine
10
1527.440000000000
20
489.610000000000
30
0.0
11
1527.440000000000
21
349.610000000000
31
0.0
0
LINE
5
750
100
AcDbEntity
8
0-5_2_4
6
CONTINUOUS
62
7
100
AcDbLine
10
1347.230000000000
20
351.210000000000
30
0.0
11
1412.750000000000
21
351.210000000000
31
0.0
0
LINE
5
751
100
AcDbEntity
8
0-5_2_4
6
CONTINUOUS
62
7
100
AcDbLine
10
1347.230000000000
20
350.610000000000
30
0.0
11
1412.750000000000
21
350.610000000000
31
0.0
0
LINE
5
752
100
AcDbEntity
8
0-5_2_4
6
DASHED
62
7
100
AcDbLine
10
1478.350000000000
20
350.110000000000
30
0.0
11
1202.730000000000
21
350.110000000000
31
0.0
0
LINE
5
753
100
AcDbEntity
8
0-5_2_4
6
CONTINUOUS
62
7
100
AcDbLine
10
1248.150000000000
20
350.110000000000
30
0.0
11
1280.080000000000
21
294.810000000000
31
0.0
0
LINE
5
754
100
AcDbEntity
8
0-5_2_4
6
DASHED
62
7
100
AcDbLine
10
1361.790000000000
20
350.360000000000
30
0.0
11
1414.350000000000
21
350.360000000000
31
0.0
0
LINE
5
755
100
AcDbEntity
8
0-5_2_4
6
CONTINUOUS
62
7
100
AcDbLine
10
1403.110000000000
20
376.910000000000
30
0.0
11
1403.110000000000
21
376.310000000000
31
0.0
0
LINE
5
756
100
AcDbEntity
8
0-5_2_4
6
CONTINUOUS
62
7
100
AcDbLine
10
1403.110000000000
20
376.910000000000
30
0.0
11
1388.110000000000
21
376.910000000000
31
0.0
0
LINE
5
757
100
AcDbEntity
8
0-5_2_4
6
CONTINUOUS
62
7
100
AcDbLine
10
1403.110000000000
20
376.310000000000
30
0.0
11
1388.110000000000
21
376.310000000000
31
0.0
0
LINE
5
758
100
AcDbEntity
8
0-5_2_4
6
CONTINUOUS
62
7
100
AcDbLine
10
1408.110000000000
20
378.110000000000
30
0.0
11
1388.110000000000
21
378.110000000000
31
0.0
0
LINE
5
759
100
AcDbEntity
8
0-5_2_4
6
CONTINUOUS
62
7
100
AcDbLine
10
1433.110000000000
20
378.110000000000
30
0.0
11
1433.110000000000
21
377.510000000000
31
0.0
0
LINE
5
75a
100
AcDbEntity
8
0-5_2_4
6
CONTINUOUS
62
7
100
AcDbLine
10
1438.110000000000
20
377.510000000000
30
0.0
11
1433.110000000000
21
377.510000000000
31
0.0
0
LINE
5
75b
100
AcDbEntity
8
0-5_2_4
6
CONTINUOUS
62
7
100
AcDbLine
10
1438.110000000000
20
378.110000000000
30
0.0
11
1433.110000000000
21
378.110000000000
31
0.0
0
LINE
5
75c
100
AcDbEntity
8
0-5_2_4
6
CONTINUOUS
62
7
100
AcDbLine
10
1418.190000000000
20
376.910000000000
30
0.0
11
1438.110000000000
21
376.910000000000
31
0.0
0
LINE
5
75d
100
AcDbEntity
8
0-5_2_4
6
CONTINUOUS
62
7
100
AcDbLine
10
1408.640000000000
20
378.710000000000
30
0.0
11
1388.110000000000
21
378.710000000000
31
0.0
0
LINE
5
75e
100
AcDbEntity
8
0-5_2_4
6
CONTINUOUS
62
7
100
AcDbLine
10
1418.040000000000
20
376.330000000000
30
0.0
11
1408.780000000000
21
378.690000000000
31
0.0
0
LINE
5
75f
100
AcDbEntity
8
0-5_2_4
6
CONTINUOUS
62
7
100
AcDbLine
10
1418.190000000000
20
376.310000000000
30
0.0
11
1438.110000000000
21
376.310000000000
31
0.0
0
LINE
5
760
100
AcDbEntity
8
0-5_2_4
6
CONTINUOUS
62
7
100
AcDbLine
10
1408.640000000000
20
379.310000000000
30
0.0
11
1388.110000000000
21
379.310000000000
31
0.0
0
LINE
5
761
100
AcDbEntity
8
0-5_2_4
6
CONTINUOUS
62
7
100
AcDbLine
10
1408.780000000000
20
379.290000000000
30
0.0
11
1418.040000000000
21
376.930000000000
31
0.0
0
LINE
5
762
100
AcDbEntity
8
0-5_2_4
6
CONTINUOUS
62
4
100
AcDbLine
10
1424.400000000000
20
365.410000000000
30
0.0
11
1424.400000000000
21
376.910000000000
31
0.0
0
LINE
5
763
100
AcDbEntity
8
0-5_2_4
6
CONTINUOUS
62
4
100
AcDbLine
10
1426.900000000000
20
376.910000000000
30
0.0
11
1426.900000000000
21
365.410000000000
31
0.0
0
LINE
5
764
100
AcDbEntity
8
0-5_2_4
6
CONTINUOUS
62
4
100
AcDbLine
10
1420.650000000000
20
377.310000000000
30
0.0
11
1430.650000000000
21
377.310000000000
31
0.0
0
LINE
5
765
100
AcDbEntity
8
0-5_2_4
6
CONTINUOUS
62
4
100
AcDbLine
10
1422.650000000000
20
377.810000000000
30
0.0
11
1428.650000000000
21
377.810000000000
31
0.0
0
LINE
5
766
100
AcDbEntity
8
0-5_2_4
6
CONTINUOUS
62
4
100
AcDbLine
10
1430.650000000000
20
377.310000000000
30
0.0
11
1430.650000000000
21
376.910000000000
31
0.0
0
LINE
5
767
100
AcDbEntity
8
0-5_2_4
6
CONTINUOUS
62
4
100
AcDbLine
10
1428.650000000000
20
377.810000000000
30
0.0
11
1430.150000000000
21
377.310000000000
31
0.0
0
LINE
5
768
100
AcDbEntity
8
0-5_2_4
6
CONTINUOUS
62
4
100
AcDbLine
10
1427.150000000000
20
373.490000000000
30
0.0
11
1424.150000000000
21
373.990000000000
31
0.0
0
LINE
5
769
100
AcDbEntity
8
0-5_2_4
6
CONTINUOUS
62
4
100
AcDbLine
10
1427.150000000000
20
372.490000000000
30
0.0
11
1424.150000000000
21
372.990000000000
31
0.0
0
LINE
5
76a
100
AcDbEntity
8
0-5_2_4
6
CONTINUOUS
62
4
100
AcDbLine
10
1427.150000000000
20
371.490000000000
30
0.0
11
1424.150000000000
21
371.990000000000
31
0.0
0
LINE
5
76b
100
AcDbEntity
8
0-5_2_4
6
CONTINUOUS
62
4
100
AcDbLine
10
1427.150000000000
20
374.490000000000
30
0.0
11
1424.150000000000
21
374.990000000000
31
0.0
0
LINE
5
76c
100
AcDbEntity
8
0-5_2_4
6
CONTINUOUS
62
4
100
AcDbLine
10
1420.650000000000
20
377.310000000000
30
0.0
11
1420.650000000000
21
376.910000000000
31
0.0
0
LINE
5
76d
100
AcDbEntity
8
0-5_2_4
6
CONTINUOUS
62
4
100
AcDbLine
10
1422.650000000000
20
377.810000000000
30
0.0
11
1421.150000000000
21
377.310000000000
31
0.0
0
LINE
5
76e
100
AcDbEntity
8
0-5_2_4
6
CONTINUOUS
62
4
100
AcDbLine
10
1427.150000000000
20
369.490000000000
30
0.0
11
1424.150000000000
21
369.990000000000
31
0.0
0
LINE
5
76f
100
AcDbEntity
8
0-5_2_4
6
CONTINUOUS
62
4
100
AcDbLine
10
1427.150000000000
20
370.490000000000
30
0.0
11
1424.150000000000
21
370.990000000000
31
0.0
0
LINE
5
770
100
AcDbEntity
8
0-5_2_4
6
CONTINUOUS
62
4
100
AcDbLine
10
1427.150000000000
20
368.490000000000
30
0.0
11
1424.150000000000
21
368.990000000000
31
0.0
0
LINE
5
771
100
AcDbEntity
8
0-5_2_4
6
CONTINUOUS
62
4
100
AcDbLine
10
1427.150000000000
20
367.490000000000
30
0.0
11
1424.150000000000
21
367.990000000000
31
0.0
0
LINE
5
772
100
AcDbEntity
8
0-5_2_4
6
CONTINUOUS
62
4
100
AcDbLine
10
1425.650000000000
20
364.410000000000
30
0.0
11
1424.400000000000
21
365.410000000000
31
0.0
0
LINE
5
773
100
AcDbEntity
8
0-5_2_4
6
CONTINUOUS
62
4
100
AcDbLine
10
1426.900000000000
20
365.410000000000
30
0.0
11
1425.650000000000
21
364.410000000000
31
0.0
0
LINE
5
774
100
AcDbEntity
8
0-5_2_4
6
CONTINUOUS
62
4
100
AcDbLine
10
1420.650000000000
20
376.910000000000
30
0.0
11
1430.650000000000
21
376.910000000000
31
0.0
0
LINE
5
775
100
AcDbEntity
8
0-5_2_4
6
CONTINUOUS
62
7
100
AcDbLine
10
1408.710000000000
20
380.510000000000
30
0.0
11
1388.110000000000
21
380.510000000000
31
0.0
0
LINE
5
776
100
AcDbEntity
8
0-5_2_4
6
CONTINUOUS
62
7
100
AcDbLine
10
1408.710000000000
20
379.910000000000
30
0.0
11
1388.110000000000
21
379.910000000000
31
0.0
0
LINE
5
777
100
AcDbEntity
8
0-5_2_4
6
CONTINUOUS
62
7
100
AcDbLine
10
1409.860000000000
20
356.570000000000
30
0.0
11
1413.300000000000
21
364.670000000000
31
0.0
0
LINE
5
778
100
AcDbEntity
8
0-5_2_4
6
CONTINUOUS
62
7
100
AcDbLine
10
1413.300000000000
20
364.670000000000
30
0.0
11
1413.850000000000
21
364.430000000000
31
0.0
0
LINE
5
779
100
AcDbEntity
8
0-5_2_4
6
CONTINUOUS
62
7
100
AcDbLine
10
1410.420000000000
20
356.340000000000
30
0.0
11
1413.850000000000
21
364.430000000000
31
0.0
0
LINE
5
77a
100
AcDbEntity
8
0-5_2_4
6
CONTINUOUS
62
4
100
AcDbLine
10
1425.150000000000
20
364.910000000000
30
0.0
11
1425.650000000000
21
365.410000000000
31
0.0
0
LINE
5
77b
100
AcDbEntity
8
0-5_2_4
6
CONTINUOUS
62
4
100
AcDbLine
10
1425.650000000000
20
365.410000000000
30
0.0
11
1425.310000000000
21
366.100000000000
31
0.0
0
LINE
5
77c
100
AcDbEntity
8
0-5_2_4
6
CONTINUOUS
62
4
100
AcDbLine
10
1425.310000000000
20
366.100000000000
30
0.0
11
1426.070000000000
21
366.530000000000
31
0.0
0
LINE
5
77d
100
AcDbEntity
8
0-5_2_4
6
CONTINUOUS
62
4
100
AcDbLine
10
1426.070000000000
20
366.530000000000
30
0.0
11
1426.900000000000
21
365.410000000000
31
0.0
0
LINE
5
77e
100
AcDbEntity
8
0-5_2_4
6
CONTINUOUS
62
7
100
AcDbLine
10
1459.350000000000
20
390.510000000000
30
0.0
11
1474.350000000000
21
390.510000000000
31
0.0
0
LINE
5
77f
100
AcDbEntity
8
0-5_2_4
6
CONTINUOUS
62
7
100
AcDbLine
10
1476.750000000000
20
382.510000000000
30
0.0
11
1476.750000000000
21
477.410000000000
31
0.0
0
LINE
5
780
100
AcDbEntity
8
0-5_2_4
6
CONTINUOUS
62
7
100
AcDbLine
10
1477.350000000000
20
382.510000000000
30
0.0
11
1477.350000000000
21
477.410000000000
31
0.0
0
LINE
5
781
100
AcDbEntity
8
0-2_2_1
6
CONTINUOUS
62
7
100
AcDbLine
10
1287.620000000000
20
890.770000000000
30
0.0
11
1315.320000000000
21
842.810000000000
31
0.0
0
LINE
5
782
100
AcDbEntity
8
0-2_2_1
6
CONTINUOUS
62
7
100
AcDbLine
10
1409.330000000000
20
903.800000000000
30
0.0
11
1432.120000000000
21
864.320000000000
31
0.0
0
LINE
5
783
100
AcDbEntity
8
0-2_2_1
6
CONTINUOUS
62
7
100
AcDbLine
10
1241.640000000000
20
854.380000000000
30
0.0
11
1255.710000000000
21
830.000000000000
31
0.0
0
LINE
5
784
100
AcDbEntity
8
0-2_2_1
6
CONTINUOUS
62
7
100
AcDbLine
10
1402.700000000000
20
950.530000000000
30
0.0
11
1408.570000000000
21
940.370000000000
31
0.0
0
LINE
5
785
100
AcDbEntity
8
0-2_2_1
6
CONTINUOUS
62
7
100
AcDbLine
10
1408.570000000000
20
940.370000000000
30
0.0
11
1438.980000000000
21
940.370000000000
31
0.0
0
LINE
5
786
100
AcDbEntity
8
0-2_2_1
6
CONTINUOUS
62
7
100
AcDbLine
10
1341.220000000000
20
921.980000000000
30
0.0
11
1374.240000000000
21
864.790000000000
31
0.0
0
LINE
5
787
100
AcDbEntity
8
0-1_2_0
6
CONTINUOUS
62
7
100
AcDbLine
10
783.210000000000
20
944.090000000000
30
0.0
11
800.300000000000
21
914.480000000000
31
0.0
0
LINE
5
788
100
AcDbEntity
8
0-1_2_0
6
CONTINUOUS
62
7
100
AcDbLine
10
651.090000000000
20
913.170000000000
30
0.0
11
671.290000000000
21
878.190000000000
31
0.0
0
LINE
5
789
100
AcDbEntity
8
0-1_2_0
6
CONTINUOUS
62
7
100
AcDbLine
10
890.870000000000
20
932.180000000000
30
0.0
11
878.480000000000
21
910.720000000000
31
0.0
0
LINE
5
78a
100
AcDbEntity
8
0-1_2_0
6
CONTINUOUS
62
7
100
AcDbLine
10
993.730000000000
20
918.920000000000
30
0.0
11
982.390000000000
21
899.280000000000
31
0.0
0
LINE
5
78b
100
AcDbEntity
8
0-5_2_4
6
CONTINUOUS
62
7
100
AcDbLine
10
1371.210000000000
20
418.820000000000
30
0.0
11
1394.020000000000
21
379.310000000000
31
0.0
0
LINE
5
78c
100
AcDbEntity
8
0-5_2_4
6
CONTINUOUS
62
7
100
AcDbLine
10
1396.630000000000
20
442.600000000000
30
0.0
11
1432.480000000000
21
380.510000000000
31
0.0
0
LINE
5
78d
100
AcDbEntity
8
0-5_2_4
6
CONTINUOUS
62
7
100
AcDbLine
10
1476.150000000000
20
468.340000000000
30
0.0
11
1476.150000000000
21
477.410000000000
31
0.0
0
LINE
5
78e
100
AcDbEntity
8
0-5_2_4
6
DASHED
62
7
100
AcDbLine
10
1474.950000000000
20
478.270000000000
30
0.0
11
1474.950000000000
21
467.900000000000
31
0.0
0
LINE
5
78f
100
AcDbEntity
8
0-5_2_4
6
DASHED
62
7
100
AcDbLine
10
1474.950000000000
20
467.900000000000
30
0.0
11
1475.550000000000
21
465.930000000000
31
0.0
0
LINE
5
790
100
AcDbEntity
8
0-5_2_4
6
DASHED
62
7
100
AcDbLine
10
1475.550000000000
20
465.930000000000
30
0.0
11
1475.550000000000
21
397.720000000000
31
0.0
0
LINE
5
791
100
AcDbEntity
8
0-5_2_4
6
CONTINUOUS
62
7
100
AcDbLine
10
1475.550000000000
20
468.340000000000
30
0.0
11
1475.550000000000
21
477.410000000000
31
0.0
0
LINE
5
792
100
AcDbEntity
8
0-5_2_4
6
CONTINUOUS
62
7
100
AcDbLine
10
1476.150000000000
20
468.340000000000
30
0.0
11
1475.550000000000
21
468.340000000000
31
0.0
0
LINE
5
793
100
AcDbEntity
8
0-2_2_1
6
CONTINUOUS
62
4
100
AcDbLine
10
1507.070000000000
20
978.900000000000
30
0.0
11
1507.070000000000
21
841.450000000000
31
0.0
0
LINE
5
794
100
AcDbEntity
8
0-2_2_1
6
CONTINUOUS
62
7
100
AcDbLine
10
1455.780000000000
20
967.530000000000
30
0.0
11
1455.780000000000
21
976.610000000000
31
0.0
0
LINE
5
795
100
AcDbEntity
8
0-2_2_1
6
DASHED
62
7
100
AcDbLine
10
1454.580000000000
20
977.460000000000
30
0.0
11
1454.580000000000
21
967.090000000000
31
0.0
0
LINE
5
796
100
AcDbEntity
8
0-2_2_1
6
CONTINUOUS
62
7
100
AcDbLine
10
1455.180000000000
20
967.530000000000
30
0.0
11
1455.180000000000
21
976.610000000000
31
0.0
0
LINE
5
797
100
AcDbEntity
8
0-2_2_1
6
CONTINUOUS
62
7
100
AcDbLine
10
1455.780000000000
20
967.530000000000
30
0.0
11
1455.180000000000
21
967.530000000000
31
0.0
0
LINE
5
798
100
AcDbEntity
8
0-2_2_1
6
DASHED
62
7
100
AcDbLine
10
1454.580000000000
20
967.090000000000
30
0.0
11
1455.180000000000
21
965.130000000000
31
0.0
0
LINE
5
799
100
AcDbEntity
8
0-2_2_1
6
DASHED
62
7
100
AcDbLine
10
1455.180000000000
20
965.130000000000
30
0.0
11
1455.180000000000
21
896.910000000000
31
0.0
0
LINE
5
79a
100
AcDbEntity
8
0-5_2_4
6
CONTINUOUS
62
4
100
AcDbLine
10
1202.730000000000
20
464.540000000000
30
0.0
11
1208.530000000000
21
462.990000000000
31
0.0
0
LINE
5
79b
100
AcDbEntity
8
0-5_2_4
6
CONTINUOUS
62
4
100
AcDbLine
10
1202.730000000000
20
464.540000000000
30
0.0
11
1208.530000000000
21
466.090000000000
31
0.0
0
LINE
5
79c
100
AcDbEntity
8
0-4_2_3
6
CONTINUOUS
62
4
100
AcDbLine
10
956.490000000000
20
464.540000000000
30
0.0
11
866.930000000000
21
464.540000000000
31
0.0
0
LINE
5
79d
100
AcDbEntity
8
0-4_2_3
6
CONTINUOUS
62
4
100
AcDbLine
10
956.490000000000
20
464.540000000000
30
0.0
11
950.700000000000
21
462.990000000000
31
0.0
0
LINE
5
79e
100
AcDbEntity
8
0-5_2_4
6
CONTINUOUS
62
4
100
AcDbLine
10
1202.730000000000
20
464.540000000000
30
0.0
11
1305.730000000000
21
464.540000000000
31
0.0
0
LINE
5
79f
100
AcDbEntity
8
0-5_2_4
6
CONTINUOUS
62
4
100
AcDbLine
10
1305.730000000000
20
447.780000000000
30
0.0
11
1305.730000000000
21
464.540000000000
31
0.0
0
LINE
5
7a0
100
AcDbEntity
8
0-5_2_4
6
CENTER2
62
4
100
AcDbLine
10
1305.730000000000
20
447.780000000000
30
0.0
11
1305.730000000000
21
313.370000000000
31
0.0
0
LINE
5
7a1
100
AcDbEntity
8
0-00
6
CENTER2
62
4
100
AcDbLine
10
484.070000000000
20
1054.630000000000
30
0.0
11
484.070000000000
21
1036.830000000000
31
0.0
0
LINE
5
7a2
100
AcDbEntity
8
0-00
6
CENTER2
62
4
100
AcDbLine
10
151.070000000000
20
1054.630000000000
30
0.0
11
151.070000000000
21
967.710000000000
31
0.0
0
LINE
5
7a3
100
AcDbEntity
8
0-00
6
CENTER2
62
4
100
AcDbLine
10
484.070000000000
20
1021.250000000000
30
0.0
11
484.070000000000
21
967.710000000000
31
0.0
0
LINE
5
7a4
100
AcDbEntity
8
0-3_2_2
6
CONTINUOUS
62
7
100
AcDbLine
10
234.390000000000
20
386.430000000000
30
0.0
11
243.960000000000
21
414.700000000000
31
0.0
0
LINE
5
7a5
100
AcDbEntity
8
0-00
6
CONTINUOUS
62
7
100
AcDbLine
10
181.250000000000
20
971.130000000000
30
0.0
11
183.070000000000
21
969.310000000000
31
0.0
0
LINE
5
7a6
100
AcDbEntity
8
0-00
6
CONTINUOUS
62
7
100
AcDbLine
10
125.400000000000
20
971.130000000000
30
0.0
11
123.570000000000
21
969.310000000000
31
0.0
0
LINE
5
7a7
100
AcDbEntity
8
0-00
6
CONTINUOUS
62
7
100
AcDbLine
10
168.570000000000
20
969.310000000000
30
0.0
11
173.570000000000
21
970.110000000000
31
0.0
0
LINE
5
7a8
100
AcDbEntity
8
0-00
6
CONTINUOUS
62
7
100
AcDbLine
10
168.480000000000
20
969.900000000000
30
0.0
11
173.480000000000
21
970.700000000000
31
0.0
0
LINE
5
7a9
100
AcDbEntity
8
0-00
6
CONTINUOUS
62
7
100
AcDbLine
10
168.480000000000
20
969.900000000000
30
0.0
11
168.570000000000
21
969.310000000000
31
0.0
0
LINE
5
7aa
100
AcDbEntity
8
0-00
6
CONTINUOUS
62
7
100
AcDbLine
10
162.070000000000
20
969.310000000000
30
0.0
11
173.570000000000
21
969.310000000000
31
0.0
0
LINE
5
7ab
100
AcDbEntity
8
0-00
6
CONTINUOUS
62
7
100
AcDbLine
10
161.600000000000
20
968.710000000000
30
0.0
11
173.570000000000
21
968.710000000000
31
0.0
0
LINE
5
7ac
100
AcDbEntity
8
0-00
6
CONTINUOUS
62
7
100
AcDbLine
10
153.770000000000
20
969.310000000000
30
0.0
11
159.070000000000
21
969.310000000000
31
0.0
0
LINE
5
7ad
100
AcDbEntity
8
0-00
6
CONTINUOUS
62
7
100
AcDbLine
10
153.770000000000
20
968.710000000000
30
0.0
11
159.550000000000
21
968.710000000000
31
0.0
0
LINE
5
7ae
100
AcDbEntity
8
0-00
6
CONTINUOUS
62
7
100
AcDbLine
10
148.370000000000
20
971.310000000000
30
0.0
11
125.820000000000
21
971.310000000000
31
0.0
0
LINE
5
7af
100
AcDbEntity
8
0-00
6
CONTINUOUS
62
7
100
AcDbLine
10
124.000000000000
20
968.880000000000
30
0.0
11
125.820000000000
21
970.710000000000
31
0.0
0
LINE
5
7b0
100
AcDbEntity
8
0-00
6
CONTINUOUS
62
7
100
AcDbLine
10
148.370000000000
20
970.710000000000
30
0.0
11
125.820000000000
21
970.710000000000
31
0.0
0
LINE
5
7b1
100
AcDbEntity
8
0-00
6
CONTINUOUS
62
7
100
AcDbLine
10
153.170000000000
20
979.110000000000
30
0.0
11
153.170000000000
21
969.910000000000
31
0.0
0
LINE
5
7b2
100
AcDbEntity
8
0-00
6
CONTINUOUS
62
7
100
AcDbLine
10
152.570000000000
20
979.110000000000
30
0.0
11
152.570000000000
21
969.910000000000
31
0.0
0
LINE
5
7b3
100
AcDbEntity
8
0-00
6
CONTINUOUS
62
7
100
AcDbLine
10
155.050000000000
20
980.430000000000
30
0.0
11
152.770000000000
21
991.350000000000
31
0.0
0
LINE
5
7b4
100
AcDbEntity
8
0-00
6
CONTINUOUS
62
7
100
AcDbLine
10
154.460000000000
20
979.710000000000
30
0.0
11
153.770000000000
21
979.710000000000
31
0.0
0
LINE
5
7b5
100
AcDbEntity
8
0-00
6
CONTINUOUS
62
7
100
AcDbLine
10
154.460000000000
20
980.310000000000
30
0.0
11
153.770000000000
21
980.310000000000
31
0.0
0
LINE
5
7b6
100
AcDbEntity
8
0-00
6
CONTINUOUS
62
7
100
AcDbLine
10
154.460000000000
20
980.310000000000
30
0.0
11
152.180000000000
21
991.230000000000
31
0.0
0
LINE
5
7b7
100
AcDbEntity
8
0-00
6
CONTINUOUS
62
7
100
AcDbLine
10
147.680000000000
20
978.310000000000
30
0.0
11
148.370000000000
21
978.310000000000
31
0.0
0
LINE
5
7b8
100
AcDbEntity
8
0-00
6
CONTINUOUS
62
7
100
AcDbLine
10
147.680000000000
20
978.910000000000
30
0.0
11
148.370000000000
21
978.910000000000
31
0.0
0
LINE
5
7b9
100
AcDbEntity
8
0-00
6
CONTINUOUS
62
7
100
AcDbLine
10
147.100000000000
20
979.030000000000
30
0.0
11
149.370000000000
21
991.350000000000
31
0.0
0
LINE
5
7ba
100
AcDbEntity
8
0-00
6
CONTINUOUS
62
7
100
AcDbLine
10
147.690000000000
20
978.920000000000
30
0.0
11
149.960000000000
21
991.240000000000
31
0.0
0
LINE
5
7bb
100
AcDbEntity
8
0-00
6
CONTINUOUS
62
7
100
AcDbLine
10
148.970000000000
20
971.910000000000
30
0.0
11
148.970000000000
21
977.710000000000
31
0.0
0
LINE
5
7bc
100
AcDbEntity
8
0-00
6
CONTINUOUS
62
7
100
AcDbLine
10
149.570000000000
20
977.710000000000
30
0.0
11
149.570000000000
21
971.910000000000
31
0.0
0
LINE
5
7bd
100
AcDbEntity
8
0-00
6
CONTINUOUS
62
7
100
AcDbLine
10
153.830000000000
20
990.910000000000
30
0.0
11
155.690000000000
21
979.310000000000
31
0.0
0
LINE
5
7be
100
AcDbEntity
8
0-00
6
CONTINUOUS
62
7
100
AcDbLine
10
154.560000000000
20
979.310000000000
30
0.0
11
155.690000000000
21
979.310000000000
31
0.0
0
LINE
5
7bf
100
AcDbEntity
8
0-00
6
CONTINUOUS
62
7
100
AcDbLine
10
155.690000000000
20
978.710000000000
30
0.0
11
154.560000000000
21
978.710000000000
31
0.0
0
LINE
5
7c0
100
AcDbEntity
8
0-00
6
CONTINUOUS
62
7
100
AcDbLine
10
156.280000000000
20
979.400000000000
30
0.0
11
154.420000000000
21
991.010000000000
31
0.0
0
LINE
5
7c1
100
AcDbEntity
8
0-00
6
CONTINUOUS
62
7
100
AcDbLine
10
147.580000000000
20
977.910000000000
30
0.0
11
146.460000000000
21
977.910000000000
31
0.0
0
LINE
5
7c2
100
AcDbEntity
8
0-00
6
CONTINUOUS
62
7
100
AcDbLine
10
146.460000000000
20
977.310000000000
30
0.0
11
147.580000000000
21
977.310000000000
31
0.0
0
LINE
5
7c3
100
AcDbEntity
8
0-00
6
CONTINUOUS
62
7
100
AcDbLine
10
147.730000000000
20
991.050000000000
30
0.0
11
145.860000000000
21
977.990000000000
31
0.0
0
LINE
5
7c4
100
AcDbEntity
8
0-00
6
CONTINUOUS
62
7
100
AcDbLine
10
148.320000000000
20
990.920000000000
30
0.0
11
146.460000000000
21
977.910000000000
31
0.0
0
LINE
5
7c5
100
AcDbEntity
8
0-00
6
CONTINUOUS
62
7
100
AcDbLine
10
145.940000000000
20
972.740000000000
30
0.0
11
148.160000000000
21
977.150000000000
31
0.0
0
LINE
5
7c6
100
AcDbEntity
8
0-00
6
CONTINUOUS
62
7
100
AcDbLine
10
148.070000000000
20
976.960000000000
30
0.0
11
145.340000000000
21
973.170000000000
31
0.0
0
LINE
5
7c7
100
AcDbEntity
8
0-00
6
CONTINUOUS
62
7
100
AcDbLine
10
147.580000000000
20
977.310000000000
30
0.0
11
144.860000000000
21
973.520000000000
31
0.0
0
LINE
5
7c8
100
AcDbEntity
8
0-00
6
CONTINUOUS
62
7
100
AcDbLine
10
146.460000000000
20
972.440000000000
30
0.0
11
148.700000000000
21
976.880000000000
31
0.0
0
LINE
5
7c9
100
AcDbEntity
8
0-00
6
CONTINUOUS
62
7
100
AcDbLine
10
156.510000000000
20
971.750000000000
30
0.0
11
154.560000000000
21
978.710000000000
31
0.0
0
LINE
5
7ca
100
AcDbEntity
8
0-00
6
CONTINUOUS
62
7
100
AcDbLine
10
153.980000000000
20
978.550000000000
30
0.0
11
155.930000000000
21
971.590000000000
31
0.0
0
LINE
5
7cb
100
AcDbEntity
8
0-00
6
CONTINUOUS
62
7
100
AcDbLine
10
157.080000000000
20
971.310000000000
30
0.0
11
180.820000000000
21
971.310000000000
31
0.0
0
LINE
5
7cc
100
AcDbEntity
8
0-00
6
CONTINUOUS
62
7
100
AcDbLine
10
157.080000000000
20
970.710000000000
30
0.0
11
180.820000000000
21
970.710000000000
31
0.0
0
LINE
5
7cd
100
AcDbEntity
8
0-00
6
CONTINUOUS
62
7
100
AcDbLine
10
182.650000000000
20
968.880000000000
30
0.0
11
180.820000000000
21
970.710000000000
31
0.0
0
LINE
5
7ce
100
AcDbEntity
8
0-00
6
CONTINUOUS
62
7
100
AcDbLine
10
183.070000000000
20
969.310000000000
30
0.0
11
317.570000000000
21
969.310000000000
31
0.0
0
LINE
5
7cf
100
AcDbEntity
8
0-00
6
CONTINUOUS
62
7
100
AcDbLine
10
317.570000000000
20
968.710000000000
30
0.0
11
183.070000000000
21
968.710000000000
31
0.0
0
LINE
5
7d0
100
AcDbEntity
8
0-00
6
CONTINUOUS
62
7
100
AcDbLine
10
71.070000000000
20
969.310000000000
30
0.0
11
123.570000000000
21
969.310000000000
31
0.0
0
LINE
5
7d1
100
AcDbEntity
8
0-00
6
CONTINUOUS
62
7
100
AcDbLine
10
123.570000000000
20
968.710000000000
30
0.0
11
71.070000000000
21
968.710000000000
31
0.0
0
LINE
5
7d2
100
AcDbEntity
8
0-00
6
CONTINUOUS
62
7
100
AcDbLine
10
514.250000000000
20
971.130000000000
30
0.0
11
516.070000000000
21
969.310000000000
31
0.0
0
LINE
5
7d3
100
AcDbEntity
8
0-00
6
CONTINUOUS
62
7
100
AcDbLine
10
458.400000000000
20
971.130000000000
30
0.0
11
456.570000000000
21
969.310000000000
31
0.0
0
LINE
5
7d4
100
AcDbEntity
8
0-00
6
CONTINUOUS
62
7
100
AcDbLine
10
501.570000000000
20
969.310000000000
30
0.0
11
506.570000000000
21
970.110000000000
31
0.0
0
LINE
5
7d5
100
AcDbEntity
8
0-00
6
CONTINUOUS
62
7
100
AcDbLine
10
501.480000000000
20
969.900000000000
30
0.0
11
506.480000000000
21
970.700000000000
31
0.0
0
LINE
5
7d6
100
AcDbEntity
8
0-00
6
CONTINUOUS
62
7
100
AcDbLine
10
501.480000000000
20
969.900000000000
30
0.0
11
501.570000000000
21
969.310000000000
31
0.0
0
LINE
5
7d7
100
AcDbEntity
8
0-00
6
CONTINUOUS
62
7
100
AcDbLine
10
495.070000000000
20
969.310000000000
30
0.0
11
506.570000000000
21
969.310000000000
31
0.0
0
LINE
5
7d8
100
AcDbEntity
8
0-00
6
CONTINUOUS
62
7
100
AcDbLine
10
494.600000000000
20
968.710000000000
30
0.0
11
506.570000000000
21
968.710000000000
31
0.0
0
LINE
5
7d9
100
AcDbEntity
8
0-00
6
CONTINUOUS
62
7
100
AcDbLine
10
486.770000000000
20
969.310000000000
30
0.0
11
492.070000000000
21
969.310000000000
31
0.0
0
LINE
5
7da
100
AcDbEntity
8
0-00
6
CONTINUOUS
62
7
100
AcDbLine
10
486.770000000000
20
968.710000000000
30
0.0
11
492.550000000000
21
968.710000000000
31
0.0
0
LINE
5
7db
100
AcDbEntity
8
0-00
6
CONTINUOUS
62
7
100
AcDbLine
10
481.370000000000
20
971.310000000000
30
0.0
11
458.820000000000
21
971.310000000000
31
0.0
0
LINE
5
7dc
100
AcDbEntity
8
0-00
6
CONTINUOUS
62
7
100
AcDbLine
10
457.000000000000
20
968.880000000000
30
0.0
11
458.820000000000
21
970.710000000000
31
0.0
0
LINE
5
7dd
100
AcDbEntity
8
0-00
6
CONTINUOUS
62
7
100
AcDbLine
10
481.370000000000
20
970.710000000000
30
0.0
11
458.820000000000
21
970.710000000000
31
0.0
0
LINE
5
7de
100
AcDbEntity
8
0-00
6
CONTINUOUS
62
7
100
AcDbLine
10
486.170000000000
20
979.110000000000
30
0.0
11
486.170000000000
21
969.910000000000
31
0.0
0
LINE
5
7df
100
AcDbEntity
8
0-00
6
CONTINUOUS
62
7
100
AcDbLine
10
485.570000000000
20
979.110000000000
30
0.0
11
485.570000000000
21
969.910000000000
31
0.0
0
LINE
5
7e0
100
AcDbEntity
8
0-00
6
CONTINUOUS
62
7
100
AcDbLine
10
488.050000000000
20
980.430000000000
30
0.0
11
485.770000000000
21
991.350000000000
31
0.0
0
LINE
5
7e1
100
AcDbEntity
8
0-00
6
CONTINUOUS
62
7
100
AcDbLine
10
487.460000000000
20
979.710000000000
30
0.0
11
486.770000000000
21
979.710000000000
31
0.0
0
LINE
5
7e2
100
AcDbEntity
8
0-00
6
CONTINUOUS
62
7
100
AcDbLine
10
487.460000000000
20
980.310000000000
30
0.0
11
486.770000000000
21
980.310000000000
31
0.0
0
LINE
5
7e3
100
AcDbEntity
8
0-00
6
CONTINUOUS
62
7
100
AcDbLine
10
487.460000000000
20
980.310000000000
30
0.0
11
485.180000000000
21
991.230000000000
31
0.0
0
LINE
5
7e4
100
AcDbEntity
8
0-00
6
CONTINUOUS
62
7
100
AcDbLine
10
480.680000000000
20
978.310000000000
30
0.0
11
481.370000000000
21
978.310000000000
31
0.0
0
LINE
5
7e5
100
AcDbEntity
8
0-00
6
CONTINUOUS
62
7
100
AcDbLine
10
480.680000000000
20
978.910000000000
30
0.0
11
481.370000000000
21
978.910000000000
31
0.0
0
LINE
5
7e6
100
AcDbEntity
8
0-00
6
CONTINUOUS
62
7
100
AcDbLine
10
480.100000000000
20
979.030000000000
30
0.0
11
482.370000000000
21
991.350000000000
31
0.0
0
LINE
5
7e7
100
AcDbEntity
8
0-00
6
CONTINUOUS
62
7
100
AcDbLine
10
480.690000000000
20
978.920000000000
30
0.0
11
482.960000000000
21
991.240000000000
31
0.0
0
LINE
5
7e8
100
AcDbEntity
8
0-00
6
CONTINUOUS
62
7
100
AcDbLine
10
481.970000000000
20
971.910000000000
30
0.0
11
481.970000000000
21
977.710000000000
31
0.0
0
LINE
5
7e9
100
AcDbEntity
8
0-00
6
CONTINUOUS
62
7
100
AcDbLine
10
482.570000000000
20
977.710000000000
30
0.0
11
482.570000000000
21
971.910000000000
31
0.0
0
LINE
5
7ea
100
AcDbEntity
8
0-00
6
CONTINUOUS
62
7
100
AcDbLine
10
486.830000000000
20
990.910000000000
30
0.0
11
488.690000000000
21
979.310000000000
31
0.0
0
LINE
5
7eb
100
AcDbEntity
8
0-00
6
CONTINUOUS
62
7
100
AcDbLine
10
487.560000000000
20
979.310000000000
30
0.0
11
488.690000000000
21
979.310000000000
31
0.0
0
LINE
5
7ec
100
AcDbEntity
8
0-00
6
CONTINUOUS
62
7
100
AcDbLine
10
488.690000000000
20
978.710000000000
30
0.0
11
487.560000000000
21
978.710000000000
31
0.0
0
LINE
5
7ed
100
AcDbEntity
8
0-00
6
CONTINUOUS
62
7
100
AcDbLine
10
489.280000000000
20
979.400000000000
30
0.0
11
487.420000000000
21
991.010000000000
31
0.0
0
LINE
5
7ee
100
AcDbEntity
8
0-00
6
CONTINUOUS
62
7
100
AcDbLine
10
480.580000000000
20
977.910000000000
30
0.0
11
479.460000000000
21
977.910000000000
31
0.0
0
LINE
5
7ef
100
AcDbEntity
8
0-00
6
CONTINUOUS
62
7
100
AcDbLine
10
479.460000000000
20
977.310000000000
30
0.0
11
480.580000000000
21
977.310000000000
31
0.0
0
LINE
5
7f0
100
AcDbEntity
8
0-00
6
CONTINUOUS
62
7
100
AcDbLine
10
480.730000000000
20
991.050000000000
30
0.0
11
478.860000000000
21
977.990000000000
31
0.0
0
LINE
5
7f1
100
AcDbEntity
8
0-00
6
CONTINUOUS
62
7
100
AcDbLine
10
481.320000000000
20
990.920000000000
30
0.0
11
479.460000000000
21
977.910000000000
31
0.0
0
LINE
5
7f2
100
AcDbEntity
8
0-00
6
CONTINUOUS
62
7
100
AcDbLine
10
478.940000000000
20
972.740000000000
30
0.0
11
481.160000000000
21
977.150000000000
31
0.0
0
LINE
5
7f3
100
AcDbEntity
8
0-00
6
CONTINUOUS
62
7
100
AcDbLine
10
481.070000000000
20
976.960000000000
30
0.0
11
478.340000000000
21
973.170000000000
31
0.0
0
LINE
5
7f4
100
AcDbEntity
8
0-00
6
CONTINUOUS
62
7
100
AcDbLine
10
480.580000000000
20
977.310000000000
30
0.0
11
477.860000000000
21
973.520000000000
31
0.0
0
LINE
5
7f5
100
AcDbEntity
8
0-00
6
CONTINUOUS
62
7
100
AcDbLine
10
479.460000000000
20
972.440000000000
30
0.0
11
481.700000000000
21
976.880000000000
31
0.0
0
LINE
5
7f6
100
AcDbEntity
8
0-00
6
CONTINUOUS
62
7
100
AcDbLine
10
489.510000000000
20
971.750000000000
30
0.0
11
487.560000000000
21
978.710000000000
31
0.0
0
LINE
5
7f7
100
AcDbEntity
8
0-00
6
CONTINUOUS
62
7
100
AcDbLine
10
486.980000000000
20
978.550000000000
30
0.0
11
488.930000000000
21
971.590000000000
31
0.0
0
LINE
5
7f8
100
AcDbEntity
8
0-00
6
CONTINUOUS
62
7
100
AcDbLine
10
490.080000000000
20
971.310000000000
30
0.0
11
513.820000000000
21
971.310000000000
31
0.0
0
LINE
5
7f9
100
AcDbEntity
8
0-00
6
CONTINUOUS
62
7
100
AcDbLine
10
490.080000000000
20
970.710000000000
30
0.0
11
513.820000000000
21
970.710000000000
31
0.0
0
LINE
5
7fa
100
AcDbEntity
8
0-00
6
CONTINUOUS
62
7
100
AcDbLine
10
515.650000000000
20
968.880000000000
30
0.0
11
513.820000000000
21
970.710000000000
31
0.0
0
LINE
5
7fb
100
AcDbEntity
8
0-00
6
CONTINUOUS
62
7
100
AcDbLine
10
317.570000000000
20
969.310000000000
30
0.0
11
456.570000000000
21
969.310000000000
31
0.0
0
LINE
5
7fc
100
AcDbEntity
8
0-00
6
CONTINUOUS
62
7
100
AcDbLine
10
456.570000000000
20
968.710000000000
30
0.0
11
317.570000000000
21
968.710000000000
31
0.0
0
LINE
5
7fd
100
AcDbEntity
8
0-00
6
CONTINUOUS
62
7
100
AcDbLine
10
516.070000000000
20
969.310000000000
30
0.0
11
564.070000000000
21
969.310000000000
31
0.0
0
LINE
5
7fe
100
AcDbEntity
8
0-00
6
CONTINUOUS
62
7
100
AcDbLine
10
564.070000000000
20
968.710000000000
30
0.0
11
516.070000000000
21
968.710000000000
31
0.0
0
LINE
5
7ff
100
AcDbEntity
8
0-00
6
CONTINUOUS
62
7
100
AcDbLine
10
151.070000000000
20
991.530000000000
30
0.0
11
151.670000000000
21
991.700000000000
31
0.0
0
LINE
5
800
100
AcDbEntity
8
0-00
6
CONTINUOUS
62
7
100
AcDbLine
10
151.070000000000
20
992.160000000000
30
0.0
11
151.600000000000
21
992.310000000000
31
0.0
0
LINE
5
801
100
AcDbEntity
8
0-00
6
CONTINUOUS
62
7
100
AcDbLine
10
484.070000000000
20
992.160000000000
30
0.0
11
484.600000000000
21
992.310000000000
31
0.0
0
LINE
5
802
100
AcDbEntity
8
0-00
6
CONTINUOUS
62
7
100
AcDbLine
10
484.070000000000
20
991.530000000000
30
0.0
11
484.670000000000
21
991.700000000000
31
0.0
0
LINE
5
803
100
AcDbEntity
8
0-00
6
CONTINUOUS
62
7
100
AcDbLine
10
484.070000000000
20
991.530000000000
30
0.0
11
483.480000000000
21
991.700000000000
31
0.0
0
LINE
5
804
100
AcDbEntity
8
0-00
6
CONTINUOUS
62
7
100
AcDbLine
10
484.070000000000
20
992.160000000000
30
0.0
11
483.550000000000
21
992.310000000000
31
0.0
0
LINE
5
805
100
AcDbEntity
8
0-00
6
CONTINUOUS
62
7
100
AcDbLine
10
151.070000000000
20
991.530000000000
30
0.0
11
150.480000000000
21
991.700000000000
31
0.0
0
LINE
5
806
100
AcDbEntity
8
0-00
6
CONTINUOUS
62
7
100
AcDbLine
10
151.070000000000
20
992.160000000000
30
0.0
11
150.550000000000
21
992.310000000000
31
0.0
0
LINE
5
807
100
AcDbEntity
8
0-00
6
CONTINUOUS
62
7
100
AcDbLine
10
481.700000000000
20
976.880000000000
30
0.0
11
481.160000000000
21
977.150000000000
31
0.0
0
LINE
5
808
100
AcDbEntity
8
0-00
6
CONTINUOUS
62
7
100
AcDbLine
10
148.700000000000
20
976.880000000000
30
0.0
11
148.160000000000
21
977.150000000000
31
0.0
0
LINE
5
809
100
AcDbEntity
8
0-00
6
CONTINUOUS
62
4
100
AcDbLine
10
148.390000000000
20
991.110000000000
30
0.0
11
149.970000000000
21
992.690000000000
31
0.0
0
LINE
5
80a
100
AcDbEntity
8
0-00
6
CONTINUOUS
62
4
100
AcDbLine
10
148.220000000000
20
990.230000000000
30
0.0
11
149.380000000000
21
991.390000000000
31
0.0
0
LINE
5
80b
100
AcDbEntity
8
0-00
6
CONTINUOUS
62
4
100
AcDbLine
10
148.100000000000
20
989.410000000000
30
0.0
11
149.220000000000
21
990.530000000000
31
0.0
0
LINE
5
80c
100
AcDbEntity
8
0-00
6
CONTINUOUS
62
4
100
AcDbLine
10
147.980000000000
20
988.580000000000
30
0.0
11
149.060000000000
21
989.660000000000
31
0.0
0
LINE
5
80d
100
AcDbEntity
8
0-00
6
CONTINUOUS
62
4
100
AcDbLine
10
148.780000000000
20
988.140000000000
30
0.0
11
147.940000000000
21
988.300000000000
31
0.0
0
LINE
5
80e
100
AcDbEntity
8
0-00
6
CONTINUOUS
62
4
100
AcDbLine
10
150.260000000000
20
992.270000000000
30
0.0
11
150.890000000000
21
992.900000000000
31
0.0
0
LINE
5
80f
100
AcDbEntity
8
0-00
6
CONTINUOUS
62
4
100
AcDbLine
10
150.900000000000
20
992.210000000000
30
0.0
11
151.560000000000
21
992.870000000000
31
0.0
0
LINE
5
810
100
AcDbEntity
8
0-00
6
CONTINUOUS
62
4
100
AcDbLine
10
151.700000000000
20
992.300000000000
30
0.0
11
152.110000000000
21
992.710000000000
31
0.0
0
LINE
5
811
100
AcDbEntity
8
0-00
6
CONTINUOUS
62
4
100
AcDbLine
10
152.230000000000
20
992.120000000000
30
0.0
11
152.590000000000
21
992.480000000000
31
0.0
0
LINE
5
812
100
AcDbEntity
8
0-00
6
CONTINUOUS
62
4
100
AcDbLine
10
152.590000000000
20
991.780000000000
30
0.0
11
152.990000000000
21
992.180000000000
31
0.0
0
LINE
5
813
100
AcDbEntity
8
0-00
6
CONTINUOUS
62
4
100
AcDbLine
10
152.790000000000
20
991.270000000000
30
0.0
11
153.340000000000
21
991.820000000000
31
0.0
0
LINE
5
814
100
AcDbEntity
8
0-00
6
CONTINUOUS
62
4
100
AcDbLine
10
152.910000000000
20
990.680000000000
30
0.0
11
153.620000000000
21
991.390000000000
31
0.0
0
LINE
5
815
100
AcDbEntity
8
0-00
6
CONTINUOUS
62
4
100
AcDbLine
10
153.030000000000
20
990.100000000000
30
0.0
11
153.830000000000
21
990.890000000000
31
0.0
0
LINE
5
816
100
AcDbEntity
8
0-00
6
CONTINUOUS
62
4
100
AcDbLine
10
153.150000000000
20
989.510000000000
30
0.0
11
153.930000000000
21
990.280000000000
31
0.0
0
LINE
5
817
100
AcDbEntity
8
0-00
6
CONTINUOUS
62
4
100
AcDbLine
10
153.280000000000
20
988.930000000000
30
0.0
11
154.030000000000
21
989.670000000000
31
0.0
0
LINE
5
818
100
AcDbEntity
8
0-00
6
CONTINUOUS
62
4
100
AcDbLine
10
153.400000000000
20
988.340000000000
30
0.0
11
154.120000000000
21
989.070000000000
31
0.0
0
LINE
5
819
100
AcDbEntity
8
0-00
6
CONTINUOUS
62
4
100
AcDbLine
10
153.440000000000
20
988.150000000000
30
0.0
11
154.240000000000
21
988.310000000000
31
0.0
0
LINE
5
81a
100
AcDbEntity
8
0-00
6
CONTINUOUS
62
4
100
AcDbLine
10
154.030000000000
20
988.260000000000
30
0.0
11
154.220000000000
21
988.460000000000
31
0.0
0
LINE
5
81b
100
AcDbEntity
8
0-00
6
CONTINUOUS
62
4
100
AcDbLine
10
148.330000000000
20
988.220000000000
30
0.0
11
148.900000000000
21
988.790000000000
31
0.0
0
LINE
5
81c
100
AcDbEntity
8
0-00
6
CONTINUOUS
62
7
100
AcDbLine
10
152.230000000000
20
992.420000000000
30
0.0
11
162.830000000000
21
1010.790000000000
31
0.0
0
LINE
5
81d
100
AcDbEntity
8
0-00
6
CONTINUOUS
62
4
100
AcDbLine
10
493.320000000000
20
970.210000000000
30
0.0
11
503.320000000000
21
970.210000000000
31
0.0
0
LINE
5
81e
100
AcDbEntity
8
0-00
6
CONTINUOUS
62
4
100
AcDbLine
10
495.320000000000
20
970.710000000000
30
0.0
11
501.320000000000
21
970.710000000000
31
0.0
0
LINE
5
81f
100
AcDbEntity
8
0-00
6
CONTINUOUS
62
4
100
AcDbLine
10
503.320000000000
20
970.210000000000
30
0.0
11
503.320000000000
21
969.810000000000
31
0.0
0
LINE
5
820
100
AcDbEntity
8
0-00
6
CONTINUOUS
62
4
100
AcDbLine
10
501.320000000000
20
970.710000000000
30
0.0
11
502.820000000000
21
970.210000000000
31
0.0
0
LINE
5
821
100
AcDbEntity
8
0-00
6
CONTINUOUS
62
4
100
AcDbLine
10
500.720000000000
20
959.340000000000
30
0.0
11
495.920000000000
21
960.140000000000
31
0.0
0
LINE
5
822
100
AcDbEntity
8
0-00
6
CONTINUOUS
62
4
100
AcDbLine
10
500.720000000000
20
957.740000000000
30
0.0
11
495.920000000000
21
958.540000000000
31
0.0
0
LINE
5
823
100
AcDbEntity
8
0-00
6
CONTINUOUS
62
4
100
AcDbLine
10
500.720000000000
20
956.140000000000
30
0.0
11
495.920000000000
21
956.940000000000
31
0.0
0
LINE
5
824
100
AcDbEntity
8
0-00
6
CONTINUOUS
62
4
100
AcDbLine
10
500.720000000000
20
960.940000000000
30
0.0
11
495.920000000000
21
961.740000000000
31
0.0
0
LINE
5
825
100
AcDbEntity
8
0-00
6
CONTINUOUS
62
4
100
AcDbLine
10
493.320000000000
20
970.210000000000
30
0.0
11
493.320000000000
21
969.810000000000
31
0.0
0
LINE
5
826
100
AcDbEntity
8
0-00
6
CONTINUOUS
62
4
100
AcDbLine
10
495.320000000000
20
970.710000000000
30
0.0
11
493.820000000000
21
970.210000000000
31
0.0
0
LINE
5
827
100
AcDbEntity
8
0-00
6
CONTINUOUS
62
4
100
AcDbLine
10
500.720000000000
20
952.940000000000
30
0.0
11
495.920000000000
21
953.740000000000
31
0.0
0
LINE
5
828
100
AcDbEntity
8
0-00
6
CONTINUOUS
62
4
100
AcDbLine
10
500.720000000000
20
954.540000000000
30
0.0
11
495.920000000000
21
955.340000000000
31
0.0
0
LINE
5
829
100
AcDbEntity
8
0-00
6
CONTINUOUS
62
4
100
AcDbLine
10
500.720000000000
20
951.340000000000
30
0.0
11
495.920000000000
21
952.140000000000
31
0.0
0
LINE
5
82a
100
AcDbEntity
8
0-00
6
CONTINUOUS
62
4
100
AcDbLine
10
500.720000000000
20
949.740000000000
30
0.0
11
495.920000000000
21
950.540000000000
31
0.0
0
LINE
5
82b
100
AcDbEntity
8
0-00
6
CONTINUOUS
62
4
100
AcDbLine
10
498.320000000000
20
934.810000000000
30
0.0
11
496.320000000000
21
936.410000000000
31
0.0
0
LINE
5
82c
100
AcDbEntity
8
0-00
6
CONTINUOUS
62
4
100
AcDbLine
10
500.320000000000
20
936.410000000000
30
0.0
11
498.320000000000
21
934.810000000000
31
0.0
0
LINE
5
82d
100
AcDbEntity
8
0-00
6
CONTINUOUS
62
4
100
AcDbLine
10
493.320000000000
20
969.810000000000
30
0.0
11
503.320000000000
21
969.810000000000
31
0.0
0
LINE
5
82e
100
AcDbEntity
8
0-00
6
CONTINUOUS
62
4
100
AcDbLine
10
500.720000000000
20
964.140000000000
30
0.0
11
495.920000000000
21
964.940000000000
31
0.0
0
LINE
5
82f
100
AcDbEntity
8
0-00
6
CONTINUOUS
62
4
100
AcDbLine
10
500.720000000000
20
962.540000000000
30
0.0
11
495.920000000000
21
963.340000000000
31
0.0
0
LINE
5
830
100
AcDbEntity
8
0-00
6
CONTINUOUS
62
4
100
AcDbLine
10
500.720000000000
20
965.740000000000
30
0.0
11
495.920000000000
21
966.540000000000
31
0.0
0
LINE
5
831
100
AcDbEntity
8
0-00
6
CONTINUOUS
62
4
100
AcDbLine
10
496.320000000000
20
936.410000000000
30
0.0
11
496.320000000000
21
969.810000000000
31
0.0
0
LINE
5
832
100
AcDbEntity
8
0-00
6
CONTINUOUS
62
4
100
AcDbLine
10
500.320000000000
20
936.410000000000
30
0.0
11
500.320000000000
21
969.810000000000
31
0.0
0
LINE
5
833
100
AcDbEntity
8
0-00
6
CONTINUOUS
62
4
100
AcDbLine
10
500.720000000000
20
948.140000000000
30
0.0
11
495.920000000000
21
948.940000000000
31
0.0
0
LINE
5
834
100
AcDbEntity
8
0-00
6
CONTINUOUS
62
4
100
AcDbLine
10
500.720000000000
20
946.540000000000
30
0.0
11
495.920000000000
21
947.340000000000
31
0.0
0
LINE
5
835
100
AcDbEntity
8
0-00
6
CONTINUOUS
62
4
100
AcDbLine
10
500.720000000000
20
944.940000000000
30
0.0
11
495.920000000000
21
945.740000000000
31
0.0
0
LINE
5
836
100
AcDbEntity
8
0-00
6
CONTINUOUS
62
4
100
AcDbLine
10
500.720000000000
20
943.340000000000
30
0.0
11
495.920000000000
21
944.140000000000
31
0.0
0
LINE
5
837
100
AcDbEntity
8
0-00
6
CONTINUOUS
62
4
100
AcDbLine
10
500.720000000000
20
941.740000000000
30
0.0
11
495.920000000000
21
942.540000000000
31
0.0
0
LINE
5
838
100
AcDbEntity
8
0-00
6
CENTER2
62
4
100
AcDbLine
10
498.320000000000
20
971.620000000000
30
0.0
11
498.320000000000
21
931.470000000000
31
0.0
0
LINE
5
839
100
AcDbEntity
8
0-00
6
CONTINUOUS
62
4
100
AcDbLine
10
497.520000000000
20
935.610000000000
30
0.0
11
498.320000000000
21
936.410000000000
31
0.0
0
LINE
5
83a
100
AcDbEntity
8
0-00
6
CONTINUOUS
62
4
100
AcDbLine
10
498.320000000000
20
936.410000000000
30
0.0
11
497.780000000000
21
937.500000000000
31
0.0
0
LINE
5
83b
100
AcDbEntity
8
0-00
6
CONTINUOUS
62
4
100
AcDbLine
10
497.780000000000
20
937.500000000000
30
0.0
11
499.000000000000
21
938.200000000000
31
0.0
0
LINE
5
83c
100
AcDbEntity
8
0-00
6
CONTINUOUS
62
4
100
AcDbLine
10
499.000000000000
20
938.200000000000
30
0.0
11
500.320000000000
21
936.410000000000
31
0.0
0
LINE
5
83d
100
AcDbEntity
8
0-00
6
CONTINUOUS
62
4
100
AcDbLine
10
189.360000000000
20
993.510000000000
30
0.0
11
202.170000000000
21
993.510000000000
31
0.0
0
LINE
5
83e
100
AcDbEntity
8
0-00
6
CONTINUOUS
62
4
100
AcDbLine
10
202.170000000000
20
968.710000000000
30
0.0
11
202.170000000000
21
993.510000000000
31
0.0
0
LINE
5
83f
100
AcDbEntity
8
F-0
6
CONTINUOUS
62
7
100
AcDbLine
10
361.270000000000
20
717.190000000000
30
0.0
11
364.920000000000
21
713.540000000000
31
0.0
0
LINE
5
840
100
AcDbEntity
8
F-0
6
CONTINUOUS
62
7
100
AcDbLine
10
249.570000000000
20
717.190000000000
30
0.0
11
245.920000000000
21
713.540000000000
31
0.0
0
LINE
5
841
100
AcDbEntity
8
F-0
6
CONTINUOUS
62
7
100
AcDbLine
10
335.920000000000
20
713.540000000000
30
0.0
11
345.920000000000
21
715.140000000000
31
0.0
0
LINE
5
842
100
AcDbEntity
8
F-0
6
CONTINUOUS
62
7
100
AcDbLine
10
335.730000000000
20
714.720000000000
30
0.0
11
345.730000000000
21
716.320000000000
31
0.0
0
LINE
5
843
100
AcDbEntity
8
F-0
6
CONTINUOUS
62
7
100
AcDbLine
10
335.730000000000
20
714.720000000000
30
0.0
11
335.920000000000
21
713.540000000000
31
0.0
0
LINE
5
844
100
AcDbEntity
8
F-0
6
CONTINUOUS
62
7
100
AcDbLine
10
322.920000000000
20
713.540000000000
30
0.0
11
345.920000000000
21
713.540000000000
31
0.0
0
LINE
5
845
100
AcDbEntity
8
F-0
6
CONTINUOUS
62
7
100
AcDbLine
10
321.970000000000
20
712.340000000000
30
0.0
11
345.920000000000
21
712.340000000000
31
0.0
0
LINE
5
846
100
AcDbEntity
8
F-0
6
CONTINUOUS
62
7
100
AcDbLine
10
306.320000000000
20
713.540000000000
30
0.0
11
316.920000000000
21
713.540000000000
31
0.0
0
LINE
5
847
100
AcDbEntity
8
F-0
6
CONTINUOUS
62
7
100
AcDbLine
10
306.320000000000
20
712.340000000000
30
0.0
11
317.870000000000
21
712.340000000000
31
0.0
0
LINE
5
848
100
AcDbEntity
8
F-0
6
CONTINUOUS
62
7
100
AcDbLine
10
295.520000000000
20
717.540000000000
30
0.0
11
250.420000000000
21
717.540000000000
31
0.0
0
LINE
5
849
100
AcDbEntity
8
F-0
6
CONTINUOUS
62
7
100
AcDbLine
10
246.770000000000
20
712.690000000000
30
0.0
11
250.420000000000
21
716.340000000000
31
0.0
0
LINE
5
84a
100
AcDbEntity
8
F-0
6
CONTINUOUS
62
7
100
AcDbLine
10
295.520000000000
20
716.340000000000
30
0.0
11
250.420000000000
21
716.340000000000
31
0.0
0
LINE
5
84b
100
AcDbEntity
8
F-0
6
CONTINUOUS
62
7
100
AcDbLine
10
305.120000000000
20
733.140000000000
30
0.0
11
305.120000000000
21
714.740000000000
31
0.0
0
LINE
5
84c
100
AcDbEntity
8
F-0
6
CONTINUOUS
62
7
100
AcDbLine
10
303.920000000000
20
733.140000000000
30
0.0
11
303.920000000000
21
714.740000000000
31
0.0
0
LINE
5
84d
100
AcDbEntity
8
F-0
6
CONTINUOUS
62
7
100
AcDbLine
10
308.870000000000
20
735.780000000000
30
0.0
11
304.320000000000
21
757.630000000000
31
0.0
0
LINE
5
84e
100
AcDbEntity
8
F-0
6
CONTINUOUS
62
7
100
AcDbLine
10
307.700000000000
20
734.340000000000
30
0.0
11
306.320000000000
21
734.340000000000
31
0.0
0
LINE
5
84f
100
AcDbEntity
8
F-0
6
CONTINUOUS
62
7
100
AcDbLine
10
307.700000000000
20
735.540000000000
30
0.0
11
306.320000000000
21
735.540000000000
31
0.0
0
LINE
5
850
100
AcDbEntity
8
F-0
6
CONTINUOUS
62
7
100
AcDbLine
10
307.700000000000
20
735.540000000000
30
0.0
11
303.140000000000
21
757.380000000000
31
0.0
0
LINE
5
851
100
AcDbEntity
8
F-0
6
CONTINUOUS
62
7
100
AcDbLine
10
294.150000000000
20
731.540000000000
30
0.0
11
295.520000000000
21
731.540000000000
31
0.0
0
LINE
5
852
100
AcDbEntity
8
F-0
6
CONTINUOUS
62
7
100
AcDbLine
10
294.150000000000
20
732.740000000000
30
0.0
11
295.520000000000
21
732.740000000000
31
0.0
0
LINE
5
853
100
AcDbEntity
8
F-0
6
CONTINUOUS
62
7
100
AcDbLine
10
292.970000000000
20
732.980000000000
30
0.0
11
297.520000000000
21
757.630000000000
31
0.0
0
LINE
5
854
100
AcDbEntity
8
F-0
6
CONTINUOUS
62
7
100
AcDbLine
10
294.150000000000
20
732.760000000000
30
0.0
11
298.700000000000
21
757.410000000000
31
0.0
0
LINE
5
855
100
AcDbEntity
8
F-0
6
CONTINUOUS
62
7
100
AcDbLine
10
296.720000000000
20
718.740000000000
30
0.0
11
296.720000000000
21
730.340000000000
31
0.0
0
LINE
5
856
100
AcDbEntity
8
F-0
6
CONTINUOUS
62
7
100
AcDbLine
10
297.920000000000
20
730.340000000000
30
0.0
11
297.920000000000
21
718.740000000000
31
0.0
0
LINE
5
857
100
AcDbEntity
8
F-0
6
CONTINUOUS
62
7
100
AcDbLine
10
306.430000000000
20
756.750000000000
30
0.0
11
310.150000000000
21
733.540000000000
31
0.0
0
LINE
5
858
100
AcDbEntity
8
F-0
6
CONTINUOUS
62
7
100
AcDbLine
10
307.900000000000
20
733.540000000000
30
0.0
11
310.150000000000
21
733.540000000000
31
0.0
0
LINE
5
859
100
AcDbEntity
8
F-0
6
CONTINUOUS
62
7
100
AcDbLine
10
310.150000000000
20
732.340000000000
30
0.0
11
307.900000000000
21
732.340000000000
31
0.0
0
LINE
5
85a
100
AcDbEntity
8
F-0
6
CONTINUOUS
62
7
100
AcDbLine
10
311.340000000000
20
733.730000000000
30
0.0
11
307.610000000000
21
756.940000000000
31
0.0
0
LINE
5
85b
100
AcDbEntity
8
F-0
6
CONTINUOUS
62
7
100
AcDbLine
10
293.940000000000
20
730.740000000000
30
0.0
11
291.690000000000
21
730.740000000000
31
0.0
0
LINE
5
85c
100
AcDbEntity
8
F-0
6
CONTINUOUS
62
7
100
AcDbLine
10
291.690000000000
20
729.540000000000
30
0.0
11
293.940000000000
21
729.540000000000
31
0.0
0
LINE
5
85d
100
AcDbEntity
8
F-0
6
CONTINUOUS
62
7
100
AcDbLine
10
294.240000000000
20
757.020000000000
30
0.0
11
290.500000000000
21
730.910000000000
31
0.0
0
LINE
5
85e
100
AcDbEntity
8
F-0
6
CONTINUOUS
62
7
100
AcDbLine
10
295.410000000000
20
756.750000000000
30
0.0
11
291.690000000000
21
730.740000000000
31
0.0
0
LINE
5
85f
100
AcDbEntity
8
F-0
6
CONTINUOUS
62
7
100
AcDbLine
10
290.660000000000
20
720.400000000000
30
0.0
11
295.100000000000
21
729.220000000000
31
0.0
0
LINE
5
860
100
AcDbEntity
8
F-0
6
CONTINUOUS
62
7
100
AcDbLine
10
294.910000000000
20
728.840000000000
30
0.0
11
289.470000000000
21
721.260000000000
31
0.0
0
LINE
5
861
100
AcDbEntity
8
F-0
6
CONTINUOUS
62
7
100
AcDbLine
10
293.940000000000
20
729.540000000000
30
0.0
11
288.490000000000
21
721.960000000000
31
0.0
0
LINE
5
862
100
AcDbEntity
8
F-0
6
CONTINUOUS
62
7
100
AcDbLine
10
291.700000000000
20
719.800000000000
30
0.0
11
296.170000000000
21
728.680000000000
31
0.0
0
LINE
5
863
100
AcDbEntity
8
F-0
6
CONTINUOUS
62
7
100
AcDbLine
10
311.790000000000
20
718.420000000000
30
0.0
11
307.900000000000
21
732.340000000000
31
0.0
0
LINE
5
864
100
AcDbEntity
8
F-0
6
CONTINUOUS
62
7
100
AcDbLine
10
306.750000000000
20
732.020000000000
30
0.0
11
310.630000000000
21
718.090000000000
31
0.0
0
LINE
5
865
100
AcDbEntity
8
F-0
6
CONTINUOUS
62
7
100
AcDbLine
10
312.940000000000
20
717.540000000000
30
0.0
11
360.420000000000
21
717.540000000000
31
0.0
0
LINE
5
866
100
AcDbEntity
8
F-0
6
CONTINUOUS
62
7
100
AcDbLine
10
312.940000000000
20
716.340000000000
30
0.0
11
360.420000000000
21
716.340000000000
31
0.0
0
LINE
5
867
100
AcDbEntity
8
F-0
6
CONTINUOUS
62
7
100
AcDbLine
10
364.070000000000
20
712.690000000000
30
0.0
11
360.420000000000
21
716.340000000000
31
0.0
0
LINE
5
868
100
AcDbEntity
8
F-0
6
CONTINUOUS
62
7
100
AcDbLine
10
300.920000000000
20
757.990000000000
30
0.0
11
302.110000000000
21
758.330000000000
31
0.0
0
LINE
5
869
100
AcDbEntity
8
F-0
6
CONTINUOUS
62
7
100
AcDbLine
10
300.920000000000
20
759.240000000000
30
0.0
11
301.970000000000
21
759.540000000000
31
0.0
0
LINE
5
86a
100
AcDbEntity
8
F-0
6
CONTINUOUS
62
7
100
AcDbLine
10
300.920000000000
20
757.990000000000
30
0.0
11
299.730000000000
21
758.330000000000
31
0.0
0
LINE
5
86b
100
AcDbEntity
8
F-0
6
CONTINUOUS
62
7
100
AcDbLine
10
300.920000000000
20
759.240000000000
30
0.0
11
299.870000000000
21
759.540000000000
31
0.0
0
LINE
5
86c
100
AcDbEntity
8
F-0
6
CONTINUOUS
62
7
100
AcDbLine
10
296.170000000000
20
728.680000000000
30
0.0
11
295.100000000000
21
729.220000000000
31
0.0
0
LINE
5
86d
100
AcDbEntity
8
F-0
6
CONTINUOUS
62
4
100
AcDbLine
10
295.560000000000
20
757.140000000000
30
0.0
11
298.720000000000
21
760.300000000000
31
0.0
0
LINE
5
86e
100
AcDbEntity
8
F-0
6
CONTINUOUS
62
4
100
AcDbLine
10
295.220000000000
20
755.390000000000
30
0.0
11
297.540000000000
21
757.710000000000
31
0.0
0
LINE
5
86f
100
AcDbEntity
8
F-0
6
CONTINUOUS
62
4
100
AcDbLine
10
294.980000000000
20
753.740000000000
30
0.0
11
297.220000000000
21
755.980000000000
31
0.0
0
LINE
5
870
100
AcDbEntity
8
F-0
6
CONTINUOUS
62
4
100
AcDbLine
10
294.740000000000
20
752.090000000000
30
0.0
11
296.900000000000
21
754.240000000000
31
0.0
0
LINE
5
871
100
AcDbEntity
8
F-0
6
CONTINUOUS
62
4
100
AcDbLine
10
296.330000000000
20
751.190000000000
30
0.0
11
294.660000000000
21
751.520000000000
31
0.0
0
LINE
5
872
100
AcDbEntity
8
F-0
6
CONTINUOUS
62
4
100
AcDbLine
10
299.290000000000
20
759.470000000000
30
0.0
11
300.550000000000
21
760.730000000000
31
0.0
0
LINE
5
873
100
AcDbEntity
8
F-0
6
CONTINUOUS
62
4
100
AcDbLine
10
300.580000000000
20
759.340000000000
30
0.0
11
301.900000000000
21
760.660000000000
31
0.0
0
LINE
5
874
100
AcDbEntity
8
F-0
6
CONTINUOUS
62
4
100
AcDbLine
10
302.180000000000
20
759.530000000000
30
0.0
11
303.010000000000
21
760.350000000000
31
0.0
0
LINE
5
875
100
AcDbEntity
8
F-0
6
CONTINUOUS
62
4
100
AcDbLine
10
303.240000000000
20
759.170000000000
30
0.0
11
303.950000000000
21
759.880000000000
31
0.0
0
LINE
5
876
100
AcDbEntity
8
F-0
6
CONTINUOUS
62
4
100
AcDbLine
10
303.960000000000
20
758.480000000000
30
0.0
11
304.770000000000
21
759.280000000000
31
0.0
0
LINE
5
877
100
AcDbEntity
8
F-0
6
CONTINUOUS
62
4
100
AcDbLine
10
304.350000000000
20
757.460000000000
30
0.0
11
305.450000000000
21
758.560000000000
31
0.0
0
LINE
5
878
100
AcDbEntity
8
F-0
6
CONTINUOUS
62
4
100
AcDbLine
10
304.600000000000
20
756.290000000000
30
0.0
11
306.020000000000
21
757.710000000000
31
0.0
0
LINE
5
879
100
AcDbEntity
8
F-0
6
CONTINUOUS
62
4
100
AcDbLine
10
304.840000000000
20
755.110000000000
30
0.0
11
306.440000000000
21
756.710000000000
31
0.0
0
LINE
5
87a
100
AcDbEntity
8
F-0
6
CONTINUOUS
62
4
100
AcDbLine
10
305.090000000000
20
753.940000000000
30
0.0
11
306.630000000000
21
755.490000000000
31
0.0
0
LINE
5
87b
100
AcDbEntity
8
F-0
6
CONTINUOUS
62
4
100
AcDbLine
10
305.330000000000
20
752.770000000000
30
0.0
11
306.830000000000
21
754.270000000000
31
0.0
0
LINE
5
87c
100
AcDbEntity
8
F-0
6
CONTINUOUS
62
4
100
AcDbLine
10
305.570000000000
20
751.600000000000
30
0.0
11
307.020000000000
21
753.050000000000
31
0.0
0
LINE
5
87d
100
AcDbEntity
8
F-0
6
CONTINUOUS
62
4
100
AcDbLine
10
305.650000000000
20
751.220000000000
30
0.0
11
307.270000000000
21
751.540000000000
31
0.0
0
LINE
5
87e
100
AcDbEntity
8
F-0
6
CONTINUOUS
62
4
100
AcDbLine
10
306.840000000000
20
751.450000000000
30
0.0
11
307.220000000000
21
751.830000000000
31
0.0
0
LINE
5
87f
100
AcDbEntity
8
F-0
6
CONTINUOUS
62
4
100
AcDbLine
10
295.440000000000
20
751.370000000000
30
0.0
11
296.580000000000
21
752.510000000000
31
0.0
0
LINE
5
880
100
AcDbEntity
8
F-0
6
CONTINUOUS
62
7
100
AcDbLine
10
303.230000000000
20
759.760000000000
30
0.0
11
314.000000000000
21
778.410000000000
31
0.0
0
LINE
5
881
100
AcDbEntity
8
F-0
6
CONTINUOUS
62
7
100
AcDbLine
10
190.640000000000
20
713.540000000000
30
0.0
11
245.920000000000
21
713.540000000000
31
0.0
0
LINE
5
882
100
AcDbEntity
8
F-0
6
CONTINUOUS
62
7
100
AcDbLine
10
245.920000000000
20
712.340000000000
30
0.0
11
190.640000000000
21
712.340000000000
31
0.0
0
LINE
5
883
100
AcDbEntity
8
F-0
6
CONTINUOUS
62
7
100
AcDbLine
10
364.920000000000
20
713.540000000000
30
0.0
11
417.530000000000
21
713.540000000000
31
0.0
0
LINE
5
884
100
AcDbEntity
8
F-0
6
CONTINUOUS
62
7
100
AcDbLine
10
417.530000000000
20
712.340000000000
30
0.0
11
364.920000000000
21
712.340000000000
31
0.0
0
LINE
5
885
100
AcDbEntity
8
F-0
6
CONTINUOUS
62
7
100
AcDbLine
10
293.890000000000
20
754.570000000000
30
0.0
11
271.040000000000
21
794.130000000000
31
0.0
0
LINE
5
886
100
AcDbEntity
8
F-0
6
CONTINUOUS
62
4
100
AcDbLine
10
324.420000000000
20
714.840000000000
30
0.0
11
334.420000000000
21
714.840000000000
31
0.0
0
LINE
5
887
100
AcDbEntity
8
F-0
6
CONTINUOUS
62
4
100
AcDbLine
10
326.420000000000
20
715.340000000000
30
0.0
11
332.420000000000
21
715.340000000000
31
0.0
0
LINE
5
888
100
AcDbEntity
8
F-0
6
CONTINUOUS
62
4
100
AcDbLine
10
334.420000000000
20
714.840000000000
30
0.0
11
334.420000000000
21
714.440000000000
31
0.0
0
LINE
5
889
100
AcDbEntity
8
F-0
6
CONTINUOUS
62
4
100
AcDbLine
10
332.420000000000
20
715.340000000000
30
0.0
11
333.920000000000
21
714.840000000000
31
0.0
0
LINE
5
88a
100
AcDbEntity
8
F-0
6
CONTINUOUS
62
4
100
AcDbLine
10
331.820000000000
20
703.970000000000
30
0.0
11
327.020000000000
21
704.770000000000
31
0.0
0
LINE
5
88b
100
AcDbEntity
8
F-0
6
CONTINUOUS
62
4
100
AcDbLine
10
331.820000000000
20
702.370000000000
30
0.0
11
327.020000000000
21
703.170000000000
31
0.0
0
LINE
5
88c
100
AcDbEntity
8
F-0
6
CONTINUOUS
62
4
100
AcDbLine
10
331.820000000000
20
700.770000000000
30
0.0
11
327.020000000000
21
701.570000000000
31
0.0
0
LINE
5
88d
100
AcDbEntity
8
F-0
6
CONTINUOUS
62
4
100
AcDbLine
10
331.820000000000
20
705.570000000000
30
0.0
11
327.020000000000
21
706.370000000000
31
0.0
0
LINE
5
88e
100
AcDbEntity
8
F-0
6
CONTINUOUS
62
4
100
AcDbLine
10
324.420000000000
20
714.840000000000
30
0.0
11
324.420000000000
21
714.440000000000
31
0.0
0
LINE
5
88f
100
AcDbEntity
8
F-0
6
CONTINUOUS
62
4
100
AcDbLine
10
326.420000000000
20
715.340000000000
30
0.0
11
324.920000000000
21
714.840000000000
31
0.0
0
LINE
5
890
100
AcDbEntity
8
F-0
6
CONTINUOUS
62
4
100
AcDbLine
10
331.820000000000
20
697.570000000000
30
0.0
11
327.020000000000
21
698.370000000000
31
0.0
0
LINE
5
891
100
AcDbEntity
8
F-0
6
CONTINUOUS
62
4
100
AcDbLine
10
331.820000000000
20
699.170000000000
30
0.0
11
327.020000000000
21
699.970000000000
31
0.0
0
LINE
5
892
100
AcDbEntity
8
F-0
6
CONTINUOUS
62
4
100
AcDbLine
10
331.820000000000
20
695.970000000000
30
0.0
11
327.020000000000
21
696.770000000000
31
0.0
0
LINE
5
893
100
AcDbEntity
8
F-0
6
CONTINUOUS
62
4
100
AcDbLine
10
331.820000000000
20
694.370000000000
30
0.0
11
327.020000000000
21
695.170000000000
31
0.0
0
LINE
5
894
100
AcDbEntity
8
F-0
6
CONTINUOUS
62
4
100
AcDbLine
10
329.420000000000
20
679.440000000000
30
0.0
11
327.420000000000
21
681.040000000000
31
0.0
0
LINE
5
895
100
AcDbEntity
8
F-0
6
CONTINUOUS
62
4
100
AcDbLine
10
331.420000000000
20
681.040000000000
30
0.0
11
329.420000000000
21
679.440000000000
31
0.0
0
LINE
5
896
100
AcDbEntity
8
F-0
6
CONTINUOUS
62
4
100
AcDbLine
10
324.420000000000
20
714.440000000000
30
0.0
11
334.420000000000
21
714.440000000000
31
0.0
0
LINE
5
897
100
AcDbEntity
8
F-0
6
CONTINUOUS
62
4
100
AcDbLine
10
331.820000000000
20
708.770000000000
30
0.0
11
327.020000000000
21
709.570000000000
31
0.0
0
LINE
5
898
100
AcDbEntity
8
F-0
6
CONTINUOUS
62
4
100
AcDbLine
10
331.820000000000
20
707.170000000000
30
0.0
11
327.020000000000
21
707.970000000000
31
0.0
0
LINE
5
899
100
AcDbEntity
8
F-0
6
CONTINUOUS
62
4
100
AcDbLine
10
331.820000000000
20
710.370000000000
30
0.0
11
327.020000000000
21
711.170000000000
31
0.0
0
LINE
5
89a
100
AcDbEntity
8
F-0
6
CONTINUOUS
62
4
100
AcDbLine
10
327.420000000000
20
681.040000000000
30
0.0
11
327.420000000000
21
714.440000000000
31
0.0
0
LINE
5
89b
100
AcDbEntity
8
F-0
6
CONTINUOUS
62
4
100
AcDbLine
10
331.420000000000
20
681.040000000000
30
0.0
11
331.420000000000
21
714.440000000000
31
0.0
0
LINE
5
89c
100
AcDbEntity
8
F-0
6
CONTINUOUS
62
4
100
AcDbLine
10
331.820000000000
20
692.770000000000
30
0.0
11
327.020000000000
21
693.570000000000
31
0.0
0
LINE
5
89d
100
AcDbEntity
8
F-0
6
CONTINUOUS
62
4
100
AcDbLine
10
331.820000000000
20
691.170000000000
30
0.0
11
327.020000000000
21
691.970000000000
31
0.0
0
LINE
5
89e
100
AcDbEntity
8
F-0
6
CONTINUOUS
62
4
100
AcDbLine
10
331.820000000000
20
689.570000000000
30
0.0
11
327.020000000000
21
690.370000000000
31
0.0
0
LINE
5
89f
100
AcDbEntity
8
F-0
6
CONTINUOUS
62
4
100
AcDbLine
10
331.820000000000
20
687.970000000000
30
0.0
11
327.020000000000
21
688.770000000000
31
0.0
0
LINE
5
8a0
100
AcDbEntity
8
F-0
6
CONTINUOUS
62
4
100
AcDbLine
10
331.820000000000
20
686.370000000000
30
0.0
11
327.020000000000
21
687.170000000000
31
0.0
0
LINE
5
8a1
100
AcDbEntity
8
F-0
6
CENTER2
62
4
100
AcDbLine
10
329.420000000000
20
716.250000000000
30
0.0
11
329.420000000000
21
676.100000000000
31
0.0
0
LINE
5
8a2
100
AcDbEntity
8
F-0
6
CONTINUOUS
62
4
100
AcDbLine
10
328.620000000000
20
680.240000000000
30
0.0
11
329.420000000000
21
681.040000000000
31
0.0
0
LINE
5
8a3
100
AcDbEntity
8
F-0
6
CONTINUOUS
62
4
100
AcDbLine
10
329.420000000000
20
681.040000000000
30
0.0
11
328.880000000000
21
682.130000000000
31
0.0
0
LINE
5
8a4
100
AcDbEntity
8
F-0
6
CONTINUOUS
62
4
100
AcDbLine
10
328.880000000000
20
682.130000000000
30
0.0
11
330.100000000000
21
682.830000000000
31
0.0
0
LINE
5
8a5
100
AcDbEntity
8
F-0
6
CONTINUOUS
62
4
100
AcDbLine
10
330.100000000000
20
682.830000000000
30
0.0
11
331.420000000000
21
681.040000000000
31
0.0
0
LINE
5
8a6
100
AcDbEntity
8
0-1_2_0
6
DOT
62
7
100
AcDbLine
10
842.990000000000
20
919.190000000000
30
0.0
11
822.260000000000
21
915.040000000000
31
0.0
0
LINE
5
8a7
100
AcDbEntity
8
0-1_2_0
6
DOT
62
7
100
AcDbLine
10
844.640000000000
20
918.090000000000
30
0.0
11
826.950000000000
21
891.570000000000
31
0.0
0
LINE
5
8a8
100
AcDbEntity
8
0-1_2_0
6
CONTINUOUS
62
7
100
AcDbLine
10
848.230000000000
20
900.110000000000
30
0.0
11
844.640000000000
21
918.090000000000
31
0.0
0
LINE
5
8a9
100
AcDbEntity
8
0-1_2_0
6
CONTINUOUS
62
7
100
AcDbLine
10
845.220000000000
20
918.210000000000
30
0.0
11
848.820000000000
21
900.230000000000
31
0.0
0
LINE
5
8aa
100
AcDbEntity
8
0-1_2_0
6
CONTINUOUS
62
7
100
AcDbLine
10
655.960000000000
20
867.060000000000
30
0.0
11
846.210000000000
21
905.110000000000
31
0.0
0
LINE
5
8ab
100
AcDbEntity
8
0-1_2_0
6
CONTINUOUS
62
7
100
AcDbLine
10
846.210000000000
20
905.110000000000
30
0.0
11
843.270000000000
21
919.820000000000
31
0.0
0
LINE
5
8ac
100
AcDbEntity
8
0-1_2_0
6
DOT
62
7
100
AcDbLine
10
826.950000000000
20
891.570000000000
30
0.0
11
822.260000000000
21
915.040000000000
31
0.0
0
LINE
5
8ad
100
AcDbEntity
8
0-1_2_0
6
CONTINUOUS
62
7
100
AcDbLine
10
729.120000000000
20
898.820000000000
30
0.0
11
732.980000000000
21
879.500000000000
31
0.0
0
LINE
5
8ae
100
AcDbEntity
8
0-1_2_0
6
CONTINUOUS
62
7
100
AcDbLine
10
728.530000000000
20
898.710000000000
30
0.0
11
732.390000000000
21
879.380000000000
31
0.0
0
LINE
5
8af
100
AcDbEntity
8
0-1_2_0
6
CONTINUOUS
62
3
100
AcDbLine
10
848.940000000000
20
894.340000000000
30
0.0
11
658.140000000000
21
856.170000000000
31
0.0
0
LINE
5
8b0
100
AcDbEntity
8
0-1_2_0
6
CONTINUOUS
62
3
100
AcDbLine
10
853.850000000000
20
869.820000000000
30
0.0
11
848.940000000000
21
894.340000000000
31
0.0
0
LINE
5
8b1
100
AcDbEntity
8
0-1_2_0
6
CONTINUOUS
62
3
100
AcDbLine
10
853.850000000000
20
869.820000000000
30
0.0
11
663.040000000000
21
831.660000000000
31
0.0
0
LINE
5
8b2
100
AcDbEntity
8
0-1_2_0
6
CONTINUOUS
62
4
100
AcDbLine
10
827.590000000000
20
890.060000000000
30
0.0
11
853.210000000000
21
872.980000000000
31
0.0
0
LINE
5
8b3
100
AcDbEntity
8
0-1_2_0
6
CONTINUOUS
62
4
100
AcDbLine
10
848.190000000000
20
868.690000000000
30
0.0
11
852.710000000000
21
875.470000000000
31
0.0
0
LINE
5
8b4
100
AcDbEntity
8
0-1_2_0
6
DASHED
62
7
100
AcDbLine
10
853.850000000000
20
896.340000000000
30
0.0
11
657.940000000000
21
857.160000000000
31
0.0
0
LINE
5
8b5
100
AcDbEntity
8
0-1_2_0
6
CONTINUOUS
62
7
100
AcDbLine
10
860.560000000000
20
898.460000000000
30
0.0
11
1050.410000000000
21
860.490000000000
31
0.0
0
LINE
5
8b6
100
AcDbEntity
8
0-1_2_0
6
CONTINUOUS
62
7
100
AcDbLine
10
860.440000000000
20
897.870000000000
30
0.0
11
1050.300000000000
21
859.900000000000
31
0.0
0
LINE
5
8b7
100
AcDbEntity
8
0-1_2_0
6
DOT
62
7
100
AcDbLine
10
859.320000000000
20
896.360000000000
30
0.0
11
1049.960000000000
21
858.230000000000
31
0.0
0
LINE
5
8b8
100
AcDbEntity
8
0-1_2_0
6
DOT
62
7
100
AcDbLine
10
859.120000000000
20
895.890000000000
30
0.0
11
1049.860000000000
21
857.740000000000
31
0.0
0
LINE
5
8b9
100
AcDbEntity
8
0-1_2_0
6
DOT
62
7
100
AcDbLine
10
863.050000000000
20
918.090000000000
30
0.0
11
880.740000000000
21
891.570000000000
31
0.0
0
LINE
5
8ba
100
AcDbEntity
8
0-1_2_0
6
DOT
62
7
100
AcDbLine
10
864.700000000000
20
919.190000000000
30
0.0
11
885.430000000000
21
915.040000000000
31
0.0
0
LINE
5
8bb
100
AcDbEntity
8
0-1_2_0
6
DOT
62
7
100
AcDbLine
10
880.740000000000
20
891.570000000000
30
0.0
11
885.430000000000
21
915.040000000000
31
0.0
0
LINE
5
8bc
100
AcDbEntity
8
0-1_2_0
6
CONTINUOUS
62
7
100
AcDbLine
10
859.460000000000
20
900.110000000000
30
0.0
11
863.060000000000
21
918.090000000000
31
0.0
0
LINE
5
8bd
100
AcDbEntity
8
0-1_2_0
6
CONTINUOUS
62
7
100
AcDbLine
10
862.470000000000
20
918.210000000000
30
0.0
11
858.870000000000
21
900.230000000000
31
0.0
0
LINE
5
8be
100
AcDbEntity
8
0-1_2_0
6
CONTINUOUS
62
7
100
AcDbLine
10
861.480000000000
20
905.110000000000
30
0.0
11
864.420000000000
21
919.820000000000
31
0.0
0
LINE
5
8bf
100
AcDbEntity
8
0-1_2_0
6
CONTINUOUS
62
7
100
AcDbLine
10
1051.730000000000
20
867.060000000000
30
0.0
11
861.480000000000
21
905.110000000000
31
0.0
0
LINE
5
8c0
100
AcDbEntity
8
0-1_2_0
6
CONTINUOUS
62
3
100
AcDbLine
10
853.850000000000
20
869.820000000000
30
0.0
11
1044.650000000000
21
831.660000000000
31
0.0
0
LINE
5
8c1
100
AcDbEntity
8
0-1_2_0
6
CONTINUOUS
62
3
100
AcDbLine
10
858.750000000000
20
894.330000000000
30
0.0
11
1049.550000000000
21
856.170000000000
31
0.0
0
LINE
5
8c2
100
AcDbEntity
8
0-1_2_0
6
CONTINUOUS
62
3
100
AcDbLine
10
853.850000000000
20
869.820000000000
30
0.0
11
858.750000000000
21
894.330000000000
31
0.0
0
LINE
5
8c3
100
AcDbEntity
8
0-1_2_0
6
CONTINUOUS
62
4
100
AcDbLine
10
880.110000000000
20
890.060000000000
30
0.0
11
854.480000000000
21
872.980000000000
31
0.0
0
LINE
5
8c4
100
AcDbEntity
8
0-1_2_0
6
CONTINUOUS
62
4
100
AcDbLine
10
859.500000000000
20
868.690000000000
30
0.0
11
854.980000000000
21
875.470000000000
31
0.0
0
LINE
5
8c5
100
AcDbEntity
8
0-1_2_0
6
CONTINUOUS
62
7
100
AcDbLine
10
830.140000000000
20
870.280000000000
30
0.0
11
846.480000000000
21
841.970000000000
31
0.0
0
LINE
5
8c6
100
AcDbEntity
8
0-2_2_1
6
CONTINUOUS
62
3
100
AcDbLine
10
1382.770000000000
20
711.230000000000
30
0.0
11
1338.250000000000
21
702.330000000000
31
0.0
0
LINE
5
8c7
100
AcDbEntity
8
0-2_2_1
6
CONTINUOUS
62
3
100
AcDbLine
10
1338.250000000000
20
702.330000000000
30
0.0
11
1319.540000000000
21
795.880000000000
31
0.0
0
LINE
5
8c8
100
AcDbEntity
8
0-2_2_1
6
CONTINUOUS
62
3
100
AcDbLine
10
1363.610000000000
20
807.040000000000
30
0.0
11
1319.090000000000
21
798.130000000000
31
0.0
0
LINE
5
8c9
100
AcDbEntity
8
0-2_2_1
6
CONTINUOUS
62
3
100
AcDbLine
10
1319.540000000000
20
795.880000000000
30
0.0
11
1364.060000000000
21
804.780000000000
31
0.0
0
LINE
5
8ca
100
AcDbEntity
8
0-2_2_1
6
CONTINUOUS
62
3
100
AcDbLine
10
1369.790000000000
20
787.880000000000
30
0.0
11
1366.310000000000
21
805.230000000000
31
0.0
0
LINE
5
8cb
100
AcDbEntity
8
0-2_2_1
6
CONTINUOUS
62
3
100
AcDbLine
10
1364.060000000000
20
804.780000000000
30
0.0
11
1367.530000000000
21
787.420000000000
31
0.0
0
LINE
5
8cc
100
AcDbEntity
8
0-2_2_1
6
CONTINUOUS
62
3
100
AcDbLine
10
1367.530000000000
20
787.420000000000
30
0.0
11
1369.790000000000
21
787.880000000000
31
0.0
0
LINE
5
8cd
100
AcDbEntity
8
0-2_2_1
6
CONTINUOUS
62
3
100
AcDbLine
10
1379.300000000000
20
728.590000000000
30
0.0
11
1382.770000000000
21
711.230000000000
31
0.0
0
LINE
5
8ce
100
AcDbEntity
8
0-2_2_1
6
CONTINUOUS
62
3
100
AcDbLine
10
1385.020000000000
20
711.680000000000
30
0.0
11
1381.550000000000
21
729.040000000000
31
0.0
0
LINE
5
8cf
100
AcDbEntity
8
0-2_2_1
6
CONTINUOUS
62
3
100
AcDbLine
10
1381.550000000000
20
729.040000000000
30
0.0
11
1379.300000000000
21
728.590000000000
31
0.0
0
LINE
5
8d0
100
AcDbEntity
8
0-2_2_1
6
CONTINUOUS
62
3
100
AcDbLine
10
1338.700000000000
20
700.070000000000
30
0.0
11
1383.220000000000
21
708.980000000000
31
0.0
0
LINE
5
8d1
100
AcDbEntity
8
0-2_2_1
6
CONTINUOUS
62
4
100
AcDbLine
10
1331.050000000000
20
828.570000000000
30
0.0
11
1340.860000000000
21
830.530000000000
31
0.0
0
LINE
5
8d2
100
AcDbEntity
8
0-2_2_1
6
CONTINUOUS
62
4
100
AcDbLine
10
1332.920000000000
20
829.450000000000
30
0.0
11
1338.800000000000
21
830.630000000000
31
0.0
0
LINE
5
8d3
100
AcDbEntity
8
0-2_2_1
6
CONTINUOUS
62
4
100
AcDbLine
10
1340.860000000000
20
830.530000000000
30
0.0
11
1340.940000000000
21
830.140000000000
31
0.0
0
LINE
5
8d4
100
AcDbEntity
8
0-2_2_1
6
CONTINUOUS
62
4
100
AcDbLine
10
1338.800000000000
20
830.630000000000
30
0.0
11
1340.370000000000
21
830.430000000000
31
0.0
0
LINE
5
8d5
100
AcDbEntity
8
0-2_2_1
6
CONTINUOUS
62
4
100
AcDbLine
10
1340.440000000000
20
819.360000000000
30
0.0
11
1335.580000000000
21
819.200000000000
31
0.0
0
LINE
5
8d6
100
AcDbEntity
8
0-2_2_1
6
CONTINUOUS
62
4
100
AcDbLine
10
1340.750000000000
20
817.790000000000
30
0.0
11
1335.890000000000
21
817.630000000000
31
0.0
0
LINE
5
8d7
100
AcDbEntity
8
0-2_2_1
6
CONTINUOUS
62
4
100
AcDbLine
10
1341.070000000000
20
816.220000000000
30
0.0
11
1336.200000000000
21
816.070000000000
31
0.0
0
LINE
5
8d8
100
AcDbEntity
8
0-2_2_1
6
CONTINUOUS
62
4
100
AcDbLine
10
1340.130000000000
20
820.930000000000
30
0.0
11
1335.260000000000
21
820.770000000000
31
0.0
0
LINE
5
8d9
100
AcDbEntity
8
0-2_2_1
6
CONTINUOUS
62
4
100
AcDbLine
10
1331.050000000000
20
828.570000000000
30
0.0
11
1331.130000000000
21
828.180000000000
31
0.0
0
LINE
5
8da
100
AcDbEntity
8
0-2_2_1
6
CONTINUOUS
62
4
100
AcDbLine
10
1332.920000000000
20
829.450000000000
30
0.0
11
1331.540000000000
21
828.670000000000
31
0.0
0
LINE
5
8db
100
AcDbEntity
8
0-2_2_1
6
CONTINUOUS
62
4
100
AcDbLine
10
1341.700000000000
20
813.080000000000
30
0.0
11
1336.830000000000
21
812.930000000000
31
0.0
0
LINE
5
8dc
100
AcDbEntity
8
0-2_2_1
6
CONTINUOUS
62
4
100
AcDbLine
10
1341.380000000000
20
814.650000000000
30
0.0
11
1336.520000000000
21
814.500000000000
31
0.0
0
LINE
5
8dd
100
AcDbEntity
8
0-2_2_1
6
CONTINUOUS
62
4
100
AcDbLine
10
1342.010000000000
20
811.520000000000
30
0.0
11
1337.150000000000
21
811.360000000000
31
0.0
0
LINE
5
8de
100
AcDbEntity
8
0-2_2_1
6
CONTINUOUS
62
4
100
AcDbLine
10
1342.320000000000
20
809.950000000000
30
0.0
11
1337.460000000000
21
809.790000000000
31
0.0
0
LINE
5
8df
100
AcDbEntity
8
0-2_2_1
6
CONTINUOUS
62
4
100
AcDbLine
10
1343.880000000000
20
789.940000000000
30
0.0
11
1341.600000000000
21
791.110000000000
31
0.0
0
LINE
5
8e0
100
AcDbEntity
8
0-2_2_1
6
CONTINUOUS
62
4
100
AcDbLine
10
1345.530000000000
20
791.900000000000
30
0.0
11
1343.880000000000
21
789.940000000000
31
0.0
0
LINE
5
8e1
100
AcDbEntity
8
0-2_2_1
6
CONTINUOUS
62
4
100
AcDbLine
10
1331.130000000000
20
828.180000000000
30
0.0
11
1340.940000000000
21
830.140000000000
31
0.0
0
LINE
5
8e2
100
AcDbEntity
8
0-2_2_1
6
CONTINUOUS
62
4
100
AcDbLine
10
1339.500000000000
20
824.070000000000
30
0.0
11
1334.630000000000
21
823.910000000000
31
0.0
0
LINE
5
8e3
100
AcDbEntity
8
0-2_2_1
6
CONTINUOUS
62
4
100
AcDbLine
10
1339.810000000000
20
822.500000000000
30
0.0
11
1334.950000000000
21
822.340000000000
31
0.0
0
LINE
5
8e4
100
AcDbEntity
8
0-2_2_1
6
CONTINUOUS
62
4
100
AcDbLine
10
1339.190000000000
20
825.640000000000
30
0.0
11
1334.320000000000
21
825.480000000000
31
0.0
0
LINE
5
8e5
100
AcDbEntity
8
0-2_2_1
6
CONTINUOUS
62
4
100
AcDbLine
10
1342.640000000000
20
808.380000000000
30
0.0
11
1337.770000000000
21
808.220000000000
31
0.0
0
LINE
5
8e6
100
AcDbEntity
8
0-2_2_1
6
CONTINUOUS
62
4
100
AcDbLine
10
1342.950000000000
20
806.810000000000
30
0.0
11
1338.090000000000
21
806.650000000000
31
0.0
0
LINE
5
8e7
100
AcDbEntity
8
0-2_2_1
6
CONTINUOUS
62
4
100
AcDbLine
10
1343.260000000000
20
805.240000000000
30
0.0
11
1338.400000000000
21
805.080000000000
31
0.0
0
LINE
5
8e8
100
AcDbEntity
8
0-2_2_1
6
CONTINUOUS
62
4
100
AcDbLine
10
1343.580000000000
20
803.670000000000
30
0.0
11
1338.710000000000
21
803.510000000000
31
0.0
0
LINE
5
8e9
100
AcDbEntity
8
0-2_2_1
6
CONTINUOUS
62
4
100
AcDbLine
10
1343.890000000000
20
802.100000000000
30
0.0
11
1339.030000000000
21
801.950000000000
31
0.0
0
LINE
5
8ea
100
AcDbEntity
8
0-2_2_1
6
CONTINUOUS
62
4
100
AcDbLine
10
1344.210000000000
20
800.530000000000
30
0.0
11
1339.340000000000
21
800.380000000000
31
0.0
0
LINE
5
8eb
100
AcDbEntity
8
0-2_2_1
6
CONTINUOUS
62
4
100
AcDbLine
10
1344.520000000000
20
798.970000000000
30
0.0
11
1339.660000000000
21
798.810000000000
31
0.0
0
LINE
5
8ec
100
AcDbEntity
8
0-2_2_1
6
CONTINUOUS
62
4
100
AcDbLine
10
1344.830000000000
20
797.400000000000
30
0.0
11
1339.970000000000
21
797.240000000000
31
0.0
0
LINE
5
8ed
100
AcDbEntity
8
0-2_2_1
6
CONTINUOUS
62
4
100
AcDbLine
10
1345.150000000000
20
795.830000000000
30
0.0
11
1340.280000000000
21
795.670000000000
31
0.0
0
LINE
5
8ee
100
AcDbEntity
8
0-2_2_1
6
CENTER2
62
4
100
AcDbLine
10
1335.840000000000
20
830.140000000000
30
0.0
11
1345.190000000000
21
783.390000000000
31
0.0
0
LINE
5
8ef
100
AcDbEntity
8
0-2_2_1
6
CONTINUOUS
62
4
100
AcDbLine
10
1345.530000000000
20
791.900000000000
30
0.0
11
1337.990000000000
21
829.550000000000
31
0.0
0
LINE
5
8f0
100
AcDbEntity
8
0-2_2_1
6
CONTINUOUS
62
4
100
AcDbLine
10
1341.600000000000
20
791.110000000000
30
0.0
11
1334.070000000000
21
828.770000000000
31
0.0
0
LINE
5
8f1
100
AcDbEntity
8
0-2_2_1
6
CONTINUOUS
62
4
100
AcDbLine
10
1405.610000000000
20
815.440000000000
30
0.0
11
1425.220000000000
21
844.850000000000
31
0.0
0
LINE
5
8f2
100
AcDbEntity
8
0-2_2_1
6
CONTINUOUS
62
4
100
AcDbLine
10
1377.870000000000
20
809.890000000000
30
0.0
11
1397.480000000000
21
839.310000000000
31
0.0
0
LINE
5
8f3
100
AcDbEntity
8
0-2_2_1
6
CONTINUOUS
62
4
100
AcDbLine
10
1350.140000000000
20
804.340000000000
30
0.0
11
1369.750000000000
21
833.760000000000
31
0.0
0
LINE
5
8f4
100
AcDbEntity
8
0-2_2_1
6
CONTINUOUS
62
4
100
AcDbLine
10
1322.400000000000
20
798.800000000000
30
0.0
11
1342.010000000000
21
828.210000000000
31
0.0
0
LINE
5
8f5
100
AcDbEntity
8
0-2_2_1
6
CONTINUOUS
62
4
100
AcDbLine
10
1294.670000000000
20
793.250000000000
30
0.0
11
1314.280000000000
21
822.670000000000
31
0.0
0
LINE
5
8f6
100
AcDbEntity
8
0-2_2_1
6
CONTINUOUS
62
4
100
AcDbLine
10
1266.930000000000
20
787.700000000000
30
0.0
11
1286.540000000000
21
817.120000000000
31
0.0
0
LINE
5
8f7
100
AcDbEntity
8
0-2_2_1
6
CONTINUOUS
62
4
100
AcDbLine
10
1246.320000000000
20
809.070000000000
30
0.0
11
1275.740000000000
21
789.460000000000
31
0.0
0
LINE
5
8f8
100
AcDbEntity
8
0-2_2_1
6
CONTINUOUS
62
4
100
AcDbLine
10
1274.060000000000
20
814.620000000000
30
0.0
11
1303.480000000000
21
795.010000000000
31
0.0
0
LINE
5
8f9
100
AcDbEntity
8
0-2_2_1
6
CONTINUOUS
62
4
100
AcDbLine
10
1301.790000000000
20
820.170000000000
30
0.0
11
1331.210000000000
21
800.560000000000
31
0.0
0
LINE
5
8fa
100
AcDbEntity
8
0-2_2_1
6
CONTINUOUS
62
4
100
AcDbLine
10
1329.530000000000
20
825.720000000000
30
0.0
11
1358.950000000000
21
806.100000000000
31
0.0
0
LINE
5
8fb
100
AcDbEntity
8
0-2_2_1
6
CONTINUOUS
62
4
100
AcDbLine
10
1357.260000000000
20
831.260000000000
30
0.0
11
1386.680000000000
21
811.650000000000
31
0.0
0
LINE
5
8fc
100
AcDbEntity
8
0-2_2_1
6
CONTINUOUS
62
4
100
AcDbLine
10
1385.000000000000
20
836.810000000000
30
0.0
11
1414.420000000000
21
817.200000000000
31
0.0
0
LINE
5
8fd
100
AcDbEntity
8
0-2_2_1
6
CONTINUOUS
62
3
100
AcDbLine
10
1317.280000000000
20
795.430000000000
30
0.0
11
1335.990000000000
21
701.880000000000
31
0.0
0
LINE
5
8fe
100
AcDbEntity
8
0-2_2_1
6
CONTINUOUS
62
7
100
AcDbLine
10
1308.890000000000
20
849.430000000000
30
0.0
11
1309.010000000000
21
848.840000000000
31
0.0
0
LINE
5
8ff
100
AcDbEntity
8
0-2_2_1
6
CONTINUOUS
62
7
100
AcDbLine
10
1308.890000000000
20
849.430000000000
30
0.0
11
1294.180000000000
21
846.490000000000
31
0.0
0
LINE
5
900
100
AcDbEntity
8
0-2_2_1
6
CONTINUOUS
62
7
100
AcDbLine
10
1309.010000000000
20
848.840000000000
30
0.0
11
1294.300000000000
21
845.900000000000
31
0.0
0
LINE
5
901
100
AcDbEntity
8
0-2_2_1
6
CONTINUOUS
62
7
100
AcDbLine
10
1313.680000000000
20
851.000000000000
30
0.0
11
1294.070000000000
21
847.080000000000
31
0.0
0
LINE
5
902
100
AcDbEntity
8
0-2_2_1
6
CONTINUOUS
62
7
100
AcDbLine
10
1313.560000000000
20
851.590000000000
30
0.0
11
1293.950000000000
21
847.660000000000
31
0.0
0
LINE
5
903
100
AcDbEntity
8
0-2_2_1
6
CONTINUOUS
62
7
100
AcDbLine
10
1338.080000000000
20
856.490000000000
30
0.0
11
1338.190000000000
21
855.900000000000
31
0.0
0
LINE
5
904
100
AcDbEntity
8
0-2_2_1
6
CONTINUOUS
62
7
100
AcDbLine
10
1343.100000000000
20
856.880000000000
30
0.0
11
1338.190000000000
21
855.900000000000
31
0.0
0
LINE
5
905
100
AcDbEntity
8
0-2_2_1
6
CONTINUOUS
62
7
100
AcDbLine
10
1342.980000000000
20
857.470000000000
30
0.0
11
1338.080000000000
21
856.490000000000
31
0.0
0
LINE
5
906
100
AcDbEntity
8
0-2_2_1
6
CONTINUOUS
62
7
100
AcDbLine
10
1323.680000000000
20
852.390000000000
30
0.0
11
1343.210000000000
21
856.290000000000
31
0.0
0
LINE
5
907
100
AcDbEntity
8
0-2_2_1
6
CONTINUOUS
62
7
100
AcDbLine
10
1313.960000000000
20
852.280000000000
30
0.0
11
1293.830000000000
21
848.250000000000
31
0.0
0
LINE
5
908
100
AcDbEntity
8
0-2_2_1
6
CONTINUOUS
62
7
100
AcDbLine
10
1323.640000000000
20
851.790000000000
30
0.0
11
1314.110000000000
21
852.290000000000
31
0.0
0
LINE
5
909
100
AcDbEntity
8
0-2_2_1
6
CONTINUOUS
62
7
100
AcDbLine
10
1323.790000000000
20
851.800000000000
30
0.0
11
1343.330000000000
21
855.710000000000
31
0.0
0
LINE
5
90a
100
AcDbEntity
8
0-2_2_1
6
CONTINUOUS
62
7
100
AcDbLine
10
1313.840000000000
20
852.870000000000
30
0.0
11
1293.710000000000
21
848.840000000000
31
0.0
0
LINE
5
90b
100
AcDbEntity
8
0-2_2_1
6
CONTINUOUS
62
7
100
AcDbLine
10
1313.990000000000
20
852.880000000000
30
0.0
11
1323.530000000000
21
852.380000000000
31
0.0
0
LINE
5
90c
100
AcDbEntity
8
0-2_2_1
6
CONTINUOUS
62
4
100
AcDbLine
10
1332.020000000000
20
842.330000000000
30
0.0
11
1329.770000000000
21
853.600000000000
31
0.0
0
LINE
5
90d
100
AcDbEntity
8
0-2_2_1
6
CONTINUOUS
62
4
100
AcDbLine
10
1332.220000000000
20
854.090000000000
30
0.0
11
1334.470000000000
21
842.820000000000
31
0.0
0
LINE
5
90e
100
AcDbEntity
8
0-2_2_1
6
CONTINUOUS
62
4
100
AcDbLine
10
1326.010000000000
20
853.260000000000
30
0.0
11
1335.820000000000
21
855.220000000000
31
0.0
0
LINE
5
90f
100
AcDbEntity
8
0-2_2_1
6
CONTINUOUS
62
4
100
AcDbLine
10
1327.870000000000
20
854.140000000000
30
0.0
11
1333.760000000000
21
855.320000000000
31
0.0
0
LINE
5
910
100
AcDbEntity
8
0-2_2_1
6
CONTINUOUS
62
4
100
AcDbLine
10
1335.820000000000
20
855.220000000000
30
0.0
11
1335.900000000000
21
854.830000000000
31
0.0
0
LINE
5
911
100
AcDbEntity
8
0-2_2_1
6
CONTINUOUS
62
4
100
AcDbLine
10
1333.760000000000
20
855.320000000000
30
0.0
11
1335.330000000000
21
855.120000000000
31
0.0
0
LINE
5
912
100
AcDbEntity
8
0-2_2_1
6
CONTINUOUS
62
4
100
AcDbLine
10
1333.130000000000
20
850.790000000000
30
0.0
11
1330.090000000000
21
850.690000000000
31
0.0
0
LINE
5
913
100
AcDbEntity
8
0-2_2_1
6
CONTINUOUS
62
4
100
AcDbLine
10
1333.330000000000
20
849.810000000000
30
0.0
11
1330.290000000000
21
849.710000000000
31
0.0
0
LINE
5
914
100
AcDbEntity
8
0-2_2_1
6
CONTINUOUS
62
4
100
AcDbLine
10
1333.530000000000
20
848.830000000000
30
0.0
11
1330.490000000000
21
848.730000000000
31
0.0
0
LINE
5
915
100
AcDbEntity
8
0-2_2_1
6
CONTINUOUS
62
4
100
AcDbLine
10
1332.940000000000
20
851.770000000000
30
0.0
11
1329.900000000000
21
851.670000000000
31
0.0
0
LINE
5
916
100
AcDbEntity
8
0-2_2_1
6
CONTINUOUS
62
4
100
AcDbLine
10
1326.010000000000
20
853.260000000000
30
0.0
11
1326.090000000000
21
852.870000000000
31
0.0
0
LINE
5
917
100
AcDbEntity
8
0-2_2_1
6
CONTINUOUS
62
4
100
AcDbLine
10
1327.870000000000
20
854.140000000000
30
0.0
11
1326.500000000000
21
853.360000000000
31
0.0
0
LINE
5
918
100
AcDbEntity
8
0-2_2_1
6
CONTINUOUS
62
4
100
AcDbLine
10
1333.920000000000
20
846.870000000000
30
0.0
11
1330.880000000000
21
846.770000000000
31
0.0
0
LINE
5
919
100
AcDbEntity
8
0-2_2_1
6
CONTINUOUS
62
4
100
AcDbLine
10
1333.720000000000
20
847.850000000000
30
0.0
11
1330.680000000000
21
847.750000000000
31
0.0
0
LINE
5
91a
100
AcDbEntity
8
0-2_2_1
6
CONTINUOUS
62
4
100
AcDbLine
10
1334.120000000000
20
845.890000000000
30
0.0
11
1331.080000000000
21
845.790000000000
31
0.0
0
LINE
5
91b
100
AcDbEntity
8
0-2_2_1
6
CONTINUOUS
62
4
100
AcDbLine
10
1334.310000000000
20
844.910000000000
30
0.0
11
1331.270000000000
21
844.810000000000
31
0.0
0
LINE
5
91c
100
AcDbEntity
8
0-2_2_1
6
CONTINUOUS
62
4
100
AcDbLine
10
1333.440000000000
20
841.590000000000
30
0.0
11
1332.020000000000
21
842.330000000000
31
0.0
0
LINE
5
91d
100
AcDbEntity
8
0-2_2_1
6
CONTINUOUS
62
4
100
AcDbLine
10
1334.470000000000
20
842.820000000000
30
0.0
11
1333.440000000000
21
841.590000000000
31
0.0
0
LINE
5
91e
100
AcDbEntity
8
0-2_2_1
6
CONTINUOUS
62
4
100
AcDbLine
10
1326.090000000000
20
852.870000000000
30
0.0
11
1335.900000000000
21
854.830000000000
31
0.0
0
LINE
5
91f
100
AcDbEntity
8
0-2_2_1
6
CONTINUOUS
62
7
100
AcDbLine
10
1313.680000000000
20
854.060000000000
30
0.0
11
1293.480000000000
21
850.020000000000
31
0.0
0
LINE
5
920
100
AcDbEntity
8
0-2_2_1
6
CONTINUOUS
62
7
100
AcDbLine
10
1313.800000000000
20
853.470000000000
30
0.0
11
1293.600000000000
21
849.430000000000
31
0.0
0
LINE
5
921
100
AcDbEntity
8
0-2_2_1
6
DOT
62
7
100
AcDbLine
10
1453.980000000000
20
853.360000000000
30
0.0
11
1453.650000000000
21
855.000000000000
31
0.0
0
LINE
5
922
100
AcDbEntity
8
0-2_2_1
6
DOT
62
7
100
AcDbLine
10
1454.030000000000
20
856.130000000000
30
0.0
11
1454.570000000000
21
853.480000000000
31
0.0
0
LINE
5
923
100
AcDbEntity
8
0-2_2_1
6
CONTINUOUS
62
7
100
AcDbLine
10
1319.310000000000
20
831.790000000000
30
0.0
11
1321.090000000000
21
840.400000000000
31
0.0
0
LINE
5
924
100
AcDbEntity
8
0-2_2_1
6
CONTINUOUS
62
7
100
AcDbLine
10
1321.090000000000
20
840.400000000000
30
0.0
11
1321.680000000000
21
840.280000000000
31
0.0
0
LINE
5
925
100
AcDbEntity
8
0-2_2_1
6
CONTINUOUS
62
7
100
AcDbLine
10
1319.890000000000
20
831.670000000000
30
0.0
11
1321.680000000000
21
840.280000000000
31
0.0
0
LINE
5
926
100
AcDbEntity
8
0-2_2_1
6
CONTINUOUS
62
4
100
AcDbLine
10
1342.940000000000
20
790.560000000000
30
0.0
11
1343.560000000000
21
791.500000000000
31
0.0
0
LINE
5
927
100
AcDbEntity
8
0-2_2_1
6
CONTINUOUS
62
4
100
AcDbLine
10
1343.560000000000
20
791.500000000000
30
0.0
11
1342.820000000000
21
792.470000000000
31
0.0
0
LINE
5
928
100
AcDbEntity
8
0-2_2_1
6
CONTINUOUS
62
4
100
AcDbLine
10
1342.820000000000
20
792.470000000000
30
0.0
11
1343.880000000000
21
793.390000000000
31
0.0
0
LINE
5
929
100
AcDbEntity
8
0-2_2_1
6
CONTINUOUS
62
4
100
AcDbLine
10
1343.880000000000
20
793.390000000000
30
0.0
11
1345.530000000000
21
791.900000000000
31
0.0
0
LINE
5
92a
100
AcDbEntity
8
0-2_2_1
6
CONTINUOUS
62
4
100
AcDbLine
10
1332.860000000000
20
841.980000000000
30
0.0
11
1333.250000000000
21
842.570000000000
31
0.0
0
LINE
5
92b
100
AcDbEntity
8
0-2_2_1
6
CONTINUOUS
62
4
100
AcDbLine
10
1333.250000000000
20
842.570000000000
30
0.0
11
1332.780000000000
21
843.180000000000
31
0.0
0
LINE
5
92c
100
AcDbEntity
8
0-2_2_1
6
CONTINUOUS
62
4
100
AcDbLine
10
1332.780000000000
20
843.180000000000
30
0.0
11
1333.450000000000
21
843.750000000000
31
0.0
0
LINE
5
92d
100
AcDbEntity
8
0-2_2_1
6
CONTINUOUS
62
4
100
AcDbLine
10
1333.450000000000
20
843.750000000000
30
0.0
11
1334.470000000000
21
842.820000000000
31
0.0
0
LINE
5
92e
100
AcDbEntity
8
0-2_2_1
6
DOT
62
7
100
AcDbLine
10
1448.120000000000
20
875.480000000000
30
0.0
11
1427.400000000000
21
871.340000000000
31
0.0
0
LINE
5
92f
100
AcDbEntity
8
0-2_2_1
6
DOT
62
7
100
AcDbLine
10
1449.770000000000
20
874.380000000000
30
0.0
11
1432.090000000000
21
847.860000000000
31
0.0
0
LINE
5
930
100
AcDbEntity
8
0-2_2_1
6
CONTINUOUS
62
7
100
AcDbLine
10
1453.370000000000
20
856.400000000000
30
0.0
11
1449.770000000000
21
874.380000000000
31
0.0
0
LINE
5
931
100
AcDbEntity
8
0-2_2_1
6
CONTINUOUS
62
7
100
AcDbLine
10
1450.360000000000
20
874.500000000000
30
0.0
11
1453.960000000000
21
856.520000000000
31
0.0
0
LINE
5
932
100
AcDbEntity
8
0-2_2_1
6
DOT
62
7
100
AcDbLine
10
1432.090000000000
20
847.860000000000
30
0.0
11
1427.400000000000
21
871.340000000000
31
0.0
0
LINE
5
933
100
AcDbEntity
8
0-2_2_1
6
CONTINUOUS
62
7
100
AcDbLine
10
1314.270000000000
20
851.120000000000
30
0.0
11
1318.130000000000
21
831.800000000000
31
0.0
0
LINE
5
934
100
AcDbEntity
8
0-2_2_1
6
CONTINUOUS
62
7
100
AcDbLine
10
1313.680000000000
20
851.000000000000
30
0.0
11
1317.540000000000
21
831.680000000000
31
0.0
0
LINE
5
935
100
AcDbEntity
8
0-2_2_1
6
CONTINUOUS
62
7
100
AcDbLine
10
1454.730000000000
20
879.050000000000
30
0.0
11
1313.690000000000
21
854.060000000000
31
0.0
0
LINE
5
936
100
AcDbEntity
8
0-2_2_1
6
CONTINUOUS
62
7
100
AcDbLine
10
1313.800000000000
20
853.470000000000
30
0.0
11
1454.840000000000
21
878.460000000000
31
0.0
0
LINE
5
937
100
AcDbEntity
8
0-2_2_1
6
CONTINUOUS
62
7
100
AcDbLine
10
1451.350000000000
20
861.400000000000
30
0.0
11
1448.410000000000
21
876.110000000000
31
0.0
0
LINE
5
938
100
AcDbEntity
8
0-2_2_1
6
DASHED
62
7
100
AcDbLine
10
1457.980000000000
20
856.520000000000
30
0.0
11
1457.980000000000
21
976.610000000000
31
0.0
0
LINE
5
939
100
AcDbEntity
8
0-2_2_1
6
CONTINUOUS
62
3
100
AcDbLine
10
1458.980000000000
20
826.110000000000
30
0.0
11
1454.080000000000
21
850.630000000000
31
0.0
0
LINE
5
93a
100
AcDbEntity
8
0-2_2_1
6
CONTINUOUS
62
4
100
AcDbLine
10
1433.340000000000
20
820.980000000000
30
0.0
11
1452.950000000000
21
850.400000000000
31
0.0
0
LINE
5
93b
100
AcDbEntity
8
0-2_2_1
6
CONTINUOUS
62
4
100
AcDbLine
10
1412.730000000000
20
842.360000000000
30
0.0
11
1442.150000000000
21
822.750000000000
31
0.0
0
LINE
5
93c
100
AcDbEntity
8
0-2_2_1
6
CONTINUOUS
62
4
100
AcDbLine
10
1440.470000000000
20
847.900000000000
30
0.0
11
1456.800000000000
21
837.020000000000
31
0.0
0
LINE
5
93d
100
AcDbEntity
8
0-2_2_1
6
CONTINUOUS
62
3
100
AcDbLine
10
1458.980000000000
20
826.110000000000
30
0.0
11
1233.390000000000
21
780.990000000000
31
0.0
0
LINE
5
93e
100
AcDbEntity
8
0-2_2_1
6
CONTINUOUS
62
3
100
AcDbLine
10
1454.080000000000
20
850.630000000000
30
0.0
11
1228.480000000000
21
805.510000000000
31
0.0
0
LINE
5
93f
100
AcDbEntity
8
0-2_2_1
6
DOT
62
7
100
AcDbLine
10
1453.700000000000
20
852.180000000000
30
0.0
11
1228.170000000000
21
807.080000000000
31
0.0
0
LINE
5
940
100
AcDbEntity
8
0-2_2_1
6
DASHED
62
7
100
AcDbLine
10
1453.960000000000
20
851.620000000000
30
0.0
11
1228.290000000000
21
806.490000000000
31
0.0
0
LINE
5
941
100
AcDbEntity
8
0-2_2_1
6
DOT
62
7
100
AcDbLine
10
1453.510000000000
20
852.650000000000
30
0.0
11
1228.070000000000
21
807.570000000000
31
0.0
0
LINE
5
942
100
AcDbEntity
8
0-2_2_1
6
CONTINUOUS
62
7
100
AcDbLine
10
1452.390000000000
20
854.160000000000
30
0.0
11
1227.740000000000
21
809.230000000000
31
0.0
0
LINE
5
943
100
AcDbEntity
8
0-2_2_1
6
CONTINUOUS
62
7
100
AcDbLine
10
1452.270000000000
20
854.750000000000
30
0.0
11
1227.620000000000
21
809.820000000000
31
0.0
0
LINE
5
944
100
AcDbEntity
8
0-2_2_1
6
CONTINUOUS
62
7
100
AcDbLine
10
1226.310000000000
20
816.390000000000
30
0.0
11
1451.350000000000
21
861.400000000000
31
0.0
0
LINE
5
945
100
AcDbEntity
8
0-2_2_1
6
CONTINUOUS
62
7
100
AcDbLine
10
1448.410000000000
20
876.110000000000
30
0.0
11
1223.360000000000
21
831.100000000000
31
0.0
0
LINE
5
946
100
AcDbEntity
8
0-2_2_1
6
CONTINUOUS
62
4
100
AcDbLine
10
1239.200000000000
20
782.150000000000
30
0.0
11
1258.810000000000
21
811.570000000000
31
0.0
0
LINE
5
947
100
AcDbEntity
8
0-2_2_1
6
CONTINUOUS
62
4
100
AcDbLine
10
1230.460000000000
20
795.610000000000
30
0.0
11
1248.010000000000
21
783.920000000000
31
0.0
0
LINE
5
948
100
AcDbEntity
8
0-3_2_2
6
CONTINUOUS
62
7
100
AcDbLine
10
208.990000000000
20
386.260000000000
30
0.0
11
194.280000000000
21
383.310000000000
31
0.0
0
LINE
5
949
100
AcDbEntity
8
0-3_2_2
6
CONTINUOUS
62
7
100
AcDbLine
10
213.540000000000
20
363.420000000000
30
0.0
11
208.990000000000
21
386.260000000000
31
0.0
0
LINE
5
94a
100
AcDbEntity
8
0-3_2_2
6
CONTINUOUS
62
7
100
AcDbLine
10
209.090000000000
20
385.770000000000
30
0.0
11
194.870000000000
21
382.920000000000
31
0.0
0
LINE
5
94b
100
AcDbEntity
8
0-3_2_2
6
CONTINUOUS
62
7
100
AcDbLine
10
214.010000000000
20
356.770000000000
30
0.0
11
213.910000000000
21
357.260000000000
31
0.0
0
LINE
5
94c
100
AcDbEntity
8
0-3_2_2
6
CONTINUOUS
62
7
100
AcDbLine
10
199.320000000000
20
360.580000000000
30
0.0
11
213.540000000000
21
363.420000000000
31
0.0
0
LINE
5
94d
100
AcDbEntity
8
0-3_2_2
6
CONTINUOUS
62
7
100
AcDbLine
10
201.970000000000
20
360.100000000000
30
0.0
11
201.780000000000
21
361.070000000000
31
0.0
0
LINE
5
94e
100
AcDbEntity
8
0-3_2_2
6
DOT
62
7
100
AcDbLine
10
212.120000000000
20
370.560000000000
30
0.0
11
200.350000000000
21
368.210000000000
31
0.0
0
LINE
5
94f
100
AcDbEntity
8
0-3_2_2
6
DOT
62
7
100
AcDbLine
10
209.190000000000
20
385.280000000000
30
0.0
11
197.420000000000
21
382.920000000000
31
0.0
0
LINE
5
950
100
AcDbEntity
8
0-3_2_2
6
DOT
62
7
100
AcDbLine
10
201.780000000000
20
361.070000000000
30
0.0
11
197.420000000000
21
382.920000000000
31
0.0
0
LINE
5
951
100
AcDbEntity
8
0-3_2_2
6
DASHED
62
7
100
AcDbLine
10
228.230000000000
20
364.290000000000
30
0.0
11
208.070000000000
21
360.260000000000
31
0.0
0
LINE
5
952
100
AcDbEntity
8
0-3_2_2
6
CONTINUOUS
62
7
100
AcDbLine
10
200.520000000000
20
354.580000000000
30
0.0
11
194.870000000000
21
382.920000000000
31
0.0
0
LINE
5
953
100
AcDbEntity
8
0-3_2_2
6
CONTINUOUS
62
7
100
AcDbLine
10
213.910000000000
20
357.260000000000
30
0.0
11
200.520000000000
21
354.580000000000
31
0.0
0
LINE
5
954
100
AcDbEntity
8
0-3_2_2
6
CONTINUOUS
62
7
100
AcDbLine
10
200.130000000000
20
353.990000000000
30
0.0
11
194.280000000000
21
383.310000000000
31
0.0
0
LINE
5
955
100
AcDbEntity
8
0-3_2_2
6
CONTINUOUS
62
7
100
AcDbLine
10
214.010000000000
20
356.770000000000
30
0.0
11
200.130000000000
21
353.990000000000
31
0.0
0
LINE
5
956
100
AcDbEntity
8
0-3_2_2
6
CONTINUOUS
62
7
100
AcDbLine
10
408.660000000000
20
425.170000000000
30
0.0
11
209.190000000000
21
385.280000000000
31
0.0
0
LINE
5
957
100
AcDbEntity
8
0-3_2_2
6
CONTINUOUS
62
7
100
AcDbLine
10
411.600000000000
20
410.460000000000
30
0.0
11
212.120000000000
21
370.560000000000
31
0.0
0
LINE
5
958
100
AcDbEntity
8
0-4_2_3
6
CONTINUOUS
62
7
100
AcDbLine
10
901.890000000000
20
400.380000000000
30
0.0
11
903.710000000000
21
398.550000000000
31
0.0
0
LINE
5
959
100
AcDbEntity
8
0-4_2_3
6
CONTINUOUS
62
7
100
AcDbLine
10
846.040000000000
20
400.380000000000
30
0.0
11
844.210000000000
21
398.550000000000
31
0.0
0
LINE
5
95a
100
AcDbEntity
8
0-4_2_3
6
CONTINUOUS
62
7
100
AcDbLine
10
889.210000000000
20
398.550000000000
30
0.0
11
894.210000000000
21
399.350000000000
31
0.0
0
LINE
5
95b
100
AcDbEntity
8
0-4_2_3
6
CONTINUOUS
62
7
100
AcDbLine
10
889.120000000000
20
399.150000000000
30
0.0
11
894.120000000000
21
399.950000000000
31
0.0
0
LINE
5
95c
100
AcDbEntity
8
0-4_2_3
6
CONTINUOUS
62
7
100
AcDbLine
10
889.120000000000
20
399.150000000000
30
0.0
11
889.210000000000
21
398.550000000000
31
0.0
0
LINE
5
95d
100
AcDbEntity
8
0-4_2_3
6
CONTINUOUS
62
7
100
AcDbLine
10
882.710000000000
20
398.550000000000
30
0.0
11
894.210000000000
21
398.550000000000
31
0.0
0
LINE
5
95e
100
AcDbEntity
8
0-4_2_3
6
CONTINUOUS
62
7
100
AcDbLine
10
882.240000000000
20
397.950000000000
30
0.0
11
894.210000000000
21
397.950000000000
31
0.0
0
LINE
5
95f
100
AcDbEntity
8
0-4_2_3
6
CONTINUOUS
62
7
100
AcDbLine
10
874.410000000000
20
398.550000000000
30
0.0
11
879.710000000000
21
398.550000000000
31
0.0
0
LINE
5
960
100
AcDbEntity
8
0-4_2_3
6
CONTINUOUS
62
7
100
AcDbLine
10
874.410000000000
20
397.950000000000
30
0.0
11
880.190000000000
21
397.950000000000
31
0.0
0
LINE
5
961
100
AcDbEntity
8
0-4_2_3
6
CONTINUOUS
62
7
100
AcDbLine
10
869.010000000000
20
400.550000000000
30
0.0
11
846.460000000000
21
400.550000000000
31
0.0
0
LINE
5
962
100
AcDbEntity
8
0-4_2_3
6
CONTINUOUS
62
7
100
AcDbLine
10
844.640000000000
20
398.130000000000
30
0.0
11
846.460000000000
21
399.950000000000
31
0.0
0
LINE
5
963
100
AcDbEntity
8
0-4_2_3
6
CONTINUOUS
62
7
100
AcDbLine
10
869.010000000000
20
399.950000000000
30
0.0
11
846.460000000000
21
399.950000000000
31
0.0
0
LINE
5
964
100
AcDbEntity
8
0-4_2_3
6
CONTINUOUS
62
7
100
AcDbLine
10
873.810000000000
20
408.350000000000
30
0.0
11
873.810000000000
21
399.150000000000
31
0.0
0
LINE
5
965
100
AcDbEntity
8
0-4_2_3
6
CONTINUOUS
62
7
100
AcDbLine
10
873.210000000000
20
408.350000000000
30
0.0
11
873.210000000000
21
399.150000000000
31
0.0
0
LINE
5
966
100
AcDbEntity
8
0-4_2_3
6
CONTINUOUS
62
7
100
AcDbLine
10
875.690000000000
20
409.680000000000
30
0.0
11
873.410000000000
21
420.600000000000
31
0.0
0
LINE
5
967
100
AcDbEntity
8
0-4_2_3
6
CONTINUOUS
62
7
100
AcDbLine
10
875.100000000000
20
408.950000000000
30
0.0
11
874.410000000000
21
408.950000000000
31
0.0
0
LINE
5
968
100
AcDbEntity
8
0-4_2_3
6
CONTINUOUS
62
7
100
AcDbLine
10
875.100000000000
20
409.550000000000
30
0.0
11
874.410000000000
21
409.550000000000
31
0.0
0
LINE
5
969
100
AcDbEntity
8
0-4_2_3
6
CONTINUOUS
62
7
100
AcDbLine
10
875.100000000000
20
409.550000000000
30
0.0
11
872.830000000000
21
420.480000000000
31
0.0
0
LINE
5
96a
100
AcDbEntity
8
0-4_2_3
6
CONTINUOUS
62
7
100
AcDbLine
10
868.330000000000
20
407.550000000000
30
0.0
11
869.010000000000
21
407.550000000000
31
0.0
0
LINE
5
96b
100
AcDbEntity
8
0-4_2_3
6
CONTINUOUS
62
7
100
AcDbLine
10
868.330000000000
20
408.150000000000
30
0.0
11
869.010000000000
21
408.150000000000
31
0.0
0
LINE
5
96c
100
AcDbEntity
8
0-4_2_3
6
CONTINUOUS
62
7
100
AcDbLine
10
867.740000000000
20
408.280000000000
30
0.0
11
870.010000000000
21
420.600000000000
31
0.0
0
LINE
5
96d
100
AcDbEntity
8
0-4_2_3
6
CONTINUOUS
62
7
100
AcDbLine
10
868.330000000000
20
408.170000000000
30
0.0
11
870.600000000000
21
420.490000000000
31
0.0
0
LINE
5
96e
100
AcDbEntity
8
0-4_2_3
6
CONTINUOUS
62
7
100
AcDbLine
10
869.610000000000
20
401.150000000000
30
0.0
11
869.610000000000
21
406.950000000000
31
0.0
0
LINE
5
96f
100
AcDbEntity
8
0-4_2_3
6
CONTINUOUS
62
7
100
AcDbLine
10
870.210000000000
20
406.950000000000
30
0.0
11
870.210000000000
21
401.150000000000
31
0.0
0
LINE
5
970
100
AcDbEntity
8
0-4_2_3
6
CONTINUOUS
62
7
100
AcDbLine
10
874.470000000000
20
420.160000000000
30
0.0
11
876.330000000000
21
408.550000000000
31
0.0
0
LINE
5
971
100
AcDbEntity
8
0-4_2_3
6
CONTINUOUS
62
7
100
AcDbLine
10
875.200000000000
20
408.550000000000
30
0.0
11
876.330000000000
21
408.550000000000
31
0.0
0
LINE
5
972
100
AcDbEntity
8
0-4_2_3
6
CONTINUOUS
62
7
100
AcDbLine
10
876.330000000000
20
407.950000000000
30
0.0
11
875.200000000000
21
407.950000000000
31
0.0
0
LINE
5
973
100
AcDbEntity
8
0-4_2_3
6
CONTINUOUS
62
7
100
AcDbLine
10
876.920000000000
20
408.650000000000
30
0.0
11
875.060000000000
21
420.260000000000
31
0.0
0
LINE
5
974
100
AcDbEntity
8
0-4_2_3
6
CONTINUOUS
62
7
100
AcDbLine
10
868.220000000000
20
407.150000000000
30
0.0
11
867.100000000000
21
407.150000000000
31
0.0
0
LINE
5
975
100
AcDbEntity
8
0-4_2_3
6
CONTINUOUS
62
7
100
AcDbLine
10
867.100000000000
20
406.550000000000
30
0.0
11
868.220000000000
21
406.550000000000
31
0.0
0
LINE
5
976
100
AcDbEntity
8
0-4_2_3
6
CONTINUOUS
62
7
100
AcDbLine
10
868.370000000000
20
420.300000000000
30
0.0
11
866.500000000000
21
407.240000000000
31
0.0
0
LINE
5
977
100
AcDbEntity
8
0-4_2_3
6
CONTINUOUS
62
7
100
AcDbLine
10
868.960000000000
20
420.160000000000
30
0.0
11
867.100000000000
21
407.150000000000
31
0.0
0
LINE
5
978
100
AcDbEntity
8
0-4_2_3
6
CONTINUOUS
62
7
100
AcDbLine
10
866.580000000000
20
401.990000000000
30
0.0
11
868.800000000000
21
406.390000000000
31
0.0
0
LINE
5
979
100
AcDbEntity
8
0-4_2_3
6
CONTINUOUS
62
7
100
AcDbLine
10
868.710000000000
20
406.200000000000
30
0.0
11
865.990000000000
21
402.420000000000
31
0.0
0
LINE
5
97a
100
AcDbEntity
8
0-4_2_3
6
CONTINUOUS
62
7
100
AcDbLine
10
868.220000000000
20
406.550000000000
30
0.0
11
865.500000000000
21
402.770000000000
31
0.0
0
LINE
5
97b
100
AcDbEntity
8
0-4_2_3
6
CONTINUOUS
62
7
100
AcDbLine
10
867.100000000000
20
401.680000000000
30
0.0
11
869.340000000000
21
406.120000000000
31
0.0
0
LINE
5
97c
100
AcDbEntity
8
0-4_2_3
6
CONTINUOUS
62
7
100
AcDbLine
10
877.150000000000
20
400.990000000000
30
0.0
11
875.200000000000
21
407.950000000000
31
0.0
0
LINE
5
97d
100
AcDbEntity
8
0-4_2_3
6
CONTINUOUS
62
7
100
AcDbLine
10
874.630000000000
20
407.790000000000
30
0.0
11
876.570000000000
21
400.830000000000
31
0.0
0
LINE
5
97e
100
AcDbEntity
8
0-4_2_3
6
CONTINUOUS
62
7
100
AcDbLine
10
877.720000000000
20
400.550000000000
30
0.0
11
901.470000000000
21
400.550000000000
31
0.0
0
LINE
5
97f
100
AcDbEntity
8
0-4_2_3
6
CONTINUOUS
62
7
100
AcDbLine
10
877.720000000000
20
399.950000000000
30
0.0
11
901.470000000000
21
399.950000000000
31
0.0
0
LINE
5
980
100
AcDbEntity
8
0-4_2_3
6
CONTINUOUS
62
7
100
AcDbLine
10
903.290000000000
20
398.130000000000
30
0.0
11
901.470000000000
21
399.950000000000
31
0.0
0
LINE
5
981
100
AcDbEntity
8
0-4_2_3
6
CONTINUOUS
62
7
100
AcDbLine
10
903.710000000000
20
398.550000000000
30
0.0
11
951.710000000000
21
398.550000000000
31
0.0
0
LINE
5
982
100
AcDbEntity
8
0-4_2_3
6
CONTINUOUS
62
7
100
AcDbLine
10
951.710000000000
20
397.950000000000
30
0.0
11
903.710000000000
21
397.950000000000
31
0.0
0
LINE
5
983
100
AcDbEntity
8
0-4_2_3
6
CONTINUOUS
62
7
100
AcDbLine
10
871.710000000000
20
421.400000000000
30
0.0
11
872.240000000000
21
421.550000000000
31
0.0
0
LINE
5
984
100
AcDbEntity
8
0-4_2_3
6
CONTINUOUS
62
7
100
AcDbLine
10
871.710000000000
20
420.780000000000
30
0.0
11
872.310000000000
21
420.950000000000
31
0.0
0
LINE
5
985
100
AcDbEntity
8
0-4_2_3
6
CONTINUOUS
62
7
100
AcDbLine
10
871.710000000000
20
420.780000000000
30
0.0
11
871.120000000000
21
420.950000000000
31
0.0
0
LINE
5
986
100
AcDbEntity
8
0-4_2_3
6
CONTINUOUS
62
7
100
AcDbLine
10
871.710000000000
20
421.400000000000
30
0.0
11
871.190000000000
21
421.550000000000
31
0.0
0
LINE
5
987
100
AcDbEntity
8
0-4_2_3
6
CONTINUOUS
62
7
100
AcDbLine
10
869.340000000000
20
406.120000000000
30
0.0
11
868.800000000000
21
406.390000000000
31
0.0
0
LINE
5
988
100
AcDbEntity
8
0-4_2_3
6
CONTINUOUS
62
4
100
AcDbLine
10
880.960000000000
20
399.450000000000
30
0.0
11
890.960000000000
21
399.450000000000
31
0.0
0
LINE
5
989
100
AcDbEntity
8
0-4_2_3
6
CONTINUOUS
62
4
100
AcDbLine
10
882.960000000000
20
399.950000000000
30
0.0
11
888.960000000000
21
399.950000000000
31
0.0
0
LINE
5
98a
100
AcDbEntity
8
0-4_2_3
6
CONTINUOUS
62
4
100
AcDbLine
10
890.960000000000
20
399.450000000000
30
0.0
11
890.960000000000
21
399.050000000000
31
0.0
0
LINE
5
98b
100
AcDbEntity
8
0-4_2_3
6
CONTINUOUS
62
4
100
AcDbLine
10
888.960000000000
20
399.950000000000
30
0.0
11
890.460000000000
21
399.450000000000
31
0.0
0
LINE
5
98c
100
AcDbEntity
8
0-4_2_3
6
CONTINUOUS
62
4
100
AcDbLine
10
888.360000000000
20
388.580000000000
30
0.0
11
883.560000000000
21
389.380000000000
31
0.0
0
LINE
5
98d
100
AcDbEntity
8
0-4_2_3
6
CONTINUOUS
62
4
100
AcDbLine
10
888.360000000000
20
386.980000000000
30
0.0
11
883.560000000000
21
387.780000000000
31
0.0
0
LINE
5
98e
100
AcDbEntity
8
0-4_2_3
6
CONTINUOUS
62
4
100
AcDbLine
10
888.360000000000
20
385.380000000000
30
0.0
11
883.560000000000
21
386.180000000000
31
0.0
0
LINE
5
98f
100
AcDbEntity
8
0-4_2_3
6
CONTINUOUS
62
4
100
AcDbLine
10
888.360000000000
20
390.180000000000
30
0.0
11
883.560000000000
21
390.980000000000
31
0.0
0
LINE
5
990
100
AcDbEntity
8
0-4_2_3
6
CONTINUOUS
62
4
100
AcDbLine
10
880.960000000000
20
399.450000000000
30
0.0
11
880.960000000000
21
399.050000000000
31
0.0
0
LINE
5
991
100
AcDbEntity
8
0-4_2_3
6
CONTINUOUS
62
4
100
AcDbLine
10
882.960000000000
20
399.950000000000
30
0.0
11
881.460000000000
21
399.450000000000
31
0.0
0
LINE
5
992
100
AcDbEntity
8
0-4_2_3
6
CONTINUOUS
62
4
100
AcDbLine
10
888.360000000000
20
382.180000000000
30
0.0
11
883.560000000000
21
382.980000000000
31
0.0
0
LINE
5
993
100
AcDbEntity
8
0-4_2_3
6
CONTINUOUS
62
4
100
AcDbLine
10
888.360000000000
20
383.780000000000
30
0.0
11
883.560000000000
21
384.580000000000
31
0.0
0
LINE
5
994
100
AcDbEntity
8
0-4_2_3
6
CONTINUOUS
62
4
100
AcDbLine
10
888.360000000000
20
380.580000000000
30
0.0
11
883.560000000000
21
381.380000000000
31
0.0
0
LINE
5
995
100
AcDbEntity
8
0-4_2_3
6
CONTINUOUS
62
4
100
AcDbLine
10
888.360000000000
20
378.980000000000
30
0.0
11
883.560000000000
21
379.780000000000
31
0.0
0
LINE
5
996
100
AcDbEntity
8
0-4_2_3
6
CONTINUOUS
62
4
100
AcDbLine
10
885.960000000000
20
364.050000000000
30
0.0
11
883.960000000000
21
365.650000000000
31
0.0
0
LINE
5
997
100
AcDbEntity
8
0-4_2_3
6
CONTINUOUS
62
4
100
AcDbLine
10
887.960000000000
20
365.650000000000
30
0.0
11
885.960000000000
21
364.050000000000
31
0.0
0
LINE
5
998
100
AcDbEntity
8
0-4_2_3
6
CONTINUOUS
62
4
100
AcDbLine
10
880.960000000000
20
399.050000000000
30
0.0
11
890.960000000000
21
399.050000000000
31
0.0
0
LINE
5
999
100
AcDbEntity
8
0-4_2_3
6
CONTINUOUS
62
4
100
AcDbLine
10
888.360000000000
20
393.380000000000
30
0.0
11
883.560000000000
21
394.180000000000
31
0.0
0
LINE
5
99a
100
AcDbEntity
8
0-4_2_3
6
CONTINUOUS
62
4
100
AcDbLine
10
888.360000000000
20
391.780000000000
30
0.0
11
883.560000000000
21
392.580000000000
31
0.0
0
LINE
5
99b
100
AcDbEntity
8
0-4_2_3
6
CONTINUOUS
62
4
100
AcDbLine
10
888.360000000000
20
394.980000000000
30
0.0
11
883.560000000000
21
395.780000000000
31
0.0
0
LINE
5
99c
100
AcDbEntity
8
0-4_2_3
6
CONTINUOUS
62
4
100
AcDbLine
10
883.960000000000
20
365.650000000000
30
0.0
11
883.960000000000
21
399.050000000000
31
0.0
0
LINE
5
99d
100
AcDbEntity
8
0-4_2_3
6
CONTINUOUS
62
4
100
AcDbLine
10
887.960000000000
20
365.650000000000
30
0.0
11
887.960000000000
21
399.050000000000
31
0.0
0
LINE
5
99e
100
AcDbEntity
8
0-4_2_3
6
CONTINUOUS
62
4
100
AcDbLine
10
888.360000000000
20
377.380000000000
30
0.0
11
883.560000000000
21
378.180000000000
31
0.0
0
LINE
5
99f
100
AcDbEntity
8
0-4_2_3
6
CONTINUOUS
62
4
100
AcDbLine
10
888.360000000000
20
375.780000000000
30
0.0
11
883.560000000000
21
376.580000000000
31
0.0
0
LINE
5
9a0
100
AcDbEntity
8
0-4_2_3
6
CONTINUOUS
62
4
100
AcDbLine
10
888.360000000000
20
374.180000000000
30
0.0
11
883.560000000000
21
374.980000000000
31
0.0
0
LINE
5
9a1
100
AcDbEntity
8
0-4_2_3
6
CONTINUOUS
62
4
100
AcDbLine
10
888.360000000000
20
372.580000000000
30
0.0
11
883.560000000000
21
373.380000000000
31
0.0
0
LINE
5
9a2
100
AcDbEntity
8
0-4_2_3
6
CONTINUOUS
62
4
100
AcDbLine
10
888.360000000000
20
370.980000000000
30
0.0
11
883.560000000000
21
371.780000000000
31
0.0
0
LINE
5
9a3
100
AcDbEntity
8
0-4_2_3
6
CENTER2
62
4
100
AcDbLine
10
885.960000000000
20
400.860000000000
30
0.0
11
885.960000000000
21
360.710000000000
31
0.0
0
LINE
5
9a4
100
AcDbEntity
8
0-4_2_3
6
CONTINUOUS
62
4
100
AcDbLine
10
885.160000000000
20
364.850000000000
30
0.0
11
885.960000000000
21
365.650000000000
31
0.0
0
LINE
5
9a5
100
AcDbEntity
8
0-4_2_3
6
CONTINUOUS
62
4
100
AcDbLine
10
885.960000000000
20
365.650000000000
30
0.0
11
885.430000000000
21
366.750000000000
31
0.0
0
LINE
5
9a6
100
AcDbEntity
8
0-4_2_3
6
CONTINUOUS
62
4
100
AcDbLine
10
885.430000000000
20
366.750000000000
30
0.0
11
886.640000000000
21
367.440000000000
31
0.0
0
LINE
5
9a7
100
AcDbEntity
8
0-4_2_3
6
CONTINUOUS
62
4
100
AcDbLine
10
886.640000000000
20
367.440000000000
30
0.0
11
887.960000000000
21
365.650000000000
31
0.0
0
LINE
5
9a8
100
AcDbEntity
8
0-4_2_3
6
DASHED
62
7
100
AcDbLine
10
819.830000000000
20
399.350000000000
30
0.0
11
825.480000000000
21
397.450000000000
31
0.0
0
LINE
5
9a9
100
AcDbEntity
8
0-4_2_3
6
DASHED
62
7
100
AcDbLine
10
951.710000000000
20
397.450000000000
30
0.0
11
825.480000000000
21
397.450000000000
31
0.0
0
LINE
5
9aa
100
AcDbEntity
8
0-4_2_3
6
CONTINUOUS
62
7
100
AcDbLine
10
837.170000000000
20
398.550000000000
30
0.0
11
844.210000000000
21
398.550000000000
31
0.0
0
LINE
5
9ab
100
AcDbEntity
8
0-4_2_3
6
CONTINUOUS
62
7
100
AcDbLine
10
844.210000000000
20
397.950000000000
30
0.0
11
837.120000000000
21
397.950000000000
31
0.0
0
LINE
5
9ac
100
AcDbEntity
8
0-4_2_3
6
CONTINUOUS
62
7
100
AcDbLine
10
898.540000000000
20
400.550000000000
30
0.0
11
910.380000000000
21
421.050000000000
31
0.0
0
LINE
5
9ad
100
AcDbEntity
8
0-4_2_3
6
CONTINUOUS
62
3
100
AcDbLine
10
879.430000000000
20
371.950000000000
30
0.0
11
879.430000000000
21
341.500000000000
31
0.0
0
LINE
5
9ae
100
AcDbEntity
8
0-4_2_3
6
CONTINUOUS
62
3
100
AcDbLine
10
879.430000000000
20
323.200000000000
30
0.0
11
879.430000000000
21
271.950000000000
31
0.0
0
LINE
5
9af
100
AcDbEntity
8
0-4_2_3
6
CONTINUOUS
62
7
100
AcDbLine
10
804.430000000000
20
369.650000000000
30
0.0
11
804.430000000000
21
243.800000000000
31
0.0
0
LINE
5
9b0
100
AcDbEntity
8
0-4_2_3
6
CONTINUOUS
62
7
100
AcDbLine
10
819.430000000000
20
369.650000000000
30
0.0
11
819.430000000000
21
243.800000000000
31
0.0
0
LINE
5
9b1
100
AcDbEntity
8
0-4_2_3
6
CONTINUOUS
62
4
100
AcDbLine
10
816.510000000000
20
243.800000000000
30
0.0
11
819.430000000000
21
246.720000000000
31
0.0
0
LINE
5
9b2
100
AcDbEntity
8
0-4_2_3
6
CONTINUOUS
62
4
100
AcDbLine
10
813.680000000000
20
243.800000000000
30
0.0
11
819.430000000000
21
249.550000000000
31
0.0
0
LINE
5
9b3
100
AcDbEntity
8
0-5_2_4
6
CONTINUOUS
62
7
100
AcDbLine
10
1335.910000000000
20
353.040000000000
30
0.0
11
1337.730000000000
21
351.210000000000
31
0.0
0
LINE
5
9b4
100
AcDbEntity
8
0-5_2_4
6
CONTINUOUS
62
7
100
AcDbLine
10
1280.060000000000
20
353.040000000000
30
0.0
11
1278.230000000000
21
351.210000000000
31
0.0
0
LINE
5
9b5
100
AcDbEntity
8
0-5_2_4
6
CONTINUOUS
62
7
100
AcDbLine
10
1323.230000000000
20
351.210000000000
30
0.0
11
1328.230000000000
21
352.010000000000
31
0.0
0
LINE
5
9b6
100
AcDbEntity
8
0-5_2_4
6
CONTINUOUS
62
7
100
AcDbLine
10
1323.140000000000
20
351.800000000000
30
0.0
11
1328.140000000000
21
352.600000000000
31
0.0
0
LINE
5
9b7
100
AcDbEntity
8
0-5_2_4
6
CONTINUOUS
62
7
100
AcDbLine
10
1323.140000000000
20
351.800000000000
30
0.0
11
1323.230000000000
21
351.210000000000
31
0.0
0
LINE
5
9b8
100
AcDbEntity
8
0-5_2_4
6
CONTINUOUS
62
7
100
AcDbLine
10
1316.730000000000
20
351.210000000000
30
0.0
11
1328.230000000000
21
351.210000000000
31
0.0
0
LINE
5
9b9
100
AcDbEntity
8
0-5_2_4
6
CONTINUOUS
62
7
100
AcDbLine
10
1316.260000000000
20
350.610000000000
30
0.0
11
1328.230000000000
21
350.610000000000
31
0.0
0
LINE
5
9ba
100
AcDbEntity
8
0-5_2_4
6
CONTINUOUS
62
7
100
AcDbLine
10
1308.430000000000
20
351.210000000000
30
0.0
11
1313.730000000000
21
351.210000000000
31
0.0
0
LINE
5
9bb
100
AcDbEntity
8
0-5_2_4
6
CONTINUOUS
62
7
100
AcDbLine
10
1308.430000000000
20
350.610000000000
30
0.0
11
1314.210000000000
21
350.610000000000
31
0.0
0
LINE
5
9bc
100
AcDbEntity
8
0-5_2_4
6
CONTINUOUS
62
7
100
AcDbLine
10
1303.030000000000
20
353.210000000000
30
0.0
11
1280.480000000000
21
353.210000000000
31
0.0
0
LINE
5
9bd
100
AcDbEntity
8
0-5_2_4
6
CONTINUOUS
62
7
100
AcDbLine
10
1278.660000000000
20
350.790000000000
30
0.0
11
1280.480000000000
21
352.610000000000
31
0.0
0
LINE
5
9be
100
AcDbEntity
8
0-5_2_4
6
CONTINUOUS
62
7
100
AcDbLine
10
1303.030000000000
20
352.610000000000
30
0.0
11
1280.480000000000
21
352.610000000000
31
0.0
0
LINE
5
9bf
100
AcDbEntity
8
0-5_2_4
6
CONTINUOUS
62
7
100
AcDbLine
10
1307.830000000000
20
361.010000000000
30
0.0
11
1307.830000000000
21
351.810000000000
31
0.0
0
LINE
5
9c0
100
AcDbEntity
8
0-5_2_4
6
CONTINUOUS
62
7
100
AcDbLine
10
1307.230000000000
20
361.010000000000
30
0.0
11
1307.230000000000
21
351.810000000000
31
0.0
0
LINE
5
9c1
100
AcDbEntity
8
0-5_2_4
6
CONTINUOUS
62
7
100
AcDbLine
10
1309.710000000000
20
362.330000000000
30
0.0
11
1307.430000000000
21
373.260000000000
31
0.0
0
LINE
5
9c2
100
AcDbEntity
8
0-5_2_4
6
CONTINUOUS
62
7
100
AcDbLine
10
1309.120000000000
20
361.610000000000
30
0.0
11
1308.430000000000
21
361.610000000000
31
0.0
0
LINE
5
9c3
100
AcDbEntity
8
0-5_2_4
6
CONTINUOUS
62
7
100
AcDbLine
10
1309.120000000000
20
362.210000000000
30
0.0
11
1308.430000000000
21
362.210000000000
31
0.0
0
LINE
5
9c4
100
AcDbEntity
8
0-5_2_4
6
CONTINUOUS
62
7
100
AcDbLine
10
1309.120000000000
20
362.210000000000
30
0.0
11
1306.850000000000
21
373.130000000000
31
0.0
0
LINE
5
9c5
100
AcDbEntity
8
0-5_2_4
6
CONTINUOUS
62
7
100
AcDbLine
10
1302.350000000000
20
360.210000000000
30
0.0
11
1303.030000000000
21
360.210000000000
31
0.0
0
LINE
5
9c6
100
AcDbEntity
8
0-5_2_4
6
CONTINUOUS
62
7
100
AcDbLine
10
1302.350000000000
20
360.810000000000
30
0.0
11
1303.030000000000
21
360.810000000000
31
0.0
0
LINE
5
9c7
100
AcDbEntity
8
0-5_2_4
6
CONTINUOUS
62
7
100
AcDbLine
10
1301.760000000000
20
360.930000000000
30
0.0
11
1304.030000000000
21
373.260000000000
31
0.0
0
LINE
5
9c8
100
AcDbEntity
8
0-5_2_4
6
CONTINUOUS
62
7
100
AcDbLine
10
1302.350000000000
20
360.830000000000
30
0.0
11
1304.620000000000
21
373.150000000000
31
0.0
0
LINE
5
9c9
100
AcDbEntity
8
0-5_2_4
6
CONTINUOUS
62
7
100
AcDbLine
10
1303.630000000000
20
353.810000000000
30
0.0
11
1303.630000000000
21
359.610000000000
31
0.0
0
LINE
5
9ca
100
AcDbEntity
8
0-5_2_4
6
CONTINUOUS
62
7
100
AcDbLine
10
1304.230000000000
20
359.610000000000
30
0.0
11
1304.230000000000
21
353.810000000000
31
0.0
0
LINE
5
9cb
100
AcDbEntity
8
0-5_2_4
6
CONTINUOUS
62
7
100
AcDbLine
10
1308.490000000000
20
372.820000000000
30
0.0
11
1310.350000000000
21
361.210000000000
31
0.0
0
LINE
5
9cc
100
AcDbEntity
8
0-5_2_4
6
CONTINUOUS
62
7
100
AcDbLine
10
1309.220000000000
20
361.210000000000
30
0.0
11
1310.350000000000
21
361.210000000000
31
0.0
0
LINE
5
9cd
100
AcDbEntity
8
0-5_2_4
6
CONTINUOUS
62
7
100
AcDbLine
10
1310.350000000000
20
360.610000000000
30
0.0
11
1309.220000000000
21
360.610000000000
31
0.0
0
LINE
5
9ce
100
AcDbEntity
8
0-5_2_4
6
CONTINUOUS
62
7
100
AcDbLine
10
1310.940000000000
20
361.310000000000
30
0.0
11
1309.080000000000
21
372.910000000000
31
0.0
0
LINE
5
9cf
100
AcDbEntity
8
0-5_2_4
6
CONTINUOUS
62
7
100
AcDbLine
10
1302.240000000000
20
359.810000000000
30
0.0
11
1301.120000000000
21
359.810000000000
31
0.0
0
LINE
5
9d0
100
AcDbEntity
8
0-5_2_4
6
CONTINUOUS
62
7
100
AcDbLine
10
1301.120000000000
20
359.210000000000
30
0.0
11
1302.240000000000
21
359.210000000000
31
0.0
0
LINE
5
9d1
100
AcDbEntity
8
0-5_2_4
6
CONTINUOUS
62
7
100
AcDbLine
10
1302.390000000000
20
372.950000000000
30
0.0
11
1300.520000000000
21
359.900000000000
31
0.0
0
LINE
5
9d2
100
AcDbEntity
8
0-5_2_4
6
CONTINUOUS
62
7
100
AcDbLine
10
1302.980000000000
20
372.820000000000
30
0.0
11
1301.120000000000
21
359.810000000000
31
0.0
0
LINE
5
9d3
100
AcDbEntity
8
0-5_2_4
6
CONTINUOUS
62
7
100
AcDbLine
10
1300.600000000000
20
354.650000000000
30
0.0
11
1302.820000000000
21
359.050000000000
31
0.0
0
LINE
5
9d4
100
AcDbEntity
8
0-5_2_4
6
CONTINUOUS
62
7
100
AcDbLine
10
1302.730000000000
20
358.860000000000
30
0.0
11
1300.010000000000
21
355.070000000000
31
0.0
0
LINE
5
9d5
100
AcDbEntity
8
0-5_2_4
6
CONTINUOUS
62
7
100
AcDbLine
10
1302.240000000000
20
359.210000000000
30
0.0
11
1299.520000000000
21
355.420000000000
31
0.0
0
LINE
5
9d6
100
AcDbEntity
8
0-5_2_4
6
CONTINUOUS
62
7
100
AcDbLine
10
1301.120000000000
20
354.340000000000
30
0.0
11
1303.360000000000
21
358.780000000000
31
0.0
0
LINE
5
9d7
100
AcDbEntity
8
0-5_2_4
6
CONTINUOUS
62
7
100
AcDbLine
10
1311.170000000000
20
353.650000000000
30
0.0
11
1309.220000000000
21
360.610000000000
31
0.0
0
LINE
5
9d8
100
AcDbEntity
8
0-5_2_4
6
CONTINUOUS
62
7
100
AcDbLine
10
1308.650000000000
20
360.450000000000
30
0.0
11
1310.590000000000
21
353.490000000000
31
0.0
0
LINE
5
9d9
100
AcDbEntity
8
0-5_2_4
6
CONTINUOUS
62
7
100
AcDbLine
10
1311.740000000000
20
353.210000000000
30
0.0
11
1335.490000000000
21
353.210000000000
31
0.0
0
LINE
5
9da
100
AcDbEntity
8
0-5_2_4
6
CONTINUOUS
62
7
100
AcDbLine
10
1311.740000000000
20
352.610000000000
30
0.0
11
1335.490000000000
21
352.610000000000
31
0.0
0
LINE
5
9db
100
AcDbEntity
8
0-5_2_4
6
CONTINUOUS
62
7
100
AcDbLine
10
1337.310000000000
20
350.790000000000
30
0.0
11
1335.490000000000
21
352.610000000000
31
0.0
0
LINE
5
9dc
100
AcDbEntity
8
0-5_2_4
6
CONTINUOUS
62
7
100
AcDbLine
10
1337.730000000000
20
351.210000000000
30
0.0
11
1385.730000000000
21
351.210000000000
31
0.0
0
LINE
5
9dd
100
AcDbEntity
8
0-5_2_4
6
CONTINUOUS
62
7
100
AcDbLine
10
1385.730000000000
20
350.610000000000
30
0.0
11
1337.730000000000
21
350.610000000000
31
0.0
0
LINE
5
9de
100
AcDbEntity
8
0-5_2_4
6
CONTINUOUS
62
7
100
AcDbLine
10
1305.730000000000
20
374.060000000000
30
0.0
11
1306.260000000000
21
374.210000000000
31
0.0
0
LINE
5
9df
100
AcDbEntity
8
0-5_2_4
6
CONTINUOUS
62
7
100
AcDbLine
10
1305.730000000000
20
373.440000000000
30
0.0
11
1306.330000000000
21
373.610000000000
31
0.0
0
LINE
5
9e0
100
AcDbEntity
8
0-5_2_4
6
CONTINUOUS
62
7
100
AcDbLine
10
1305.730000000000
20
373.440000000000
30
0.0
11
1305.140000000000
21
373.610000000000
31
0.0
0
LINE
5
9e1
100
AcDbEntity
8
0-5_2_4
6
CONTINUOUS
62
7
100
AcDbLine
10
1305.730000000000
20
374.060000000000
30
0.0
11
1305.210000000000
21
374.210000000000
31
0.0
0
LINE
5
9e2
100
AcDbEntity
8
0-5_2_4
6
CONTINUOUS
62
7
100
AcDbLine
10
1303.360000000000
20
358.780000000000
30
0.0
11
1302.820000000000
21
359.050000000000
31
0.0
0
LINE
5
9e3
100
AcDbEntity
8
0-5_2_4
6
CONTINUOUS
62
4
100
AcDbLine
10
1314.980000000000
20
352.110000000000
30
0.0
11
1324.980000000000
21
352.110000000000
31
0.0
0
LINE
5
9e4
100
AcDbEntity
8
0-5_2_4
6
CONTINUOUS
62
4
100
AcDbLine
10
1316.980000000000
20
352.610000000000
30
0.0
11
1322.980000000000
21
352.610000000000
31
0.0
0
LINE
5
9e5
100
AcDbEntity
8
0-5_2_4
6
CONTINUOUS
62
4
100
AcDbLine
10
1324.980000000000
20
352.110000000000
30
0.0
11
1324.980000000000
21
351.710000000000
31
0.0
0
LINE
5
9e6
100
AcDbEntity
8
0-5_2_4
6
CONTINUOUS
62
4
100
AcDbLine
10
1322.980000000000
20
352.610000000000
30
0.0
11
1324.480000000000
21
352.110000000000
31
0.0
0
LINE
5
9e7
100
AcDbEntity
8
0-5_2_4
6
CONTINUOUS
62
4
100
AcDbLine
10
1322.380000000000
20
341.240000000000
30
0.0
11
1317.580000000000
21
342.040000000000
31
0.0
0
LINE
5
9e8
100
AcDbEntity
8
0-5_2_4
6
CONTINUOUS
62
4
100
AcDbLine
10
1322.380000000000
20
339.640000000000
30
0.0
11
1317.580000000000
21
340.440000000000
31
0.0
0
LINE
5
9e9
100
AcDbEntity
8
0-5_2_4
6
CONTINUOUS
62
4
100
AcDbLine
10
1322.380000000000
20
338.040000000000
30
0.0
11
1317.580000000000
21
338.840000000000
31
0.0
0
LINE
5
9ea
100
AcDbEntity
8
0-5_2_4
6
CONTINUOUS
62
4
100
AcDbLine
10
1322.380000000000
20
342.840000000000
30
0.0
11
1317.580000000000
21
343.640000000000
31
0.0
0
LINE
5
9eb
100
AcDbEntity
8
0-5_2_4
6
CONTINUOUS
62
4
100
AcDbLine
10
1314.980000000000
20
352.110000000000
30
0.0
11
1314.980000000000
21
351.710000000000
31
0.0
0
LINE
5
9ec
100
AcDbEntity
8
0-5_2_4
6
CONTINUOUS
62
4
100
AcDbLine
10
1316.980000000000
20
352.610000000000
30
0.0
11
1315.480000000000
21
352.110000000000
31
0.0
0
LINE
5
9ed
100
AcDbEntity
8
0-5_2_4
6
CONTINUOUS
62
4
100
AcDbLine
10
1322.380000000000
20
334.840000000000
30
0.0
11
1317.580000000000
21
335.640000000000
31
0.0
0
LINE
5
9ee
100
AcDbEntity
8
0-5_2_4
6
CONTINUOUS
62
4
100
AcDbLine
10
1322.380000000000
20
336.440000000000
30
0.0
11
1317.580000000000
21
337.240000000000
31
0.0
0
LINE
5
9ef
100
AcDbEntity
8
0-5_2_4
6
CONTINUOUS
62
4
100
AcDbLine
10
1322.380000000000
20
333.240000000000
30
0.0
11
1317.580000000000
21
334.040000000000
31
0.0
0
LINE
5
9f0
100
AcDbEntity
8
0-5_2_4
6
CONTINUOUS
62
4
100
AcDbLine
10
1322.380000000000
20
331.640000000000
30
0.0
11
1317.580000000000
21
332.440000000000
31
0.0
0
LINE
5
9f1
100
AcDbEntity
8
0-5_2_4
6
CONTINUOUS
62
4
100
AcDbLine
10
1319.980000000000
20
316.710000000000
30
0.0
11
1317.980000000000
21
318.310000000000
31
0.0
0
LINE
5
9f2
100
AcDbEntity
8
0-5_2_4
6
CONTINUOUS
62
4
100
AcDbLine
10
1321.980000000000
20
318.310000000000
30
0.0
11
1319.980000000000
21
316.710000000000
31
0.0
0
LINE
5
9f3
100
AcDbEntity
8
0-5_2_4
6
CONTINUOUS
62
4
100
AcDbLine
10
1314.980000000000
20
351.710000000000
30
0.0
11
1324.980000000000
21
351.710000000000
31
0.0
0
LINE
5
9f4
100
AcDbEntity
8
0-5_2_4
6
CONTINUOUS
62
4
100
AcDbLine
10
1322.380000000000
20
346.040000000000
30
0.0
11
1317.580000000000
21
346.840000000000
31
0.0
0
LINE
5
9f5
100
AcDbEntity
8
0-5_2_4
6
CONTINUOUS
62
4
100
AcDbLine
10
1322.380000000000
20
344.440000000000
30
0.0
11
1317.580000000000
21
345.240000000000
31
0.0
0
LINE
5
9f6
100
AcDbEntity
8
0-5_2_4
6
CONTINUOUS
62
4
100
AcDbLine
10
1322.380000000000
20
347.640000000000
30
0.0
11
1317.580000000000
21
348.440000000000
31
0.0
0
LINE
5
9f7
100
AcDbEntity
8
0-5_2_4
6
CONTINUOUS
62
4
100
AcDbLine
10
1317.980000000000
20
318.310000000000
30
0.0
11
1317.980000000000
21
351.710000000000
31
0.0
0
LINE
5
9f8
100
AcDbEntity
8
0-5_2_4
6
CONTINUOUS
62
4
100
AcDbLine
10
1321.980000000000
20
318.310000000000
30
0.0
11
1321.980000000000
21
351.710000000000
31
0.0
0
LINE
5
9f9
100
AcDbEntity
8
0-5_2_4
6
CONTINUOUS
62
4
100
AcDbLine
10
1322.380000000000
20
330.040000000000
30
0.0
11
1317.580000000000
21
330.840000000000
31
0.0
0
LINE
5
9fa
100
AcDbEntity
8
0-5_2_4
6
CONTINUOUS
62
4
100
AcDbLine
10
1322.380000000000
20
328.440000000000
30
0.0
11
1317.580000000000
21
329.240000000000
31
0.0
0
LINE
5
9fb
100
AcDbEntity
8
0-5_2_4
6
CONTINUOUS
62
4
100
AcDbLine
10
1322.380000000000
20
326.840000000000
30
0.0
11
1317.580000000000
21
327.640000000000
31
0.0
0
LINE
5
9fc
100
AcDbEntity
8
0-5_2_4
6
CONTINUOUS
62
4
100
AcDbLine
10
1322.380000000000
20
325.240000000000
30
0.0
11
1317.580000000000
21
326.040000000000
31
0.0
0
LINE
5
9fd
100
AcDbEntity
8
0-5_2_4
6
CONTINUOUS
62
4
100
AcDbLine
10
1322.380000000000
20
323.640000000000
30
0.0
11
1317.580000000000
21
324.440000000000
31
0.0
0
LINE
5
9fe
100
AcDbEntity
8
0-5_2_4
6
CENTER2
62
4
100
AcDbLine
10
1319.980000000000
20
353.520000000000
30
0.0
11
1319.980000000000
21
313.370000000000
31
0.0
0
LINE
5
9ff
100
AcDbEntity
8
0-5_2_4
6
CONTINUOUS
62
4
100
AcDbLine
10
1319.180000000000
20
317.510000000000
30
0.0
11
1319.980000000000
21
318.310000000000
31
0.0
0
LINE
5
a00
100
AcDbEntity
8
0-5_2_4
6
CONTINUOUS
62
4
100
AcDbLine
10
1319.980000000000
20
318.310000000000
30
0.0
11
1319.450000000000
21
319.400000000000
31
0.0
0
LINE
5
a01
100
AcDbEntity
8
0-5_2_4
6
CONTINUOUS
62
4
100
AcDbLine
10
1319.450000000000
20
319.400000000000
30
0.0
11
1320.660000000000
21
320.100000000000
31
0.0
0
LINE
5
a02
100
AcDbEntity
8
0-5_2_4
6
CONTINUOUS
62
4
100
AcDbLine
10
1320.660000000000
20
320.100000000000
30
0.0
11
1321.980000000000
21
318.310000000000
31
0.0
0
LINE
5
a03
100
AcDbEntity
8
0-5_2_4
6
CONTINUOUS
62
3
100
AcDbLine
10
1479.350000000000
20
349.610000000000
30
0.0
11
1202.730000000000
21
349.610000000000
31
0.0
0
LINE
5
a04
100
AcDbEntity
8
0-5_2_4
6
CONTINUOUS
62
7
100
AcDbLine
10
1278.230000000000
20
351.210000000000
30
0.0
11
1271.190000000000
21
351.210000000000
31
0.0
0
LINE
5
a05
100
AcDbEntity
8
0-5_2_4
6
CONTINUOUS
62
7
100
AcDbLine
10
1278.230000000000
20
350.610000000000
30
0.0
11
1271.140000000000
21
350.610000000000
31
0.0
0
LINE
5
a06
100
AcDbEntity
8
0-5_2_4
6
CONTINUOUS
62
7
100
AcDbLine
10
1202.730000000000
20
351.210000000000
30
0.0
11
1271.190000000000
21
351.210000000000
31
0.0
0
LINE
5
a07
100
AcDbEntity
8
0-5_2_4
6
CONTINUOUS
62
7
100
AcDbLine
10
1202.730000000000
20
350.610000000000
30
0.0
11
1271.140000000000
21
350.610000000000
31
0.0
0
LINE
5
a08
100
AcDbEntity
8
0-5_2_4
6
CONTINUOUS
62
7
100
AcDbLine
10
1260.660000000000
20
399.520000000000
30
0.0
11
1287.400000000000
21
353.210000000000
31
0.0
0
LINE
5
a09
100
AcDbEntity
8
0-5_2_4
6
CONTINUOUS
62
4
100
AcDbLine
10
1417.350000000000
20
351.610000000000
30
0.0
11
1425.780000000000
21
355.000000000000
31
0.0
0
LINE
5
a0a
100
AcDbEntity
8
0-5_2_4
6
CONTINUOUS
62
4
100
AcDbLine
10
1445.320000000000
20
362.850000000000
30
0.0
11
1477.350000000000
21
375.710000000000
31
0.0
0
LINE
5
a0b
100
AcDbEntity
8
0-5_2_4
6
CONTINUOUS
62
3
100
AcDbLine
10
1417.350000000000
20
375.710000000000
30
0.0
11
1417.350000000000
21
351.610000000000
31
0.0
0
LINE
5
a0c
100
AcDbEntity
8
0-5_2_4
6
CONTINUOUS
62
3
100
AcDbLine
10
1477.350000000000
20
375.710000000000
30
0.0
11
1477.350000000000
21
351.610000000000
31
0.0
0
LINE
5
a0d
100
AcDbEntity
8
0-5_2_4
6
DASHED
62
7
100
AcDbLine
10
1476.350000000000
20
376.010000000000
30
0.0
11
1416.350000000000
21
376.010000000000
31
0.0
0
LINE
5
a0e
100
AcDbEntity
8
0-5_2_4
6
DASHED
62
7
100
AcDbLine
10
1416.350000000000
20
352.360000000000
30
0.0
11
1416.350000000000
21
376.010000000000
31
0.0
0
LINE
5
a0f
100
AcDbEntity
8
0-5_2_4
6
CONTINUOUS
62
7
100
AcDbLine
10
1408.110000000000
20
377.510000000000
30
0.0
11
1388.110000000000
21
377.510000000000
31
0.0
0
LINE
5
a10
100
AcDbEntity
8
0-5_2_4
6
CONTINUOUS
62
7
100
AcDbLine
10
1408.110000000000
20
377.510000000000
30
0.0
11
1408.110000000000
21
356.810000000000
31
0.0
0
LINE
5
a11
100
AcDbEntity
8
0-5_2_4
6
CONTINUOUS
62
7
100
AcDbLine
10
1408.710000000000
20
377.510000000000
30
0.0
11
1408.710000000000
21
356.810000000000
31
0.0
0
LINE
5
a12
100
AcDbEntity
8
0-5_2_4
6
CONTINUOUS
62
7
100
AcDbLine
10
1474.350000000000
20
390.510000000000
30
0.0
11
1474.350000000000
21
528.260000000000
31
0.0
0
LINE
5
a13
100
AcDbEntity
8
0-5_2_4
6
CONTINUOUS
62
7
100
AcDbLine
10
1459.350000000000
20
390.510000000000
30
0.0
11
1459.350000000000
21
528.260000000000
31
0.0
0
LINE
5
a14
100
AcDbEntity
8
0-5_2_4
6
DASHED
62
7
100
AcDbLine
10
1477.350000000000
20
481.970000000000
30
0.0
11
1477.350000000000
21
528.260000000000
31
0.0
0
LINE
5
a15
100
AcDbEntity
8
0-5_2_4
6
DASHED
62
7
100
AcDbLine
10
1477.350000000000
20
481.970000000000
30
0.0
11
1474.950000000000
21
478.270000000000
31
0.0
0
LINE
5
a16
100
AcDbEntity
8
0-5_2_4
6
CONTINUOUS
62
3
100
AcDbLine
10
1479.350000000000
20
349.610000000000
30
0.0
11
1479.350000000000
21
439.610000000000
31
0.0
0
LINE
5
a17
100
AcDbEntity
8
0-1_2_0
6
CONTINUOUS
62
7
100
AcDbLine
10
973.530000000000
20
879.500000000000
30
0.0
11
971.750000000000
21
888.110000000000
31
0.0
0
LINE
5
a18
100
AcDbEntity
8
0-1_2_0
6
CONTINUOUS
62
7
100
AcDbLine
10
971.750000000000
20
888.110000000000
30
0.0
11
971.160000000000
21
887.990000000000
31
0.0
0
LINE
5
a19
100
AcDbEntity
8
0-1_2_0
6
CONTINUOUS
62
7
100
AcDbLine
10
972.950000000000
20
879.380000000000
30
0.0
11
971.160000000000
21
887.990000000000
31
0.0
0
LINE
5
a1a
100
AcDbEntity
8
0-1_2_0
6
CONTINUOUS
62
7
100
AcDbLine
10
978.570000000000
20
898.820000000000
30
0.0
11
974.710000000000
21
879.500000000000
31
0.0
0
LINE
5
a1b
100
AcDbEntity
8
0-1_2_0
6
CONTINUOUS
62
7
100
AcDbLine
10
979.160000000000
20
898.710000000000
30
0.0
11
975.300000000000
21
879.380000000000
31
0.0
0
LINE
5
a1c
100
AcDbEntity
8
0-5_2_4
6
CONTINUOUS
62
7
100
AcDbLine
10
1414.750000000000
20
375.710000000000
30
0.0
11
1414.750000000000
21
353.210000000000
31
0.0
0
LINE
5
a1d
100
AcDbEntity
8
0-5_2_4
6
CONTINUOUS
62
7
100
AcDbLine
10
1415.350000000000
20
375.710000000000
30
0.0
11
1414.750000000000
21
375.710000000000
31
0.0
0
LINE
5
a1e
100
AcDbEntity
8
0-5_2_4
6
CONTINUOUS
62
7
100
AcDbLine
10
1415.350000000000
20
375.710000000000
30
0.0
11
1415.350000000000
21
353.210000000000
31
0.0
0
ARC
5
a1f
100
AcDbEntity
8
0-4_2_3
6
CONTINUOUS
62
3
100
AcDbCircle
10
826.730000000000
20
369.650000000000
30
0.0
40
2.299999732846
100
AcDbArc
50
90.000000000000
51
180.000000000000
0
ARC
5
a20
100
AcDbEntity
8
0-4_2_3
6
CONTINUOUS
62
3
100
AcDbCircle
10
872.130000000000
20
369.650000000000
30
0.0
40
2.299999732846
100
AcDbArc
50
360.000000000000
51
450.000000000000
0
ARC
5
a21
100
AcDbEntity
8
0-4_2_3
6
CONTINUOUS
62
3
100
AcDbCircle
10
872.130000000000
20
274.250000000000
30
0.0
40
2.299999732846
100
AcDbArc
50
270.000000000000
51
360.000000000000
0
ARC
5
a22
100
AcDbEntity
8
0-4_2_3
6
CONTINUOUS
62
3
100
AcDbCircle
10
826.730000000000
20
274.250000000000
30
0.0
40
2.299999732846
100
AcDbArc
50
180.000000000000
51
-90.000000000000
0
ARC
5
a23
100
AcDbEntity
8
0-4_2_3
6
CONTINUOUS
62
7
100
AcDbCircle
10
737.280000000000
20
396.910000000000
30
0.0
40
2.258744989746
100
AcDbArc
50
90.098495483398
51
270.098495483398
0
ARC
5
a24
100
AcDbEntity
8
0-4_2_3
6
CONTINUOUS
62
7
100
AcDbCircle
10
737.280000000000
20
396.910000000000
30
0.0
40
2.859979510770
100
AcDbArc
50
90.072433471680
51
270.072433471680
0
ARC
5
a25
100
AcDbEntity
8
0-4_2_3
6
CONTINUOUS
62
7
100
AcDbCircle
10
754.930000000000
20
356.440000000000
30
0.0
40
1.499999880466
100
AcDbArc
50
276.460876464844
51
-0.006805419922
0
ARC
5
a26
100
AcDbEntity
8
0-4_2_3
6
CONTINUOUS
62
7
100
AcDbCircle
10
754.930000000000
20
356.440000000000
30
0.0
40
0.899999966988
100
AcDbArc
50
179.992706298828
51
-0.007293701172
0
ARC
5
a27
100
AcDbEntity
8
0-4_2_3
6
CONTINUOUS
62
7
100
AcDbCircle
10
754.930000000000
20
356.440000000000
30
0.0
40
1.499999880466
100
AcDbArc
50
184.437149047852
51
276.460876464844
0
ARC
5
a28
100
AcDbEntity
8
0-4_2_3
6
CONTINUOUS
62
7
100
AcDbCircle
10
755.230000000000
20
370.950000000000
30
0.0
40
0.600000010249
100
AcDbArc
50
89.999984741211
51
179.997756958008
0
ARC
5
a29
100
AcDbEntity
8
0-4_2_3
6
CONTINUOUS
62
7
100
AcDbCircle
10
753.430000000000
20
395.190000000000
30
0.0
40
0.600000010249
100
AcDbArc
50
360.000000000000
51
450.000152587891
0
ARC
5
a2a
100
AcDbEntity
8
0-4_2_3
6
CONTINUOUS
62
7
100
AcDbCircle
10
737.290000000000
20
396.690000000000
30
0.0
40
1.499980235903
100
AcDbArc
50
89.999877929688
51
269.999877929688
0
ARC
5
a2b
100
AcDbEntity
8
0-4_2_3
6
CONTINUOUS
62
7
100
AcDbCircle
10
737.290000000000
20
396.690000000000
30
0.0
40
0.899988064125
100
AcDbArc
50
89.999755859375
51
269.999755859375
0
ARC
5
a2c
100
AcDbEntity
8
0-4_2_3
6
CONTINUOUS
62
7
100
AcDbCircle
10
818.540000000000
20
397.850000000000
30
0.0
40
0.896454365334
100
AcDbArc
50
269.814971923828
51
89.814971923828
0
ARC
5
a2d
100
AcDbEntity
8
0-4_2_3
6
CONTINUOUS
62
7
100
AcDbCircle
10
818.540000000000
20
397.850000000000
30
0.0
40
0.299996037504
100
AcDbArc
50
270.000000000000
51
90.000000000000
0
ARC
5
a2e
100
AcDbEntity
8
0-4_2_3
6
CONTINUOUS
62
7
100
AcDbCircle
10
794.950000000000
20
-1125.300000000000
30
0.0
40
1525.977535203871
100
AcDbArc
50
89.660446166992
51
91.978622436523
0
ARC
5
a2f
100
AcDbEntity
8
0-4_2_3
6
CONTINUOUS
62
7
100
AcDbCircle
10
794.950000000000
20
-1125.300000000000
30
0.0
40
1525.377522516588
100
AcDbArc
50
89.660308837891
51
91.978637695313
0
ARC
5
a30
100
AcDbEntity
8
0-4_2_3
6
CONTINUOUS
62
7
100
AcDbCircle
10
802.230000000000
20
370.950000000000
30
0.0
40
0.600000010249
100
AcDbArc
50
360.000000000000
51
450.000000000000
0
ARC
5
a31
100
AcDbEntity
8
0-4_2_3
6
CONTINUOUS
62
7
100
AcDbCircle
10
803.130000000000
20
321.950000000000
30
0.0
40
0.300000126089
100
AcDbArc
50
179.990539550781
51
359.990539550781
0
ARC
5
a32
100
AcDbEntity
8
0-4_2_3
6
CONTINUOUS
62
7
100
AcDbCircle
10
803.130000000000
20
321.950000000000
30
0.0
40
0.900006644204
100
AcDbArc
50
180.000000000000
51
0.000000000000
0
ARC
5
a33
100
AcDbEntity
8
0-3_2_2
6
CONTINUOUS
62
3
100
AcDbCircle
10
296.580000000000
20
348.300000000000
30
0.0
40
2.299999732846
100
AcDbArc
50
101.309921264648
51
191.309921264648
0
ARC
5
a34
100
AcDbEntity
8
0-3_2_2
6
CONTINUOUS
62
3
100
AcDbCircle
10
341.090000000000
20
357.200000000000
30
0.0
40
2.299999732846
100
AcDbArc
50
11.309921264648
51
101.309921264648
0
ARC
5
a35
100
AcDbEntity
8
0-3_2_2
6
CONTINUOUS
62
3
100
AcDbCircle
10
359.800000000000
20
263.650000000000
30
0.0
40
2.299999732846
100
AcDbArc
50
281.309921264648
51
371.309921264648
0
ARC
5
a36
100
AcDbEntity
8
0-3_2_2
6
CONTINUOUS
62
3
100
AcDbCircle
10
315.290000000000
20
254.750000000000
30
0.0
40
2.299999732846
100
AcDbArc
50
191.309921264648
51
-78.690078735352
0
ARC
5
a37
100
AcDbEntity
8
0-3_2_2
6
CONTINUOUS
62
7
100
AcDbCircle
10
228.760000000000
20
321.260000000000
30
0.0
40
1.499999880466
100
AcDbArc
50
287.770797729492
51
11.303115844727
0
ARC
5
a38
100
AcDbEntity
8
0-3_2_2
6
CONTINUOUS
62
7
100
AcDbCircle
10
228.760000000000
20
321.260000000000
30
0.0
40
0.899999966988
100
AcDbArc
50
191.302627563477
51
11.302627563477
0
ARC
5
a39
100
AcDbEntity
8
0-3_2_2
6
CONTINUOUS
62
7
100
AcDbCircle
10
228.760000000000
20
321.260000000000
30
0.0
40
1.499999880466
100
AcDbArc
50
195.747070312500
51
287.770797729492
0
ARC
5
a3a
100
AcDbEntity
8
0-3_2_2
6
CONTINUOUS
62
7
100
AcDbCircle
10
226.210000000000
20
335.550000000000
30
0.0
40
0.600000010249
100
AcDbArc
50
101.309906005859
51
191.307678222656
0
ARC
5
a3b
100
AcDbEntity
8
0-3_2_2
6
CONTINUOUS
62
7
100
AcDbCircle
10
219.690000000000
20
358.960000000000
30
0.0
40
0.600000010249
100
AcDbArc
50
11.309921264648
51
101.310073852539
0
ARC
5
a3c
100
AcDbEntity
8
0-3_2_2
6
CONTINUOUS
62
7
100
AcDbCircle
10
203.570000000000
20
357.260000000000
30
0.0
40
1.499980235903
100
AcDbArc
50
101.309799194336
51
281.309799194336
0
ARC
5
a3d
100
AcDbEntity
8
0-3_2_2
6
CONTINUOUS
62
7
100
AcDbCircle
10
203.570000000000
20
357.260000000000
30
0.0
40
0.899988064125
100
AcDbArc
50
101.309677124023
51
281.309677124023
0
ARC
5
a3e
100
AcDbEntity
8
0-3_2_2
6
CONTINUOUS
62
7
100
AcDbCircle
10
283.010000000000
20
374.340000000000
30
0.0
40
0.896454365334
100
AcDbArc
50
281.124893188477
51
101.124893188477
0
ARC
5
a3f
100
AcDbEntity
8
0-3_2_2
6
CONTINUOUS
62
7
100
AcDbCircle
10
283.010000000000
20
374.340000000000
30
0.0
40
0.299996037504
100
AcDbArc
50
281.309921264648
51
101.309921264648
0
ARC
5
a40
100
AcDbEntity
8
0-3_2_2
6
CONTINUOUS
62
7
100
AcDbCircle
10
558.590000000000
20
-1123.860000000000
30
0.0
40
1525.977535203871
100
AcDbArc
50
100.970367431641
51
103.288543701172
0
ARC
5
a41
100
AcDbEntity
8
0-3_2_2
6
CONTINUOUS
62
7
100
AcDbCircle
10
558.590000000000
20
-1123.860000000000
30
0.0
40
1525.377522516588
100
AcDbArc
50
100.970230102539
51
103.288558959961
0
ARC
5
a42
100
AcDbEntity
8
0-3_2_2
6
CONTINUOUS
62
7
100
AcDbCircle
10
272.300000000000
20
344.770000000000
30
0.0
40
0.600000010249
100
AcDbArc
50
11.309921264648
51
101.309921264648
0
ARC
5
a43
100
AcDbEntity
8
0-3_2_2
6
CONTINUOUS
62
7
100
AcDbCircle
10
282.790000000000
20
296.890000000000
30
0.0
40
0.300000126089
100
AcDbArc
50
191.300460815430
51
371.300460815430
0
ARC
5
a44
100
AcDbEntity
8
0-3_2_2
6
CONTINUOUS
62
7
100
AcDbCircle
10
282.790000000000
20
296.890000000000
30
0.0
40
0.900006644204
100
AcDbArc
50
191.309921264648
51
11.309921264648
0
ARC
5
a45
100
AcDbEntity
8
0-2_2_1
6
DASHED
62
7
100
AcDbCircle
10
1452.980000000000
20
856.520000000000
30
0.0
40
4.999999924124
100
AcDbArc
50
281.310379028320
51
0.000000000000
0
ARC
5
a46
100
AcDbEntity
8
0-2_2_1
6
CONTINUOUS
62
7
100
AcDbCircle
10
1454.380000000000
20
881.020000000000
30
0.0
40
1.999999969650
100
AcDbArc
50
280.049911499023
51
0.000000000000
0
ARC
5
a47
100
AcDbEntity
8
0-2_2_1
6
CONTINUOUS
62
7
100
AcDbCircle
10
1454.380000000000
20
881.020000000000
30
0.0
40
2.599999883128
100
AcDbArc
50
322.416275024414
51
0.000000000000
0
ARC
5
a48
100
AcDbEntity
8
0-2_2_1
6
CONTINUOUS
62
7
100
AcDbCircle
10
1454.380000000000
20
881.020000000000
30
0.0
40
2.599999883128
100
AcDbArc
50
280.049911499023
51
322.416275024414
0
ARC
5
a49
100
AcDbEntity
8
0-2_2_1
6
CONTINUOUS
62
3
100
AcDbCircle
10
1556.680000000000
20
976.610000000000
30
0.0
40
2.299999732846
100
AcDbArc
50
360.000000000000
51
450.000000000000
0
ARC
5
a4a
100
AcDbEntity
8
0-2_2_1
6
CONTINUOUS
62
3
100
AcDbCircle
10
1556.680000000000
20
931.210000000000
30
0.0
40
2.299999732846
100
AcDbArc
50
270.000000000000
51
360.000000000000
0
ARC
5
a4b
100
AcDbEntity
8
0-2_2_1
6
CONTINUOUS
62
3
100
AcDbCircle
10
1461.280000000000
20
931.210000000000
30
0.0
40
2.299999732846
100
AcDbArc
50
180.000000000000
51
270.000000000000
0
ARC
5
a4c
100
AcDbEntity
8
0-2_2_1
6
CONTINUOUS
62
3
100
AcDbCircle
10
1461.280000000000
20
976.610000000000
30
0.0
40
2.299999732846
100
AcDbArc
50
90.000000000000
51
-180.000000000000
0
CIRCLE
5
a4d
100
AcDbEntity
8
F-F
6
CONTINUOUS
62
3
100
AcDbCircle
10
88.840000000000
20
66.090000000000
30
0.0
40
11.313711307550
0
CIRCLE
5
a4e
100
AcDbEntity
8
F-F
6
CONTINUOUS
62
3
100
AcDbCircle
10
88.840000000000
20
66.090000000000
30
0.0
40
12.913710818768
0
CIRCLE
5
a4f
100
AcDbEntity
8
F-F
6
CONTINUOUS
62
4
100
AcDbCircle
10
88.840000000000
20
66.090000000000
30
0.0
40
11.473710561919
0
CIRCLE
5
a50
100
AcDbEntity
8
F-F
6
CONTINUOUS
62
4
100
AcDbCircle
10
88.840000000000
20
66.090000000000
30
0.0
40
11.793706748147
0
CIRCLE
5
a51
100
AcDbEntity
8
F-F
6
CONTINUOUS
62
4
100
AcDbCircle
10
88.840000000000
20
66.090000000000
30
0.0
40
12.113709901904
0
CIRCLE
5
a52
100
AcDbEntity
8
F-F
6
CONTINUOUS
62
4
100
AcDbCircle
10
88.840000000000
20
66.090000000000
30
0.0
40
12.433706862302
0
CIRCLE
5
a53
100
AcDbEntity
8
F-F
6
CONTINUOUS
62
4
100
AcDbCircle
10
88.840000000000
20
66.090000000000
30
0.0
40
12.753706145210
0
CIRCLE
5
a54
100
AcDbEntity
8
0-00
6
DOT
62
7
100
AcDbCircle
10
484.070000000000
20
967.710000000000
30
0.0
40
45.898750257644
0
ARC
5
a55
100
AcDbEntity
8
0-1_2_0
6
CONTINUOUS
62
3
100
AcDbCircle
10
734.390000000000
20
843.580000000000
30
0.0
40
2.299999732846
100
AcDbArc
50
101.309921264648
51
191.309921264648
0
ARC
5
a56
100
AcDbEntity
8
0-1_2_0
6
CONTINUOUS
62
3
100
AcDbCircle
10
778.910000000000
20
852.490000000000
30
0.0
40
2.299999732846
100
AcDbArc
50
11.309921264648
51
101.309921264648
0
ARC
5
a57
100
AcDbEntity
8
0-1_2_0
6
CONTINUOUS
62
3
100
AcDbCircle
10
797.620000000000
20
758.940000000000
30
0.0
40
2.299999732846
100
AcDbArc
50
281.309921264648
51
371.309921264648
0
ARC
5
a58
100
AcDbEntity
8
0-1_2_0
6
CONTINUOUS
62
3
100
AcDbCircle
10
753.100000000000
20
750.040000000000
30
0.0
40
2.299999732846
100
AcDbArc
50
191.309921264648
51
-78.690078735352
0
ARC
5
a59
100
AcDbEntity
8
0-1_2_0
6
CONTINUOUS
62
7
100
AcDbCircle
10
708.740000000000
20
895.670000000000
30
0.0
40
0.899958935980
100
AcDbArc
50
101.310867309570
51
281.310867309570
0
ARC
5
a5a
100
AcDbEntity
8
0-1_2_0
6
CONTINUOUS
62
7
100
AcDbCircle
10
708.740000000000
20
895.670000000000
30
0.0
40
0.299986287801
100
AcDbArc
50
101.310867309570
51
281.310867309570
0
ARC
5
a5b
100
AcDbEntity
8
0-1_2_0
6
CONTINUOUS
62
7
100
AcDbCircle
10
708.740000000000
20
895.670000000000
30
0.0
40
2.099942989223
100
AcDbArc
50
101.309265136719
51
281.309265136719
0
ARC
5
a5c
100
AcDbEntity
8
0-1_2_0
6
CONTINUOUS
62
7
100
AcDbCircle
10
708.740000000000
20
895.670000000000
30
0.0
40
1.499975107027
100
AcDbArc
50
101.309555053711
51
281.309555053711
0
ARC
5
a5d
100
AcDbEntity
8
0-1_2_0
6
CONTINUOUS
62
7
100
AcDbCircle
10
728.530000000000
20
898.700000000000
30
0.0
40
0.600000010249
100
AcDbArc
50
11.314559936523
51
101.308990478516
0
ARC
5
a5e
100
AcDbEntity
8
0-1_2_0
6
CONTINUOUS
62
7
100
AcDbCircle
10
758.010000000000
20
904.290000000000
30
0.0
40
0.899958935980
100
AcDbArc
50
281.310867309570
51
101.310867309570
0
ARC
5
a5f
100
AcDbEntity
8
0-1_2_0
6
CONTINUOUS
62
7
100
AcDbCircle
10
758.010000000000
20
904.290000000000
30
0.0
40
0.299937708635
100
AcDbArc
50
281.312713623047
51
101.312713623047
0
ARC
5
a60
100
AcDbEntity
8
0-1_2_0
6
CONTINUOUS
62
7
100
AcDbCircle
10
738.410000000000
20
900.680000000000
30
0.0
40
0.600000010249
100
AcDbArc
50
266.989196777344
51
281.310867309570
0
ARC
5
a61
100
AcDbEntity
8
0-1_2_0
6
CONTINUOUS
62
7
100
AcDbCircle
10
728.930000000000
20
899.400000000000
30
0.0
40
0.600000010249
100
AcDbArc
50
86.989196777344
51
101.310867309570
0
ARC
5
a62
100
AcDbEntity
8
0-1_2_0
6
CONTINUOUS
62
7
100
AcDbCircle
10
738.530000000000
20
900.090000000000
30
0.0
40
0.600000010249
100
AcDbArc
50
266.989196777344
51
281.310867309570
0
ARC
5
a63
100
AcDbEntity
8
0-1_2_0
6
CONTINUOUS
62
7
100
AcDbCircle
10
728.810000000000
20
899.980000000000
30
0.0
40
0.600000010249
100
AcDbArc
50
86.989196777344
51
101.310867309570
0
ARC
5
a64
100
AcDbEntity
8
0-1_2_0
6
CONTINUOUS
62
4
100
AcDbCircle
10
746.450000000000
20
898.520000000000
30
0.0
40
4.613375187209
100
AcDbArc
50
71.269683837891
51
-228.650115966797
0
ARC
5
a65
100
AcDbEntity
8
0-1_2_0
6
CONTINUOUS
62
7
100
AcDbCircle
10
846.860000000000
20
899.830000000000
30
0.0
40
1.999999969650
100
AcDbArc
50
281.309371948242
51
11.309371948242
0
ARC
5
a66
100
AcDbEntity
8
0-1_2_0
6
CONTINUOUS
62
7
100
AcDbCircle
10
846.860000000000
20
899.830000000000
30
0.0
40
1.399999959401
100
AcDbArc
50
281.309371948242
51
11.309371948242
0
ARC
5
a67
100
AcDbEntity
8
0-1_2_0
6
CONTINUOUS
62
7
100
AcDbCircle
10
843.260000000000
20
917.820000000000
30
0.0
40
1.399999959401
100
AcDbArc
50
11.309097290039
51
44.358596801758
0
ARC
5
a68
100
AcDbEntity
8
0-1_2_0
6
CONTINUOUS
62
7
100
AcDbCircle
10
843.260000000000
20
917.820000000000
30
0.0
40
1.999999969650
100
AcDbArc
50
11.309097290039
51
89.771469116211
0
ARC
5
a69
100
AcDbEntity
8
0-1_2_0
6
DOT
62
7
100
AcDbCircle
10
843.260000000000
20
917.820000000000
30
0.0
40
1.999999969650
100
AcDbArc
50
90.589843750000
51
101.309936523438
0
ARC
5
a6a
100
AcDbEntity
8
0-1_2_0
6
CONTINUOUS
62
7
100
AcDbCircle
10
843.260000000000
20
917.820000000000
30
0.0
40
1.399999959401
100
AcDbArc
50
44.358596801758
51
84.706253051758
0
ARC
5
a6b
100
AcDbEntity
8
0-1_2_0
6
DOT
62
7
100
AcDbCircle
10
843.260000000000
20
917.820000000000
30
0.0
40
1.399999959401
100
AcDbArc
50
86.238861083984
51
101.309936523438
0
ARC
5
a6c
100
AcDbEntity
8
0-1_2_0
6
DOT
62
7
100
AcDbCircle
10
848.250000000000
20
896.950000000000
30
0.0
40
0.600000010249
100
AcDbArc
50
281.309936523438
51
11.310394287109
0
ARC
5
a6d
100
AcDbEntity
8
0-1_2_0
6
DOT
62
7
100
AcDbCircle
10
848.350000000000
20
896.970000000000
30
0.0
40
1.100000002662
100
AcDbArc
50
281.309936523438
51
11.310394287109
0
ARC
5
a6e
100
AcDbEntity
8
0-1_2_0
6
CONTINUOUS
62
7
100
AcDbCircle
10
733.570000000000
20
879.620000000000
30
0.0
40
0.600000010249
100
AcDbArc
50
191.305282592773
51
348.307754516602
0
ARC
5
a6f
100
AcDbEntity
8
0-1_2_0
6
CONTINUOUS
62
7
100
AcDbCircle
10
733.570000000000
20
879.620000000000
30
0.0
40
1.200000020498
100
AcDbArc
50
191.305282592773
51
348.307754516602
0
ARC
5
a70
100
AcDbEntity
8
0-1_2_0
6
CONTINUOUS
62
3
100
AcDbCircle
10
973.300000000000
20
843.580000000000
30
0.0
40
2.299999732846
100
AcDbArc
50
348.690750122070
51
438.690750122070
0
ARC
5
a71
100
AcDbEntity
8
0-1_2_0
6
CONTINUOUS
62
3
100
AcDbCircle
10
928.780000000000
20
852.490000000000
30
0.0
40
2.299999732846
100
AcDbArc
50
78.690750122070
51
168.690750122070
0
ARC
5
a72
100
AcDbEntity
8
0-1_2_0
6
CONTINUOUS
62
3
100
AcDbCircle
10
910.070000000000
20
758.940000000000
30
0.0
40
2.299999732846
100
AcDbArc
50
168.690750122070
51
258.690750122070
0
ARC
5
a73
100
AcDbEntity
8
0-1_2_0
6
CONTINUOUS
62
3
100
AcDbCircle
10
954.590000000000
20
750.040000000000
30
0.0
40
2.299999732846
100
AcDbArc
50
258.690750122070
51
-11.309249877930
0
ARC
5
a74
100
AcDbEntity
8
0-1_2_0
6
CONTINUOUS
62
7
100
AcDbCircle
10
998.950000000000
20
895.670000000000
30
0.0
40
0.899958935980
100
AcDbArc
50
258.689132690430
51
438.689132690430
0
ARC
5
a75
100
AcDbEntity
8
0-1_2_0
6
CONTINUOUS
62
7
100
AcDbCircle
10
998.950000000000
20
895.670000000000
30
0.0
40
0.299986287801
100
AcDbArc
50
258.689132690430
51
438.689132690430
0
ARC
5
a76
100
AcDbEntity
8
0-1_2_0
6
CONTINUOUS
62
7
100
AcDbCircle
10
998.950000000000
20
895.670000000000
30
0.0
40
2.099942989223
100
AcDbArc
50
258.690734863281
51
438.690734863281
0
ARC
5
a77
100
AcDbEntity
8
0-1_2_0
6
CONTINUOUS
62
7
100
AcDbCircle
10
998.950000000000
20
895.670000000000
30
0.0
40
1.499975107027
100
AcDbArc
50
258.690444946289
51
438.690444946289
0
ARC
5
a78
100
AcDbEntity
8
0-1_2_0
6
CONTINUOUS
62
7
100
AcDbCircle
10
979.160000000000
20
898.700000000000
30
0.0
40
0.600000010249
100
AcDbArc
50
78.691009521484
51
168.685440063477
0
ARC
5
a79
100
AcDbEntity
8
0-1_2_0
6
CONTINUOUS
62
7
100
AcDbCircle
10
949.690000000000
20
904.290000000000
30
0.0
40
0.899958935980
100
AcDbArc
50
78.689132690430
51
-101.310867309570
0
ARC
5
a7a
100
AcDbEntity
8
0-1_2_0
6
CONTINUOUS
62
7
100
AcDbCircle
10
949.690000000000
20
904.290000000000
30
0.0
40
0.299937708635
100
AcDbArc
50
78.687286376953
51
-101.312713623047
0
ARC
5
a7b
100
AcDbEntity
8
0-1_2_0
6
CONTINUOUS
62
7
100
AcDbCircle
10
969.280000000000
20
900.680000000000
30
0.0
40
0.600000010249
100
AcDbArc
50
258.689132690430
51
273.010803222656
0
ARC
5
a7c
100
AcDbEntity
8
0-1_2_0
6
CONTINUOUS
62
7
100
AcDbCircle
10
978.770000000000
20
899.400000000000
30
0.0
40
0.600000010249
100
AcDbArc
50
78.689132690430
51
93.010803222656
0
ARC
5
a7d
100
AcDbEntity
8
0-1_2_0
6
CONTINUOUS
62
7
100
AcDbCircle
10
969.160000000000
20
900.090000000000
30
0.0
40
0.600000010249
100
AcDbArc
50
258.689132690430
51
273.010803222656
0
ARC
5
a7e
100
AcDbEntity
8
0-1_2_0
6
CONTINUOUS
62
7
100
AcDbCircle
10
978.880000000000
20
899.980000000000
30
0.0
40
0.600000010249
100
AcDbArc
50
78.689132690430
51
93.010803222656
0
ARC
5
a7f
100
AcDbEntity
8
0-1_2_0
6
CONTINUOUS
62
4
100
AcDbCircle
10
961.240000000000
20
898.520000000000
30
0.0
40
4.613375187209
100
AcDbArc
50
48.649963378906
51
-251.269836425781
0
ARC
5
a80
100
AcDbEntity
8
0-1_2_0
6
CONTINUOUS
62
7
100
AcDbCircle
10
860.830000000000
20
899.830000000000
30
0.0
40
1.999999969650
100
AcDbArc
50
168.690628051758
51
-101.309371948242
0
ARC
5
a81
100
AcDbEntity
8
0-1_2_0
6
CONTINUOUS
62
7
100
AcDbCircle
10
860.830000000000
20
899.830000000000
30
0.0
40
1.399999959401
100
AcDbArc
50
168.690628051758
51
-101.309371948242
0
ARC
5
a82
100
AcDbEntity
8
0-1_2_0
6
CONTINUOUS
62
7
100
AcDbCircle
10
864.430000000000
20
917.820000000000
30
0.0
40
1.399999959401
100
AcDbArc
50
135.641403198242
51
168.690902709961
0
ARC
5
a83
100
AcDbEntity
8
0-1_2_0
6
CONTINUOUS
62
7
100
AcDbCircle
10
864.430000000000
20
917.820000000000
30
0.0
40
1.999999969650
100
AcDbArc
50
90.228530883789
51
168.690902709961
0
ARC
5
a84
100
AcDbEntity
8
0-1_2_0
6
DOT
62
7
100
AcDbCircle
10
864.430000000000
20
917.820000000000
30
0.0
40
1.999999969650
100
AcDbArc
50
78.690063476563
51
89.410156250000
0
ARC
5
a85
100
AcDbEntity
8
0-1_2_0
6
CONTINUOUS
62
7
100
AcDbCircle
10
864.430000000000
20
917.820000000000
30
0.0
40
1.399999959401
100
AcDbArc
50
95.293746948242
51
135.641403198242
0
ARC
5
a86
100
AcDbEntity
8
0-1_2_0
6
DOT
62
7
100
AcDbCircle
10
864.430000000000
20
917.820000000000
30
0.0
40
1.399999959401
100
AcDbArc
50
78.690063476563
51
93.761138916016
0
ARC
5
a87
100
AcDbEntity
8
0-1_2_0
6
DOT
62
7
100
AcDbCircle
10
859.440000000000
20
896.950000000000
30
0.0
40
0.600000010249
100
AcDbArc
50
168.689605712891
51
-101.309936523438
0
ARC
5
a88
100
AcDbEntity
8
0-1_2_0
6
DOT
62
7
100
AcDbCircle
10
859.340000000000
20
896.970000000000
30
0.0
40
1.100000002662
100
AcDbArc
50
168.689605712891
51
-101.309936523438
0
ARC
5
a89
100
AcDbEntity
8
0-5_2_4
6
CONTINUOUS
62
3
100
AcDbCircle
10
1577.050000000000
20
487.310000000000
30
0.0
40
2.299999732846
100
AcDbArc
50
360.000000000000
51
450.000000000000
0
ARC
5
a8a
100
AcDbEntity
8
0-5_2_4
6
CONTINUOUS
62
3
100
AcDbCircle
10
1577.050000000000
20
441.910000000000
30
0.0
40
2.299999732846
100
AcDbArc
50
270.000000000000
51
360.000000000000
0
ARC
5
a8b
100
AcDbEntity
8
0-5_2_4
6
CONTINUOUS
62
3
100
AcDbCircle
10
1481.650000000000
20
441.910000000000
30
0.0
40
2.299999732846
100
AcDbArc
50
180.000000000000
51
270.000000000000
0
ARC
5
a8c
100
AcDbEntity
8
0-5_2_4
6
CONTINUOUS
62
3
100
AcDbCircle
10
1481.650000000000
20
487.310000000000
30
0.0
40
2.299999732846
100
AcDbArc
50
90.000000000000
51
-180.000000000000
0
ARC
5
a8d
100
AcDbEntity
8
0-5_2_4
6
CONTINUOUS
62
7
100
AcDbCircle
10
1476.450000000000
20
477.410000000000
30
0.0
40
0.300006319448
100
AcDbArc
50
360.000000000000
51
540.000000000000
0
ARC
5
a8e
100
AcDbEntity
8
0-5_2_4
6
CONTINUOUS
62
7
100
AcDbCircle
10
1476.450000000000
20
477.410000000000
30
0.0
40
0.900019030923
100
AcDbArc
50
360.000000000000
51
540.000000000000
0
ARC
5
a8f
100
AcDbEntity
8
0-5_2_4
6
CONTINUOUS
62
7
100
AcDbCircle
10
1474.750000000000
20
382.510000000000
30
0.0
40
1.999999969650
100
AcDbArc
50
270.000000000000
51
0.000000000000
0
ARC
5
a90
100
AcDbEntity
8
0-5_2_4
6
CONTINUOUS
62
7
100
AcDbCircle
10
1474.750000000000
20
382.510000000000
30
0.0
40
2.599999883128
100
AcDbArc
50
270.000000000000
51
0.000000000000
0
ARC
5
a91
100
AcDbEntity
8
0-5_2_4
6
DASHED
62
7
100
AcDbCircle
10
1414.350000000000
20
352.360000000000
30
0.0
40
1.999999969650
100
AcDbArc
50
270.000000000000
51
0.000000000000
0
ARC
5
a92
100
AcDbEntity
8
0-5_2_4
6
DASHED
62
7
100
AcDbCircle
10
1476.350000000000
20
378.010000000000
30
0.0
40
1.999999969650
100
AcDbArc
50
270.000000000000
51
0.000000000000
0
ARC
5
a93
100
AcDbEntity
8
0-5_2_4
6
CONTINUOUS
62
7
100
AcDbCircle
10
1412.750000000000
20
353.210000000000
30
0.0
40
1.999999969650
100
AcDbArc
50
270.000000000000
51
0.000000000000
0
ARC
5
a94
100
AcDbEntity
8
0-5_2_4
6
CONTINUOUS
62
7
100
AcDbCircle
10
1412.750000000000
20
353.210000000000
30
0.0
40
2.599999883128
100
AcDbArc
50
270.000000000000
51
0.000000000000
0
ARC
5
a95
100
AcDbEntity
8
0-5_2_4
6
CONTINUOUS
62
3
100
AcDbCircle
10
1477.050000000000
20
322.310000000000
30
0.0
40
2.299999732846
100
AcDbArc
50
360.000000000000
51
450.000000000000
0
ARC
5
a96
100
AcDbEntity
8
0-5_2_4
6
CONTINUOUS
62
3
100
AcDbCircle
10
1431.650000000000
20
322.310000000000
30
0.0
40
2.299999732846
100
AcDbArc
50
90.000000000000
51
180.000000000000
0
ARC
5
a97
100
AcDbEntity
8
0-5_2_4
6
CONTINUOUS
62
3
100
AcDbCircle
10
1431.650000000000
20
226.910000000000
30
0.0
40
2.299999732846
100
AcDbArc
50
180.000000000000
51
-90.000000000000
0
ARC
5
a98
100
AcDbEntity
8
0-5_2_4
6
CONTINUOUS
62
3
100
AcDbCircle
10
1477.050000000000
20
226.910000000000
30
0.0
40
2.299999732846
100
AcDbArc
50
270.000000000000
51
360.000000000000
0
ARC
5
a99
100
AcDbEntity
8
0-5_2_4
6
CONTINUOUS
62
7
100
AcDbCircle
10
1388.110000000000
20
378.410000000000
30
0.0
40
0.899958935980
100
AcDbArc
50
90.000991821289
51
270.000991821289
0
ARC
5
a9a
100
AcDbEntity
8
0-5_2_4
6
CONTINUOUS
62
7
100
AcDbCircle
10
1388.110000000000
20
378.410000000000
30
0.0
40
0.299986287801
100
AcDbArc
50
90.000991821289
51
270.000991821289
0
ARC
5
a9b
100
AcDbEntity
8
0-5_2_4
6
CONTINUOUS
62
7
100
AcDbCircle
10
1388.110000000000
20
378.410000000000
30
0.0
40
2.099942989223
100
AcDbArc
50
89.999389648438
51
269.999389648438
0
ARC
5
a9c
100
AcDbEntity
8
0-5_2_4
6
CONTINUOUS
62
7
100
AcDbCircle
10
1388.110000000000
20
378.410000000000
30
0.0
40
1.499975107027
100
AcDbArc
50
89.999679565430
51
269.999679565430
0
ARC
5
a9d
100
AcDbEntity
8
0-5_2_4
6
CONTINUOUS
62
7
100
AcDbCircle
10
1408.110000000000
20
377.510000000000
30
0.0
40
0.600000010249
100
AcDbArc
50
0.004684448242
51
89.999114990234
0
ARC
5
a9e
100
AcDbEntity
8
0-5_2_4
6
CONTINUOUS
62
7
100
AcDbCircle
10
1438.110000000000
20
377.210000000000
30
0.0
40
0.899958935980
100
AcDbArc
50
270.000991821289
51
90.000991821289
0
ARC
5
a9f
100
AcDbEntity
8
0-5_2_4
6
CONTINUOUS
62
7
100
AcDbCircle
10
1438.110000000000
20
377.210000000000
30
0.0
40
0.299937708635
100
AcDbArc
50
270.002838134766
51
90.002838134766
0
ARC
5
aa0
100
AcDbEntity
8
0-5_2_4
6
CONTINUOUS
62
7
100
AcDbCircle
10
1418.190000000000
20
377.510000000000
30
0.0
40
0.600000010249
100
AcDbArc
50
255.679321289063
51
270.000991821289
0
ARC
5
aa1
100
AcDbEntity
8
0-5_2_4
6
CONTINUOUS
62
7
100
AcDbCircle
10
1408.640000000000
20
378.110000000000
30
0.0
40
0.600000010249
100
AcDbArc
50
75.679321289063
51
90.000991821289
0
ARC
5
aa2
100
AcDbEntity
8
0-5_2_4
6
CONTINUOUS
62
7
100
AcDbCircle
10
1418.190000000000
20
376.910000000000
30
0.0
40
0.600000010249
100
AcDbArc
50
255.679321289063
51
270.000991821289
0
ARC
5
aa3
100
AcDbEntity
8
0-5_2_4
6
CONTINUOUS
62
7
100
AcDbCircle
10
1408.640000000000
20
378.710000000000
30
0.0
40
0.600000010249
100
AcDbArc
50
75.679321289063
51
90.000991821289
0
ARC
5
aa4
100
AcDbEntity
8
0-5_2_4
6
CONTINUOUS
62
4
100
AcDbCircle
10
1425.650000000000
20
373.820000000000
30
0.0
40
4.613375187209
100
AcDbArc
50
59.959808349609
51
-239.959991455078
0
ARC
5
aa5
100
AcDbEntity
8
0-5_2_4
6
CONTINUOUS
62
7
100
AcDbCircle
10
1409.310000000000
20
356.810000000000
30
0.0
40
0.600000010249
100
AcDbArc
50
179.995407104492
51
336.997879028320
0
ARC
5
aa6
100
AcDbEntity
8
0-5_2_4
6
CONTINUOUS
62
7
100
AcDbCircle
10
1409.310000000000
20
356.810000000000
30
0.0
40
1.200000020498
100
AcDbArc
50
179.995407104492
51
336.997879028320
0
ARC
5
aa7
100
AcDbEntity
8
0-2_2_1
6
CONTINUOUS
62
7
100
AcDbCircle
10
1456.080000000000
20
976.610000000000
30
0.0
40
0.300006319448
100
AcDbArc
50
360.000000000000
51
540.000000000000
0
ARC
5
aa8
100
AcDbEntity
8
0-2_2_1
6
CONTINUOUS
62
7
100
AcDbCircle
10
1456.080000000000
20
976.610000000000
30
0.0
40
0.900019030923
100
AcDbArc
50
360.000000000000
51
540.000000000000
0
ARC
5
aa9
100
AcDbEntity
8
0-00
6
CONTINUOUS
62
7
100
AcDbCircle
10
173.570000000000
20
969.710000000000
30
0.0
40
0.400011200040
100
AcDbArc
50
270.000000000000
51
450.000000000000
0
ARC
5
aaa
100
AcDbEntity
8
0-00
6
CONTINUOUS
62
7
100
AcDbCircle
10
173.570000000000
20
969.710000000000
30
0.0
40
1.000003178276
100
AcDbArc
50
270.000000000000
51
450.000000000000
0
ARC
5
aab
100
AcDbEntity
8
0-00
6
CONTINUOUS
62
7
100
AcDbCircle
10
180.820000000000
20
970.710000000000
30
0.0
40
0.600000010249
100
AcDbArc
50
45.000000000000
51
90.000000000000
0
ARC
5
aac
100
AcDbEntity
8
0-00
6
CONTINUOUS
62
7
100
AcDbCircle
10
183.070000000000
20
969.310000000000
30
0.0
40
0.600000010249
100
AcDbArc
50
225.000000000000
51
270.000000000000
0
ARC
5
aad
100
AcDbEntity
8
0-00
6
CONTINUOUS
62
7
100
AcDbCircle
10
123.570000000000
20
969.310000000000
30
0.0
40
0.600000010249
100
AcDbArc
50
270.000000000000
51
315.000000000000
0
ARC
5
aae
100
AcDbEntity
8
0-00
6
CONTINUOUS
62
7
100
AcDbCircle
10
160.570000000000
20
968.680000000000
30
0.0
40
1.625007523498
100
AcDbArc
50
22.620071411133
51
157.379928588867
0
ARC
5
aaf
100
AcDbEntity
8
0-00
6
CONTINUOUS
62
7
100
AcDbCircle
10
160.570000000000
20
968.680000000000
30
0.0
40
1.025007513248
100
AcDbArc
50
1.398773193359
51
178.601226806641
0
ARC
5
ab0
100
AcDbEntity
8
0-00
6
CONTINUOUS
62
7
100
AcDbCircle
10
153.770000000000
20
969.910000000000
30
0.0
40
0.600000010249
100
AcDbArc
50
180.000000000000
51
270.000000000000
0
ARC
5
ab1
100
AcDbEntity
8
0-00
6
CONTINUOUS
62
7
100
AcDbCircle
10
153.770000000000
20
969.910000000000
30
0.0
40
1.200000020498
100
AcDbArc
50
180.000000000000
51
270.000000000000
0
ARC
5
ab2
100
AcDbEntity
8
0-00
6
CONTINUOUS
62
7
100
AcDbCircle
10
148.370000000000
20
971.910000000000
30
0.0
40
0.600000010249
100
AcDbArc
50
270.000000000000
51
0.000000000000
0
ARC
5
ab3
100
AcDbEntity
8
0-00
6
CONTINUOUS
62
7
100
AcDbCircle
10
148.370000000000
20
971.910000000000
30
0.0
40
1.200000020498
100
AcDbArc
50
270.000000000000
51
0.000000000000
0
ARC
5
ab4
100
AcDbEntity
8
0-00
6
CONTINUOUS
62
7
100
AcDbCircle
10
125.820000000000
20
970.710000000000
30
0.0
40
0.600000010249
100
AcDbArc
50
90.000000000000
51
135.000000000000
0
ARC
5
ab5
100
AcDbEntity
8
0-00
6
CONTINUOUS
62
7
100
AcDbCircle
10
153.770000000000
20
979.110000000000
30
0.0
40
0.600000010249
100
AcDbArc
50
90.000000000000
51
180.000000000000
0
ARC
5
ab6
100
AcDbEntity
8
0-00
6
CONTINUOUS
62
7
100
AcDbCircle
10
153.770000000000
20
979.110000000000
30
0.0
40
1.200000020498
100
AcDbArc
50
90.000000000000
51
180.000000000000
0
ARC
5
ab7
100
AcDbEntity
8
0-00
6
CONTINUOUS
62
7
100
AcDbCircle
10
154.460000000000
20
980.310000000000
30
0.0
40
0.600000010249
100
AcDbArc
50
270.000000000000
51
11.768768310547
0
ARC
5
ab8
100
AcDbEntity
8
0-00
6
CONTINUOUS
62
7
100
AcDbCircle
10
148.370000000000
20
977.710000000000
30
0.0
40
0.600000010249
100
AcDbArc
50
360.000000000000
51
450.000000000000
0
ARC
5
ab9
100
AcDbEntity
8
0-00
6
CONTINUOUS
62
7
100
AcDbCircle
10
148.370000000000
20
977.710000000000
30
0.0
40
1.200000020498
100
AcDbArc
50
360.000000000000
51
450.000000000000
0
ARC
5
aba
100
AcDbEntity
8
0-00
6
CONTINUOUS
62
7
100
AcDbCircle
10
147.680000000000
20
978.910000000000
30
0.0
40
0.600000010249
100
AcDbArc
50
168.231231689453
51
-90.000000000000
0
ARC
5
abb
100
AcDbEntity
8
0-00
6
CONTINUOUS
62
7
100
AcDbCircle
10
151.070000000000
20
990.010000000000
30
0.0
40
2.900003323631
100
AcDbArc
50
18.233428955078
51
90.000000000000
0
ARC
5
abc
100
AcDbEntity
8
0-00
6
CONTINUOUS
62
7
100
AcDbCircle
10
151.070000000000
20
990.010000000000
30
0.0
40
3.500003430652
100
AcDbArc
50
18.233428955078
51
90.000000000000
0
ARC
5
abd
100
AcDbEntity
8
0-00
6
CONTINUOUS
62
7
100
AcDbCircle
10
154.560000000000
20
978.710000000000
30
0.0
40
0.600000010249
100
AcDbArc
50
90.000000000000
51
195.594772338867
0
ARC
5
abe
100
AcDbEntity
8
0-00
6
CONTINUOUS
62
7
100
AcDbCircle
10
155.690000000000
20
979.310000000000
30
0.0
40
0.600000010249
100
AcDbArc
50
270.000000000000
51
9.117752075195
0
ARC
5
abf
100
AcDbEntity
8
0-00
6
CONTINUOUS
62
7
100
AcDbCircle
10
147.580000000000
20
977.310000000000
30
0.0
40
0.600000010249
100
AcDbArc
50
344.405227661133
51
450.000000000000
0
ARC
5
ac0
100
AcDbEntity
8
0-00
6
CONTINUOUS
62
7
100
AcDbCircle
10
146.460000000000
20
977.910000000000
30
0.0
40
0.600000010249
100
AcDbArc
50
170.882247924805
51
-90.000000000000
0
ARC
5
ac1
100
AcDbEntity
8
0-00
6
CONTINUOUS
62
7
100
AcDbCircle
10
151.070000000000
20
990.010000000000
30
0.0
40
3.500003430652
100
AcDbArc
50
90.000000000000
51
162.672897338867
0
ARC
5
ac2
100
AcDbEntity
8
0-00
6
CONTINUOUS
62
7
100
AcDbCircle
10
151.070000000000
20
990.010000000000
30
0.0
40
2.900003323631
100
AcDbArc
50
90.000000000000
51
161.765640258789
0
ARC
5
ac3
100
AcDbEntity
8
0-00
6
CONTINUOUS
62
7
100
AcDbCircle
10
145.640000000000
20
972.960000000000
30
0.0
40
0.367125814855
100
AcDbArc
50
144.269958496094
51
324.269958496094
0
ARC
5
ac4
100
AcDbEntity
8
0-00
6
CONTINUOUS
62
7
100
AcDbCircle
10
145.640000000000
20
972.960000000000
30
0.0
40
0.967125825105
100
AcDbArc
50
144.269958496094
51
327.735595703125
0
ARC
5
ac5
100
AcDbEntity
8
0-00
6
CONTINUOUS
62
7
100
AcDbCircle
10
157.080000000000
20
971.910000000000
30
0.0
40
0.600000010249
100
AcDbArc
50
195.592498779297
51
270.000000000000
0
ARC
5
ac6
100
AcDbEntity
8
0-00
6
CONTINUOUS
62
7
100
AcDbCircle
10
157.080000000000
20
971.910000000000
30
0.0
40
1.200000020498
100
AcDbArc
50
195.592498779297
51
270.000000000000
0
ARC
5
ac7
100
AcDbEntity
8
0-00
6
CONTINUOUS
62
7
100
AcDbCircle
10
506.570000000000
20
969.710000000000
30
0.0
40
0.400011200040
100
AcDbArc
50
270.000000000000
51
450.000000000000
0
ARC
5
ac8
100
AcDbEntity
8
0-00
6
CONTINUOUS
62
7
100
AcDbCircle
10
506.570000000000
20
969.710000000000
30
0.0
40
1.000003178276
100
AcDbArc
50
270.000000000000
51
450.000000000000
0
ARC
5
ac9
100
AcDbEntity
8
0-00
6
CONTINUOUS
62
7
100
AcDbCircle
10
513.820000000000
20
970.710000000000
30
0.0
40
0.600000010249
100
AcDbArc
50
45.000000000000
51
90.000000000000
0
ARC
5
aca
100
AcDbEntity
8
0-00
6
CONTINUOUS
62
7
100
AcDbCircle
10
516.070000000000
20
969.310000000000
30
0.0
40
0.600000010249
100
AcDbArc
50
225.000000000000
51
270.000000000000
0
ARC
5
acb
100
AcDbEntity
8
0-00
6
CONTINUOUS
62
7
100
AcDbCircle
10
456.570000000000
20
969.310000000000
30
0.0
40
0.600000010249
100
AcDbArc
50
270.000000000000
51
315.000000000000
0
ARC
5
acc
100
AcDbEntity
8
0-00
6
CONTINUOUS
62
7
100
AcDbCircle
10
493.570000000000
20
968.680000000000
30
0.0
40
1.625007523498
100
AcDbArc
50
22.620071411133
51
157.379928588867
0
ARC
5
acd
100
AcDbEntity
8
0-00
6
CONTINUOUS
62
7
100
AcDbCircle
10
493.570000000000
20
968.680000000000
30
0.0
40
1.025007513248
100
AcDbArc
50
1.398773193359
51
178.601226806641
0
ARC
5
ace
100
AcDbEntity
8
0-00
6
CONTINUOUS
62
7
100
AcDbCircle
10
486.770000000000
20
969.910000000000
30
0.0
40
0.600000010249
100
AcDbArc
50
180.000000000000
51
270.000000000000
0
ARC
5
acf
100
AcDbEntity
8
0-00
6
CONTINUOUS
62
7
100
AcDbCircle
10
486.770000000000
20
969.910000000000
30
0.0
40
1.200000020498
100
AcDbArc
50
180.000000000000
51
270.000000000000
0
ARC
5
ad0
100
AcDbEntity
8
0-00
6
CONTINUOUS
62
7
100
AcDbCircle
10
481.370000000000
20
971.910000000000
30
0.0
40
0.600000010249
100
AcDbArc
50
270.000000000000
51
0.000000000000
0
ARC
5
ad1
100
AcDbEntity
8
0-00
6
CONTINUOUS
62
7
100
AcDbCircle
10
481.370000000000
20
971.910000000000
30
0.0
40
1.200000020498
100
AcDbArc
50
270.000000000000
51
0.000000000000
0
ARC
5
ad2
100
AcDbEntity
8
0-00
6
CONTINUOUS
62
7
100
AcDbCircle
10
458.820000000000
20
970.710000000000
30
0.0
40
0.600000010249
100
AcDbArc
50
90.000000000000
51
135.000000000000
0
ARC
5
ad3
100
AcDbEntity
8
0-00
6
CONTINUOUS
62
7
100
AcDbCircle
10
486.770000000000
20
979.110000000000
30
0.0
40
0.600000010249
100
AcDbArc
50
90.000000000000
51
180.000000000000
0
ARC
5
ad4
100
AcDbEntity
8
0-00
6
CONTINUOUS
62
7
100
AcDbCircle
10
486.770000000000
20
979.110000000000
30
0.0
40
1.200000020498
100
AcDbArc
50
90.000000000000
51
180.000000000000
0
ARC
5
ad5
100
AcDbEntity
8
0-00
6
CONTINUOUS
62
7
100
AcDbCircle
10
487.460000000000
20
980.310000000000
30
0.0
40
0.600000010249
100
AcDbArc
50
270.000000000000
51
11.768768310547
0
ARC
5
ad6
100
AcDbEntity
8
0-00
6
CONTINUOUS
62
7
100
AcDbCircle
10
481.370000000000
20
977.710000000000
30
0.0
40
0.600000010249
100
AcDbArc
50
360.000000000000
51
450.000000000000
0
ARC
5
ad7
100
AcDbEntity
8
0-00
6
CONTINUOUS
62
7
100
AcDbCircle
10
481.370000000000
20
977.710000000000
30
0.0
40
1.200000020498
100
AcDbArc
50
360.000000000000
51
450.000000000000
0
ARC
5
ad8
100
AcDbEntity
8
0-00
6
CONTINUOUS
62
7
100
AcDbCircle
10
480.680000000000
20
978.910000000000
30
0.0
40
0.600000010249
100
AcDbArc
50
168.231231689453
51
-90.000000000000
0
ARC
5
ad9
100
AcDbEntity
8
0-00
6
CONTINUOUS
62
7
100
AcDbCircle
10
484.070000000000
20
990.010000000000
30
0.0
40
2.900003323631
100
AcDbArc
50
18.233428955078
51
90.000000000000
0
ARC
5
ada
100
AcDbEntity
8
0-00
6
CONTINUOUS
62
7
100
AcDbCircle
10
484.070000000000
20
990.010000000000
30
0.0
40
3.500003430652
100
AcDbArc
50
18.233428955078
51
90.000000000000
0
ARC
5
adb
100
AcDbEntity
8
0-00
6
CONTINUOUS
62
7
100
AcDbCircle
10
487.560000000000
20
978.710000000000
30
0.0
40
0.600000010249
100
AcDbArc
50
90.000000000000
51
195.594772338867
0
ARC
5
adc
100
AcDbEntity
8
0-00
6
CONTINUOUS
62
7
100
AcDbCircle
10
488.690000000000
20
979.310000000000
30
0.0
40
0.600000010249
100
AcDbArc
50
270.000000000000
51
9.117752075195
0
ARC
5
add
100
AcDbEntity
8
0-00
6
CONTINUOUS
62
7
100
AcDbCircle
10
480.580000000000
20
977.310000000000
30
0.0
40
0.600000010249
100
AcDbArc
50
344.405227661133
51
450.000000000000
0
ARC
5
ade
100
AcDbEntity
8
0-00
6
CONTINUOUS
62
7
100
AcDbCircle
10
479.460000000000
20
977.910000000000
30
0.0
40
0.600000010249
100
AcDbArc
50
170.882247924805
51
-90.000000000000
0
ARC
5
adf
100
AcDbEntity
8
0-00
6
CONTINUOUS
62
7
100
AcDbCircle
10
484.070000000000
20
990.010000000000
30
0.0
40
3.500003430652
100
AcDbArc
50
90.000000000000
51
162.672897338867
0
ARC
5
ae0
100
AcDbEntity
8
0-00
6
CONTINUOUS
62
7
100
AcDbCircle
10
484.070000000000
20
990.010000000000
30
0.0
40
2.900003323631
100
AcDbArc
50
90.000000000000
51
161.765640258789
0
ARC
5
ae1
100
AcDbEntity
8
0-00
6
CONTINUOUS
62
7
100
AcDbCircle
10
478.640000000000
20
972.960000000000
30
0.0
40
0.367125814855
100
AcDbArc
50
144.269958496094
51
324.269958496094
0
ARC
5
ae2
100
AcDbEntity
8
0-00
6
CONTINUOUS
62
7
100
AcDbCircle
10
478.640000000000
20
972.960000000000
30
0.0
40
0.967125825105
100
AcDbArc
50
144.269958496094
51
327.735595703125
0
ARC
5
ae3
100
AcDbEntity
8
0-00
6
CONTINUOUS
62
7
100
AcDbCircle
10
490.080000000000
20
971.910000000000
30
0.0
40
0.600000010249
100
AcDbArc
50
195.592498779297
51
270.000000000000
0
ARC
5
ae4
100
AcDbEntity
8
0-00
6
CONTINUOUS
62
7
100
AcDbCircle
10
490.080000000000
20
971.910000000000
30
0.0
40
1.200000020498
100
AcDbArc
50
195.592498779297
51
270.000000000000
0
ARC
5
ae5
100
AcDbEntity
8
0-00
6
CONTINUOUS
62
7
100
AcDbCircle
10
151.600000000000
20
991.110000000000
30
0.0
40
0.600000010249
100
AcDbArc
50
11.766448974609
51
83.303985595703
0
ARC
5
ae6
100
AcDbEntity
8
0-00
6
CONTINUOUS
62
7
100
AcDbCircle
10
151.600000000000
20
991.110000000000
30
0.0
40
1.200000020498
100
AcDbArc
50
11.766448974609
51
89.996444702148
0
ARC
5
ae7
100
AcDbEntity
8
0-00
6
CONTINUOUS
62
7
100
AcDbCircle
10
484.600000000000
20
991.110000000000
30
0.0
40
1.200000020498
100
AcDbArc
50
11.766448974609
51
89.995269775391
0
ARC
5
ae8
100
AcDbEntity
8
0-00
6
CONTINUOUS
62
7
100
AcDbCircle
10
484.600000000000
20
991.110000000000
30
0.0
40
0.600000010249
100
AcDbArc
50
11.766448974609
51
83.303985595703
0
ARC
5
ae9
100
AcDbEntity
8
0-00
6
CONTINUOUS
62
7
100
AcDbCircle
10
483.550000000000
20
991.110000000000
30
0.0
40
0.600000010249
100
AcDbArc
50
96.696014404297
51
168.233551025391
0
ARC
5
aea
100
AcDbEntity
8
0-00
6
CONTINUOUS
62
7
100
AcDbCircle
10
483.550000000000
20
991.110000000000
30
0.0
40
1.200000020498
100
AcDbArc
50
90.004730224609
51
168.233551025391
0
ARC
5
aeb
100
AcDbEntity
8
0-00
6
CONTINUOUS
62
7
100
AcDbCircle
10
150.550000000000
20
991.110000000000
30
0.0
40
0.600000010249
100
AcDbArc
50
96.698364257813
51
168.233551025391
0
ARC
5
aec
100
AcDbEntity
8
0-00
6
CONTINUOUS
62
7
100
AcDbCircle
10
150.550000000000
20
991.110000000000
30
0.0
40
1.200000020498
100
AcDbArc
50
90.003555297852
51
168.233551025391
0
ARC
5
aed
100
AcDbEntity
8
F-0
6
CONTINUOUS
62
7
100
AcDbCircle
10
345.920000000000
20
714.340000000000
30
0.0
40
0.800022400080
100
AcDbArc
50
270.000000000000
51
450.000000000000
0
ARC
5
aee
100
AcDbEntity
8
F-0
6
CONTINUOUS
62
7
100
AcDbCircle
10
345.920000000000
20
714.340000000000
30
0.0
40
2.000006356552
100
AcDbArc
50
270.000000000000
51
450.000000000000
0
ARC
5
aef
100
AcDbEntity
8
F-0
6
CONTINUOUS
62
7
100
AcDbCircle
10
360.420000000000
20
716.340000000000
30
0.0
40
1.200000020498
100
AcDbArc
50
45.000000000000
51
90.000000000000
0
ARC
5
af0
100
AcDbEntity
8
F-0
6
CONTINUOUS
62
7
100
AcDbCircle
10
364.920000000000
20
713.540000000000
30
0.0
40
1.200000020498
100
AcDbArc
50
225.000000000000
51
270.000000000000
0
ARC
5
af1
100
AcDbEntity
8
F-0
6
CONTINUOUS
62
7
100
AcDbCircle
10
245.920000000000
20
713.540000000000
30
0.0
40
1.200000020498
100
AcDbArc
50
270.000000000000
51
315.000000000000
0
ARC
5
af2
100
AcDbEntity
8
F-0
6
CONTINUOUS
62
7
100
AcDbCircle
10
319.920000000000
20
712.290000000000
30
0.0
40
3.250015046995
100
AcDbArc
50
22.620071411133
51
157.379928588867
0
ARC
5
af3
100
AcDbEntity
8
F-0
6
CONTINUOUS
62
7
100
AcDbCircle
10
319.920000000000
20
712.290000000000
30
0.0
40
2.050015026497
100
AcDbArc
50
1.398773193359
51
178.601226806641
0
ARC
5
af4
100
AcDbEntity
8
F-0
6
CONTINUOUS
62
7
100
AcDbCircle
10
306.320000000000
20
714.740000000000
30
0.0
40
1.200000020498
100
AcDbArc
50
180.000000000000
51
270.000000000000
0
ARC
5
af5
100
AcDbEntity
8
F-0
6
CONTINUOUS
62
7
100
AcDbCircle
10
306.320000000000
20
714.740000000000
30
0.0
40
2.400000040997
100
AcDbArc
50
180.000000000000
51
270.000000000000
0
ARC
5
af6
100
AcDbEntity
8
F-0
6
CONTINUOUS
62
7
100
AcDbCircle
10
295.520000000000
20
718.740000000000
30
0.0
40
1.200000020498
100
AcDbArc
50
270.000000000000
51
0.000000000000
0
ARC
5
af7
100
AcDbEntity
8
F-0
6
CONTINUOUS
62
7
100
AcDbCircle
10
295.520000000000
20
718.740000000000
30
0.0
40
2.400000040997
100
AcDbArc
50
270.000000000000
51
0.000000000000
0
ARC
5
af8
100
AcDbEntity
8
F-0
6
CONTINUOUS
62
7
100
AcDbCircle
10
250.420000000000
20
716.340000000000
30
0.0
40
1.200000020498
100
AcDbArc
50
90.000000000000
51
135.000000000000
0
ARC
5
af9
100
AcDbEntity
8
F-0
6
CONTINUOUS
62
7
100
AcDbCircle
10
306.320000000000
20
733.140000000000
30
0.0
40
1.200000020498
100
AcDbArc
50
90.000000000000
51
180.000000000000
0
ARC
5
afa
100
AcDbEntity
8
F-0
6
CONTINUOUS
62
7
100
AcDbCircle
10
306.320000000000
20
733.140000000000
30
0.0
40
2.400000040997
100
AcDbArc
50
90.000000000000
51
180.000000000000
0
ARC
5
afb
100
AcDbEntity
8
F-0
6
CONTINUOUS
62
7
100
AcDbCircle
10
307.700000000000
20
735.540000000000
30
0.0
40
1.200000020498
100
AcDbArc
50
270.000000000000
51
11.768768310547
0
ARC
5
afc
100
AcDbEntity
8
F-0
6
CONTINUOUS
62
7
100
AcDbCircle
10
295.520000000000
20
730.340000000000
30
0.0
40
1.200000020498
100
AcDbArc
50
360.000000000000
51
450.000000000000
0
ARC
5
afd
100
AcDbEntity
8
F-0
6
CONTINUOUS
62
7
100
AcDbCircle
10
295.520000000000
20
730.340000000000
30
0.0
40
2.400000040997
100
AcDbArc
50
360.000000000000
51
450.000000000000
0
ARC
5
afe
100
AcDbEntity
8
F-0
6
CONTINUOUS
62
7
100
AcDbCircle
10
294.150000000000
20
732.740000000000
30
0.0
40
1.200000020498
100
AcDbArc
50
168.231231689453
51
-90.000000000000
0
ARC
5
aff
100
AcDbEntity
8
F-0
6
CONTINUOUS
62
7
100
AcDbCircle
10
300.920000000000
20
754.940000000000
30
0.0
40
5.800006647263
100
AcDbArc
50
18.233428955078
51
90.000000000000
0
ARC
5
b00
100
AcDbEntity
8
F-0
6
CONTINUOUS
62
7
100
AcDbCircle
10
300.920000000000
20
754.940000000000
30
0.0
40
7.000006861304
100
AcDbArc
50
18.233428955078
51
90.000000000000
0
ARC
5
b01
100
AcDbEntity
8
F-0
6
CONTINUOUS
62
7
100
AcDbCircle
10
307.900000000000
20
732.340000000000
30
0.0
40
1.200000020498
100
AcDbArc
50
90.000000000000
51
195.594772338867
0
ARC
5
b02
100
AcDbEntity
8
F-0
6
CONTINUOUS
62
7
100
AcDbCircle
10
310.150000000000
20
733.540000000000
30
0.0
40
1.200000020498
100
AcDbArc
50
270.000000000000
51
9.117752075195
0
ARC
5
b03
100
AcDbEntity
8
F-0
6
CONTINUOUS
62
7
100
AcDbCircle
10
293.940000000000
20
729.540000000000
30
0.0
40
1.200000020498
100
AcDbArc
50
344.405227661133
51
450.000000000000
0
ARC
5
b04
100
AcDbEntity
8
F-0
6
CONTINUOUS
62
7
100
AcDbCircle
10
291.690000000000
20
730.740000000000
30
0.0
40
1.200000020498
100
AcDbArc
50
170.882247924805
51
-90.000000000000
0
ARC
5
b05
100
AcDbEntity
8
F-0
6
CONTINUOUS
62
7
100
AcDbCircle
10
300.920000000000
20
754.940000000000
30
0.0
40
7.000006861304
100
AcDbArc
50
90.000000000000
51
162.672897338867
0
ARC
5
b06
100
AcDbEntity
8
F-0
6
CONTINUOUS
62
7
100
AcDbCircle
10
300.920000000000
20
754.940000000000
30
0.0
40
5.800006647263
100
AcDbArc
50
90.000000000000
51
161.765640258789
0
ARC
5
b07
100
AcDbEntity
8
F-0
6
CONTINUOUS
62
7
100
AcDbCircle
10
290.060000000000
20
720.830000000000
30
0.0
40
0.734251629711
100
AcDbArc
50
144.269958496094
51
324.269958496094
0
ARC
5
b08
100
AcDbEntity
8
F-0
6
CONTINUOUS
62
7
100
AcDbCircle
10
290.060000000000
20
720.830000000000
30
0.0
40
1.934251650209
100
AcDbArc
50
144.269958496094
51
327.735595703125
0
ARC
5
b09
100
AcDbEntity
8
F-0
6
CONTINUOUS
62
7
100
AcDbCircle
10
312.940000000000
20
718.740000000000
30
0.0
40
1.200000020498
100
AcDbArc
50
195.592498779297
51
270.000000000000
0
ARC
5
b0a
100
AcDbEntity
8
F-0
6
CONTINUOUS
62
7
100
AcDbCircle
10
312.940000000000
20
718.740000000000
30
0.0
40
2.400000040997
100
AcDbArc
50
195.592498779297
51
270.000000000000
0
ARC
5
b0b
100
AcDbEntity
8
F-0
6
CONTINUOUS
62
7
100
AcDbCircle
10
301.970000000000
20
757.140000000000
30
0.0
40
1.200000020498
100
AcDbArc
50
11.766448974609
51
83.303985595703
0
ARC
5
b0c
100
AcDbEntity
8
F-0
6
CONTINUOUS
62
7
100
AcDbCircle
10
301.970000000000
20
757.140000000000
30
0.0
40
2.400000040997
100
AcDbArc
50
11.766448974609
51
89.996444702148
0
ARC
5
b0d
100
AcDbEntity
8
F-0
6
CONTINUOUS
62
7
100
AcDbCircle
10
299.870000000000
20
757.140000000000
30
0.0
40
1.200000020498
100
AcDbArc
50
96.698364257813
51
168.233551025391
0
ARC
5
b0e
100
AcDbEntity
8
F-0
6
CONTINUOUS
62
7
100
AcDbCircle
10
299.870000000000
20
757.140000000000
30
0.0
40
2.400000040997
100
AcDbArc
50
90.003555297852
51
168.233551025391
0
ARC
5
b0f
100
AcDbEntity
8
0-2_2_1
6
CONTINUOUS
62
3
100
AcDbCircle
10
1319.540000000000
20
795.880000000000
30
0.0
40
2.299999732846
100
AcDbArc
50
101.309921264648
51
191.309921264648
0
ARC
5
b10
100
AcDbEntity
8
0-2_2_1
6
CONTINUOUS
62
3
100
AcDbCircle
10
1364.060000000000
20
804.780000000000
30
0.0
40
2.299999732846
100
AcDbArc
50
11.309921264648
51
101.309921264648
0
ARC
5
b11
100
AcDbEntity
8
0-2_2_1
6
CONTINUOUS
62
3
100
AcDbCircle
10
1382.770000000000
20
711.230000000000
30
0.0
40
2.299999732846
100
AcDbArc
50
281.309921264648
51
371.309921264648
0
ARC
5
b12
100
AcDbEntity
8
0-2_2_1
6
CONTINUOUS
62
3
100
AcDbCircle
10
1338.250000000000
20
702.330000000000
30
0.0
40
2.299999732846
100
AcDbArc
50
191.309921264648
51
-78.690078735352
0
ARC
5
b13
100
AcDbEntity
8
0-2_2_1
6
CONTINUOUS
62
7
100
AcDbCircle
10
1293.890000000000
20
847.960000000000
30
0.0
40
0.899958935980
100
AcDbArc
50
101.310867309570
51
281.310867309570
0
ARC
5
b14
100
AcDbEntity
8
0-2_2_1
6
CONTINUOUS
62
7
100
AcDbCircle
10
1293.890000000000
20
847.960000000000
30
0.0
40
0.299986287801
100
AcDbArc
50
101.310867309570
51
281.310867309570
0
ARC
5
b15
100
AcDbEntity
8
0-2_2_1
6
CONTINUOUS
62
7
100
AcDbCircle
10
1293.890000000000
20
847.960000000000
30
0.0
40
2.099942989223
100
AcDbArc
50
101.309265136719
51
281.309265136719
0
ARC
5
b16
100
AcDbEntity
8
0-2_2_1
6
CONTINUOUS
62
7
100
AcDbCircle
10
1293.890000000000
20
847.960000000000
30
0.0
40
1.499975107027
100
AcDbArc
50
101.309555053711
51
281.309555053711
0
ARC
5
b17
100
AcDbEntity
8
0-2_2_1
6
CONTINUOUS
62
7
100
AcDbCircle
10
1313.680000000000
20
851.000000000000
30
0.0
40
0.600000010249
100
AcDbArc
50
11.314559936523
51
101.308990478516
0
ARC
5
b18
100
AcDbEntity
8
0-2_2_1
6
CONTINUOUS
62
7
100
AcDbCircle
10
1343.150000000000
20
856.590000000000
30
0.0
40
0.899958935980
100
AcDbArc
50
281.310867309570
51
101.310867309570
0
ARC
5
b19
100
AcDbEntity
8
0-2_2_1
6
CONTINUOUS
62
7
100
AcDbCircle
10
1343.150000000000
20
856.590000000000
30
0.0
40
0.299937708635
100
AcDbArc
50
281.312713623047
51
101.312713623047
0
ARC
5
b1a
100
AcDbEntity
8
0-2_2_1
6
CONTINUOUS
62
7
100
AcDbCircle
10
1323.560000000000
20
852.970000000000
30
0.0
40
0.600000010249
100
AcDbArc
50
266.989196777344
51
281.310867309570
0
ARC
5
b1b
100
AcDbEntity
8
0-2_2_1
6
CONTINUOUS
62
7
100
AcDbCircle
10
1314.080000000000
20
851.690000000000
30
0.0
40
0.600000010249
100
AcDbArc
50
86.989196777344
51
101.310867309570
0
ARC
5
b1c
100
AcDbEntity
8
0-2_2_1
6
CONTINUOUS
62
7
100
AcDbCircle
10
1323.680000000000
20
852.390000000000
30
0.0
40
0.600000010249
100
AcDbArc
50
266.989196777344
51
281.310867309570
0
ARC
5
b1d
100
AcDbEntity
8
0-2_2_1
6
CONTINUOUS
62
7
100
AcDbCircle
10
1313.960000000000
20
852.280000000000
30
0.0
40
0.600000010249
100
AcDbArc
50
86.989196777344
51
101.310867309570
0
ARC
5
b1e
100
AcDbEntity
8
0-2_2_1
6
CONTINUOUS
62
4
100
AcDbCircle
10
1331.600000000000
20
850.820000000000
30
0.0
40
4.613375187209
100
AcDbArc
50
71.269683837891
51
-228.650115966797
0
ARC
5
b1f
100
AcDbEntity
8
0-2_2_1
6
CONTINUOUS
62
7
100
AcDbCircle
10
1452.000000000000
20
856.120000000000
30
0.0
40
1.999999969650
100
AcDbArc
50
281.309371948242
51
11.309371948242
0
ARC
5
b20
100
AcDbEntity
8
0-2_2_1
6
CONTINUOUS
62
7
100
AcDbCircle
10
1452.000000000000
20
856.120000000000
30
0.0
40
1.399999959401
100
AcDbArc
50
281.309371948242
51
11.309371948242
0
ARC
5
b21
100
AcDbEntity
8
0-2_2_1
6
CONTINUOUS
62
7
100
AcDbCircle
10
1448.400000000000
20
874.110000000000
30
0.0
40
1.399999959401
100
AcDbArc
50
11.309097290039
51
44.358596801758
0
ARC
5
b22
100
AcDbEntity
8
0-2_2_1
6
CONTINUOUS
62
7
100
AcDbCircle
10
1448.400000000000
20
874.110000000000
30
0.0
40
1.999999969650
100
AcDbArc
50
11.309097290039
51
89.771469116211
0
ARC
5
b23
100
AcDbEntity
8
0-2_2_1
6
CONTINUOUS
62
7
100
AcDbCircle
10
1448.400000000000
20
874.110000000000
30
0.0
40
1.399999959401
100
AcDbArc
50
44.358596801758
51
84.706253051758
0
ARC
5
b24
100
AcDbEntity
8
0-2_2_1
6
DOT
62
7
100
AcDbCircle
10
1448.400000000000
20
874.110000000000
30
0.0
40
1.399999959401
100
AcDbArc
50
86.238861083984
51
101.309936523438
0
ARC
5
b25
100
AcDbEntity
8
0-2_2_1
6
DOT
62
7
100
AcDbCircle
10
1453.390000000000
20
853.240000000000
30
0.0
40
0.600000010249
100
AcDbArc
50
281.309936523438
51
11.310394287109
0
ARC
5
b26
100
AcDbEntity
8
0-2_2_1
6
DOT
62
7
100
AcDbCircle
10
1453.490000000000
20
853.260000000000
30
0.0
40
1.100000002662
100
AcDbArc
50
281.309936523438
51
11.310394287109
0
ARC
5
b27
100
AcDbEntity
8
0-2_2_1
6
CONTINUOUS
62
7
100
AcDbCircle
10
1318.720000000000
20
831.910000000000
30
0.0
40
0.600000010249
100
AcDbArc
50
191.305282592773
51
348.307754516602
0
ARC
5
b28
100
AcDbEntity
8
0-2_2_1
6
CONTINUOUS
62
7
100
AcDbCircle
10
1318.720000000000
20
831.910000000000
30
0.0
40
1.200000020498
100
AcDbArc
50
191.305282592773
51
348.307754516602
0
ARC
5
b29
100
AcDbEntity
8
0-3_2_2
6
CONTINUOUS
62
7
100
AcDbCircle
10
203.610000000000
20
356.990000000000
30
0.0
40
2.758617050572
100
AcDbArc
50
101.389419555664
51
281.389419555664
0
ARC
5
b2a
100
AcDbEntity
8
0-3_2_2
6
CONTINUOUS
62
7
100
AcDbCircle
10
203.610000000000
20
356.990000000000
30
0.0
40
3.359776864195
100
AcDbArc
50
101.373260498047
51
281.373260498047
0
ARC
5
b2b
100
AcDbEntity
8
0-4_2_3
6
CONTINUOUS
62
7
100
AcDbCircle
10
894.210000000000
20
398.950000000000
30
0.0
40
0.400011200040
100
AcDbArc
50
270.000000000000
51
450.000000000000
0
ARC
5
b2c
100
AcDbEntity
8
0-4_2_3
6
CONTINUOUS
62
7
100
AcDbCircle
10
894.210000000000
20
398.950000000000
30
0.0
40
1.000003178276
100
AcDbArc
50
270.000000000000
51
450.000000000000
0
ARC
5
b2d
100
AcDbEntity
8
0-4_2_3
6
CONTINUOUS
62
7
100
AcDbCircle
10
901.470000000000
20
399.950000000000
30
0.0
40
0.600000010249
100
AcDbArc
50
45.000000000000
51
90.000000000000
0
ARC
5
b2e
100
AcDbEntity
8
0-4_2_3
6
CONTINUOUS
62
7
100
AcDbCircle
10
903.710000000000
20
398.550000000000
30
0.0
40
0.600000010249
100
AcDbArc
50
225.000000000000
51
270.000000000000
0
ARC
5
b2f
100
AcDbEntity
8
0-4_2_3
6
CONTINUOUS
62
7
100
AcDbCircle
10
844.210000000000
20
398.550000000000
30
0.0
40
0.600000010249
100
AcDbArc
50
270.000000000000
51
315.000000000000
0
ARC
5
b30
100
AcDbEntity
8
0-4_2_3
6
CONTINUOUS
62
7
100
AcDbCircle
10
881.210000000000
20
397.930000000000
30
0.0
40
1.625007523498
100
AcDbArc
50
22.620071411133
51
157.379928588867
0
ARC
5
b31
100
AcDbEntity
8
0-4_2_3
6
CONTINUOUS
62
7
100
AcDbCircle
10
881.210000000000
20
397.930000000000
30
0.0
40
1.025007513248
100
AcDbArc
50
1.398773193359
51
178.601226806641
0
ARC
5
b32
100
AcDbEntity
8
0-4_2_3
6
CONTINUOUS
62
7
100
AcDbCircle
10
874.410000000000
20
399.150000000000
30
0.0
40
0.600000010249
100
AcDbArc
50
180.000000000000
51
270.000000000000
0
ARC
5
b33
100
AcDbEntity
8
0-4_2_3
6
CONTINUOUS
62
7
100
AcDbCircle
10
874.410000000000
20
399.150000000000
30
0.0
40
1.200000020498
100
AcDbArc
50
180.000000000000
51
270.000000000000
0
ARC
5
b34
100
AcDbEntity
8
0-4_2_3
6
CONTINUOUS
62
7
100
AcDbCircle
10
869.010000000000
20
401.150000000000
30
0.0
40
0.600000010249
100
AcDbArc
50
270.000000000000
51
0.000000000000
0
ARC
5
b35
100
AcDbEntity
8
0-4_2_3
6
CONTINUOUS
62
7
100
AcDbCircle
10
869.010000000000
20
401.150000000000
30
0.0
40
1.200000020498
100
AcDbArc
50
270.000000000000
51
0.000000000000
0
ARC
5
b36
100
AcDbEntity
8
0-4_2_3
6
CONTINUOUS
62
7
100
AcDbCircle
10
846.460000000000
20
399.950000000000
30
0.0
40
0.600000010249
100
AcDbArc
50
90.000000000000
51
135.000000000000
0
ARC
5
b37
100
AcDbEntity
8
0-4_2_3
6
CONTINUOUS
62
7
100
AcDbCircle
10
874.410000000000
20
408.350000000000
30
0.0
40
0.600000010249
100
AcDbArc
50
90.000000000000
51
180.000000000000
0
ARC
5
b38
100
AcDbEntity
8
0-4_2_3
6
CONTINUOUS
62
7
100
AcDbCircle
10
874.410000000000
20
408.350000000000
30
0.0
40
1.200000020498
100
AcDbArc
50
90.000000000000
51
180.000000000000
0
ARC
5
b39
100
AcDbEntity
8
0-4_2_3
6
CONTINUOUS
62
7
100
AcDbCircle
10
875.100000000000
20
409.550000000000
30
0.0
40
0.600000010249
100
AcDbArc
50
270.000000000000
51
11.768768310547
0
ARC
5
b3a
100
AcDbEntity
8
0-4_2_3
6
CONTINUOUS
62
7
100
AcDbCircle
10
869.010000000000
20
406.950000000000
30
0.0
40
0.600000010249
100
AcDbArc
50
360.000000000000
51
450.000000000000
0
ARC
5
b3b
100
AcDbEntity
8
0-4_2_3
6
CONTINUOUS
62
7
100
AcDbCircle
10
869.010000000000
20
406.950000000000
30
0.0
40
1.200000020498
100
AcDbArc
50
360.000000000000
51
450.000000000000
0
ARC
5
b3c
100
AcDbEntity
8
0-4_2_3
6
CONTINUOUS
62
7
100
AcDbCircle
10
868.330000000000
20
408.150000000000
30
0.0
40
0.600000010249
100
AcDbArc
50
168.231231689453
51
-90.000000000000
0
ARC
5
b3d
100
AcDbEntity
8
0-4_2_3
6
CONTINUOUS
62
7
100
AcDbCircle
10
871.710000000000
20
419.250000000000
30
0.0
40
2.900003323631
100
AcDbArc
50
18.233428955078
51
90.000000000000
0
ARC
5
b3e
100
AcDbEntity
8
0-4_2_3
6
CONTINUOUS
62
7
100
AcDbCircle
10
871.710000000000
20
419.250000000000
30
0.0
40
3.500003430652
100
AcDbArc
50
18.233428955078
51
90.000000000000
0
ARC
5
b3f
100
AcDbEntity
8
0-4_2_3
6
CONTINUOUS
62
7
100
AcDbCircle
10
875.200000000000
20
407.950000000000
30
0.0
40
0.600000010249
100
AcDbArc
50
90.000000000000
51
195.594772338867
0
ARC
5
b40
100
AcDbEntity
8
0-4_2_3
6
CONTINUOUS
62
7
100
AcDbCircle
10
876.330000000000
20
408.550000000000
30
0.0
40
0.600000010249
100
AcDbArc
50
270.000000000000
51
9.117752075195
0
ARC
5
b41
100
AcDbEntity
8
0-4_2_3
6
CONTINUOUS
62
7
100
AcDbCircle
10
868.220000000000
20
406.550000000000
30
0.0
40
0.600000010249
100
AcDbArc
50
344.405227661133
51
450.000000000000
0
ARC
5
b42
100
AcDbEntity
8
0-4_2_3
6
CONTINUOUS
62
7
100
AcDbCircle
10
867.100000000000
20
407.150000000000
30
0.0
40
0.600000010249
100
AcDbArc
50
170.882247924805
51
-90.000000000000
0
ARC
5
b43
100
AcDbEntity
8
0-4_2_3
6
CONTINUOUS
62
7
100
AcDbCircle
10
871.710000000000
20
419.250000000000
30
0.0
40
3.500003430652
100
AcDbArc
50
90.000000000000
51
162.672897338867
0
ARC
5
b44
100
AcDbEntity
8
0-4_2_3
6
CONTINUOUS
62
7
100
AcDbCircle
10
871.710000000000
20
419.250000000000
30
0.0
40
2.900003323631
100
AcDbArc
50
90.000000000000
51
161.765640258789
0
ARC
5
b45
100
AcDbEntity
8
0-4_2_3
6
CONTINUOUS
62
7
100
AcDbCircle
10
866.280000000000
20
402.200000000000
30
0.0
40
0.367125814855
100
AcDbArc
50
144.269958496094
51
324.269958496094
0
ARC
5
b46
100
AcDbEntity
8
0-4_2_3
6
CONTINUOUS
62
7
100
AcDbCircle
10
866.280000000000
20
402.200000000000
30
0.0
40
0.967125825105
100
AcDbArc
50
144.269958496094
51
327.735595703125
0
ARC
5
b47
100
AcDbEntity
8
0-4_2_3
6
CONTINUOUS
62
7
100
AcDbCircle
10
877.720000000000
20
401.150000000000
30
0.0
40
0.600000010249
100
AcDbArc
50
195.592498779297
51
270.000000000000
0
ARC
5
b48
100
AcDbEntity
8
0-4_2_3
6
CONTINUOUS
62
7
100
AcDbCircle
10
877.720000000000
20
401.150000000000
30
0.0
40
1.200000020498
100
AcDbArc
50
195.592498779297
51
270.000000000000
0
ARC
5
b49
100
AcDbEntity
8
0-4_2_3
6
CONTINUOUS
62
7
100
AcDbCircle
10
872.240000000000
20
420.350000000000
30
0.0
40
1.200000020498
100
AcDbArc
50
11.766448974609
51
89.995269775391
0
ARC
5
b4a
100
AcDbEntity
8
0-4_2_3
6
CONTINUOUS
62
7
100
AcDbCircle
10
872.240000000000
20
420.350000000000
30
0.0
40
0.600000010249
100
AcDbArc
50
11.766448974609
51
83.303985595703
0
ARC
5
b4b
100
AcDbEntity
8
0-4_2_3
6
CONTINUOUS
62
7
100
AcDbCircle
10
871.190000000000
20
420.350000000000
30
0.0
40
0.600000010249
100
AcDbArc
50
96.696014404297
51
168.233551025391
0
ARC
5
b4c
100
AcDbEntity
8
0-4_2_3
6
CONTINUOUS
62
7
100
AcDbCircle
10
871.190000000000
20
420.350000000000
30
0.0
40
1.200000020498
100
AcDbArc
50
90.004730224609
51
168.233551025391
0
ARC
5
b4d
100
AcDbEntity
8
0-4_2_3
6
CONTINUOUS
62
7
100
AcDbCircle
10
807.290000000000
20
189.680000000000
30
0.0
40
210.995799248511
100
AcDbArc
50
81.859313964844
51
90.900909423828
0
ARC
5
b4e
100
AcDbEntity
8
0-4_2_3
6
CONTINUOUS
62
7
100
AcDbCircle
10
807.290000000000
20
189.680000000000
30
0.0
40
210.395811334667
100
AcDbArc
50
81.847854614258
51
90.900909423828
0
ARC
5
b4f
100
AcDbEntity
8
0-5_2_4
6
CONTINUOUS
62
7
100
AcDbCircle
10
1328.230000000000
20
351.610000000000
30
0.0
40
0.400011200040
100
AcDbArc
50
270.000000000000
51
450.000000000000
0
ARC
5
b50
100
AcDbEntity
8
0-5_2_4
6
CONTINUOUS
62
7
100
AcDbCircle
10
1328.230000000000
20
351.610000000000
30
0.0
40
1.000003178276
100
AcDbArc
50
270.000000000000
51
450.000000000000
0
ARC
5
b51
100
AcDbEntity
8
0-5_2_4
6
CONTINUOUS
62
7
100
AcDbCircle
10
1335.490000000000
20
352.610000000000
30
0.0
40
0.600000010249
100
AcDbArc
50
45.000000000000
51
90.000000000000
0
ARC
5
b52
100
AcDbEntity
8
0-5_2_4
6
CONTINUOUS
62
7
100
AcDbCircle
10
1337.730000000000
20
351.210000000000
30
0.0
40
0.600000010249
100
AcDbArc
50
225.000000000000
51
270.000000000000
0
ARC
5
b53
100
AcDbEntity
8
0-5_2_4
6
CONTINUOUS
62
7
100
AcDbCircle
10
1278.230000000000
20
351.210000000000
30
0.0
40
0.600000010249
100
AcDbArc
50
270.000000000000
51
315.000000000000
0
ARC
5
b54
100
AcDbEntity
8
0-5_2_4
6
CONTINUOUS
62
7
100
AcDbCircle
10
1315.230000000000
20
350.590000000000
30
0.0
40
1.625007523498
100
AcDbArc
50
22.620071411133
51
157.379928588867
0
ARC
5
b55
100
AcDbEntity
8
0-5_2_4
6
CONTINUOUS
62
7
100
AcDbCircle
10
1315.230000000000
20
350.590000000000
30
0.0
40
1.025007513248
100
AcDbArc
50
1.398773193359
51
178.601226806641
0
ARC
5
b56
100
AcDbEntity
8
0-5_2_4
6
CONTINUOUS
62
7
100
AcDbCircle
10
1308.430000000000
20
351.810000000000
30
0.0
40
0.600000010249
100
AcDbArc
50
180.000000000000
51
270.000000000000
0
ARC
5
b57
100
AcDbEntity
8
0-5_2_4
6
CONTINUOUS
62
7
100
AcDbCircle
10
1308.430000000000
20
351.810000000000
30
0.0
40
1.200000020498
100
AcDbArc
50
180.000000000000
51
270.000000000000
0
ARC
5
b58
100
AcDbEntity
8
0-5_2_4
6
CONTINUOUS
62
7
100
AcDbCircle
10
1303.030000000000
20
353.810000000000
30
0.0
40
0.600000010249
100
AcDbArc
50
270.000000000000
51
0.000000000000
0
ARC
5
b59
100
AcDbEntity
8
0-5_2_4
6
CONTINUOUS
62
7
100
AcDbCircle
10
1303.030000000000
20
353.810000000000
30
0.0
40
1.200000020498
100
AcDbArc
50
270.000000000000
51
0.000000000000
0
ARC
5
b5a
100
AcDbEntity
8
0-5_2_4
6
CONTINUOUS
62
7
100
AcDbCircle
10
1280.480000000000
20
352.610000000000
30
0.0
40
0.600000010249
100
AcDbArc
50
90.000000000000
51
135.000000000000
0
ARC
5
b5b
100
AcDbEntity
8
0-5_2_4
6
CONTINUOUS
62
7
100
AcDbCircle
10
1308.430000000000
20
361.010000000000
30
0.0
40
0.600000010249
100
AcDbArc
50
90.000000000000
51
180.000000000000
0
ARC
5
b5c
100
AcDbEntity
8
0-5_2_4
6
CONTINUOUS
62
7
100
AcDbCircle
10
1308.430000000000
20
361.010000000000
30
0.0
40
1.200000020498
100
AcDbArc
50
90.000000000000
51
180.000000000000
0
ARC
5
b5d
100
AcDbEntity
8
0-5_2_4
6
CONTINUOUS
62
7
100
AcDbCircle
10
1309.120000000000
20
362.210000000000
30
0.0
40
0.600000010249
100
AcDbArc
50
270.000000000000
51
11.768768310547
0
ARC
5
b5e
100
AcDbEntity
8
0-5_2_4
6
CONTINUOUS
62
7
100
AcDbCircle
10
1303.030000000000
20
359.610000000000
30
0.0
40
0.600000010249
100
AcDbArc
50
360.000000000000
51
450.000000000000
0
ARC
5
b5f
100
AcDbEntity
8
0-5_2_4
6
CONTINUOUS
62
7
100
AcDbCircle
10
1303.030000000000
20
359.610000000000
30
0.0
40
1.200000020498
100
AcDbArc
50
360.000000000000
51
450.000000000000
0
ARC
5
b60
100
AcDbEntity
8
0-5_2_4
6
CONTINUOUS
62
7
100
AcDbCircle
10
1302.350000000000
20
360.810000000000
30
0.0
40
0.600000010249
100
AcDbArc
50
168.231231689453
51
-90.000000000000
0
ARC
5
b61
100
AcDbEntity
8
0-5_2_4
6
CONTINUOUS
62
7
100
AcDbCircle
10
1305.730000000000
20
371.910000000000
30
0.0
40
2.900003323631
100
AcDbArc
50
18.233428955078
51
90.000000000000
0
ARC
5
b62
100
AcDbEntity
8
0-5_2_4
6
CONTINUOUS
62
7
100
AcDbCircle
10
1305.730000000000
20
371.910000000000
30
0.0
40
3.500003430652
100
AcDbArc
50
18.233428955078
51
90.000000000000
0
ARC
5
b63
100
AcDbEntity
8
0-5_2_4
6
CONTINUOUS
62
7
100
AcDbCircle
10
1309.220000000000
20
360.610000000000
30
0.0
40
0.600000010249
100
AcDbArc
50
90.000000000000
51
195.594772338867
0
ARC
5
b64
100
AcDbEntity
8
0-5_2_4
6
CONTINUOUS
62
7
100
AcDbCircle
10
1310.350000000000
20
361.210000000000
30
0.0
40
0.600000010249
100
AcDbArc
50
270.000000000000
51
9.117752075195
0
ARC
5
b65
100
AcDbEntity
8
0-5_2_4
6
CONTINUOUS
62
7
100
AcDbCircle
10
1302.240000000000
20
359.210000000000
30
0.0
40
0.600000010249
100
AcDbArc
50
344.405227661133
51
450.000000000000
0
ARC
5
b66
100
AcDbEntity
8
0-5_2_4
6
CONTINUOUS
62
7
100
AcDbCircle
10
1301.120000000000
20
359.810000000000
30
0.0
40
0.600000010249
100
AcDbArc
50
170.882247924805
51
-90.000000000000
0
ARC
5
b67
100
AcDbEntity
8
0-5_2_4
6
CONTINUOUS
62
7
100
AcDbCircle
10
1305.730000000000
20
371.910000000000
30
0.0
40
3.500003430652
100
AcDbArc
50
90.000000000000
51
162.672897338867
0
ARC
5
b68
100
AcDbEntity
8
0-5_2_4
6
CONTINUOUS
62
7
100
AcDbCircle
10
1305.730000000000
20
371.910000000000
30
0.0
40
2.900003323631
100
AcDbArc
50
90.000000000000
51
161.765640258789
0
ARC
5
b69
100
AcDbEntity
8
0-5_2_4
6
CONTINUOUS
62
7
100
AcDbCircle
10
1300.300000000000
20
354.860000000000
30
0.0
40
0.367125814855
100
AcDbArc
50
144.269958496094
51
324.269958496094
0
ARC
5
b6a
100
AcDbEntity
8
0-5_2_4
6
CONTINUOUS
62
7
100
AcDbCircle
10
1300.300000000000
20
354.860000000000
30
0.0
40
0.967125825105
100
AcDbArc
50
144.269958496094
51
327.735595703125
0
ARC
5
b6b
100
AcDbEntity
8
0-5_2_4
6
CONTINUOUS
62
7
100
AcDbCircle
10
1311.740000000000
20
353.810000000000
30
0.0
40
0.600000010249
100
AcDbArc
50
195.592498779297
51
270.000000000000
0
ARC
5
b6c
100
AcDbEntity
8
0-5_2_4
6
CONTINUOUS
62
7
100
AcDbCircle
10
1311.740000000000
20
353.810000000000
30
0.0
40
1.200000020498
100
AcDbArc
50
195.592498779297
51
270.000000000000
0
ARC
5
b6d
100
AcDbEntity
8
0-5_2_4
6
CONTINUOUS
62
7
100
AcDbCircle
10
1306.260000000000
20
373.010000000000
30
0.0
40
1.200000020498
100
AcDbArc
50
11.766448974609
51
89.995269775391
0
ARC
5
b6e
100
AcDbEntity
8
0-5_2_4
6
CONTINUOUS
62
7
100
AcDbCircle
10
1306.260000000000
20
373.010000000000
30
0.0
40
0.600000010249
100
AcDbArc
50
11.766448974609
51
83.303985595703
0
ARC
5
b6f
100
AcDbEntity
8
0-5_2_4
6
CONTINUOUS
62
7
100
AcDbCircle
10
1305.210000000000
20
373.010000000000
30
0.0
40
0.600000010249
100
AcDbArc
50
96.696014404297
51
168.233551025391
0
ARC
5
b70
100
AcDbEntity
8
0-5_2_4
6
CONTINUOUS
62
7
100
AcDbCircle
10
1305.210000000000
20
373.010000000000
30
0.0
40
1.200000020498
100
AcDbArc
50
90.004730224609
51
168.233551025391
0
ARC
5
b71
100
AcDbEntity
8
0-1_2_0
6
CONTINUOUS
62
7
100
AcDbCircle
10
974.120000000000
20
879.620000000000
30
0.0
40
0.600000010249
100
AcDbArc
50
191.692245483398
51
348.694717407227
0
ARC
5
b72
100
AcDbEntity
8
0-1_2_0
6
CONTINUOUS
62
7
100
AcDbCircle
10
974.120000000000
20
879.620000000000
30
0.0
40
1.200000020498
100
AcDbArc
50
191.692245483398
51
348.694717407227
0
TEXT
5
b73
100
AcDbEntity
8
0-3_2_2
62
3
100
AcDbText
10
222.326
20
462.444
30
0.0
40
9.750
1
１５０以内
41
1.100
50
11.310
100
AcDbText
0
TEXT
5
b74
100
AcDbEntity
8
0-2_2_1
62
3
100
AcDbText
10
1317.418
20
985.302
30
0.0
40
9.750
1
１５０～２００
41
1.100
50
11.310
100
AcDbText
0
TEXT
5
b75
100
AcDbEntity
8
0-2_2_1
62
3
100
AcDbText
10
1236.461
20
893.295
30
0.0
40
9.750
1
通し唐草（エプロン）
41
1.100
50
0.000
100
AcDbText
0
TEXT
5
b76
100
AcDbEntity
8
0-2_2_1
62
3
100
AcDbText
10
1380.193
20
953.994
30
0.0
40
9.750
1
外壁材
41
1.100
50
0.000
100
AcDbText
0
TEXT
5
b77
100
AcDbEntity
8
0-3_2_2
62
3
100
AcDbText
10
364.510
20
335.651
30
0.0
40
9.750
1
野地板材
41
1.100
50
0.000
100
AcDbText
0
TEXT
5
b78
100
AcDbEntity
8
0-3_2_2
62
3
100
AcDbText
10
180.691
20
300.841
30
0.0
40
9.750
1
軒先唐草
41
1.100
50
0.000
100
AcDbText
0
TEXT
5
b79
100
AcDbEntity
8
0-3_2_2
62
3
100
AcDbText
10
252.910
20
202.828
30
0.0
40
9.750
1
鼻隠し
41
1.100
50
0.000
100
AcDbText
0
TEXT
5
b7a
100
AcDbEntity
8
0-3_2_2
62
3
100
AcDbText
10
386.191
20
203.074
30
0.0
40
9.750
1
軒天
41
1.100
50
0.000
100
AcDbText
0
TEXT
5
b7b
100
AcDbEntity
8
0-4_2_3
62
3
100
AcDbText
10
951.070
20
357.632
30
0.0
40
9.750
1
野地板材
41
1.100
50
0.000
100
AcDbText
0
TEXT
5
b7c
100
AcDbEntity
8
0-4_2_3
62
3
100
AcDbText
10
703.658
20
334.137
30
0.0
40
9.750
1
けらば唐草
41
1.100
50
0.000
100
AcDbText
0
TEXT
5
b7d
100
AcDbEntity
8
0-4_2_3
62
3
100
AcDbText
10
762.832
20
249.909
30
0.0
40
9.750
1
外壁材
41
1.100
50
0.000
100
AcDbText
0
TEXT
5
b7e
100
AcDbEntity
8
0-3_2_2
62
3
100
AcDbText
10
325.353
20
441.339
30
0.0
40
9.750
1
アスファルトルーフィング９４０
41
1.100
50
0.000
100
AcDbText
0
TEXT
5
b7f
100
AcDbEntity
8
0-2_2_1
62
3
100
AcDbText
10
1370.706
20
906.613
30
0.0
40
9.750
1
八千代折り
41
1.100
50
0.000
100
AcDbText
0
TEXT
5
b80
100
AcDbEntity
8
0-2_2_1
62
3
100
AcDbText
10
1411.610
20
788.156
30
0.0
40
9.750
1
野地板材
41
1.100
50
0.000
100
AcDbText
0
TEXT
5
b81
100
AcDbEntity
8
0-2_2_1
62
3
100
AcDbText
10
1354.529
20
759.310
30
0.0
40
9.750
1
アスファルトルーフィング９４０
41
1.100
50
0.000
100
AcDbText
0
TEXT
5
b82
100
AcDbEntity
8
0-4_2_3
62
3
100
AcDbText
10
850.589
20
327.770
30
0.0
40
9.750
1
アスファルトルーフィング９４０
41
1.100
50
0.000
100
AcDbText
0
TEXT
5
b83
100
AcDbEntity
8
0-1_2_0
62
3
100
AcDbText
10
972.366
20
921.198
30
0.0
40
9.750
1
通し唐草（エプロン）
41
1.100
50
0.000
100
AcDbText
0
TEXT
5
b84
100
AcDbEntity
8
0-1_2_0
62
3
100
AcDbText
10
763.643
20
948.912
30
0.0
40
9.750
1
棟　包　み
41
1.100
50
0.000
100
AcDbText
0
TEXT
5
b85
100
AcDbEntity
8
F-F
62
3
100
AcDbText
10
166.352
20
42.403
30
0.0
40
7.800
1
静岡県静岡市流通センター１６番
41
1.125
50
0.000
100
AcDbText
0
TEXT
5
b86
100
AcDbEntity
8
F-F
62
3
100
AcDbText
10
166.356
20
27.570
30
0.0
40
7.800
1
電話（０５４）２６３－２２８０（代表）
41
1.125
50
0.000
100
AcDbText
0
TEXT
5
b87
100
AcDbEntity
8
F-F
62
3
100
AcDbText
10
531.856
20
74.854
30
0.0
40
5.850
1
変　　　　　　更　　　　　　記　　　　　　事
41
1.167
50
0.000
100
AcDbText
0
TEXT
5
b88
100
AcDbEntity
8
F-F
62
3
100
AcDbText
10
815.591
20
74.054
30
0.0
40
5.850
1
受領　　日附
41
1.167
50
0.000
100
AcDbText
0
TEXT
5
b89
100
AcDbEntity
8
F-F
62
3
100
AcDbText
10
1013.808
20
44.622
30
0.0
40
5.850
1
施工者
41
1.167
50
0.000
100
AcDbText
0
TEXT
5
b8a
100
AcDbEntity
8
F-F
62
3
100
AcDbText
10
1013.808
20
74.252
30
0.0
40
5.850
1
設計者
41
1.167
50
0.000
100
AcDbText
0
TEXT
5
b8b
100
AcDbEntity
8
F-F
62
3
100
AcDbText
10
1219.291
20
44.079
30
0.0
40
5.850
1
作図
41
1.167
50
0.000
100
AcDbText
0
TEXT
5
b8c
100
AcDbEntity
8
F-F
62
3
100
AcDbText
10
1291.118
20
44.610
30
0.0
40
5.850
1
図面名
41
1.167
50
0.000
100
AcDbText
0
TEXT
5
b8d
100
AcDbEntity
8
F-F
62
3
100
AcDbText
10
1219.291
20
73.709
30
0.0
40
5.850
1
日附
41
1.167
50
0.000
100
AcDbText
0
TEXT
5
b8e
100
AcDbEntity
8
F-F
62
3
100
AcDbText
10
1291.118
20
74.239
30
0.0
40
5.850
1
工事件名
41
1.167
50
0.000
100
AcDbText
0
TEXT
5
b8f
100
AcDbEntity
8
F-F
62
3
100
AcDbText
10
1241.427
20
73.457
30
0.0
40
5.850
1
年　月　日
41
1.167
50
0.000
100
AcDbText
0
TEXT
5
b90
100
AcDbEntity
8
F-F
62
3
100
AcDbText
10
1241.427
20
43.827
30
0.0
40
5.850
1
年　月　日
41
1.167
50
0.000
100
AcDbText
0
TEXT
5
b91
100
AcDbEntity
8
F-F
62
3
100
AcDbText
10
1543.461
20
74.239
30
0.0
40
5.850
1
設計番号
41
1.167
50
0.000
100
AcDbText
0
TEXT
5
b92
100
AcDbEntity
8
F-F
62
3
100
AcDbText
10
1543.461
20
44.610
30
0.0
40
5.850
1
縮　尺
41
1.167
50
0.000
100
AcDbText
0
TEXT
5
b93
100
AcDbEntity
8
F-F
62
3
100
AcDbText
10
386.778
20
67.470
30
0.0
40
5.850
1
. 　.　 
41
1.167
50
0.000
100
AcDbText
0
TEXT
5
b94
100
AcDbEntity
8
F-F
62
3
100
AcDbText
10
386.778
20
57.593
30
0.0
40
5.850
1
. 　.　 
41
1.167
50
0.000
100
AcDbText
0
TEXT
5
b95
100
AcDbEntity
8
F-F
62
3
100
AcDbText
10
386.778
20
47.717
30
0.0
40
5.850
1
. 　.　 
41
1.167
50
0.000
100
AcDbText
0
TEXT
5
b96
100
AcDbEntity
8
F-F
62
3
100
AcDbText
10
386.778
20
37.840
30
0.0
40
5.850
1
. 　.　 
41
1.167
50
0.000
100
AcDbText
0
TEXT
5
b97
100
AcDbEntity
8
F-F
62
3
100
AcDbText
10
386.778
20
27.963
30
0.0
40
5.850
1
. 　.　 
41
1.167
50
0.000
100
AcDbText
0
TEXT
5
b98
100
AcDbEntity
8
F-F
62
3
100
AcDbText
10
1034.071
20
61.176
30
0.0
40
7.800
1
　　　　　　　　　　
41
1.125
50
0.000
100
AcDbText
0
TEXT
5
b99
100
AcDbEntity
8
F-F
62
3
100
AcDbText
10
1034.071
20
31.546
30
0.0
40
7.800
1
　　　　　　　　　　
41
1.125
50
0.000
100
AcDbText
0
TEXT
5
b9a
100
AcDbEntity
8
F-F
62
3
100
AcDbText
10
1317.534
20
62.723
30
0.0
40
7.800
1
　　　　　　　　　　　　　
41
1.125
50
0.000
100
AcDbText
0
TEXT
5
b9b
100
AcDbEntity
8
F-F
62
3
100
AcDbText
10
377.806
20
74.789
30
0.0
40
5.850
1
年　月　日
41
1.167
50
0.000
100
AcDbText
0
TEXT
5
b9c
100
AcDbEntity
8
F-F
62
3
100
AcDbText
10
872.762
20
73.470
30
0.0
40
5.850
1
年　　月　　日
41
1.167
50
0.000
100
AcDbText
0
TEXT
5
b9d
100
AcDbEntity
8
F-F
62
3
100
AcDbText
10
885.314
20
63.047
30
0.0
40
5.850
1
.　 　.
41
1.167
50
0.000
100
AcDbText
0
TEXT
5
b9e
100
AcDbEntity
8
F-F
62
3
100
AcDbText
10
815.591
20
44.425
30
0.0
40
5.850
1
受領　　日附
41
1.167
50
0.000
100
AcDbText
0
TEXT
5
b9f
100
AcDbEntity
8
F-F
62
3
100
AcDbText
10
872.762
20
43.840
30
0.0
40
5.850
1
年　　月　　日
41
1.167
50
0.000
100
AcDbText
0
TEXT
5
ba0
100
AcDbEntity
8
F-F
62
3
100
AcDbText
10
885.314
20
33.417
30
0.0
40
5.850
1
.　 　.
41
1.167
50
0.000
100
AcDbText
0
TEXT
5
ba1
100
AcDbEntity
8
F-F
62
3
100
AcDbText
10
1248.199
20
61.334
30
0.0
40
5.850
1
.　　.　
41
1.167
50
0.000
100
AcDbText
0
TEXT
5
ba2
100
AcDbEntity
8
F-F
62
2
100
AcDbText
10
114.146
20
58.763
30
0.0
40
15.600
1
小　池　弥　太　郎　商　店
41
1.125
50
0.000
100
AcDbText
0
TEXT
5
ba3
100
AcDbEntity
8
0-2_2_1
62
3
100
AcDbText
10
1300.205
20
924.651
30
0.0
40
9.750
1
壁取合雨押（水上）
41
1.100
50
0.000
100
AcDbText
0
TEXT
5
ba4
100
AcDbEntity
8
0-00
62
3
100
AcDbText
10
260.566
20
987.523
30
0.0
40
9.750
1
アスファルトルーフィング９４０
41
1.100
50
0.000
100
AcDbText
0
TEXT
5
ba5
100
AcDbEntity
8
0-00
62
3
100
AcDbText
10
265.113
20
910.456
30
0.0
40
9.750
1
野地板材
41
1.100
50
0.000
100
AcDbText
0
TEXT
5
ba6
100
AcDbEntity
8
0-1_2_0
62
3
100
AcDbText
10
748.123
20
985.201
30
0.0
40
9.750
1
１５０
41
1.100
50
11.310
100
AcDbText
0
TEXT
5
ba7
100
AcDbEntity
8
F-F
62
3
100
AcDbText
10
1566.700
20
40.449
30
0.0
40
7.800
1
Ａ１－１／２　
41
1.125
50
0.000
100
AcDbText
0
TEXT
5
ba8
100
AcDbEntity
8
F-F
62
3
100
AcDbText
10
1566.700
20
25.634
30
0.0
40
7.800
1
Ａ３－１／４　
41
1.125
50
0.000
100
AcDbText
0
TEXT
5
ba9
100
AcDbEntity
8
0-00
62
3
100
AcDbText
10
172.249
20
1008.007
30
0.0
40
9.750
1
止水材充填仕様（オプション）
41
1.100
50
0.000
100
AcDbText
0
TEXT
5
baa
100
AcDbEntity
8
0-00
62
3
100
AcDbText
10
306.072
20
1055.632
30
0.0
40
9.750
1
３３３
41
1.100
50
0.000
100
AcDbText
0
TEXT
5
bab
100
AcDbEntity
8
0-00
62
3
100
AcDbText
10
93.569
20
1056.204
30
0.0
40
9.750
1
＠３３３
41
1.100
50
0.000
100
AcDbText
0
TEXT
5
bac
100
AcDbEntity
8
0-00
62
3
100
AcDbText
10
498.575
20
1056.204
30
0.0
40
9.750
1
＠３３３
41
1.100
50
0.000
100
AcDbText
0
TEXT
5
bad
100
AcDbEntity
8
F-0
62
3
100
AcDbText
10
160.830
20
661.325
30
0.0
40
9.750
1
又はゴムアス防水シート
41
1.100
50
0.000
100
AcDbText
0
TEXT
5
bae
100
AcDbEntity
8
F-0
62
3
100
AcDbText
10
154.586
20
675.129
30
0.0
40
9.750
1
アスファルトルーフィング940以上
41
1.100
50
0.000
100
AcDbText
0
TEXT
5
baf
100
AcDbEntity
8
F-0
62
3
100
AcDbText
10
338.387
20
736.195
30
0.0
40
9.750
1
シンワッシャー
41
1.100
50
0.000
100
AcDbText
0
TEXT
5
bb0
100
AcDbEntity
8
F-0
62
3
100
AcDbText
10
351.246
20
676.115
30
0.0
40
9.750
1
野地板材t=12mm以上
41
1.100
50
0.000
100
AcDbText
0
TEXT
5
bb1
100
AcDbEntity
8
F-0
62
3
100
AcDbText
10
323.413
20
775.628
30
0.0
40
9.750
1
止水材充填仕様（オプション）
41
1.100
50
0.000
100
AcDbText
0
TEXT
5
bb2
100
AcDbEntity
8
0-3_2_2
62
3
100
AcDbText
10
135.571
20
336.769
30
0.0
40
9.750
1
化粧ｷｬｯﾌﾟ
41
1.100
50
0.000
100
AcDbText
0
TEXT
5
bb3
100
AcDbEntity
8
0-1_2_0
62
3
100
AcDbText
10
843.019
20
829.996
30
0.0
40
9.750
1
野地板材
41
1.100
50
0.000
100
AcDbText
0
TEXT
5
bb4
100
AcDbEntity
8
0-1_2_0
62
3
100
AcDbText
10
768.556
20
801.574
30
0.0
40
9.750
1
アスファルトルーフィング９４０
41
1.100
50
0.000
100
AcDbText
0
TEXT
5
bb5
100
AcDbEntity
8
0-1_2_0
62
3
100
AcDbText
10
879.272
20
934.037
30
0.0
40
9.750
1
八千代折り
41
1.100
50
0.000
100
AcDbText
0
TEXT
5
bb6
100
AcDbEntity
8
0-4_2_3
62
3
100
AcDbText
10
894.721
20
466.655
30
0.0
40
9.750
1
＠３３３
41
1.100
50
0.000
100
AcDbText
0
TEXT
5
bb7
100
AcDbEntity
8
0-4_2_3
62
3
100
AcDbText
10
775.684
20
465.539
30
0.0
40
9.750
1
２００内外
41
1.100
50
0.000
100
AcDbText
0
TEXT
5
bb8
100
AcDbEntity
8
0-5_2_4
62
3
100
AcDbText
10
1410.353
20
489.998
30
0.0
40
9.750
1
外壁材
41
1.100
50
0.000
100
AcDbText
0
TEXT
5
bb9
100
AcDbEntity
8
0-5_2_4
62
3
100
AcDbText
10
1344.492
20
445.113
30
0.0
40
9.750
1
壁取合雨押（流れ）
41
1.100
50
0.000
100
AcDbText
0
TEXT
5
bba
100
AcDbEntity
8
0-5_2_4
62
3
100
AcDbText
10
1228.792
20
282.915
30
0.0
40
9.750
1
アスファルトルーフィング９４０
41
1.100
50
0.000
100
AcDbText
0
TEXT
5
bbb
100
AcDbEntity
8
0-5_2_4
62
3
100
AcDbText
10
1372.287
20
309.941
30
0.0
40
9.750
1
野地板材
41
1.100
50
0.000
100
AcDbText
0
TEXT
5
bbc
100
AcDbEntity
8
0-5_2_4
62
3
100
AcDbText
10
1526.439
20
403.962
30
0.0
40
9.750
1
１４０内外
41
1.100
50
90.000
100
AcDbText
0
TEXT
5
bbd
100
AcDbEntity
8
0-2_2_1
62
3
100
AcDbText
10
1506.069
20
895.798
30
0.0
40
9.750
1
１４０内外
41
1.100
50
90.000
100
AcDbText
0
TEXT
5
bbe
100
AcDbEntity
8
0-5_2_4
62
3
100
AcDbText
10
1342.797
20
422.022
30
0.0
40
9.750
1
通し唐草
41
1.100
50
0.000
100
AcDbText
0
TEXT
5
bbf
100
AcDbEntity
8
0-5_2_4
62
3
100
AcDbText
10
1239.727
20
466.655
30
0.0
40
9.750
1
＠３３３
41
1.100
50
0.000
100
AcDbText
0
TEXT
5
bc0
100
AcDbEntity
8
0-00
62
3
100
AcDbText
10
428.610
20
1035.900
30
0.0
40
9.750
1
KOIKE
41
1.100
50
0.000
100
AcDbText
0
TEXT
5
bc1
100
AcDbEntity
8
0-1_2_0
62
3
100
AcDbText
10
622.576
20
929.404
30
0.0
40
9.750
1
KOIKE
41
1.100
50
0.000
100
AcDbText
0
TEXT
5
bc2
100
AcDbEntity
8
0-2_2_1
62
3
100
AcDbText
10
1161.051
20
868.504
30
0.0
40
9.750
1
KOIKE
41
1.100
50
0.000
100
AcDbText
0
TEXT
5
bc3
100
AcDbEntity
8
0-3_2_2
62
3
100
AcDbText
10
199.971
20
429.772
30
0.0
40
9.750
1
KOIKE
41
1.100
50
0.000
100
AcDbText
0
TEXT
5
bc4
100
AcDbEntity
8
0-4_2_3
62
3
100
AcDbText
10
893.914
20
436.645
30
0.0
40
9.750
1
KOIKE
41
1.100
50
0.000
100
AcDbText
0
TEXT
5
bc5
100
AcDbEntity
8
0-5_2_4
62
3
100
AcDbText
10
1183.053
20
417.356
30
0.0
40
9.750
1
KOIKE
41
1.100
50
0.000
100
AcDbText
0
TEXT
5
bc6
100
AcDbEntity
8
0-00
62
3
100
AcDbText
10
230.996
20
1117.957
30
0.0
40
9.750
1
立平３３３・Ｈ２３型　嵌合断面図
41
1.100
50
0.000
100
AcDbText
0
TEXT
5
bc7
100
AcDbEntity
8
0-00
62
3
100
AcDbText
10
215.503
20
972.767
30
0.0
40
11.700
1
24.4
41
1.167
50
90.000
100
AcDbText
0
TEXT
5
bc8
100
AcDbEntity
8
F-0
62
3
100
AcDbText
10
192.196
20
797.189
30
0.0
40
9.750
1
KOIKE 立平３３３（Ｈ２３型）
41
1.100
50
0.000
100
AcDbText
0
TEXT
5
bc9
100
AcDbEntity
8
0-00
62
3
100
AcDbText
10
428.610
20
1023.900
30
0.0
40
9.750
1
立平３３３（Ｈ２３型）
41
1.100
50
0.000
100
AcDbText
0
TEXT
5
bca
100
AcDbEntity
8
0-1_2_0
62
3
100
AcDbText
10
756.626
20
1117.957
30
0.0
40
9.750
1
立平３３３・Ｈ２３型　棟部納め図
41
1.100
50
0.000
100
AcDbText
0
TEXT
5
bcb
100
AcDbEntity
8
0-2_2_1
62
3
100
AcDbText
10
1262.256
20
1117.957
30
0.0
40
9.750
1
立平３３３・Ｈ２３型　壁取合部（水上）納め図
41
1.100
50
0.000
100
AcDbText
0
TEXT
5
bcc
100
AcDbEntity
8
0-3_2_2
62
3
100
AcDbText
10
230.996
20
587.583
30
0.0
40
9.750
1
立平３３３・Ｈ２３型　軒先部納め図
41
1.100
50
0.000
100
AcDbText
0
TEXT
5
bcd
100
AcDbEntity
8
0-4_2_3
62
3
100
AcDbText
10
756.626
20
587.583
30
0.0
40
9.750
1
立平３３３・Ｈ２３型　けらば部納め図
41
1.100
50
0.000
100
AcDbText
0
TEXT
5
bce
100
AcDbEntity
8
0-5_2_4
62
3
100
AcDbText
10
1262.256
20
587.583
30
0.0
40
9.750
1
立平３３３・Ｈ２３型　壁取合部（流れ）納め図
41
1.100
50
0.000
100
AcDbText
0
TEXT
5
bcf
100
AcDbEntity
8
0-2_2_1
62
3
100
AcDbText
10
1161.051
20
856.504
30
0.0
40
9.750
1
立平３３３（Ｈ２３型）
41
1.100
50
0.000
100
AcDbText
0
TEXT
5
bd0
100
AcDbEntity
8
0-1_2_0
62
3
100
AcDbText
10
928.189
20
991.477
30
0.0
40
9.750
1
１５０
41
1.100
50
348.690
100
AcDbText
0
TEXT
5
bd1
100
AcDbEntity
8
0-1_2_0
62
3
100
AcDbText
10
622.576
20
917.404
30
0.0
40
9.750
1
立平３３３（Ｈ２３型）
41
1.100
50
0.000
100
AcDbText
0
TEXT
5
bd2
100
AcDbEntity
8
0-3_2_2
62
3
100
AcDbText
10
199.971
20
417.772
30
0.0
40
9.750
1
立平３３３（Ｈ２３型）
41
1.100
50
0.000
100
AcDbText
0
TEXT
5
bd3
100
AcDbEntity
8
0-4_2_3
62
3
100
AcDbText
10
893.914
20
424.645
30
0.0
40
9.750
1
立平３３３（Ｈ２３型）
41
1.100
50
0.000
100
AcDbText
0
TEXT
5
bd4
100
AcDbEntity
8
0-5_2_4
62
3
100
AcDbText
10
1183.054
20
405.356
30
0.0
40
9.750
1
立平３３３（Ｈ２３型）
41
1.100
50
0.000
100
AcDbText
0
TEXT
5
bd5
100
AcDbEntity
8
F-F
62
3
100
AcDbText
10
1317.534
20
33.093
30
0.0
40
7.800
1
コイケルーフ　立平３３３（Ｈ２３型）参考納め図
41
1.125
50
0.000
100
AcDbText
0
TEXT
5
bd6
100
AcDbEntity
8
F-F
62
3
100
AcDbText
10
1548.445
20
59.689
30
0.0
40
9.750
1
KR-333(23)-02
41
1.100
50
0.000
100
AcDbText
0
TEXT
5
bd7
100
AcDbEntity
8
0-5_2_4
62
3
100
AcDbText
10
1419.453
20
355.922
30
0.0
40
5.850
1
木下地２８×６０
41
1.167
50
0.000
100
AcDbText
0
TEXT
5
bd8
100
AcDbEntity
8
F-F
62
3
100
AcDbText
10
1222.482
20
30.667
30
0.0
40
5.850
1
MA 2020-07-15
41
1.167
50
0.000
100
AcDbText
0
POINT
5
bd9
100
AcDbEntity
8
0-4_2_3
62
3
100
AcDbPoint
10
734.430000000000
20
464.540000000000
30
0.0
0
POINT
5
bda
100
AcDbEntity
8
0-4_2_3
62
3
100
AcDbPoint
10
871.710000000000
20
464.540000000000
30
0.0
0
POINT
5
bdb
100
AcDbEntity
8
0-3_2_2
62
3
100
AcDbPoint
10
181.580000000000
20
452.650000000000
30
0.0
0
POINT
5
bdc
100
AcDbEntity
8
0-3_2_2
62
3
100
AcDbPoint
10
301.260000000000
20
476.590000000000
30
0.0
0
POINT
5
bdd
100
AcDbEntity
8
0-2_2_1
62
3
100
AcDbPoint
10
1269.490000000000
20
974.070000000000
30
0.0
0
POINT
5
bde
100
AcDbEntity
8
0-2_2_1
62
3
100
AcDbPoint
10
1434.270000000000
20
1007.030000000000
30
0.0
0
POINT
5
bdf
100
AcDbEntity
8
0-2_2_1
62
3
100
AcDbPoint
10
1507.070000000000
20
978.900000000000
30
0.0
0
POINT
5
be0
100
AcDbEntity
8
0-2_2_1
62
3
100
AcDbPoint
10
1507.070000000000
20
841.450000000000
30
0.0
0
POINT
5
be1
100
AcDbEntity
8
0-1_2_0
62
3
100
AcDbPoint
10
838.390000000000
20
1001.600000000000
30
0.0
0
POINT
5
be2
100
AcDbEntity
8
0-1_2_0
62
3
100
AcDbPoint
10
691.300000000000
20
972.180000000000
30
0.0
0
POINT
5
be3
100
AcDbEntity
8
0-00
62
3
100
AcDbPoint
10
151.070000000000
20
1054.630000000000
30
0.0
0
POINT
5
be4
100
AcDbEntity
8
0-00
62
3
100
AcDbPoint
10
484.070000000000
20
1054.630000000000
30
0.0
0
POINT
5
be5
100
AcDbEntity
8
0-00
62
3
100
AcDbPoint
10
202.170000000000
20
968.710000000000
30
0.0
0
POINT
5
be6
100
AcDbEntity
8
0-00
62
3
100
AcDbPoint
10
202.170000000000
20
993.510000000000
30
0.0
0
POINT
5
be7
100
AcDbEntity
8
0-00
62
4
100
AcDbPoint
10
484.070000000000
20
967.710000000000
30
0.0
0
POINT
5
be8
100
AcDbEntity
8
0-00
62
4
100
AcDbPoint
10
151.070000000000
20
967.710000000000
30
0.0
0
POINT
5
be9
100
AcDbEntity
8
0-00
62
4
100
AcDbPoint
10
479.910000000000
20
1000.210000000000
30
0.0
0
POINT
5
bea
100
AcDbEntity
8
0-00
62
3
100
AcDbPoint
10
266.780000000000
20
968.210000000000
30
0.0
0
POINT
5
beb
100
AcDbEntity
8
F-0
62
4
100
AcDbPoint
10
300.920000000000
20
710.340000000000
30
0.0
0
POINT
5
bec
100
AcDbEntity
8
F-0
62
4
100
AcDbPoint
10
279.630000000000
20
711.340000000000
30
0.0
0
POINT
5
bed
100
AcDbEntity
8
F-0
62
4
100
AcDbPoint
10
354.950000000000
20
700.340000000000
30
0.0
0
POINT
5
bee
100
AcDbEntity
8
F-0
62
4
100
AcDbPoint
10
333.920000000000
20
714.840000000000
30
0.0
0
POINT
5
bef
100
AcDbEntity
8
F-0
62
4
100
AcDbPoint
10
293.890000000000
20
754.570000000000
30
0.0
0
POINT
5
bf0
100
AcDbEntity
8
0-00
62
3
100
AcDbPoint
10
254.720000000000
20
952.000000000000
30
0.0
0
POINT
5
bf1
100
AcDbEntity
8
0-3_2_2
62
3
100
AcDbPoint
10
223.070000000000
20
342.070000000000
30
0.0
0
POINT
5
bf2
100
AcDbEntity
8
0-3_2_2
62
3
100
AcDbPoint
10
234.390000000000
20
386.430000000000
30
0.0
0
POINT
5
bf3
100
AcDbEntity
8
0-3_2_2
62
3
100
AcDbPoint
10
368.980000000000
20
391.570000000000
30
0.0
0
POINT
5
bf4
100
AcDbEntity
8
0-3_2_2
62
3
100
AcDbPoint
10
367.820000000000
20
373.990000000000
30
0.0
0
POINT
5
bf5
100
AcDbEntity
8
0-3_2_2
62
3
100
AcDbPoint
10
293.900000000000
20
247.960000000000
30
0.0
0
POINT
5
bf6
100
AcDbEntity
8
0-3_2_2
62
3
100
AcDbPoint
10
412.710000000000
20
236.190000000000
30
0.0
0
POINT
5
bf7
100
AcDbEntity
8
0-3_2_2
62
3
100
AcDbPoint
10
195.410000000000
20
378.080000000000
30
0.0
0
POINT
5
bf8
100
AcDbEntity
8
0-2_2_1
62
3
100
AcDbPoint
10
1438.980000000000
20
940.370000000000
30
0.0
0
POINT
5
bf9
100
AcDbEntity
8
0-2_2_1
62
3
100
AcDbPoint
10
1432.120000000000
20
864.320000000000
30
0.0
0
POINT
5
bfa
100
AcDbEntity
8
0-2_2_1
62
3
100
AcDbPoint
10
1315.320000000000
20
842.810000000000
30
0.0
0
POINT
5
bfb
100
AcDbEntity
8
0-2_2_1
62
3
100
AcDbPoint
10
1357.560000000000
20
832.340000000000
30
0.0
0
POINT
5
bfc
100
AcDbEntity
8
0-2_2_1
62
3
100
AcDbPoint
10
1403.530000000000
20
820.130000000000
30
0.0
0
POINT
5
bfd
100
AcDbEntity
8
0-2_2_1
62
3
100
AcDbPoint
10
1255.710000000000
20
830.000000000000
30
0.0
0
POINT
5
bfe
100
AcDbEntity
8
0-1_2_0
62
3
100
AcDbPoint
10
788.970000000000
20
874.180000000000
30
0.0
0
POINT
5
bff
100
AcDbEntity
8
0-1_2_0
62
3
100
AcDbPoint
10
830.140000000000
20
870.280000000000
30
0.0
0
POINT
5
c00
100
AcDbEntity
8
0-1_2_0
62
3
100
AcDbPoint
10
982.390000000000
20
899.280000000000
30
0.0
0
POINT
5
c01
100
AcDbEntity
8
0-1_2_0
62
3
100
AcDbPoint
10
878.480000000000
20
910.720000000000
30
0.0
0
POINT
5
c02
100
AcDbEntity
8
0-1_2_0
62
3
100
AcDbPoint
10
869.300000000000
20
1001.600000000000
30
0.0
0
POINT
5
c03
100
AcDbEntity
8
0-1_2_0
62
3
100
AcDbPoint
10
1016.390000000000
20
972.180000000000
30
0.0
0
POINT
5
c04
100
AcDbEntity
8
0-1_2_0
62
3
100
AcDbPoint
10
800.300000000000
20
914.480000000000
30
0.0
0
POINT
5
c05
100
AcDbEntity
8
0-1_2_0
62
3
100
AcDbPoint
10
671.290000000000
20
878.190000000000
30
0.0
0
POINT
5
c06
100
AcDbEntity
8
0-4_2_3
62
4
100
AcDbPoint
10
871.710000000000
20
396.950000000000
30
0.0
0
POINT
5
c07
100
AcDbEntity
8
0-4_2_3
62
3
100
AcDbPoint
10
936.880000000000
20
381.750000000000
30
0.0
0
POINT
5
c08
100
AcDbEntity
8
0-4_2_3
62
3
100
AcDbPoint
10
902.550000000000
20
397.450000000000
30
0.0
0
POINT
5
c09
100
AcDbEntity
8
0-4_2_3
62
3
100
AcDbPoint
10
753.430000000000
20
373.440000000000
30
0.0
0
POINT
5
c0a
100
AcDbEntity
8
0-4_2_3
62
3
100
AcDbPoint
10
804.430000000000
20
291.120000000000
30
0.0
0
POINT
5
c0b
100
AcDbEntity
8
0-4_2_3
62
3
100
AcDbPoint
10
898.540000000000
20
400.550000000000
30
0.0
0
POINT
5
c0c
100
AcDbEntity
8
0-5_2_4
62
3
100
AcDbPoint
10
1527.440000000000
20
489.610000000000
30
0.0
0
POINT
5
c0d
100
AcDbEntity
8
0-5_2_4
62
3
100
AcDbPoint
10
1527.440000000000
20
349.610000000000
30
0.0
0
POINT
5
c0e
100
AcDbEntity
8
0-5_2_4
62
3
100
AcDbPoint
10
1248.150000000000
20
350.110000000000
30
0.0
0
POINT
5
c0f
100
AcDbEntity
8
0-5_2_4
62
3
100
AcDbPoint
10
1358.100000000000
20
334.060000000000
30
0.0
0
POINT
5
c10
100
AcDbEntity
8
0-5_2_4
62
3
100
AcDbPoint
10
1459.350000000000
20
478.800000000000
30
0.0
0
POINT
5
c11
100
AcDbEntity
8
0-2_2_1
62
3
100
AcDbPoint
10
1374.240000000000
20
864.790000000000
30
0.0
0
POINT
5
c12
100
AcDbEntity
8
0-5_2_4
62
3
100
AcDbPoint
10
1394.020000000000
20
379.310000000000
30
0.0
0
POINT
5
c13
100
AcDbEntity
8
0-5_2_4
62
3
100
AcDbPoint
10
1432.480000000000
20
380.510000000000
30
0.0
0
POINT
5
c14
100
AcDbEntity
8
0-5_2_4
62
3
100
AcDbPoint
10
1305.730000000000
20
464.540000000000
30
0.0
0
POINT
5
c15
100
AcDbEntity
8
F-F
62
3
100
AcDbPoint
10
54.760000000000
20
1143.640000000000
30
0.0
0
POINT
5
c16
100
AcDbEntity
8
0-00
62
4
100
AcDbPoint
10
151.070000000000
20
967.710000000000
30
0.0
0
POINT
5
c17
100
AcDbEntity
8
0-00
62
4
100
AcDbPoint
10
484.070000000000
20
967.710000000000
30
0.0
0
POINT
5
c18
100
AcDbEntity
8
0-00
62
4
100
AcDbPoint
10
152.230000000000
20
992.420000000000
30
0.0
0
POINT
5
c19
100
AcDbEntity
8
F-0
62
4
100
AcDbPoint
10
300.920000000000
20
710.340000000000
30
0.0
0
POINT
5
c1a
100
AcDbEntity
8
F-0
62
4
100
AcDbPoint
10
300.920000000000
20
710.340000000000
30
0.0
0
POINT
5
c1b
100
AcDbEntity
8
F-0
62
4
100
AcDbPoint
10
303.230000000000
20
759.760000000000
30
0.0
0
POINT
5
c1c
100
AcDbEntity
8
0-4_2_3
62
4
100
AcDbPoint
10
871.710000000000
20
396.950000000000
30
0.0
0
POINT
5
c1d
100
AcDbEntity
8
0-4_2_3
62
4
100
AcDbPoint
10
871.710000000000
20
396.950000000000
30
0.0
0
POINT
5
c1e
100
AcDbEntity
8
0-5_2_4
62
3
100
AcDbPoint
10
1305.730000000000
20
349.610000000000
30
0.0
0
POINT
5
c1f
100
AcDbEntity
8
0-5_2_4
62
4
100
AcDbPoint
10
1305.730000000000
20
349.610000000000
30
0.0
0
POINT
5
c20
100
AcDbEntity
8
0-5_2_4
62
4
100
AcDbPoint
10
1305.730000000000
20
349.610000000000
30
0.0
0
POINT
5
c21
100
AcDbEntity
8
0-5_2_4
62
3
100
AcDbPoint
10
1287.400000000000
20
353.210000000000
30
0.0
0
ENDSEC
0
EOF
