0
SECTION
2
HEADER
9
$ACADVER
1
AC1009
9
$DWGCODEPAGE
3
ANSI_932
9
$EXTMIN
10
0.000
20
0.000
30
0.0
9
$EXTMAX
10
841.000
20
594.000
30
0.0
9
$LTSCALE
40
2.000
9
$PDMODE
70
0
9
$PDSIZE
40
40.0
0
ENDSEC
0
SECTION
2
TABLES
0
TABLE
2
LTYPE
70
9
0
LTYPE
5
1f4
2
CONTINUOUS
70
64
3
SolidLine
72
65
73
0
40
0.0
0
LTYPE
5
1f5
2
DOT
70
64
3
--  --  --  --  --  --  --  --     
72
65
73
2
40
3.000
49
1.000
49
-2.000
0
LTYPE
5
1f6
2
DASHED
70
64
3
----    ----    ----    ----    
72
65
73
2
40
5.000
49
2.000
49
-3.000
0
LTYPE
5
1f7
2
DASHED2
70
64
3
------  ------  ------  ------ 
72
65
73
2
40
10.000
49
4.000
49
-6.000
0
LTYPE
5
1f8
2
CENTER
70
64
3
----- - ----- - ----- - ----- - 
72
65
73
4
40
10.000
49
6.000
49
-3.000
49
1.000
49
-3.000
0
LTYPE
5
1f9
2
CENTER2
70
64
3
----------  --  ----------  -- 
72
65
73
4
40
17.000
49
12.000
49
-5.000
49
2.000
49
-5.000
0
LTYPE
5
1fa
2
PHANTOM
70
64
3
--- - - --- - - --- - - --- - -
72
65
73
6
40
13.000
49
5.000
49
-3.000
49
1.000
49
-3.000
49
1.000
49
-3.000
0
LTYPE
5
1fb
2
PHANTOM2
70
64
3
--------  -  -  --------  -  -
72
65
73
6
40
20.000
49
6.000
49
-5.000
49
2.000
49
-5.000
49
2.000
49
-5.000
0
LTYPE
5
1fc
2
HIDDEN
70
64
3
-   -   -   -   -   -   -   -   
72
65
73
2
40
3.000
49
0.500
49
-2.500
0
ENDTAB
0
TABLE
2
STYLE
70
1
0
STYLE
5
1fd
100
AcDbSymbolTableRecord
100
AcDbTextStyleTableRecord
2
STANDARD
70
0
40
0.0
41
1.0
50
0.0
71
0
42
0.0
3
txt.shx
4
extfont.shx
0
STYLE
5
1fe
100
AcDbSymbolTableRecord
100
AcDbTextStyleTableRecord
2
TATEGAKI
70
4
40
0.0
41
1.0
50
0.0
71
0
42
0.0
3
txt.shx
4
extfont.shx
0
STYLE
5
1ff
100
AcDbSymbolTableRecord
100
AcDbTextStyleTableRecord
2
DIM
70
0
40
0.0
41
0.75
50
0.0
71
0
42
0.0
3
txt.shx
4
extfont.shx
0
STYLE
5
200
100
AcDbSymbolTableRecord
100
AcDbTextStyleTableRecord
2
_Gothic__
70
0
40
0.0
41
1.0
50
0.0
71
0
42
0.0
3
MS Gothic
4

0
STYLE
5
201
100
AcDbSymbolTableRecord
100
AcDbTextStyleTableRecord
2
_TateGothic_
70
4
40
0.0
41
1.0
50
0.0
71
0
42
0.0
3
@MS Gothic
4

0
ENDTAB
0
TABLE
2
LAYER
5
403
100
AcDbSymbolTable
70
10
0
LAYER
5
404
100
AcDbSymbolTableRecord
100
AcDbLayerTableRecord
2
0-000
70
0
62
7
6
CONTINUOUS
0
LAYER
5
405
100
AcDbSymbolTableRecord
100
AcDbLayerTableRecord
2
0-101
70
0
62
7
6
CONTINUOUS
0
LAYER
5
406
100
AcDbSymbolTableRecord
100
AcDbLayerTableRecord
2
F-7
70
0
62
7
6
CONTINUOUS
0
LAYER
5
407
100
AcDbSymbolTableRecord
100
AcDbLayerTableRecord
2
F-F_J_ADD
70
0
62
-7
6
CONTINUOUS
0
ENDTAB
0
ENDSEC
0
SECTION
2
ENTITIES
0
LINE
5
408
100
AcDbEntity
8
0-000
6
CONTINUOUS
62
7
100
AcDbLine
10
284.920000000000
20
489.740000000000
30
0.0
11
286.750000000000
21
487.920000000000
31
0.0
0
LINE
5
409
100
AcDbEntity
8
0-000
6
CONTINUOUS
62
7
100
AcDbLine
10
284.920000000000
20
489.740000000000
30
0.0
11
284.920000000000
21
489.740000000000
31
0.0
0
LINE
5
40a
100
AcDbEntity
8
0-000
6
CONTINUOUS
62
7
100
AcDbLine
10
229.070000000000
20
489.740000000000
30
0.0
11
227.250000000000
21
487.920000000000
31
0.0
0
LINE
5
40b
100
AcDbEntity
8
0-000
6
CONTINUOUS
62
7
100
AcDbLine
10
272.250000000000
20
487.920000000000
30
0.0
11
277.250000000000
21
488.720000000000
31
0.0
0
LINE
5
40c
100
AcDbEntity
8
0-000
6
CONTINUOUS
62
7
100
AcDbLine
10
272.150000000000
20
488.510000000000
30
0.0
11
277.150000000000
21
489.310000000000
31
0.0
0
LINE
5
40d
100
AcDbEntity
8
0-000
6
CONTINUOUS
62
7
100
AcDbLine
10
272.150000000000
20
488.510000000000
30
0.0
11
272.250000000000
21
487.920000000000
31
0.0
0
LINE
5
40e
100
AcDbEntity
8
0-000
6
CONTINUOUS
62
7
100
AcDbLine
10
265.750000000000
20
487.920000000000
30
0.0
11
277.250000000000
21
487.920000000000
31
0.0
0
LINE
5
40f
100
AcDbEntity
8
0-000
6
CONTINUOUS
62
7
100
AcDbLine
10
265.270000000000
20
487.320000000000
30
0.0
11
277.250000000000
21
487.320000000000
31
0.0
0
LINE
5
410
100
AcDbEntity
8
0-000
6
CONTINUOUS
62
7
100
AcDbLine
10
257.450000000000
20
487.920000000000
30
0.0
11
262.750000000000
21
487.920000000000
31
0.0
0
LINE
5
411
100
AcDbEntity
8
0-000
6
CONTINUOUS
62
7
100
AcDbLine
10
257.450000000000
20
487.320000000000
30
0.0
11
263.220000000000
21
487.320000000000
31
0.0
0
LINE
5
412
100
AcDbEntity
8
0-000
6
CONTINUOUS
62
7
100
AcDbLine
10
252.050000000000
20
489.920000000000
30
0.0
11
229.500000000000
21
489.920000000000
31
0.0
0
LINE
5
413
100
AcDbEntity
8
0-000
6
CONTINUOUS
62
7
100
AcDbLine
10
227.670000000000
20
487.490000000000
30
0.0
11
229.500000000000
21
489.320000000000
31
0.0
0
LINE
5
414
100
AcDbEntity
8
0-000
6
CONTINUOUS
62
7
100
AcDbLine
10
252.050000000000
20
489.320000000000
30
0.0
11
229.500000000000
21
489.320000000000
31
0.0
0
LINE
5
415
100
AcDbEntity
8
0-000
6
CONTINUOUS
62
7
100
AcDbLine
10
256.850000000000
20
497.720000000000
30
0.0
11
256.850000000000
21
488.520000000000
31
0.0
0
LINE
5
416
100
AcDbEntity
8
0-000
6
CONTINUOUS
62
7
100
AcDbLine
10
256.250000000000
20
497.720000000000
30
0.0
11
256.250000000000
21
488.520000000000
31
0.0
0
LINE
5
417
100
AcDbEntity
8
0-000
6
CONTINUOUS
62
7
100
AcDbLine
10
258.720000000000
20
499.040000000000
30
0.0
11
256.450000000000
21
509.960000000000
31
0.0
0
LINE
5
418
100
AcDbEntity
8
0-000
6
CONTINUOUS
62
7
100
AcDbLine
10
258.140000000000
20
498.320000000000
30
0.0
11
257.450000000000
21
498.320000000000
31
0.0
0
LINE
5
419
100
AcDbEntity
8
0-000
6
CONTINUOUS
62
7
100
AcDbLine
10
258.140000000000
20
498.920000000000
30
0.0
11
257.450000000000
21
498.920000000000
31
0.0
0
LINE
5
41a
100
AcDbEntity
8
0-000
6
CONTINUOUS
62
7
100
AcDbLine
10
258.140000000000
20
498.920000000000
30
0.0
11
255.860000000000
21
509.840000000000
31
0.0
0
LINE
5
41b
100
AcDbEntity
8
0-000
6
CONTINUOUS
62
7
100
AcDbLine
10
251.360000000000
20
496.920000000000
30
0.0
11
252.050000000000
21
496.920000000000
31
0.0
0
LINE
5
41c
100
AcDbEntity
8
0-000
6
CONTINUOUS
62
7
100
AcDbLine
10
251.360000000000
20
497.520000000000
30
0.0
11
252.050000000000
21
497.520000000000
31
0.0
0
LINE
5
41d
100
AcDbEntity
8
0-000
6
CONTINUOUS
62
7
100
AcDbLine
10
250.770000000000
20
497.640000000000
30
0.0
11
253.050000000000
21
509.960000000000
31
0.0
0
LINE
5
41e
100
AcDbEntity
8
0-000
6
CONTINUOUS
62
7
100
AcDbLine
10
251.360000000000
20
497.530000000000
30
0.0
11
253.640000000000
21
509.850000000000
31
0.0
0
LINE
5
41f
100
AcDbEntity
8
0-000
6
CONTINUOUS
62
7
100
AcDbLine
10
252.650000000000
20
490.520000000000
30
0.0
11
252.650000000000
21
496.320000000000
31
0.0
0
LINE
5
420
100
AcDbEntity
8
0-000
6
CONTINUOUS
62
7
100
AcDbLine
10
253.250000000000
20
496.320000000000
30
0.0
11
253.250000000000
21
490.520000000000
31
0.0
0
LINE
5
421
100
AcDbEntity
8
0-000
6
CONTINUOUS
62
7
100
AcDbLine
10
257.500000000000
20
509.520000000000
30
0.0
11
259.370000000000
21
497.920000000000
31
0.0
0
LINE
5
422
100
AcDbEntity
8
0-000
6
CONTINUOUS
62
7
100
AcDbLine
10
258.240000000000
20
497.920000000000
30
0.0
11
259.370000000000
21
497.920000000000
31
0.0
0
LINE
5
423
100
AcDbEntity
8
0-000
6
CONTINUOUS
62
7
100
AcDbLine
10
259.370000000000
20
497.320000000000
30
0.0
11
258.240000000000
21
497.320000000000
31
0.0
0
LINE
5
424
100
AcDbEntity
8
0-000
6
CONTINUOUS
62
7
100
AcDbLine
10
259.960000000000
20
498.010000000000
30
0.0
11
258.100000000000
21
509.620000000000
31
0.0
0
LINE
5
425
100
AcDbEntity
8
0-000
6
CONTINUOUS
62
7
100
AcDbLine
10
251.260000000000
20
496.520000000000
30
0.0
11
250.130000000000
21
496.520000000000
31
0.0
0
LINE
5
426
100
AcDbEntity
8
0-000
6
CONTINUOUS
62
7
100
AcDbLine
10
250.130000000000
20
495.920000000000
30
0.0
11
251.260000000000
21
495.920000000000
31
0.0
0
LINE
5
427
100
AcDbEntity
8
0-000
6
CONTINUOUS
62
7
100
AcDbLine
10
251.410000000000
20
509.660000000000
30
0.0
11
249.540000000000
21
496.600000000000
31
0.0
0
LINE
5
428
100
AcDbEntity
8
0-000
6
CONTINUOUS
62
7
100
AcDbLine
10
251.990000000000
20
509.520000000000
30
0.0
11
250.130000000000
21
496.520000000000
31
0.0
0
LINE
5
429
100
AcDbEntity
8
0-000
6
CONTINUOUS
62
7
100
AcDbLine
10
249.620000000000
20
491.350000000000
30
0.0
11
251.840000000000
21
495.750000000000
31
0.0
0
LINE
5
42a
100
AcDbEntity
8
0-000
6
CONTINUOUS
62
7
100
AcDbLine
10
251.750000000000
20
495.570000000000
30
0.0
11
249.020000000000
21
491.780000000000
31
0.0
0
LINE
5
42b
100
AcDbEntity
8
0-000
6
CONTINUOUS
62
7
100
AcDbLine
10
251.260000000000
20
495.920000000000
30
0.0
11
248.530000000000
21
492.130000000000
31
0.0
0
LINE
5
42c
100
AcDbEntity
8
0-000
6
CONTINUOUS
62
7
100
AcDbLine
10
250.140000000000
20
491.050000000000
30
0.0
11
252.370000000000
21
495.480000000000
31
0.0
0
LINE
5
42d
100
AcDbEntity
8
0-000
6
CONTINUOUS
62
7
100
AcDbLine
10
260.180000000000
20
490.350000000000
30
0.0
11
258.240000000000
21
497.320000000000
31
0.0
0
LINE
5
42e
100
AcDbEntity
8
0-000
6
CONTINUOUS
62
7
100
AcDbLine
10
257.660000000000
20
497.150000000000
30
0.0
11
259.600000000000
21
490.190000000000
31
0.0
0
LINE
5
42f
100
AcDbEntity
8
0-000
6
CONTINUOUS
62
7
100
AcDbLine
10
260.760000000000
20
489.920000000000
30
0.0
11
284.500000000000
21
489.920000000000
31
0.0
0
LINE
5
430
100
AcDbEntity
8
0-000
6
CONTINUOUS
62
7
100
AcDbLine
10
260.760000000000
20
489.320000000000
30
0.0
11
284.500000000000
21
489.320000000000
31
0.0
0
LINE
5
431
100
AcDbEntity
8
0-000
6
CONTINUOUS
62
7
100
AcDbLine
10
286.320000000000
20
487.490000000000
30
0.0
11
284.500000000000
21
489.320000000000
31
0.0
0
LINE
5
432
100
AcDbEntity
8
0-000
6
CONTINUOUS
62
7
100
AcDbLine
10
286.750000000000
20
487.920000000000
30
0.0
11
421.250000000000
21
487.920000000000
31
0.0
0
LINE
5
433
100
AcDbEntity
8
0-000
6
CONTINUOUS
62
7
100
AcDbLine
10
421.250000000000
20
487.320000000000
30
0.0
11
286.750000000000
21
487.320000000000
31
0.0
0
LINE
5
434
100
AcDbEntity
8
0-000
6
CONTINUOUS
62
7
100
AcDbLine
10
174.750000000000
20
487.920000000000
30
0.0
11
227.250000000000
21
487.920000000000
31
0.0
0
LINE
5
435
100
AcDbEntity
8
0-000
6
CONTINUOUS
62
7
100
AcDbLine
10
227.250000000000
20
487.320000000000
30
0.0
11
174.750000000000
21
487.320000000000
31
0.0
0
LINE
5
436
100
AcDbEntity
8
0-000
6
CONTINUOUS
62
7
100
AcDbLine
10
617.920000000000
20
489.740000000000
30
0.0
11
619.750000000000
21
487.920000000000
31
0.0
0
LINE
5
437
100
AcDbEntity
8
0-000
6
CONTINUOUS
62
7
100
AcDbLine
10
562.070000000000
20
489.740000000000
30
0.0
11
560.250000000000
21
487.920000000000
31
0.0
0
LINE
5
438
100
AcDbEntity
8
0-000
6
CONTINUOUS
62
7
100
AcDbLine
10
605.250000000000
20
487.920000000000
30
0.0
11
610.250000000000
21
488.720000000000
31
0.0
0
LINE
5
439
100
AcDbEntity
8
0-000
6
CONTINUOUS
62
7
100
AcDbLine
10
605.150000000000
20
488.510000000000
30
0.0
11
610.150000000000
21
489.310000000000
31
0.0
0
LINE
5
43a
100
AcDbEntity
8
0-000
6
CONTINUOUS
62
7
100
AcDbLine
10
605.150000000000
20
488.510000000000
30
0.0
11
605.250000000000
21
487.920000000000
31
0.0
0
LINE
5
43b
100
AcDbEntity
8
0-000
6
CONTINUOUS
62
7
100
AcDbLine
10
598.750000000000
20
487.920000000000
30
0.0
11
610.250000000000
21
487.920000000000
31
0.0
0
LINE
5
43c
100
AcDbEntity
8
0-000
6
CONTINUOUS
62
7
100
AcDbLine
10
598.270000000000
20
487.320000000000
30
0.0
11
610.250000000000
21
487.320000000000
31
0.0
0
LINE
5
43d
100
AcDbEntity
8
0-000
6
CONTINUOUS
62
7
100
AcDbLine
10
590.450000000000
20
487.920000000000
30
0.0
11
595.750000000000
21
487.920000000000
31
0.0
0
LINE
5
43e
100
AcDbEntity
8
0-000
6
CONTINUOUS
62
7
100
AcDbLine
10
590.450000000000
20
487.320000000000
30
0.0
11
596.220000000000
21
487.320000000000
31
0.0
0
LINE
5
43f
100
AcDbEntity
8
0-000
6
CONTINUOUS
62
7
100
AcDbLine
10
585.050000000000
20
489.920000000000
30
0.0
11
562.500000000000
21
489.920000000000
31
0.0
0
LINE
5
440
100
AcDbEntity
8
0-000
6
CONTINUOUS
62
7
100
AcDbLine
10
560.670000000000
20
487.490000000000
30
0.0
11
562.500000000000
21
489.320000000000
31
0.0
0
LINE
5
441
100
AcDbEntity
8
0-000
6
CONTINUOUS
62
7
100
AcDbLine
10
585.050000000000
20
489.320000000000
30
0.0
11
562.500000000000
21
489.320000000000
31
0.0
0
LINE
5
442
100
AcDbEntity
8
0-000
6
CONTINUOUS
62
7
100
AcDbLine
10
589.850000000000
20
497.720000000000
30
0.0
11
589.850000000000
21
488.520000000000
31
0.0
0
LINE
5
443
100
AcDbEntity
8
0-000
6
CONTINUOUS
62
7
100
AcDbLine
10
589.250000000000
20
497.720000000000
30
0.0
11
589.250000000000
21
488.520000000000
31
0.0
0
LINE
5
444
100
AcDbEntity
8
0-000
6
CONTINUOUS
62
7
100
AcDbLine
10
591.720000000000
20
499.040000000000
30
0.0
11
589.450000000000
21
509.960000000000
31
0.0
0
LINE
5
445
100
AcDbEntity
8
0-000
6
CONTINUOUS
62
7
100
AcDbLine
10
591.140000000000
20
498.320000000000
30
0.0
11
590.450000000000
21
498.320000000000
31
0.0
0
LINE
5
446
100
AcDbEntity
8
0-000
6
CONTINUOUS
62
7
100
AcDbLine
10
591.140000000000
20
498.920000000000
30
0.0
11
590.450000000000
21
498.920000000000
31
0.0
0
LINE
5
447
100
AcDbEntity
8
0-000
6
CONTINUOUS
62
7
100
AcDbLine
10
591.140000000000
20
498.920000000000
30
0.0
11
588.860000000000
21
509.840000000000
31
0.0
0
LINE
5
448
100
AcDbEntity
8
0-000
6
CONTINUOUS
62
7
100
AcDbLine
10
584.360000000000
20
496.920000000000
30
0.0
11
585.050000000000
21
496.920000000000
31
0.0
0
LINE
5
449
100
AcDbEntity
8
0-000
6
CONTINUOUS
62
7
100
AcDbLine
10
584.360000000000
20
497.520000000000
30
0.0
11
585.050000000000
21
497.520000000000
31
0.0
0
LINE
5
44a
100
AcDbEntity
8
0-000
6
CONTINUOUS
62
7
100
AcDbLine
10
583.770000000000
20
497.640000000000
30
0.0
11
586.050000000000
21
509.960000000000
31
0.0
0
LINE
5
44b
100
AcDbEntity
8
0-000
6
CONTINUOUS
62
7
100
AcDbLine
10
584.360000000000
20
497.530000000000
30
0.0
11
586.640000000000
21
509.850000000000
31
0.0
0
LINE
5
44c
100
AcDbEntity
8
0-000
6
CONTINUOUS
62
7
100
AcDbLine
10
585.650000000000
20
490.520000000000
30
0.0
11
585.650000000000
21
496.320000000000
31
0.0
0
LINE
5
44d
100
AcDbEntity
8
0-000
6
CONTINUOUS
62
7
100
AcDbLine
10
586.250000000000
20
496.320000000000
30
0.0
11
586.250000000000
21
490.520000000000
31
0.0
0
LINE
5
44e
100
AcDbEntity
8
0-000
6
CONTINUOUS
62
7
100
AcDbLine
10
590.500000000000
20
509.520000000000
30
0.0
11
592.370000000000
21
497.920000000000
31
0.0
0
LINE
5
44f
100
AcDbEntity
8
0-000
6
CONTINUOUS
62
7
100
AcDbLine
10
591.240000000000
20
497.920000000000
30
0.0
11
592.370000000000
21
497.920000000000
31
0.0
0
LINE
5
450
100
AcDbEntity
8
0-000
6
CONTINUOUS
62
7
100
AcDbLine
10
592.370000000000
20
497.320000000000
30
0.0
11
591.240000000000
21
497.320000000000
31
0.0
0
LINE
5
451
100
AcDbEntity
8
0-000
6
CONTINUOUS
62
7
100
AcDbLine
10
592.960000000000
20
498.010000000000
30
0.0
11
591.090000000000
21
509.620000000000
31
0.0
0
LINE
5
452
100
AcDbEntity
8
0-000
6
CONTINUOUS
62
7
100
AcDbLine
10
584.260000000000
20
496.520000000000
30
0.0
11
583.130000000000
21
496.520000000000
31
0.0
0
LINE
5
453
100
AcDbEntity
8
0-000
6
CONTINUOUS
62
7
100
AcDbLine
10
583.130000000000
20
495.920000000000
30
0.0
11
584.260000000000
21
495.920000000000
31
0.0
0
LINE
5
454
100
AcDbEntity
8
0-000
6
CONTINUOUS
62
7
100
AcDbLine
10
584.410000000000
20
509.660000000000
30
0.0
11
582.540000000000
21
496.600000000000
31
0.0
0
LINE
5
455
100
AcDbEntity
8
0-000
6
CONTINUOUS
62
7
100
AcDbLine
10
584.990000000000
20
509.520000000000
30
0.0
11
583.130000000000
21
496.520000000000
31
0.0
0
LINE
5
456
100
AcDbEntity
8
0-000
6
CONTINUOUS
62
7
100
AcDbLine
10
582.620000000000
20
491.350000000000
30
0.0
11
584.840000000000
21
495.750000000000
31
0.0
0
LINE
5
457
100
AcDbEntity
8
0-000
6
CONTINUOUS
62
7
100
AcDbLine
10
584.750000000000
20
495.570000000000
30
0.0
11
582.020000000000
21
491.780000000000
31
0.0
0
LINE
5
458
100
AcDbEntity
8
0-000
6
CONTINUOUS
62
7
100
AcDbLine
10
584.260000000000
20
495.920000000000
30
0.0
11
581.530000000000
21
492.130000000000
31
0.0
0
LINE
5
459
100
AcDbEntity
8
0-000
6
CONTINUOUS
62
7
100
AcDbLine
10
583.140000000000
20
491.050000000000
30
0.0
11
585.370000000000
21
495.480000000000
31
0.0
0
LINE
5
45a
100
AcDbEntity
8
0-000
6
CONTINUOUS
62
7
100
AcDbLine
10
593.180000000000
20
490.350000000000
30
0.0
11
591.240000000000
21
497.320000000000
31
0.0
0
LINE
5
45b
100
AcDbEntity
8
0-000
6
CONTINUOUS
62
7
100
AcDbLine
10
590.660000000000
20
497.150000000000
30
0.0
11
592.600000000000
21
490.190000000000
31
0.0
0
LINE
5
45c
100
AcDbEntity
8
0-000
6
CONTINUOUS
62
7
100
AcDbLine
10
593.760000000000
20
489.920000000000
30
0.0
11
617.500000000000
21
489.920000000000
31
0.0
0
LINE
5
45d
100
AcDbEntity
8
0-000
6
CONTINUOUS
62
7
100
AcDbLine
10
593.760000000000
20
489.320000000000
30
0.0
11
617.500000000000
21
489.320000000000
31
0.0
0
LINE
5
45e
100
AcDbEntity
8
0-000
6
CONTINUOUS
62
7
100
AcDbLine
10
619.320000000000
20
487.490000000000
30
0.0
11
617.500000000000
21
489.320000000000
31
0.0
0
LINE
5
45f
100
AcDbEntity
8
0-000
6
CONTINUOUS
62
7
100
AcDbLine
10
421.250000000000
20
487.920000000000
30
0.0
11
560.250000000000
21
487.920000000000
31
0.0
0
LINE
5
460
100
AcDbEntity
8
0-000
6
CONTINUOUS
62
7
100
AcDbLine
10
560.250000000000
20
487.320000000000
30
0.0
11
421.250000000000
21
487.320000000000
31
0.0
0
LINE
5
461
100
AcDbEntity
8
0-000
6
CONTINUOUS
62
7
100
AcDbLine
10
619.750000000000
20
487.920000000000
30
0.0
11
667.750000000000
21
487.920000000000
31
0.0
0
LINE
5
462
100
AcDbEntity
8
0-000
6
CONTINUOUS
62
7
100
AcDbLine
10
667.750000000000
20
487.320000000000
30
0.0
11
619.750000000000
21
487.320000000000
31
0.0
0
LINE
5
463
100
AcDbEntity
8
0-000
6
DASHED
62
7
100
AcDbLine
10
667.750000000000
20
486.820000000000
30
0.0
11
174.750000000000
21
486.820000000000
31
0.0
0
LINE
5
464
100
AcDbEntity
8
0-000
6
CONTINUOUS
62
7
100
AcDbLine
10
667.750000000000
20
486.320000000000
30
0.0
11
174.750000000000
21
486.320000000000
31
0.0
0
LINE
5
465
100
AcDbEntity
8
0-000
6
CONTINUOUS
62
7
100
AcDbLine
10
254.750000000000
20
510.140000000000
30
0.0
11
255.340000000000
21
510.310000000000
31
0.0
0
LINE
5
466
100
AcDbEntity
8
0-000
6
CONTINUOUS
62
7
100
AcDbLine
10
254.750000000000
20
510.770000000000
30
0.0
11
255.270000000000
21
510.920000000000
31
0.0
0
LINE
5
467
100
AcDbEntity
8
0-000
6
CONTINUOUS
62
7
100
AcDbLine
10
587.750000000000
20
510.770000000000
30
0.0
11
588.270000000000
21
510.920000000000
31
0.0
0
LINE
5
468
100
AcDbEntity
8
0-000
6
CONTINUOUS
62
7
100
AcDbLine
10
587.750000000000
20
510.140000000000
30
0.0
11
588.340000000000
21
510.310000000000
31
0.0
0
LINE
5
469
100
AcDbEntity
8
0-000
6
CONTINUOUS
62
7
100
AcDbLine
10
587.750000000000
20
510.140000000000
30
0.0
11
587.150000000000
21
510.310000000000
31
0.0
0
LINE
5
46a
100
AcDbEntity
8
0-000
6
CONTINUOUS
62
7
100
AcDbLine
10
587.750000000000
20
510.770000000000
30
0.0
11
587.220000000000
21
510.920000000000
31
0.0
0
LINE
5
46b
100
AcDbEntity
8
0-000
6
CONTINUOUS
62
7
100
AcDbLine
10
254.750000000000
20
510.140000000000
30
0.0
11
254.150000000000
21
510.310000000000
31
0.0
0
LINE
5
46c
100
AcDbEntity
8
0-000
6
CONTINUOUS
62
7
100
AcDbLine
10
254.750000000000
20
510.770000000000
30
0.0
11
254.220000000000
21
510.920000000000
31
0.0
0
LINE
5
46d
100
AcDbEntity
8
0-000
6
CONTINUOUS
62
7
100
AcDbLine
10
585.370000000000
20
495.480000000000
30
0.0
11
584.840000000000
21
495.750000000000
31
0.0
0
LINE
5
46e
100
AcDbEntity
8
0-000
6
CONTINUOUS
62
7
100
AcDbLine
10
252.370000000000
20
495.480000000000
30
0.0
11
251.840000000000
21
495.750000000000
31
0.0
0
LINE
5
46f
100
AcDbEntity
8
0-000
6
CONTINUOUS
62
3
100
AcDbLine
10
284.920000000000
20
280.940000000000
30
0.0
11
286.750000000000
21
279.110000000000
31
0.0
0
LINE
5
470
100
AcDbEntity
8
0-000
6
CONTINUOUS
62
3
100
AcDbLine
10
257.500000000000
20
300.720000000000
30
0.0
11
259.370000000000
21
289.110000000000
31
0.0
0
LINE
5
471
100
AcDbEntity
8
0-000
6
CONTINUOUS
62
3
100
AcDbLine
10
258.240000000000
20
289.110000000000
30
0.0
11
259.370000000000
21
289.110000000000
31
0.0
0
LINE
5
472
100
AcDbEntity
8
0-000
6
CONTINUOUS
62
3
100
AcDbLine
10
259.370000000000
20
288.510000000000
30
0.0
11
258.240000000000
21
288.510000000000
31
0.0
0
LINE
5
473
100
AcDbEntity
8
0-000
6
CONTINUOUS
62
3
100
AcDbLine
10
259.960000000000
20
289.210000000000
30
0.0
11
258.100000000000
21
300.810000000000
31
0.0
0
LINE
5
474
100
AcDbEntity
8
0-000
6
CONTINUOUS
62
3
100
AcDbLine
10
251.260000000000
20
287.710000000000
30
0.0
11
250.130000000000
21
287.710000000000
31
0.0
0
LINE
5
475
100
AcDbEntity
8
0-000
6
CONTINUOUS
62
3
100
AcDbLine
10
250.130000000000
20
287.110000000000
30
0.0
11
251.260000000000
21
287.110000000000
31
0.0
0
LINE
5
476
100
AcDbEntity
8
0-000
6
CONTINUOUS
62
3
100
AcDbLine
10
251.410000000000
20
300.850000000000
30
0.0
11
249.540000000000
21
287.800000000000
31
0.0
0
LINE
5
477
100
AcDbEntity
8
0-000
6
CONTINUOUS
62
3
100
AcDbLine
10
251.990000000000
20
300.720000000000
30
0.0
11
250.130000000000
21
287.710000000000
31
0.0
0
LINE
5
478
100
AcDbEntity
8
0-000
6
CONTINUOUS
62
3
100
AcDbLine
10
249.620000000000
20
282.540000000000
30
0.0
11
251.840000000000
21
286.950000000000
31
0.0
0
LINE
5
479
100
AcDbEntity
8
0-000
6
CONTINUOUS
62
3
100
AcDbLine
10
251.750000000000
20
286.760000000000
30
0.0
11
249.020000000000
21
282.970000000000
31
0.0
0
LINE
5
47a
100
AcDbEntity
8
0-000
6
CONTINUOUS
62
3
100
AcDbLine
10
251.260000000000
20
287.110000000000
30
0.0
11
248.530000000000
21
283.320000000000
31
0.0
0
LINE
5
47b
100
AcDbEntity
8
0-000
6
CONTINUOUS
62
3
100
AcDbLine
10
250.140000000000
20
282.240000000000
30
0.0
11
252.370000000000
21
286.680000000000
31
0.0
0
LINE
5
47c
100
AcDbEntity
8
0-000
6
CONTINUOUS
62
3
100
AcDbLine
10
260.180000000000
20
281.550000000000
30
0.0
11
258.240000000000
21
288.510000000000
31
0.0
0
LINE
5
47d
100
AcDbEntity
8
0-000
6
CONTINUOUS
62
3
100
AcDbLine
10
257.660000000000
20
288.350000000000
30
0.0
11
259.600000000000
21
281.390000000000
31
0.0
0
LINE
5
47e
100
AcDbEntity
8
0-000
6
CONTINUOUS
62
3
100
AcDbLine
10
286.320000000000
20
278.690000000000
30
0.0
11
284.500000000000
21
280.510000000000
31
0.0
0
LINE
5
47f
100
AcDbEntity
8
0-000
6
CONTINUOUS
62
3
100
AcDbLine
10
562.070000000000
20
280.940000000000
30
0.0
11
560.250000000000
21
279.110000000000
31
0.0
0
LINE
5
480
100
AcDbEntity
8
0-000
6
CONTINUOUS
62
3
100
AcDbLine
10
605.250000000000
20
279.110000000000
30
0.0
11
610.250000000000
21
279.910000000000
31
0.0
0
LINE
5
481
100
AcDbEntity
8
0-000
6
CONTINUOUS
62
3
100
AcDbLine
10
605.150000000000
20
279.700000000000
30
0.0
11
610.150000000000
21
280.500000000000
31
0.0
0
LINE
5
482
100
AcDbEntity
8
0-000
6
CONTINUOUS
62
3
100
AcDbLine
10
605.150000000000
20
279.700000000000
30
0.0
11
605.250000000000
21
279.110000000000
31
0.0
0
LINE
5
483
100
AcDbEntity
8
0-000
6
CONTINUOUS
62
3
100
AcDbLine
10
598.750000000000
20
279.110000000000
30
0.0
11
610.250000000000
21
279.110000000000
31
0.0
0
LINE
5
484
100
AcDbEntity
8
0-000
6
CONTINUOUS
62
3
100
AcDbLine
10
598.270000000000
20
278.510000000000
30
0.0
11
610.250000000000
21
278.510000000000
31
0.0
0
LINE
5
485
100
AcDbEntity
8
0-000
6
CONTINUOUS
62
3
100
AcDbLine
10
590.450000000000
20
279.110000000000
30
0.0
11
595.750000000000
21
279.110000000000
31
0.0
0
LINE
5
486
100
AcDbEntity
8
0-000
6
CONTINUOUS
62
3
100
AcDbLine
10
590.450000000000
20
278.510000000000
30
0.0
11
596.220000000000
21
278.510000000000
31
0.0
0
LINE
5
487
100
AcDbEntity
8
0-000
6
CONTINUOUS
62
3
100
AcDbLine
10
560.670000000000
20
278.690000000000
30
0.0
11
562.500000000000
21
280.510000000000
31
0.0
0
LINE
5
488
100
AcDbEntity
8
0-000
6
CONTINUOUS
62
3
100
AcDbLine
10
589.850000000000
20
288.910000000000
30
0.0
11
589.850000000000
21
279.710000000000
31
0.0
0
LINE
5
489
100
AcDbEntity
8
0-000
6
CONTINUOUS
62
3
100
AcDbLine
10
589.250000000000
20
288.910000000000
30
0.0
11
589.250000000000
21
279.710000000000
31
0.0
0
LINE
5
48a
100
AcDbEntity
8
0-000
6
CONTINUOUS
62
3
100
AcDbLine
10
591.720000000000
20
290.230000000000
30
0.0
11
589.450000000000
21
301.160000000000
31
0.0
0
LINE
5
48b
100
AcDbEntity
8
0-000
6
CONTINUOUS
62
3
100
AcDbLine
10
591.140000000000
20
289.510000000000
30
0.0
11
590.450000000000
21
289.510000000000
31
0.0
0
LINE
5
48c
100
AcDbEntity
8
0-000
6
CONTINUOUS
62
3
100
AcDbLine
10
591.140000000000
20
290.110000000000
30
0.0
11
590.450000000000
21
290.110000000000
31
0.0
0
LINE
5
48d
100
AcDbEntity
8
0-000
6
CONTINUOUS
62
3
100
AcDbLine
10
591.140000000000
20
290.110000000000
30
0.0
11
588.860000000000
21
301.030000000000
31
0.0
0
LINE
5
48e
100
AcDbEntity
8
0-000
6
CONTINUOUS
62
3
100
AcDbLine
10
584.360000000000
20
288.110000000000
30
0.0
11
585.050000000000
21
288.110000000000
31
0.0
0
LINE
5
48f
100
AcDbEntity
8
0-000
6
CONTINUOUS
62
3
100
AcDbLine
10
584.360000000000
20
288.710000000000
30
0.0
11
585.050000000000
21
288.710000000000
31
0.0
0
LINE
5
490
100
AcDbEntity
8
0-000
6
CONTINUOUS
62
3
100
AcDbLine
10
583.770000000000
20
288.830000000000
30
0.0
11
586.050000000000
21
301.160000000000
31
0.0
0
LINE
5
491
100
AcDbEntity
8
0-000
6
CONTINUOUS
62
3
100
AcDbLine
10
584.360000000000
20
288.720000000000
30
0.0
11
586.640000000000
21
301.050000000000
31
0.0
0
LINE
5
492
100
AcDbEntity
8
0-000
6
CONTINUOUS
62
3
100
AcDbLine
10
585.650000000000
20
281.710000000000
30
0.0
11
585.650000000000
21
287.510000000000
31
0.0
0
LINE
5
493
100
AcDbEntity
8
0-000
6
CONTINUOUS
62
3
100
AcDbLine
10
586.250000000000
20
287.510000000000
30
0.0
11
586.250000000000
21
281.710000000000
31
0.0
0
LINE
5
494
100
AcDbEntity
8
0-000
6
CONTINUOUS
62
3
100
AcDbLine
10
587.750000000000
20
301.960000000000
30
0.0
11
588.270000000000
21
302.110000000000
31
0.0
0
LINE
5
495
100
AcDbEntity
8
0-000
6
CONTINUOUS
62
3
100
AcDbLine
10
587.750000000000
20
301.340000000000
30
0.0
11
588.340000000000
21
301.510000000000
31
0.0
0
LINE
5
496
100
AcDbEntity
8
0-000
6
CONTINUOUS
62
3
100
AcDbLine
10
587.750000000000
20
301.340000000000
30
0.0
11
587.150000000000
21
301.510000000000
31
0.0
0
LINE
5
497
100
AcDbEntity
8
0-000
6
CONTINUOUS
62
3
100
AcDbLine
10
587.750000000000
20
301.960000000000
30
0.0
11
587.220000000000
21
302.110000000000
31
0.0
0
LINE
5
498
100
AcDbEntity
8
0-000
6
CONTINUOUS
62
3
100
AcDbLine
10
252.370000000000
20
286.680000000000
30
0.0
11
251.840000000000
21
286.950000000000
31
0.0
0
LINE
5
499
100
AcDbEntity
8
0-000
6
CONTINUOUS
62
4
100
AcDbLine
10
296.150000000000
20
278.510000000000
30
0.0
11
296.150000000000
21
281.110000000000
31
0.0
0
LINE
5
49a
100
AcDbEntity
8
0-000
6
CONTINUOUS
62
4
100
AcDbLine
10
289.320000000000
20
281.110000000000
30
0.0
11
296.150000000000
21
281.110000000000
31
0.0
0
LINE
5
49b
100
AcDbEntity
8
0-000
6
CONTINUOUS
62
4
100
AcDbLine
10
271.500000000000
20
303.310000000000
30
0.0
11
309.650000000000
21
303.310000000000
31
0.0
0
LINE
5
49c
100
AcDbEntity
8
0-000
6
CONTINUOUS
62
4
100
AcDbLine
10
296.150000000000
20
281.110000000000
30
0.0
11
296.150000000000
21
303.310000000000
31
0.0
0
LINE
5
49d
100
AcDbEntity
8
0-000
6
CONTINUOUS
62
4
100
AcDbLine
10
309.650000000000
20
278.510000000000
30
0.0
11
309.650000000000
21
303.310000000000
31
0.0
0
LINE
5
49e
100
AcDbEntity
8
0-000
6
CONTINUOUS
62
4
100
AcDbLine
10
249.250000000000
20
311.960000000000
30
0.0
11
260.250000000000
21
311.960000000000
31
0.0
0
LINE
5
49f
100
AcDbEntity
8
0-000
6
CONTINUOUS
62
4
100
AcDbLine
10
249.250000000000
20
304.960000000000
30
0.0
11
249.250000000000
21
311.960000000000
31
0.0
0
LINE
5
4a0
100
AcDbEntity
8
0-000
6
CONTINUOUS
62
4
100
AcDbLine
10
260.250000000000
20
304.960000000000
30
0.0
11
260.250000000000
21
311.960000000000
31
0.0
0
LINE
5
4a1
100
AcDbEntity
8
0-000
6
CONTINUOUS
62
4
100
AcDbLine
10
260.760000000000
20
273.240000000000
30
0.0
11
260.760000000000
21
264.930000000000
31
0.0
0
LINE
5
4a2
100
AcDbEntity
8
0-000
6
CONTINUOUS
62
4
100
AcDbLine
10
286.750000000000
20
273.240000000000
30
0.0
11
286.750000000000
21
264.930000000000
31
0.0
0
LINE
5
4a3
100
AcDbEntity
8
0-000
6
CONTINUOUS
62
4
100
AcDbLine
10
260.760000000000
20
264.930000000000
30
0.0
11
286.750000000000
21
264.930000000000
31
0.0
0
LINE
5
4a4
100
AcDbEntity
8
0-000
6
CONTINUOUS
62
4
100
AcDbLine
10
560.250000000000
20
273.240000000000
30
0.0
11
560.250000000000
21
264.930000000000
31
0.0
0
LINE
5
4a5
100
AcDbEntity
8
0-000
6
CONTINUOUS
62
4
100
AcDbLine
10
585.650000000000
20
264.930000000000
30
0.0
11
560.250000000000
21
264.930000000000
31
0.0
0
LINE
5
4a6
100
AcDbEntity
8
0-000
6
CONTINUOUS
62
4
100
AcDbLine
10
585.650000000000
20
273.240000000000
30
0.0
11
585.650000000000
21
264.930000000000
31
0.0
0
LINE
5
4a7
100
AcDbEntity
8
0-000
6
CONTINUOUS
62
4
100
AcDbLine
10
583.770000000000
20
304.960000000000
30
0.0
11
583.770000000000
21
311.960000000000
31
0.0
0
LINE
5
4a8
100
AcDbEntity
8
0-000
6
CONTINUOUS
62
4
100
AcDbLine
10
583.770000000000
20
311.960000000000
30
0.0
11
591.720000000000
21
311.960000000000
31
0.0
0
LINE
5
4a9
100
AcDbEntity
8
0-000
6
CONTINUOUS
62
4
100
AcDbLine
10
591.720000000000
20
304.960000000000
30
0.0
11
591.720000000000
21
311.960000000000
31
0.0
0
LINE
5
4aa
100
AcDbEntity
8
0-000
6
CONTINUOUS
62
4
100
AcDbLine
10
254.750000000000
20
333.520000000000
30
0.0
11
587.750000000000
21
333.520000000000
31
0.0
0
LINE
5
4ab
100
AcDbEntity
8
0-000
6
CONTINUOUS
62
4
100
AcDbLine
10
254.750000000000
20
323.520000000000
30
0.0
11
254.750000000000
21
333.520000000000
31
0.0
0
LINE
5
4ac
100
AcDbEntity
8
0-000
6
CONTINUOUS
62
4
100
AcDbLine
10
587.750000000000
20
323.520000000000
30
0.0
11
587.750000000000
21
333.520000000000
31
0.0
0
LINE
5
4ad
100
AcDbEntity
8
0-000
6
CONTINUOUS
62
3
100
AcDbLine
10
284.920000000000
20
380.940000000000
30
0.0
11
286.750000000000
21
379.110000000000
31
0.0
0
LINE
5
4ae
100
AcDbEntity
8
0-000
6
CONTINUOUS
62
3
100
AcDbLine
10
257.500000000000
20
400.720000000000
30
0.0
11
259.370000000000
21
389.110000000000
31
0.0
0
LINE
5
4af
100
AcDbEntity
8
0-000
6
CONTINUOUS
62
3
100
AcDbLine
10
258.240000000000
20
389.110000000000
30
0.0
11
259.370000000000
21
389.110000000000
31
0.0
0
LINE
5
4b0
100
AcDbEntity
8
0-000
6
CONTINUOUS
62
3
100
AcDbLine
10
259.370000000000
20
388.510000000000
30
0.0
11
258.240000000000
21
388.510000000000
31
0.0
0
LINE
5
4b1
100
AcDbEntity
8
0-000
6
CONTINUOUS
62
3
100
AcDbLine
10
259.960000000000
20
389.210000000000
30
0.0
11
258.100000000000
21
400.810000000000
31
0.0
0
LINE
5
4b2
100
AcDbEntity
8
0-000
6
CONTINUOUS
62
3
100
AcDbLine
10
251.260000000000
20
387.710000000000
30
0.0
11
250.130000000000
21
387.710000000000
31
0.0
0
LINE
5
4b3
100
AcDbEntity
8
0-000
6
CONTINUOUS
62
3
100
AcDbLine
10
250.130000000000
20
387.110000000000
30
0.0
11
251.260000000000
21
387.110000000000
31
0.0
0
LINE
5
4b4
100
AcDbEntity
8
0-000
6
CONTINUOUS
62
3
100
AcDbLine
10
251.410000000000
20
400.850000000000
30
0.0
11
249.540000000000
21
387.800000000000
31
0.0
0
LINE
5
4b5
100
AcDbEntity
8
0-000
6
CONTINUOUS
62
3
100
AcDbLine
10
251.990000000000
20
400.720000000000
30
0.0
11
250.130000000000
21
387.710000000000
31
0.0
0
LINE
5
4b6
100
AcDbEntity
8
0-000
6
CONTINUOUS
62
3
100
AcDbLine
10
249.620000000000
20
382.540000000000
30
0.0
11
251.840000000000
21
386.950000000000
31
0.0
0
LINE
5
4b7
100
AcDbEntity
8
0-000
6
CONTINUOUS
62
3
100
AcDbLine
10
251.750000000000
20
386.760000000000
30
0.0
11
249.020000000000
21
382.970000000000
31
0.0
0
LINE
5
4b8
100
AcDbEntity
8
0-000
6
CONTINUOUS
62
3
100
AcDbLine
10
251.260000000000
20
387.110000000000
30
0.0
11
248.530000000000
21
383.320000000000
31
0.0
0
LINE
5
4b9
100
AcDbEntity
8
0-000
6
CONTINUOUS
62
3
100
AcDbLine
10
250.140000000000
20
382.240000000000
30
0.0
11
252.370000000000
21
386.680000000000
31
0.0
0
LINE
5
4ba
100
AcDbEntity
8
0-000
6
CONTINUOUS
62
3
100
AcDbLine
10
260.180000000000
20
381.550000000000
30
0.0
11
258.240000000000
21
388.510000000000
31
0.0
0
LINE
5
4bb
100
AcDbEntity
8
0-000
6
CONTINUOUS
62
3
100
AcDbLine
10
257.660000000000
20
388.350000000000
30
0.0
11
259.600000000000
21
381.390000000000
31
0.0
0
LINE
5
4bc
100
AcDbEntity
8
0-000
6
CONTINUOUS
62
3
100
AcDbLine
10
260.760000000000
20
381.110000000000
30
0.0
11
284.500000000000
21
381.110000000000
31
0.0
0
LINE
5
4bd
100
AcDbEntity
8
0-000
6
CONTINUOUS
62
3
100
AcDbLine
10
260.760000000000
20
380.510000000000
30
0.0
11
284.500000000000
21
380.510000000000
31
0.0
0
LINE
5
4be
100
AcDbEntity
8
0-000
6
CONTINUOUS
62
3
100
AcDbLine
10
286.320000000000
20
378.690000000000
30
0.0
11
284.500000000000
21
380.510000000000
31
0.0
0
LINE
5
4bf
100
AcDbEntity
8
0-000
6
CONTINUOUS
62
3
100
AcDbLine
10
286.750000000000
20
379.110000000000
30
0.0
11
421.250000000000
21
379.110000000000
31
0.0
0
LINE
5
4c0
100
AcDbEntity
8
0-000
6
CONTINUOUS
62
3
100
AcDbLine
10
421.250000000000
20
378.510000000000
30
0.0
11
286.750000000000
21
378.510000000000
31
0.0
0
LINE
5
4c1
100
AcDbEntity
8
0-000
6
CONTINUOUS
62
3
100
AcDbLine
10
562.070000000000
20
380.940000000000
30
0.0
11
560.250000000000
21
379.110000000000
31
0.0
0
LINE
5
4c2
100
AcDbEntity
8
0-000
6
CONTINUOUS
62
3
100
AcDbLine
10
605.250000000000
20
379.110000000000
30
0.0
11
610.250000000000
21
379.910000000000
31
0.0
0
LINE
5
4c3
100
AcDbEntity
8
0-000
6
CONTINUOUS
62
3
100
AcDbLine
10
605.150000000000
20
379.700000000000
30
0.0
11
610.150000000000
21
380.500000000000
31
0.0
0
LINE
5
4c4
100
AcDbEntity
8
0-000
6
CONTINUOUS
62
3
100
AcDbLine
10
605.150000000000
20
379.700000000000
30
0.0
11
605.250000000000
21
379.110000000000
31
0.0
0
LINE
5
4c5
100
AcDbEntity
8
0-000
6
CONTINUOUS
62
3
100
AcDbLine
10
598.750000000000
20
379.110000000000
30
0.0
11
610.250000000000
21
379.110000000000
31
0.0
0
LINE
5
4c6
100
AcDbEntity
8
0-000
6
CONTINUOUS
62
3
100
AcDbLine
10
598.270000000000
20
378.510000000000
30
0.0
11
610.250000000000
21
378.510000000000
31
0.0
0
LINE
5
4c7
100
AcDbEntity
8
0-000
6
CONTINUOUS
62
3
100
AcDbLine
10
590.450000000000
20
379.110000000000
30
0.0
11
595.750000000000
21
379.110000000000
31
0.0
0
LINE
5
4c8
100
AcDbEntity
8
0-000
6
CONTINUOUS
62
3
100
AcDbLine
10
590.450000000000
20
378.510000000000
30
0.0
11
596.220000000000
21
378.510000000000
31
0.0
0
LINE
5
4c9
100
AcDbEntity
8
0-000
6
CONTINUOUS
62
3
100
AcDbLine
10
585.050000000000
20
381.110000000000
30
0.0
11
562.500000000000
21
381.110000000000
31
0.0
0
LINE
5
4ca
100
AcDbEntity
8
0-000
6
CONTINUOUS
62
3
100
AcDbLine
10
560.670000000000
20
378.690000000000
30
0.0
11
562.500000000000
21
380.510000000000
31
0.0
0
LINE
5
4cb
100
AcDbEntity
8
0-000
6
CONTINUOUS
62
3
100
AcDbLine
10
585.050000000000
20
380.510000000000
30
0.0
11
562.500000000000
21
380.510000000000
31
0.0
0
LINE
5
4cc
100
AcDbEntity
8
0-000
6
CONTINUOUS
62
3
100
AcDbLine
10
589.850000000000
20
388.910000000000
30
0.0
11
589.850000000000
21
379.710000000000
31
0.0
0
LINE
5
4cd
100
AcDbEntity
8
0-000
6
CONTINUOUS
62
3
100
AcDbLine
10
589.250000000000
20
388.910000000000
30
0.0
11
589.250000000000
21
379.710000000000
31
0.0
0
LINE
5
4ce
100
AcDbEntity
8
0-000
6
CONTINUOUS
62
3
100
AcDbLine
10
591.720000000000
20
390.230000000000
30
0.0
11
589.450000000000
21
401.160000000000
31
0.0
0
LINE
5
4cf
100
AcDbEntity
8
0-000
6
CONTINUOUS
62
3
100
AcDbLine
10
591.140000000000
20
389.510000000000
30
0.0
11
590.450000000000
21
389.510000000000
31
0.0
0
LINE
5
4d0
100
AcDbEntity
8
0-000
6
CONTINUOUS
62
3
100
AcDbLine
10
591.140000000000
20
390.110000000000
30
0.0
11
590.450000000000
21
390.110000000000
31
0.0
0
LINE
5
4d1
100
AcDbEntity
8
0-000
6
CONTINUOUS
62
3
100
AcDbLine
10
591.140000000000
20
390.110000000000
30
0.0
11
588.860000000000
21
401.030000000000
31
0.0
0
LINE
5
4d2
100
AcDbEntity
8
0-000
6
CONTINUOUS
62
3
100
AcDbLine
10
584.360000000000
20
388.110000000000
30
0.0
11
585.050000000000
21
388.110000000000
31
0.0
0
LINE
5
4d3
100
AcDbEntity
8
0-000
6
CONTINUOUS
62
3
100
AcDbLine
10
584.360000000000
20
388.710000000000
30
0.0
11
585.050000000000
21
388.710000000000
31
0.0
0
LINE
5
4d4
100
AcDbEntity
8
0-000
6
CONTINUOUS
62
3
100
AcDbLine
10
583.770000000000
20
388.830000000000
30
0.0
11
586.050000000000
21
401.160000000000
31
0.0
0
LINE
5
4d5
100
AcDbEntity
8
0-000
6
CONTINUOUS
62
3
100
AcDbLine
10
584.360000000000
20
388.720000000000
30
0.0
11
586.640000000000
21
401.050000000000
31
0.0
0
LINE
5
4d6
100
AcDbEntity
8
0-000
6
CONTINUOUS
62
3
100
AcDbLine
10
585.650000000000
20
381.710000000000
30
0.0
11
585.650000000000
21
387.510000000000
31
0.0
0
LINE
5
4d7
100
AcDbEntity
8
0-000
6
CONTINUOUS
62
3
100
AcDbLine
10
586.250000000000
20
387.510000000000
30
0.0
11
586.250000000000
21
381.710000000000
31
0.0
0
LINE
5
4d8
100
AcDbEntity
8
0-000
6
CONTINUOUS
62
3
100
AcDbLine
10
421.250000000000
20
379.110000000000
30
0.0
11
560.250000000000
21
379.110000000000
31
0.0
0
LINE
5
4d9
100
AcDbEntity
8
0-000
6
CONTINUOUS
62
3
100
AcDbLine
10
560.250000000000
20
378.510000000000
30
0.0
11
421.250000000000
21
378.510000000000
31
0.0
0
LINE
5
4da
100
AcDbEntity
8
0-000
6
CONTINUOUS
62
3
100
AcDbLine
10
587.750000000000
20
401.960000000000
30
0.0
11
588.270000000000
21
402.110000000000
31
0.0
0
LINE
5
4db
100
AcDbEntity
8
0-000
6
CONTINUOUS
62
3
100
AcDbLine
10
587.750000000000
20
401.340000000000
30
0.0
11
588.340000000000
21
401.510000000000
31
0.0
0
LINE
5
4dc
100
AcDbEntity
8
0-000
6
CONTINUOUS
62
3
100
AcDbLine
10
587.750000000000
20
401.340000000000
30
0.0
11
587.150000000000
21
401.510000000000
31
0.0
0
LINE
5
4dd
100
AcDbEntity
8
0-000
6
CONTINUOUS
62
3
100
AcDbLine
10
587.750000000000
20
401.960000000000
30
0.0
11
587.220000000000
21
402.110000000000
31
0.0
0
LINE
5
4de
100
AcDbEntity
8
0-000
6
CONTINUOUS
62
3
100
AcDbLine
10
252.370000000000
20
386.680000000000
30
0.0
11
251.840000000000
21
386.950000000000
31
0.0
0
LINE
5
4df
100
AcDbEntity
8
0-000
6
CONTINUOUS
62
4
100
AcDbLine
10
294.650000000000
20
378.510000000000
30
0.0
11
294.650000000000
21
381.110000000000
31
0.0
0
LINE
5
4e0
100
AcDbEntity
8
0-000
6
CONTINUOUS
62
4
100
AcDbLine
10
287.820000000000
20
381.110000000000
30
0.0
11
294.650000000000
21
381.110000000000
31
0.0
0
LINE
5
4e1
100
AcDbEntity
8
0-000
6
CONTINUOUS
62
4
100
AcDbLine
10
271.500000000000
20
403.310000000000
30
0.0
11
309.650000000000
21
403.310000000000
31
0.0
0
LINE
5
4e2
100
AcDbEntity
8
0-000
6
CONTINUOUS
62
4
100
AcDbLine
10
294.650000000000
20
381.110000000000
30
0.0
11
294.650000000000
21
403.310000000000
31
0.0
0
LINE
5
4e3
100
AcDbEntity
8
0-000
6
CONTINUOUS
62
4
100
AcDbLine
10
309.650000000000
20
378.510000000000
30
0.0
11
309.650000000000
21
403.310000000000
31
0.0
0
LINE
5
4e4
100
AcDbEntity
8
0-000
6
CONTINUOUS
62
4
100
AcDbLine
10
249.250000000000
20
411.960000000000
30
0.0
11
260.250000000000
21
411.960000000000
31
0.0
0
LINE
5
4e5
100
AcDbEntity
8
0-000
6
CONTINUOUS
62
4
100
AcDbLine
10
249.250000000000
20
404.960000000000
30
0.0
11
249.250000000000
21
411.960000000000
31
0.0
0
LINE
5
4e6
100
AcDbEntity
8
0-000
6
CONTINUOUS
62
4
100
AcDbLine
10
260.250000000000
20
404.960000000000
30
0.0
11
260.250000000000
21
411.960000000000
31
0.0
0
LINE
5
4e7
100
AcDbEntity
8
0-000
6
CONTINUOUS
62
4
100
AcDbLine
10
260.760000000000
20
373.250000000000
30
0.0
11
260.760000000000
21
364.930000000000
31
0.0
0
LINE
5
4e8
100
AcDbEntity
8
0-000
6
CONTINUOUS
62
4
100
AcDbLine
10
286.750000000000
20
373.250000000000
30
0.0
11
286.750000000000
21
364.930000000000
31
0.0
0
LINE
5
4e9
100
AcDbEntity
8
0-000
6
CONTINUOUS
62
4
100
AcDbLine
10
260.760000000000
20
364.930000000000
30
0.0
11
286.750000000000
21
364.930000000000
31
0.0
0
LINE
5
4ea
100
AcDbEntity
8
0-000
6
CONTINUOUS
62
4
100
AcDbLine
10
560.250000000000
20
373.250000000000
30
0.0
11
560.250000000000
21
364.930000000000
31
0.0
0
LINE
5
4eb
100
AcDbEntity
8
0-000
6
CONTINUOUS
62
4
100
AcDbLine
10
585.650000000000
20
364.930000000000
30
0.0
11
560.250000000000
21
364.930000000000
31
0.0
0
LINE
5
4ec
100
AcDbEntity
8
0-000
6
CONTINUOUS
62
4
100
AcDbLine
10
585.650000000000
20
373.250000000000
30
0.0
11
585.650000000000
21
364.930000000000
31
0.0
0
LINE
5
4ed
100
AcDbEntity
8
0-000
6
CONTINUOUS
62
4
100
AcDbLine
10
583.770000000000
20
404.960000000000
30
0.0
11
583.770000000000
21
411.960000000000
31
0.0
0
LINE
5
4ee
100
AcDbEntity
8
0-000
6
CONTINUOUS
62
4
100
AcDbLine
10
583.770000000000
20
411.960000000000
30
0.0
11
591.720000000000
21
411.960000000000
31
0.0
0
LINE
5
4ef
100
AcDbEntity
8
0-000
6
CONTINUOUS
62
4
100
AcDbLine
10
591.720000000000
20
404.960000000000
30
0.0
11
591.720000000000
21
411.960000000000
31
0.0
0
LINE
5
4f0
100
AcDbEntity
8
0-000
6
CONTINUOUS
62
4
100
AcDbLine
10
254.750000000000
20
433.520000000000
30
0.0
11
587.750000000000
21
433.520000000000
31
0.0
0
LINE
5
4f1
100
AcDbEntity
8
0-000
6
CONTINUOUS
62
4
100
AcDbLine
10
254.750000000000
20
423.520000000000
30
0.0
11
254.750000000000
21
433.520000000000
31
0.0
0
LINE
5
4f2
100
AcDbEntity
8
0-000
6
CONTINUOUS
62
4
100
AcDbLine
10
587.750000000000
20
423.520000000000
30
0.0
11
587.750000000000
21
433.520000000000
31
0.0
0
LINE
5
4f3
100
AcDbEntity
8
0-000
6
CONTINUOUS
62
3
100
AcDbLine
10
426.250000000000
20
279.110000000000
30
0.0
11
457.950000000000
21
279.110000000000
31
0.0
0
LINE
5
4f4
100
AcDbEntity
8
0-000
6
CONTINUOUS
62
3
100
AcDbLine
10
458.190000000000
20
278.510000000000
30
0.0
11
426.000000000000
21
278.510000000000
31
0.0
0
LINE
5
4f5
100
AcDbEntity
8
0-000
6
CONTINUOUS
62
3
100
AcDbLine
10
286.750000000000
20
279.110000000000
30
0.0
11
291.150000000000
21
279.110000000000
31
0.0
0
LINE
5
4f6
100
AcDbEntity
8
0-000
6
CONTINUOUS
62
3
100
AcDbLine
10
291.390000000000
20
278.510000000000
30
0.0
11
286.750000000000
21
278.510000000000
31
0.0
0
LINE
5
4f7
100
AcDbEntity
8
0-000
6
CONTINUOUS
62
3
100
AcDbLine
10
260.760000000000
20
281.110000000000
30
0.0
11
268.750000000000
21
281.110000000000
31
0.0
0
LINE
5
4f8
100
AcDbEntity
8
0-000
6
CONTINUOUS
62
3
100
AcDbLine
10
260.760000000000
20
280.510000000000
30
0.0
11
269.000000000000
21
280.510000000000
31
0.0
0
LINE
5
4f9
100
AcDbEntity
8
0-000
6
CONTINUOUS
62
3
100
AcDbLine
10
278.510000000000
20
280.510000000000
30
0.0
11
284.500000000000
21
280.510000000000
31
0.0
0
LINE
5
4fa
100
AcDbEntity
8
0-000
6
CONTINUOUS
62
3
100
AcDbLine
10
278.750000000000
20
281.110000000000
30
0.0
11
284.500000000000
21
281.110000000000
31
0.0
0
LINE
5
4fb
100
AcDbEntity
8
0-000
6
CONTINUOUS
62
3
100
AcDbLine
10
301.150000000000
20
279.110000000000
30
0.0
11
332.850000000000
21
279.110000000000
31
0.0
0
LINE
5
4fc
100
AcDbEntity
8
0-000
6
CONTINUOUS
62
3
100
AcDbLine
10
333.090000000000
20
278.510000000000
30
0.0
11
300.900000000000
21
278.510000000000
31
0.0
0
LINE
5
4fd
100
AcDbEntity
8
0-000
6
CONTINUOUS
62
4
100
AcDbLine
10
293.490000000000
20
278.510000000000
30
0.0
11
296.150000000000
21
278.510000000000
31
0.0
0
LINE
5
4fe
100
AcDbEntity
8
0-000
6
CONTINUOUS
62
3
100
AcDbLine
10
342.850000000000
20
279.110000000000
30
0.0
11
374.550000000000
21
279.110000000000
31
0.0
0
LINE
5
4ff
100
AcDbEntity
8
0-000
6
CONTINUOUS
62
3
100
AcDbLine
10
374.790000000000
20
278.510000000000
30
0.0
11
342.600000000000
21
278.510000000000
31
0.0
0
LINE
5
500
100
AcDbEntity
8
0-000
6
CONTINUOUS
62
3
100
AcDbLine
10
416.490000000000
20
278.510000000000
30
0.0
11
384.300000000000
21
278.510000000000
31
0.0
0
LINE
5
501
100
AcDbEntity
8
0-000
6
CONTINUOUS
62
3
100
AcDbLine
10
384.550000000000
20
279.110000000000
30
0.0
11
416.250000000000
21
279.110000000000
31
0.0
0
LINE
5
502
100
AcDbEntity
8
0-000
6
CONTINUOUS
62
3
100
AcDbLine
10
467.950000000000
20
279.110000000000
30
0.0
11
499.650000000000
21
279.110000000000
31
0.0
0
LINE
5
503
100
AcDbEntity
8
0-000
6
CONTINUOUS
62
3
100
AcDbLine
10
499.890000000000
20
278.510000000000
30
0.0
11
467.700000000000
21
278.510000000000
31
0.0
0
LINE
5
504
100
AcDbEntity
8
0-000
6
CONTINUOUS
62
3
100
AcDbLine
10
509.650000000000
20
279.110000000000
30
0.0
11
541.350000000000
21
279.110000000000
31
0.0
0
LINE
5
505
100
AcDbEntity
8
0-000
6
CONTINUOUS
62
3
100
AcDbLine
10
541.590000000000
20
278.510000000000
30
0.0
11
509.400000000000
21
278.510000000000
31
0.0
0
LINE
5
506
100
AcDbEntity
8
0-000
6
CONTINUOUS
62
3
100
AcDbLine
10
560.250000000000
20
278.510000000000
30
0.0
11
551.100000000000
21
278.510000000000
31
0.0
0
LINE
5
507
100
AcDbEntity
8
0-000
6
CONTINUOUS
62
3
100
AcDbLine
10
551.350000000000
20
279.110000000000
30
0.0
11
560.250000000000
21
279.110000000000
31
0.0
0
LINE
5
508
100
AcDbEntity
8
0-000
6
CONTINUOUS
62
3
100
AcDbLine
10
567.950000000000
20
281.110000000000
30
0.0
11
562.500000000000
21
281.110000000000
31
0.0
0
LINE
5
509
100
AcDbEntity
8
0-000
6
CONTINUOUS
62
3
100
AcDbLine
10
568.190000000000
20
280.510000000000
30
0.0
11
562.500000000000
21
280.510000000000
31
0.0
0
LINE
5
50a
100
AcDbEntity
8
0-000
6
CONTINUOUS
62
3
100
AcDbLine
10
585.050000000000
20
280.510000000000
30
0.0
11
577.700000000000
21
280.510000000000
31
0.0
0
LINE
5
50b
100
AcDbEntity
8
0-000
6
CONTINUOUS
62
3
100
AcDbLine
10
585.050000000000
20
281.110000000000
30
0.0
11
577.950000000000
21
281.110000000000
31
0.0
0
LINE
5
50c
100
AcDbEntity
8
0-000
6
CONTINUOUS
62
4
100
AcDbLine
10
384.550000000000
20
292.760000000000
30
0.0
11
416.250000000000
21
292.760000000000
31
0.0
0
LINE
5
50d
100
AcDbEntity
8
0-000
6
CONTINUOUS
62
4
100
AcDbLine
10
384.550000000000
20
285.760000000000
30
0.0
11
384.550000000000
21
292.760000000000
31
0.0
0
LINE
5
50e
100
AcDbEntity
8
0-000
6
CONTINUOUS
62
4
100
AcDbLine
10
416.250000000000
20
285.760000000000
30
0.0
11
416.250000000000
21
292.760000000000
31
0.0
0
LINE
5
50f
100
AcDbEntity
8
0-000
6
CONTINUOUS
62
4
100
AcDbLine
10
416.250000000000
20
292.760000000000
30
0.0
11
426.250000000000
21
292.760000000000
31
0.0
0
LINE
5
510
100
AcDbEntity
8
0-000
6
CONTINUOUS
62
4
100
AcDbLine
10
426.250000000000
20
285.760000000000
30
0.0
11
426.250000000000
21
292.760000000000
31
0.0
0
LINE
5
511
100
AcDbEntity
8
0-000
6
CONTINUOUS
62
4
100
AcDbLine
10
462.950000000000
20
292.760000000000
30
0.0
11
504.650000000000
21
292.760000000000
31
0.0
0
LINE
5
512
100
AcDbEntity
8
0-000
6
CONTINUOUS
62
4
100
AcDbLine
10
462.950000000000
20
285.760000000000
30
0.0
11
462.950000000000
21
292.760000000000
31
0.0
0
LINE
5
513
100
AcDbEntity
8
0-000
6
CONTINUOUS
62
4
100
AcDbLine
10
504.650000000000
20
285.760000000000
30
0.0
11
504.650000000000
21
292.760000000000
31
0.0
0
LINE
5
514
100
AcDbEntity
8
F-7
6
CONTINUOUS
62
2
100
AcDbLine
10
27.380000000000
20
11.820000000000
30
0.0
11
27.380000000000
21
571.820000000000
31
0.0
0
LINE
5
515
100
AcDbEntity
8
F-7
6
CONTINUOUS
62
2
100
AcDbLine
10
642.380000000000
20
41.450000000000
30
0.0
11
642.380000000000
21
11.820000000000
31
0.0
0
LINE
5
516
100
AcDbEntity
8
F-7
6
CONTINUOUS
62
2
100
AcDbLine
10
607.270000000000
20
41.450000000000
30
0.0
11
607.270000000000
21
11.820000000000
31
0.0
0
LINE
5
517
100
AcDbEntity
8
F-7
6
CONTINUOUS
62
2
100
AcDbLine
10
768.560000000000
20
11.820000000000
30
0.0
11
768.560000000000
21
41.450000000000
31
0.0
0
LINE
5
518
100
AcDbEntity
8
F-7
6
CONTINUOUS
62
2
100
AcDbLine
10
403.450000000000
20
41.450000000000
30
0.0
11
403.450000000000
21
11.820000000000
31
0.0
0
LINE
5
519
100
AcDbEntity
8
F-7
6
CONTINUOUS
62
2
100
AcDbLine
10
504.870000000000
20
41.450000000000
30
0.0
11
504.870000000000
21
11.820000000000
31
0.0
0
LINE
5
51a
100
AcDbEntity
8
F-7
6
CONTINUOUS
62
2
100
AcDbLine
10
403.450000000000
20
31.570000000000
30
0.0
11
184.880000000000
21
31.570000000000
31
0.0
0
LINE
5
51b
100
AcDbEntity
8
F-7
6
CONTINUOUS
62
2
100
AcDbLine
10
403.450000000000
20
21.690000000000
30
0.0
11
184.880000000000
21
21.690000000000
31
0.0
0
LINE
5
51c
100
AcDbEntity
8
F-7
6
CONTINUOUS
62
2
100
AcDbLine
10
403.450000000000
20
16.760000000000
30
0.0
11
184.880000000000
21
16.760000000000
31
0.0
0
LINE
5
51d
100
AcDbEntity
8
F-7
6
CONTINUOUS
62
2
100
AcDbLine
10
403.450000000000
20
36.510000000000
30
0.0
11
184.880000000000
21
36.510000000000
31
0.0
0
LINE
5
51e
100
AcDbEntity
8
F-7
6
CONTINUOUS
62
2
100
AcDbLine
10
211.210000000000
20
41.450000000000
30
0.0
11
211.210000000000
21
11.820000000000
31
0.0
0
LINE
5
51f
100
AcDbEntity
8
F-7
6
CONTINUOUS
62
2
100
AcDbLine
10
184.880000000000
20
41.450000000000
30
0.0
11
184.880000000000
21
11.820000000000
31
0.0
0
LINE
5
520
100
AcDbEntity
8
F-7
6
CONTINUOUS
62
2
100
AcDbLine
10
815.820000000000
20
11.820000000000
30
0.0
11
815.820000000000
21
571.820000000000
31
0.0
0
LINE
5
521
100
AcDbEntity
8
F-7
6
CONTINUOUS
62
2
100
AcDbLine
10
27.380000000000
20
571.820000000000
30
0.0
11
815.820000000000
21
571.820000000000
31
0.0
0
LINE
5
522
100
AcDbEntity
8
F-7
6
CONTINUOUS
62
2
100
AcDbLine
10
27.380000000000
20
11.820000000000
30
0.0
11
815.820000000000
21
11.820000000000
31
0.0
0
LINE
5
523
100
AcDbEntity
8
F-7
6
CONTINUOUS
62
2
100
AcDbLine
10
815.820000000000
20
41.450000000000
30
0.0
11
27.380000000000
21
41.450000000000
31
0.0
0
LINE
5
524
100
AcDbEntity
8
F-7
6
CONTINUOUS
62
2
100
AcDbLine
10
184.880000000000
20
26.630000000000
30
0.0
11
815.820000000000
21
26.630000000000
31
0.0
0
LINE
5
525
100
AcDbEntity
8
F-7
6
CONTINUOUS
62
3
100
AcDbLine
10
35.860000000000
20
29.550000000000
30
0.0
11
35.860000000000
21
37.550000000000
31
0.0
0
LINE
5
526
100
AcDbEntity
8
F-7
6
CONTINUOUS
62
3
100
AcDbLine
10
35.860000000000
20
37.550000000000
30
0.0
11
43.860000000000
21
37.550000000000
31
0.0
0
LINE
5
527
100
AcDbEntity
8
F-7
6
CONTINUOUS
62
3
100
AcDbLine
10
43.860000000000
20
37.550000000000
30
0.0
11
43.860000000000
21
29.550000000000
31
0.0
0
LINE
5
528
100
AcDbEntity
8
F-7
6
CONTINUOUS
62
3
100
AcDbLine
10
43.860000000000
20
29.550000000000
30
0.0
11
35.860000000000
21
29.550000000000
31
0.0
0
LINE
5
529
100
AcDbEntity
8
F-7
6
CONTINUOUS
62
3
100
AcDbLine
10
36.660000000000
20
30.630000000000
30
0.0
11
36.660000000000
21
36.750000000000
31
0.0
0
LINE
5
52a
100
AcDbEntity
8
F-7
6
CONTINUOUS
62
3
100
AcDbLine
10
43.060000000000
20
30.350000000000
30
0.0
11
36.940000000000
21
30.350000000000
31
0.0
0
LINE
5
52b
100
AcDbEntity
8
F-7
6
CONTINUOUS
62
3
100
AcDbLine
10
36.660000000000
20
36.750000000000
30
0.0
11
42.780000000000
21
36.750000000000
31
0.0
0
LINE
5
52c
100
AcDbEntity
8
F-7
6
CONTINUOUS
62
3
100
AcDbLine
10
42.780000000000
20
36.750000000000
30
0.0
11
36.660000000000
21
30.630000000000
31
0.0
0
LINE
5
52d
100
AcDbEntity
8
F-7
6
CONTINUOUS
62
3
100
AcDbLine
10
43.060000000000
20
36.470000000000
30
0.0
11
36.940000000000
21
30.350000000000
31
0.0
0
LINE
5
52e
100
AcDbEntity
8
F-7
6
CONTINUOUS
62
3
100
AcDbLine
10
43.060000000000
20
36.470000000000
30
0.0
11
43.060000000000
21
30.350000000000
31
0.0
0
LINE
5
52f
100
AcDbEntity
8
F-7
6
CONTINUOUS
62
4
100
AcDbLine
10
35.860000000000
20
37.470000000000
30
0.0
11
43.860000000000
21
37.470000000000
31
0.0
0
LINE
5
530
100
AcDbEntity
8
F-7
6
CONTINUOUS
62
4
100
AcDbLine
10
35.860000000000
20
37.310000000000
30
0.0
11
43.860000000000
21
37.310000000000
31
0.0
0
LINE
5
531
100
AcDbEntity
8
F-7
6
CONTINUOUS
62
4
100
AcDbLine
10
35.860000000000
20
37.150000000000
30
0.0
11
43.860000000000
21
37.150000000000
31
0.0
0
LINE
5
532
100
AcDbEntity
8
F-7
6
CONTINUOUS
62
4
100
AcDbLine
10
35.860000000000
20
36.990000000000
30
0.0
11
43.860000000000
21
36.990000000000
31
0.0
0
LINE
5
533
100
AcDbEntity
8
F-7
6
CONTINUOUS
62
4
100
AcDbLine
10
35.860000000000
20
36.830000000000
30
0.0
11
43.860000000000
21
36.830000000000
31
0.0
0
LINE
5
534
100
AcDbEntity
8
F-7
6
CONTINUOUS
62
4
100
AcDbLine
10
35.860000000000
20
30.270000000000
30
0.0
11
43.860000000000
21
30.270000000000
31
0.0
0
LINE
5
535
100
AcDbEntity
8
F-7
6
CONTINUOUS
62
4
100
AcDbLine
10
35.860000000000
20
30.110000000000
30
0.0
11
43.860000000000
21
30.110000000000
31
0.0
0
LINE
5
536
100
AcDbEntity
8
F-7
6
CONTINUOUS
62
4
100
AcDbLine
10
35.860000000000
20
29.950000000000
30
0.0
11
43.860000000000
21
29.950000000000
31
0.0
0
LINE
5
537
100
AcDbEntity
8
F-7
6
CONTINUOUS
62
4
100
AcDbLine
10
35.860000000000
20
29.790000000000
30
0.0
11
43.860000000000
21
29.790000000000
31
0.0
0
LINE
5
538
100
AcDbEntity
8
F-7
6
CONTINUOUS
62
4
100
AcDbLine
10
35.860000000000
20
29.630000000000
30
0.0
11
43.860000000000
21
29.630000000000
31
0.0
0
LINE
5
539
100
AcDbEntity
8
F-7
6
CONTINUOUS
62
4
100
AcDbLine
10
35.860000000000
20
30.750000000000
30
0.0
11
36.660000000000
21
30.750000000000
31
0.0
0
LINE
5
53a
100
AcDbEntity
8
F-7
6
CONTINUOUS
62
4
100
AcDbLine
10
35.860000000000
20
30.910000000000
30
0.0
11
36.660000000000
21
30.910000000000
31
0.0
0
LINE
5
53b
100
AcDbEntity
8
F-7
6
CONTINUOUS
62
4
100
AcDbLine
10
35.860000000000
20
31.070000000000
30
0.0
11
36.660000000000
21
31.070000000000
31
0.0
0
LINE
5
53c
100
AcDbEntity
8
F-7
6
CONTINUOUS
62
4
100
AcDbLine
10
35.860000000000
20
31.230000000000
30
0.0
11
36.660000000000
21
31.230000000000
31
0.0
0
LINE
5
53d
100
AcDbEntity
8
F-7
6
CONTINUOUS
62
4
100
AcDbLine
10
35.860000000000
20
31.390000000000
30
0.0
11
36.660000000000
21
31.390000000000
31
0.0
0
LINE
5
53e
100
AcDbEntity
8
F-7
6
CONTINUOUS
62
4
100
AcDbLine
10
35.860000000000
20
31.550000000000
30
0.0
11
36.660000000000
21
31.550000000000
31
0.0
0
LINE
5
53f
100
AcDbEntity
8
F-7
6
CONTINUOUS
62
4
100
AcDbLine
10
35.860000000000
20
31.710000000000
30
0.0
11
36.660000000000
21
31.710000000000
31
0.0
0
LINE
5
540
100
AcDbEntity
8
F-7
6
CONTINUOUS
62
4
100
AcDbLine
10
35.860000000000
20
31.870000000000
30
0.0
11
36.660000000000
21
31.870000000000
31
0.0
0
LINE
5
541
100
AcDbEntity
8
F-7
6
CONTINUOUS
62
4
100
AcDbLine
10
35.860000000000
20
32.030000000000
30
0.0
11
36.660000000000
21
32.030000000000
31
0.0
0
LINE
5
542
100
AcDbEntity
8
F-7
6
CONTINUOUS
62
4
100
AcDbLine
10
35.860000000000
20
32.190000000000
30
0.0
11
36.660000000000
21
32.190000000000
31
0.0
0
LINE
5
543
100
AcDbEntity
8
F-7
6
CONTINUOUS
62
4
100
AcDbLine
10
35.860000000000
20
32.350000000000
30
0.0
11
36.660000000000
21
32.350000000000
31
0.0
0
LINE
5
544
100
AcDbEntity
8
F-7
6
CONTINUOUS
62
4
100
AcDbLine
10
35.860000000000
20
32.510000000000
30
0.0
11
36.660000000000
21
32.510000000000
31
0.0
0
LINE
5
545
100
AcDbEntity
8
F-7
6
CONTINUOUS
62
4
100
AcDbLine
10
35.860000000000
20
32.670000000000
30
0.0
11
36.660000000000
21
32.670000000000
31
0.0
0
LINE
5
546
100
AcDbEntity
8
F-7
6
CONTINUOUS
62
4
100
AcDbLine
10
35.860000000000
20
32.830000000000
30
0.0
11
36.660000000000
21
32.830000000000
31
0.0
0
LINE
5
547
100
AcDbEntity
8
F-7
6
CONTINUOUS
62
4
100
AcDbLine
10
35.860000000000
20
32.990000000000
30
0.0
11
36.660000000000
21
32.990000000000
31
0.0
0
LINE
5
548
100
AcDbEntity
8
F-7
6
CONTINUOUS
62
4
100
AcDbLine
10
35.860000000000
20
33.150000000000
30
0.0
11
36.660000000000
21
33.150000000000
31
0.0
0
LINE
5
549
100
AcDbEntity
8
F-7
6
CONTINUOUS
62
4
100
AcDbLine
10
35.860000000000
20
33.310000000000
30
0.0
11
36.660000000000
21
33.310000000000
31
0.0
0
LINE
5
54a
100
AcDbEntity
8
F-7
6
CONTINUOUS
62
4
100
AcDbLine
10
35.860000000000
20
33.470000000000
30
0.0
11
36.660000000000
21
33.470000000000
31
0.0
0
LINE
5
54b
100
AcDbEntity
8
F-7
6
CONTINUOUS
62
4
100
AcDbLine
10
35.860000000000
20
33.630000000000
30
0.0
11
36.660000000000
21
33.630000000000
31
0.0
0
LINE
5
54c
100
AcDbEntity
8
F-7
6
CONTINUOUS
62
4
100
AcDbLine
10
35.860000000000
20
33.790000000000
30
0.0
11
36.660000000000
21
33.790000000000
31
0.0
0
LINE
5
54d
100
AcDbEntity
8
F-7
6
CONTINUOUS
62
4
100
AcDbLine
10
35.860000000000
20
33.950000000000
30
0.0
11
36.660000000000
21
33.950000000000
31
0.0
0
LINE
5
54e
100
AcDbEntity
8
F-7
6
CONTINUOUS
62
4
100
AcDbLine
10
35.860000000000
20
34.110000000000
30
0.0
11
36.660000000000
21
34.110000000000
31
0.0
0
LINE
5
54f
100
AcDbEntity
8
F-7
6
CONTINUOUS
62
4
100
AcDbLine
10
35.860000000000
20
34.270000000000
30
0.0
11
36.660000000000
21
34.270000000000
31
0.0
0
LINE
5
550
100
AcDbEntity
8
F-7
6
CONTINUOUS
62
4
100
AcDbLine
10
35.860000000000
20
34.430000000000
30
0.0
11
36.660000000000
21
34.430000000000
31
0.0
0
LINE
5
551
100
AcDbEntity
8
F-7
6
CONTINUOUS
62
4
100
AcDbLine
10
35.860000000000
20
34.910000000000
30
0.0
11
36.660000000000
21
34.910000000000
31
0.0
0
LINE
5
552
100
AcDbEntity
8
F-7
6
CONTINUOUS
62
4
100
AcDbLine
10
35.860000000000
20
35.390000000000
30
0.0
11
36.660000000000
21
35.390000000000
31
0.0
0
LINE
5
553
100
AcDbEntity
8
F-7
6
CONTINUOUS
62
4
100
AcDbLine
10
35.860000000000
20
35.550000000000
30
0.0
11
36.660000000000
21
35.550000000000
31
0.0
0
LINE
5
554
100
AcDbEntity
8
F-7
6
CONTINUOUS
62
4
100
AcDbLine
10
35.860000000000
20
35.710000000000
30
0.0
11
36.660000000000
21
35.710000000000
31
0.0
0
LINE
5
555
100
AcDbEntity
8
F-7
6
CONTINUOUS
62
4
100
AcDbLine
10
35.860000000000
20
35.870000000000
30
0.0
11
36.660000000000
21
35.870000000000
31
0.0
0
LINE
5
556
100
AcDbEntity
8
F-7
6
CONTINUOUS
62
4
100
AcDbLine
10
35.860000000000
20
36.670000000000
30
0.0
11
36.660000000000
21
36.670000000000
31
0.0
0
LINE
5
557
100
AcDbEntity
8
F-7
6
CONTINUOUS
62
4
100
AcDbLine
10
35.860000000000
20
36.510000000000
30
0.0
11
36.660000000000
21
36.510000000000
31
0.0
0
LINE
5
558
100
AcDbEntity
8
F-7
6
CONTINUOUS
62
4
100
AcDbLine
10
35.860000000000
20
36.350000000000
30
0.0
11
36.660000000000
21
36.350000000000
31
0.0
0
LINE
5
559
100
AcDbEntity
8
F-7
6
CONTINUOUS
62
4
100
AcDbLine
10
35.860000000000
20
36.190000000000
30
0.0
11
36.660000000000
21
36.190000000000
31
0.0
0
LINE
5
55a
100
AcDbEntity
8
F-7
6
CONTINUOUS
62
4
100
AcDbLine
10
35.860000000000
20
36.030000000000
30
0.0
11
36.660000000000
21
36.030000000000
31
0.0
0
LINE
5
55b
100
AcDbEntity
8
F-7
6
CONTINUOUS
62
4
100
AcDbLine
10
35.860000000000
20
35.070000000000
30
0.0
11
36.660000000000
21
35.070000000000
31
0.0
0
LINE
5
55c
100
AcDbEntity
8
F-7
6
CONTINUOUS
62
4
100
AcDbLine
10
35.860000000000
20
35.230000000000
30
0.0
11
36.660000000000
21
35.230000000000
31
0.0
0
LINE
5
55d
100
AcDbEntity
8
F-7
6
CONTINUOUS
62
4
100
AcDbLine
10
35.860000000000
20
34.750000000000
30
0.0
11
36.660000000000
21
34.750000000000
31
0.0
0
LINE
5
55e
100
AcDbEntity
8
F-7
6
CONTINUOUS
62
4
100
AcDbLine
10
35.860000000000
20
34.590000000000
30
0.0
11
36.660000000000
21
34.590000000000
31
0.0
0
LINE
5
55f
100
AcDbEntity
8
F-7
6
CONTINUOUS
62
4
100
AcDbLine
10
36.940000000000
20
30.910000000000
30
0.0
11
37.500000000000
21
30.910000000000
31
0.0
0
LINE
5
560
100
AcDbEntity
8
F-7
6
CONTINUOUS
62
4
100
AcDbLine
10
36.770000000000
20
30.750000000000
30
0.0
11
37.340000000000
21
30.750000000000
31
0.0
0
LINE
5
561
100
AcDbEntity
8
F-7
6
CONTINUOUS
62
4
100
AcDbLine
10
35.860000000000
20
30.590000000000
30
0.0
11
37.180000000000
21
30.590000000000
31
0.0
0
LINE
5
562
100
AcDbEntity
8
F-7
6
CONTINUOUS
62
4
100
AcDbLine
10
35.860000000000
20
30.430000000000
30
0.0
11
37.020000000000
21
30.430000000000
31
0.0
0
LINE
5
563
100
AcDbEntity
8
F-7
6
CONTINUOUS
62
4
100
AcDbLine
10
37.900000000000
20
31.870000000000
30
0.0
11
38.460000000000
21
31.870000000000
31
0.0
0
LINE
5
564
100
AcDbEntity
8
F-7
6
CONTINUOUS
62
4
100
AcDbLine
10
37.740000000000
20
31.710000000000
30
0.0
11
38.300000000000
21
31.710000000000
31
0.0
0
LINE
5
565
100
AcDbEntity
8
F-7
6
CONTINUOUS
62
4
100
AcDbLine
10
37.580000000000
20
31.550000000000
30
0.0
11
38.140000000000
21
31.550000000000
31
0.0
0
LINE
5
566
100
AcDbEntity
8
F-7
6
CONTINUOUS
62
4
100
AcDbLine
10
37.410000000000
20
31.390000000000
30
0.0
11
37.980000000000
21
31.390000000000
31
0.0
0
LINE
5
567
100
AcDbEntity
8
F-7
6
CONTINUOUS
62
4
100
AcDbLine
10
37.260000000000
20
31.230000000000
30
0.0
11
37.820000000000
21
31.230000000000
31
0.0
0
LINE
5
568
100
AcDbEntity
8
F-7
6
CONTINUOUS
62
4
100
AcDbLine
10
37.100000000000
20
31.070000000000
30
0.0
11
37.660000000000
21
31.070000000000
31
0.0
0
LINE
5
569
100
AcDbEntity
8
F-7
6
CONTINUOUS
62
4
100
AcDbLine
10
36.660000000000
20
36.750000000000
30
0.0
11
36.660000000000
21
36.910000000000
31
0.0
0
LINE
5
56a
100
AcDbEntity
8
F-7
6
CONTINUOUS
62
4
100
AcDbLine
10
43.060000000000
20
30.750000000000
30
0.0
11
43.860000000000
21
30.750000000000
31
0.0
0
LINE
5
56b
100
AcDbEntity
8
F-7
6
CONTINUOUS
62
4
100
AcDbLine
10
43.060000000000
20
30.910000000000
30
0.0
11
43.860000000000
21
30.910000000000
31
0.0
0
LINE
5
56c
100
AcDbEntity
8
F-7
6
CONTINUOUS
62
4
100
AcDbLine
10
43.060000000000
20
31.070000000000
30
0.0
11
43.860000000000
21
31.070000000000
31
0.0
0
LINE
5
56d
100
AcDbEntity
8
F-7
6
CONTINUOUS
62
4
100
AcDbLine
10
43.060000000000
20
31.230000000000
30
0.0
11
43.860000000000
21
31.230000000000
31
0.0
0
LINE
5
56e
100
AcDbEntity
8
F-7
6
CONTINUOUS
62
4
100
AcDbLine
10
43.060000000000
20
31.390000000000
30
0.0
11
43.860000000000
21
31.390000000000
31
0.0
0
LINE
5
56f
100
AcDbEntity
8
F-7
6
CONTINUOUS
62
4
100
AcDbLine
10
43.060000000000
20
31.550000000000
30
0.0
11
43.860000000000
21
31.550000000000
31
0.0
0
LINE
5
570
100
AcDbEntity
8
F-7
6
CONTINUOUS
62
4
100
AcDbLine
10
43.060000000000
20
31.710000000000
30
0.0
11
43.860000000000
21
31.710000000000
31
0.0
0
LINE
5
571
100
AcDbEntity
8
F-7
6
CONTINUOUS
62
4
100
AcDbLine
10
43.060000000000
20
31.870000000000
30
0.0
11
43.860000000000
21
31.870000000000
31
0.0
0
LINE
5
572
100
AcDbEntity
8
F-7
6
CONTINUOUS
62
4
100
AcDbLine
10
43.060000000000
20
32.030000000000
30
0.0
11
43.860000000000
21
32.030000000000
31
0.0
0
LINE
5
573
100
AcDbEntity
8
F-7
6
CONTINUOUS
62
4
100
AcDbLine
10
43.060000000000
20
32.190000000000
30
0.0
11
43.860000000000
21
32.190000000000
31
0.0
0
LINE
5
574
100
AcDbEntity
8
F-7
6
CONTINUOUS
62
4
100
AcDbLine
10
43.060000000000
20
32.350000000000
30
0.0
11
43.860000000000
21
32.350000000000
31
0.0
0
LINE
5
575
100
AcDbEntity
8
F-7
6
CONTINUOUS
62
4
100
AcDbLine
10
43.060000000000
20
32.510000000000
30
0.0
11
43.860000000000
21
32.510000000000
31
0.0
0
LINE
5
576
100
AcDbEntity
8
F-7
6
CONTINUOUS
62
4
100
AcDbLine
10
43.060000000000
20
32.670000000000
30
0.0
11
43.860000000000
21
32.670000000000
31
0.0
0
LINE
5
577
100
AcDbEntity
8
F-7
6
CONTINUOUS
62
4
100
AcDbLine
10
43.060000000000
20
32.990000000000
30
0.0
11
43.860000000000
21
32.990000000000
31
0.0
0
LINE
5
578
100
AcDbEntity
8
F-7
6
CONTINUOUS
62
4
100
AcDbLine
10
43.060000000000
20
33.150000000000
30
0.0
11
43.860000000000
21
33.150000000000
31
0.0
0
LINE
5
579
100
AcDbEntity
8
F-7
6
CONTINUOUS
62
4
100
AcDbLine
10
43.060000000000
20
33.310000000000
30
0.0
11
43.860000000000
21
33.310000000000
31
0.0
0
LINE
5
57a
100
AcDbEntity
8
F-7
6
CONTINUOUS
62
4
100
AcDbLine
10
43.060000000000
20
33.470000000000
30
0.0
11
43.860000000000
21
33.470000000000
31
0.0
0
LINE
5
57b
100
AcDbEntity
8
F-7
6
CONTINUOUS
62
4
100
AcDbLine
10
43.060000000000
20
33.630000000000
30
0.0
11
43.860000000000
21
33.630000000000
31
0.0
0
LINE
5
57c
100
AcDbEntity
8
F-7
6
CONTINUOUS
62
4
100
AcDbLine
10
43.060000000000
20
33.790000000000
30
0.0
11
43.860000000000
21
33.790000000000
31
0.0
0
LINE
5
57d
100
AcDbEntity
8
F-7
6
CONTINUOUS
62
4
100
AcDbLine
10
43.060000000000
20
33.950000000000
30
0.0
11
43.860000000000
21
33.950000000000
31
0.0
0
LINE
5
57e
100
AcDbEntity
8
F-7
6
CONTINUOUS
62
4
100
AcDbLine
10
43.060000000000
20
34.110000000000
30
0.0
11
43.860000000000
21
34.110000000000
31
0.0
0
LINE
5
57f
100
AcDbEntity
8
F-7
6
CONTINUOUS
62
4
100
AcDbLine
10
43.060000000000
20
34.270000000000
30
0.0
11
43.860000000000
21
34.270000000000
31
0.0
0
LINE
5
580
100
AcDbEntity
8
F-7
6
CONTINUOUS
62
4
100
AcDbLine
10
43.060000000000
20
34.430000000000
30
0.0
11
43.860000000000
21
34.430000000000
31
0.0
0
LINE
5
581
100
AcDbEntity
8
F-7
6
CONTINUOUS
62
4
100
AcDbLine
10
43.060000000000
20
34.910000000000
30
0.0
11
43.860000000000
21
34.910000000000
31
0.0
0
LINE
5
582
100
AcDbEntity
8
F-7
6
CONTINUOUS
62
4
100
AcDbLine
10
43.060000000000
20
35.390000000000
30
0.0
11
43.860000000000
21
35.390000000000
31
0.0
0
LINE
5
583
100
AcDbEntity
8
F-7
6
CONTINUOUS
62
4
100
AcDbLine
10
43.060000000000
20
35.550000000000
30
0.0
11
43.860000000000
21
35.550000000000
31
0.0
0
LINE
5
584
100
AcDbEntity
8
F-7
6
CONTINUOUS
62
4
100
AcDbLine
10
43.060000000000
20
35.710000000000
30
0.0
11
43.860000000000
21
35.710000000000
31
0.0
0
LINE
5
585
100
AcDbEntity
8
F-7
6
CONTINUOUS
62
4
100
AcDbLine
10
43.060000000000
20
35.870000000000
30
0.0
11
43.860000000000
21
35.870000000000
31
0.0
0
LINE
5
586
100
AcDbEntity
8
F-7
6
CONTINUOUS
62
4
100
AcDbLine
10
43.060000000000
20
36.350000000000
30
0.0
11
43.860000000000
21
36.350000000000
31
0.0
0
LINE
5
587
100
AcDbEntity
8
F-7
6
CONTINUOUS
62
4
100
AcDbLine
10
43.060000000000
20
36.190000000000
30
0.0
11
43.860000000000
21
36.190000000000
31
0.0
0
LINE
5
588
100
AcDbEntity
8
F-7
6
CONTINUOUS
62
4
100
AcDbLine
10
43.060000000000
20
36.030000000000
30
0.0
11
43.860000000000
21
36.030000000000
31
0.0
0
LINE
5
589
100
AcDbEntity
8
F-7
6
CONTINUOUS
62
4
100
AcDbLine
10
43.060000000000
20
35.070000000000
30
0.0
11
43.860000000000
21
35.070000000000
31
0.0
0
LINE
5
58a
100
AcDbEntity
8
F-7
6
CONTINUOUS
62
4
100
AcDbLine
10
43.060000000000
20
35.230000000000
30
0.0
11
43.860000000000
21
35.230000000000
31
0.0
0
LINE
5
58b
100
AcDbEntity
8
F-7
6
CONTINUOUS
62
4
100
AcDbLine
10
43.060000000000
20
34.750000000000
30
0.0
11
43.860000000000
21
34.750000000000
31
0.0
0
LINE
5
58c
100
AcDbEntity
8
F-7
6
CONTINUOUS
62
4
100
AcDbLine
10
43.060000000000
20
34.590000000000
30
0.0
11
43.860000000000
21
34.590000000000
31
0.0
0
LINE
5
58d
100
AcDbEntity
8
F-7
6
CONTINUOUS
62
4
100
AcDbLine
10
43.060000000000
20
30.430000000000
30
0.0
11
43.860000000000
21
30.430000000000
31
0.0
0
LINE
5
58e
100
AcDbEntity
8
F-7
6
CONTINUOUS
62
4
100
AcDbLine
10
43.060000000000
20
30.590000000000
30
0.0
11
43.860000000000
21
30.590000000000
31
0.0
0
LINE
5
58f
100
AcDbEntity
8
F-7
6
CONTINUOUS
62
4
100
AcDbLine
10
42.700000000000
20
36.670000000000
30
0.0
11
43.860000000000
21
36.670000000000
31
0.0
0
LINE
5
590
100
AcDbEntity
8
F-7
6
CONTINUOUS
62
4
100
AcDbLine
10
42.540000000000
20
36.510000000000
30
0.0
11
43.860000000000
21
36.510000000000
31
0.0
0
LINE
5
591
100
AcDbEntity
8
F-7
6
CONTINUOUS
62
4
100
AcDbLine
10
38.540000000000
20
32.510000000000
30
0.0
11
39.100000000000
21
32.510000000000
31
0.0
0
LINE
5
592
100
AcDbEntity
8
F-7
6
CONTINUOUS
62
4
100
AcDbLine
10
38.380000000000
20
32.350000000000
30
0.0
11
38.940000000000
21
32.350000000000
31
0.0
0
LINE
5
593
100
AcDbEntity
8
F-7
6
CONTINUOUS
62
4
100
AcDbLine
10
38.210000000000
20
32.190000000000
30
0.0
11
38.780000000000
21
32.190000000000
31
0.0
0
LINE
5
594
100
AcDbEntity
8
F-7
6
CONTINUOUS
62
4
100
AcDbLine
10
38.060000000000
20
32.030000000000
30
0.0
11
38.620000000000
21
32.030000000000
31
0.0
0
LINE
5
595
100
AcDbEntity
8
F-7
6
CONTINUOUS
62
4
100
AcDbLine
10
39.180000000000
20
33.150000000000
30
0.0
11
39.740000000000
21
33.150000000000
31
0.0
0
LINE
5
596
100
AcDbEntity
8
F-7
6
CONTINUOUS
62
4
100
AcDbLine
10
39.010000000000
20
32.990000000000
30
0.0
11
39.580000000000
21
32.990000000000
31
0.0
0
LINE
5
597
100
AcDbEntity
8
F-7
6
CONTINUOUS
62
4
100
AcDbLine
10
38.860000000000
20
32.830000000000
30
0.0
11
39.420000000000
21
32.830000000000
31
0.0
0
LINE
5
598
100
AcDbEntity
8
F-7
6
CONTINUOUS
62
4
100
AcDbLine
10
38.690000000000
20
32.670000000000
30
0.0
11
39.260000000000
21
32.670000000000
31
0.0
0
LINE
5
599
100
AcDbEntity
8
F-7
6
CONTINUOUS
62
4
100
AcDbLine
10
39.810000000000
20
33.790000000000
30
0.0
11
40.380000000000
21
33.790000000000
31
0.0
0
LINE
5
59a
100
AcDbEntity
8
F-7
6
CONTINUOUS
62
4
100
AcDbLine
10
39.660000000000
20
33.630000000000
30
0.0
11
40.220000000000
21
33.630000000000
31
0.0
0
LINE
5
59b
100
AcDbEntity
8
F-7
6
CONTINUOUS
62
4
100
AcDbLine
10
39.500000000000
20
33.470000000000
30
0.0
11
40.060000000000
21
33.470000000000
31
0.0
0
LINE
5
59c
100
AcDbEntity
8
F-7
6
CONTINUOUS
62
4
100
AcDbLine
10
39.330000000000
20
33.310000000000
30
0.0
11
39.900000000000
21
33.310000000000
31
0.0
0
LINE
5
59d
100
AcDbEntity
8
F-7
6
CONTINUOUS
62
4
100
AcDbLine
10
40.460000000000
20
34.430000000000
30
0.0
11
41.020000000000
21
34.430000000000
31
0.0
0
LINE
5
59e
100
AcDbEntity
8
F-7
6
CONTINUOUS
62
4
100
AcDbLine
10
40.300000000000
20
34.270000000000
30
0.0
11
40.860000000000
21
34.270000000000
31
0.0
0
LINE
5
59f
100
AcDbEntity
8
F-7
6
CONTINUOUS
62
4
100
AcDbLine
10
40.130000000000
20
34.110000000000
30
0.0
11
40.700000000000
21
34.110000000000
31
0.0
0
LINE
5
5a0
100
AcDbEntity
8
F-7
6
CONTINUOUS
62
4
100
AcDbLine
10
39.980000000000
20
33.950000000000
30
0.0
11
40.540000000000
21
33.950000000000
31
0.0
0
LINE
5
5a1
100
AcDbEntity
8
F-7
6
CONTINUOUS
62
4
100
AcDbLine
10
41.100000000000
20
35.070000000000
30
0.0
11
41.660000000000
21
35.070000000000
31
0.0
0
LINE
5
5a2
100
AcDbEntity
8
F-7
6
CONTINUOUS
62
4
100
AcDbLine
10
40.930000000000
20
34.910000000000
30
0.0
11
41.500000000000
21
34.910000000000
31
0.0
0
LINE
5
5a3
100
AcDbEntity
8
F-7
6
CONTINUOUS
62
4
100
AcDbLine
10
40.770000000000
20
34.750000000000
30
0.0
11
41.340000000000
21
34.750000000000
31
0.0
0
LINE
5
5a4
100
AcDbEntity
8
F-7
6
CONTINUOUS
62
4
100
AcDbLine
10
40.620000000000
20
34.590000000000
30
0.0
11
41.180000000000
21
34.590000000000
31
0.0
0
LINE
5
5a5
100
AcDbEntity
8
F-7
6
CONTINUOUS
62
4
100
AcDbLine
10
41.740000000000
20
35.710000000000
30
0.0
11
42.300000000000
21
35.710000000000
31
0.0
0
LINE
5
5a6
100
AcDbEntity
8
F-7
6
CONTINUOUS
62
4
100
AcDbLine
10
41.570000000000
20
35.550000000000
30
0.0
11
42.140000000000
21
35.550000000000
31
0.0
0
LINE
5
5a7
100
AcDbEntity
8
F-7
6
CONTINUOUS
62
4
100
AcDbLine
10
41.420000000000
20
35.390000000000
30
0.0
11
41.980000000000
21
35.390000000000
31
0.0
0
LINE
5
5a8
100
AcDbEntity
8
F-7
6
CONTINUOUS
62
4
100
AcDbLine
10
41.260000000000
20
35.230000000000
30
0.0
11
41.820000000000
21
35.230000000000
31
0.0
0
LINE
5
5a9
100
AcDbEntity
8
F-7
6
CONTINUOUS
62
4
100
AcDbLine
10
42.370000000000
20
36.350000000000
30
0.0
11
42.940000000000
21
36.350000000000
31
0.0
0
LINE
5
5aa
100
AcDbEntity
8
F-7
6
CONTINUOUS
62
4
100
AcDbLine
10
42.210000000000
20
36.190000000000
30
0.0
11
42.780000000000
21
36.190000000000
31
0.0
0
LINE
5
5ab
100
AcDbEntity
8
F-7
6
CONTINUOUS
62
4
100
AcDbLine
10
42.050000000000
20
36.030000000000
30
0.0
11
42.620000000000
21
36.030000000000
31
0.0
0
LINE
5
5ac
100
AcDbEntity
8
F-7
6
CONTINUOUS
62
4
100
AcDbLine
10
41.890000000000
20
35.870000000000
30
0.0
11
42.460000000000
21
35.870000000000
31
0.0
0
LINE
5
5ad
100
AcDbEntity
8
F-7
6
CONTINUOUS
62
4
100
AcDbLine
10
43.060000000000
20
32.830000000000
30
0.0
11
43.860000000000
21
32.830000000000
31
0.0
0
LINE
5
5ae
100
AcDbEntity
8
0-000
6
CONTINUOUS
62
4
100
AcDbLine
10
174.750000000000
20
533.800000000000
30
0.0
11
254.750000000000
21
533.800000000000
31
0.0
0
LINE
5
5af
100
AcDbEntity
8
0-000
6
CONTINUOUS
62
4
100
AcDbLine
10
254.750000000000
20
533.800000000000
30
0.0
11
587.750000000000
21
533.800000000000
31
0.0
0
LINE
5
5b0
100
AcDbEntity
8
0-000
6
CONTINUOUS
62
4
100
AcDbLine
10
587.750000000000
20
533.800000000000
30
0.0
11
667.750000000000
21
533.800000000000
31
0.0
0
LINE
5
5b1
100
AcDbEntity
8
0-000
6
CONTINUOUS
62
4
100
AcDbLine
10
174.750000000000
20
533.800000000000
30
0.0
11
177.650000000000
21
534.570000000000
31
0.0
0
LINE
5
5b2
100
AcDbEntity
8
0-000
6
CONTINUOUS
62
4
100
AcDbLine
10
174.750000000000
20
533.800000000000
30
0.0
11
177.650000000000
21
533.020000000000
31
0.0
0
LINE
5
5b3
100
AcDbEntity
8
0-000
6
CONTINUOUS
62
4
100
AcDbLine
10
667.750000000000
20
533.800000000000
30
0.0
11
664.850000000000
21
533.020000000000
31
0.0
0
LINE
5
5b4
100
AcDbEntity
8
0-000
6
CONTINUOUS
62
4
100
AcDbLine
10
667.750000000000
20
533.800000000000
30
0.0
11
664.850000000000
21
534.570000000000
31
0.0
0
LINE
5
5b5
100
AcDbEntity
8
0-000
6
CONTINUOUS
62
4
100
AcDbLine
10
557.400000000000
20
402.110000000000
30
0.0
11
529.790000000000
21
402.110000000000
31
0.0
0
LINE
5
5b6
100
AcDbEntity
8
0-000
6
CONTINUOUS
62
4
100
AcDbLine
10
529.790000000000
20
378.510000000000
30
0.0
11
529.790000000000
21
402.110000000000
31
0.0
0
LINE
5
5b7
100
AcDbEntity
8
0-000
6
CONTINUOUS
62
4
100
AcDbLine
10
529.790000000000
20
378.510000000000
30
0.0
11
529.790000000000
21
402.310000000000
31
0.0
0
LINE
5
5b8
100
AcDbEntity
8
0-000
6
CONTINUOUS
62
4
100
AcDbLine
10
557.400000000000
20
302.110000000000
30
0.0
11
529.790000000000
21
302.110000000000
31
0.0
0
LINE
5
5b9
100
AcDbEntity
8
0-000
6
CONTINUOUS
62
4
100
AcDbLine
10
529.790000000000
20
278.510000000000
30
0.0
11
529.790000000000
21
302.110000000000
31
0.0
0
LINE
5
5ba
100
AcDbEntity
8
0-000
6
CENTER2
62
7
100
AcDbLine
10
254.750000000000
20
486.320000000000
30
0.0
11
254.750000000000
21
533.800000000000
31
0.0
0
LINE
5
5bb
100
AcDbEntity
8
0-000
6
CENTER2
62
7
100
AcDbLine
10
587.750000000000
20
486.320000000000
30
0.0
11
587.750000000000
21
533.800000000000
31
0.0
0
LINE
5
5bc
100
AcDbEntity
8
0-101
6
CONTINUOUS
62
7
100
AcDbLine
10
606.090000000000
20
112.450000000000
30
0.0
11
609.740000000000
21
108.800000000000
31
0.0
0
LINE
5
5bd
100
AcDbEntity
8
0-101
6
CONTINUOUS
62
7
100
AcDbLine
10
494.380000000000
20
112.450000000000
30
0.0
11
490.740000000000
21
108.800000000000
31
0.0
0
LINE
5
5be
100
AcDbEntity
8
0-101
6
CONTINUOUS
62
7
100
AcDbLine
10
580.740000000000
20
108.800000000000
30
0.0
11
590.740000000000
21
110.400000000000
31
0.0
0
LINE
5
5bf
100
AcDbEntity
8
0-101
6
CONTINUOUS
62
7
100
AcDbLine
10
580.550000000000
20
109.990000000000
30
0.0
11
590.550000000000
21
111.590000000000
31
0.0
0
LINE
5
5c0
100
AcDbEntity
8
0-101
6
CONTINUOUS
62
7
100
AcDbLine
10
580.550000000000
20
109.990000000000
30
0.0
11
580.740000000000
21
108.800000000000
31
0.0
0
LINE
5
5c1
100
AcDbEntity
8
0-101
6
CONTINUOUS
62
7
100
AcDbLine
10
567.740000000000
20
108.800000000000
30
0.0
11
590.740000000000
21
108.800000000000
31
0.0
0
LINE
5
5c2
100
AcDbEntity
8
0-101
6
CONTINUOUS
62
7
100
AcDbLine
10
566.790000000000
20
107.600000000000
30
0.0
11
590.740000000000
21
107.600000000000
31
0.0
0
LINE
5
5c3
100
AcDbEntity
8
0-101
6
CONTINUOUS
62
7
100
AcDbLine
10
551.140000000000
20
108.800000000000
30
0.0
11
561.740000000000
21
108.800000000000
31
0.0
0
LINE
5
5c4
100
AcDbEntity
8
0-101
6
CONTINUOUS
62
7
100
AcDbLine
10
551.140000000000
20
107.600000000000
30
0.0
11
562.690000000000
21
107.600000000000
31
0.0
0
LINE
5
5c5
100
AcDbEntity
8
0-101
6
CONTINUOUS
62
7
100
AcDbLine
10
540.340000000000
20
112.800000000000
30
0.0
11
495.230000000000
21
112.800000000000
31
0.0
0
LINE
5
5c6
100
AcDbEntity
8
0-101
6
CONTINUOUS
62
7
100
AcDbLine
10
491.580000000000
20
107.950000000000
30
0.0
11
495.230000000000
21
111.600000000000
31
0.0
0
LINE
5
5c7
100
AcDbEntity
8
0-101
6
CONTINUOUS
62
7
100
AcDbLine
10
540.340000000000
20
111.600000000000
30
0.0
11
495.230000000000
21
111.600000000000
31
0.0
0
LINE
5
5c8
100
AcDbEntity
8
0-101
6
CONTINUOUS
62
7
100
AcDbLine
10
549.940000000000
20
128.400000000000
30
0.0
11
549.940000000000
21
110.000000000000
31
0.0
0
LINE
5
5c9
100
AcDbEntity
8
0-101
6
CONTINUOUS
62
7
100
AcDbLine
10
548.740000000000
20
128.400000000000
30
0.0
11
548.740000000000
21
110.000000000000
31
0.0
0
LINE
5
5ca
100
AcDbEntity
8
0-101
6
CONTINUOUS
62
7
100
AcDbLine
10
553.690000000000
20
131.050000000000
30
0.0
11
549.130000000000
21
152.890000000000
31
0.0
0
LINE
5
5cb
100
AcDbEntity
8
0-101
6
CONTINUOUS
62
7
100
AcDbLine
10
552.510000000000
20
129.600000000000
30
0.0
11
551.140000000000
21
129.600000000000
31
0.0
0
LINE
5
5cc
100
AcDbEntity
8
0-101
6
CONTINUOUS
62
7
100
AcDbLine
10
552.510000000000
20
130.800000000000
30
0.0
11
551.140000000000
21
130.800000000000
31
0.0
0
LINE
5
5cd
100
AcDbEntity
8
0-101
6
CONTINUOUS
62
7
100
AcDbLine
10
552.510000000000
20
130.800000000000
30
0.0
11
547.960000000000
21
152.650000000000
31
0.0
0
LINE
5
5ce
100
AcDbEntity
8
0-101
6
CONTINUOUS
62
7
100
AcDbLine
10
538.960000000000
20
126.800000000000
30
0.0
11
540.340000000000
21
126.800000000000
31
0.0
0
LINE
5
5cf
100
AcDbEntity
8
0-101
6
CONTINUOUS
62
7
100
AcDbLine
10
538.960000000000
20
128.000000000000
30
0.0
11
540.340000000000
21
128.000000000000
31
0.0
0
LINE
5
5d0
100
AcDbEntity
8
0-101
6
CONTINUOUS
62
7
100
AcDbLine
10
537.790000000000
20
128.250000000000
30
0.0
11
542.340000000000
21
152.890000000000
31
0.0
0
LINE
5
5d1
100
AcDbEntity
8
0-101
6
CONTINUOUS
62
7
100
AcDbLine
10
538.970000000000
20
128.030000000000
30
0.0
11
543.520000000000
21
152.670000000000
31
0.0
0
LINE
5
5d2
100
AcDbEntity
8
0-101
6
CONTINUOUS
62
7
100
AcDbLine
10
541.540000000000
20
114.000000000000
30
0.0
11
541.540000000000
21
125.600000000000
31
0.0
0
LINE
5
5d3
100
AcDbEntity
8
0-101
6
CONTINUOUS
62
7
100
AcDbLine
10
542.740000000000
20
125.600000000000
30
0.0
11
542.740000000000
21
114.000000000000
31
0.0
0
LINE
5
5d4
100
AcDbEntity
8
0-101
6
CONTINUOUS
62
7
100
AcDbLine
10
551.250000000000
20
152.020000000000
30
0.0
11
554.970000000000
21
128.800000000000
31
0.0
0
LINE
5
5d5
100
AcDbEntity
8
0-101
6
CONTINUOUS
62
7
100
AcDbLine
10
552.720000000000
20
128.800000000000
30
0.0
11
554.970000000000
21
128.800000000000
31
0.0
0
LINE
5
5d6
100
AcDbEntity
8
0-101
6
CONTINUOUS
62
7
100
AcDbLine
10
554.970000000000
20
127.600000000000
30
0.0
11
552.720000000000
21
127.600000000000
31
0.0
0
LINE
5
5d7
100
AcDbEntity
8
0-101
6
CONTINUOUS
62
7
100
AcDbLine
10
556.160000000000
20
128.990000000000
30
0.0
11
552.430000000000
21
152.210000000000
31
0.0
0
LINE
5
5d8
100
AcDbEntity
8
0-101
6
CONTINUOUS
62
7
100
AcDbLine
10
538.760000000000
20
126.000000000000
30
0.0
11
536.500000000000
21
126.000000000000
31
0.0
0
LINE
5
5d9
100
AcDbEntity
8
0-101
6
CONTINUOUS
62
7
100
AcDbLine
10
536.500000000000
20
124.800000000000
30
0.0
11
538.760000000000
21
124.800000000000
31
0.0
0
LINE
5
5da
100
AcDbEntity
8
0-101
6
CONTINUOUS
62
7
100
AcDbLine
10
539.050000000000
20
152.290000000000
30
0.0
11
535.310000000000
21
126.170000000000
31
0.0
0
LINE
5
5db
100
AcDbEntity
8
0-101
6
CONTINUOUS
62
7
100
AcDbLine
10
540.230000000000
20
152.020000000000
30
0.0
11
536.500000000000
21
126.000000000000
31
0.0
0
LINE
5
5dc
100
AcDbEntity
8
0-101
6
CONTINUOUS
62
7
100
AcDbLine
10
535.470000000000
20
115.670000000000
30
0.0
11
539.910000000000
21
124.480000000000
31
0.0
0
LINE
5
5dd
100
AcDbEntity
8
0-101
6
CONTINUOUS
62
7
100
AcDbLine
10
539.730000000000
20
124.100000000000
30
0.0
11
534.280000000000
21
116.530000000000
31
0.0
0
LINE
5
5de
100
AcDbEntity
8
0-101
6
CONTINUOUS
62
7
100
AcDbLine
10
538.760000000000
20
124.800000000000
30
0.0
11
533.310000000000
21
117.230000000000
31
0.0
0
LINE
5
5df
100
AcDbEntity
8
0-101
6
CONTINUOUS
62
7
100
AcDbLine
10
536.510000000000
20
115.060000000000
30
0.0
11
540.980000000000
21
123.940000000000
31
0.0
0
LINE
5
5e0
100
AcDbEntity
8
0-101
6
CONTINUOUS
62
7
100
AcDbLine
10
556.600000000000
20
113.680000000000
30
0.0
11
552.720000000000
21
127.600000000000
31
0.0
0
LINE
5
5e1
100
AcDbEntity
8
0-101
6
CONTINUOUS
62
7
100
AcDbLine
10
551.560000000000
20
127.280000000000
30
0.0
11
555.450000000000
21
113.360000000000
31
0.0
0
LINE
5
5e2
100
AcDbEntity
8
0-101
6
CONTINUOUS
62
7
100
AcDbLine
10
557.760000000000
20
112.800000000000
30
0.0
11
605.240000000000
21
112.800000000000
31
0.0
0
LINE
5
5e3
100
AcDbEntity
8
0-101
6
CONTINUOUS
62
7
100
AcDbLine
10
557.760000000000
20
111.600000000000
30
0.0
11
605.240000000000
21
111.600000000000
31
0.0
0
LINE
5
5e4
100
AcDbEntity
8
0-101
6
CONTINUOUS
62
7
100
AcDbLine
10
608.890000000000
20
107.950000000000
30
0.0
11
605.240000000000
21
111.600000000000
31
0.0
0
LINE
5
5e5
100
AcDbEntity
8
0-101
6
CONTINUOUS
62
7
100
AcDbLine
10
545.740000000000
20
153.250000000000
30
0.0
11
546.920000000000
21
153.590000000000
31
0.0
0
LINE
5
5e6
100
AcDbEntity
8
0-101
6
CONTINUOUS
62
7
100
AcDbLine
10
545.740000000000
20
154.500000000000
30
0.0
11
546.790000000000
21
154.800000000000
31
0.0
0
LINE
5
5e7
100
AcDbEntity
8
0-101
6
CONTINUOUS
62
7
100
AcDbLine
10
545.740000000000
20
153.250000000000
30
0.0
11
544.550000000000
21
153.590000000000
31
0.0
0
LINE
5
5e8
100
AcDbEntity
8
0-101
6
CONTINUOUS
62
7
100
AcDbLine
10
545.740000000000
20
154.500000000000
30
0.0
11
544.690000000000
21
154.800000000000
31
0.0
0
LINE
5
5e9
100
AcDbEntity
8
0-101
6
CONTINUOUS
62
7
100
AcDbLine
10
472.350000000000
20
108.800000000000
30
0.0
11
490.740000000000
21
108.800000000000
31
0.0
0
LINE
5
5ea
100
AcDbEntity
8
0-101
6
CONTINUOUS
62
7
100
AcDbLine
10
490.740000000000
20
107.600000000000
30
0.0
11
472.350000000000
21
107.600000000000
31
0.0
0
LINE
5
5eb
100
AcDbEntity
8
0-101
6
CONTINUOUS
62
7
100
AcDbLine
10
609.740000000000
20
108.800000000000
30
0.0
11
629.120000000000
21
108.800000000000
31
0.0
0
LINE
5
5ec
100
AcDbEntity
8
0-101
6
CONTINUOUS
62
7
100
AcDbLine
10
629.120000000000
20
107.600000000000
30
0.0
11
609.740000000000
21
107.600000000000
31
0.0
0
LINE
5
5ed
100
AcDbEntity
8
0-101
6
CONTINUOUS
62
7
100
AcDbLine
10
629.120000000000
20
105.600000000000
30
0.0
11
472.350000000000
21
105.600000000000
31
0.0
0
LINE
5
5ee
100
AcDbEntity
8
0-101
6
DASHED
62
7
100
AcDbLine
10
629.120000000000
20
106.600000000000
30
0.0
11
472.350000000000
21
106.600000000000
31
0.0
0
LINE
5
5ef
100
AcDbEntity
8
0-101
6
CONTINUOUS
62
7
100
AcDbLine
10
568.820000000000
20
109.400000000000
30
0.0
11
578.820000000000
21
109.400000000000
31
0.0
0
LINE
5
5f0
100
AcDbEntity
8
0-101
6
CONTINUOUS
62
7
100
AcDbLine
10
570.820000000000
20
109.900000000000
30
0.0
11
576.820000000000
21
109.900000000000
31
0.0
0
LINE
5
5f1
100
AcDbEntity
8
0-101
6
CONTINUOUS
62
7
100
AcDbLine
10
578.820000000000
20
109.400000000000
30
0.0
11
578.820000000000
21
109.000000000000
31
0.0
0
LINE
5
5f2
100
AcDbEntity
8
0-101
6
CONTINUOUS
62
7
100
AcDbLine
10
576.820000000000
20
109.900000000000
30
0.0
11
578.320000000000
21
109.400000000000
31
0.0
0
LINE
5
5f3
100
AcDbEntity
8
0-101
6
CONTINUOUS
62
7
100
AcDbLine
10
576.220000000000
20
98.690000000000
30
0.0
11
571.420000000000
21
99.490000000000
31
0.0
0
LINE
5
5f4
100
AcDbEntity
8
0-101
6
CONTINUOUS
62
7
100
AcDbLine
10
576.220000000000
20
97.090000000000
30
0.0
11
571.420000000000
21
97.890000000000
31
0.0
0
LINE
5
5f5
100
AcDbEntity
8
0-101
6
CONTINUOUS
62
7
100
AcDbLine
10
576.220000000000
20
95.490000000000
30
0.0
11
571.420000000000
21
96.290000000000
31
0.0
0
LINE
5
5f6
100
AcDbEntity
8
0-101
6
CONTINUOUS
62
7
100
AcDbLine
10
576.220000000000
20
100.290000000000
30
0.0
11
571.420000000000
21
101.090000000000
31
0.0
0
LINE
5
5f7
100
AcDbEntity
8
0-101
6
CONTINUOUS
62
7
100
AcDbLine
10
568.820000000000
20
109.400000000000
30
0.0
11
568.820000000000
21
109.000000000000
31
0.0
0
LINE
5
5f8
100
AcDbEntity
8
0-101
6
CONTINUOUS
62
7
100
AcDbLine
10
570.820000000000
20
109.900000000000
30
0.0
11
569.320000000000
21
109.400000000000
31
0.0
0
LINE
5
5f9
100
AcDbEntity
8
0-101
6
CONTINUOUS
62
7
100
AcDbLine
10
576.220000000000
20
92.290000000000
30
0.0
11
571.420000000000
21
93.090000000000
31
0.0
0
LINE
5
5fa
100
AcDbEntity
8
0-101
6
CONTINUOUS
62
7
100
AcDbLine
10
576.220000000000
20
93.890000000000
30
0.0
11
571.420000000000
21
94.690000000000
31
0.0
0
LINE
5
5fb
100
AcDbEntity
8
0-101
6
CONTINUOUS
62
7
100
AcDbLine
10
576.220000000000
20
90.690000000000
30
0.0
11
571.420000000000
21
91.490000000000
31
0.0
0
LINE
5
5fc
100
AcDbEntity
8
0-101
6
CONTINUOUS
62
7
100
AcDbLine
10
576.220000000000
20
89.090000000000
30
0.0
11
571.420000000000
21
89.890000000000
31
0.0
0
LINE
5
5fd
100
AcDbEntity
8
0-101
6
CONTINUOUS
62
7
100
AcDbLine
10
573.820000000000
20
74.160000000000
30
0.0
11
571.820000000000
21
75.760000000000
31
0.0
0
LINE
5
5fe
100
AcDbEntity
8
0-101
6
CONTINUOUS
62
7
100
AcDbLine
10
575.820000000000
20
75.760000000000
30
0.0
11
573.820000000000
21
74.160000000000
31
0.0
0
LINE
5
5ff
100
AcDbEntity
8
0-101
6
CONTINUOUS
62
7
100
AcDbLine
10
568.820000000000
20
109.000000000000
30
0.0
11
578.820000000000
21
109.000000000000
31
0.0
0
LINE
5
600
100
AcDbEntity
8
0-101
6
CONTINUOUS
62
7
100
AcDbLine
10
576.220000000000
20
103.330000000000
30
0.0
11
571.420000000000
21
104.130000000000
31
0.0
0
LINE
5
601
100
AcDbEntity
8
0-101
6
CONTINUOUS
62
7
100
AcDbLine
10
576.220000000000
20
101.890000000000
30
0.0
11
571.420000000000
21
102.690000000000
31
0.0
0
LINE
5
602
100
AcDbEntity
8
0-101
6
CONTINUOUS
62
7
100
AcDbLine
10
576.220000000000
20
104.930000000000
30
0.0
11
571.420000000000
21
105.730000000000
31
0.0
0
LINE
5
603
100
AcDbEntity
8
0-101
6
CONTINUOUS
62
7
100
AcDbLine
10
571.820000000000
20
75.600000000000
30
0.0
11
571.820000000000
21
109.000000000000
31
0.0
0
LINE
5
604
100
AcDbEntity
8
0-101
6
CONTINUOUS
62
7
100
AcDbLine
10
575.820000000000
20
75.600000000000
30
0.0
11
575.820000000000
21
109.000000000000
31
0.0
0
LINE
5
605
100
AcDbEntity
8
0-101
6
CONTINUOUS
62
7
100
AcDbLine
10
576.220000000000
20
87.490000000000
30
0.0
11
571.420000000000
21
88.290000000000
31
0.0
0
LINE
5
606
100
AcDbEntity
8
0-101
6
CONTINUOUS
62
7
100
AcDbLine
10
576.220000000000
20
85.890000000000
30
0.0
11
571.420000000000
21
86.690000000000
31
0.0
0
LINE
5
607
100
AcDbEntity
8
0-101
6
CONTINUOUS
62
7
100
AcDbLine
10
576.220000000000
20
84.290000000000
30
0.0
11
571.420000000000
21
85.090000000000
31
0.0
0
LINE
5
608
100
AcDbEntity
8
0-101
6
CONTINUOUS
62
7
100
AcDbLine
10
576.220000000000
20
82.690000000000
30
0.0
11
571.420000000000
21
83.490000000000
31
0.0
0
LINE
5
609
100
AcDbEntity
8
0-101
6
CONTINUOUS
62
7
100
AcDbLine
10
576.220000000000
20
81.090000000000
30
0.0
11
571.420000000000
21
81.890000000000
31
0.0
0
LINE
5
60a
100
AcDbEntity
8
0-101
6
CONTINUOUS
62
7
100
AcDbLine
10
573.020000000000
20
74.960000000000
30
0.0
11
573.820000000000
21
75.760000000000
31
0.0
0
LINE
5
60b
100
AcDbEntity
8
0-101
6
CONTINUOUS
62
7
100
AcDbLine
10
573.820000000000
20
75.760000000000
30
0.0
11
573.280000000000
21
76.850000000000
31
0.0
0
LINE
5
60c
100
AcDbEntity
8
0-101
6
CONTINUOUS
62
7
100
AcDbLine
10
573.280000000000
20
76.850000000000
30
0.0
11
574.500000000000
21
77.550000000000
31
0.0
0
LINE
5
60d
100
AcDbEntity
8
0-101
6
CONTINUOUS
62
7
100
AcDbLine
10
574.500000000000
20
77.550000000000
30
0.0
11
575.820000000000
21
75.760000000000
31
0.0
0
LINE
5
60e
100
AcDbEntity
8
0-101
6
CONTINUOUS
62
7
100
AcDbLine
10
540.980000000000
20
123.940000000000
30
0.0
11
539.910000000000
21
124.480000000000
31
0.0
0
LINE
5
60f
100
AcDbEntity
8
0-101
6
CONTINUOUS
62
7
100
AcDbLine
10
576.820000000000
20
109.900000000000
30
0.0
11
586.910000000000
21
127.390000000000
31
0.0
0
LINE
5
610
100
AcDbEntity
8
0-101
6
CONTINUOUS
62
7
100
AcDbLine
10
629.120000000000
20
95.600000000000
30
0.0
11
472.350000000000
21
95.600000000000
31
0.0
0
LINE
5
611
100
AcDbEntity
8
0-101
6
CONTINUOUS
62
7
100
AcDbLine
10
606.620000000000
20
95.600000000000
30
0.0
11
616.620000000000
21
105.600000000000
31
0.0
0
LINE
5
612
100
AcDbEntity
8
0-101
6
CONTINUOUS
62
7
100
AcDbLine
10
592.480000000000
20
95.600000000000
30
0.0
11
602.480000000000
21
105.600000000000
31
0.0
0
LINE
5
613
100
AcDbEntity
8
0-101
6
CONTINUOUS
62
7
100
AcDbLine
10
578.340000000000
20
95.600000000000
30
0.0
11
588.340000000000
21
105.600000000000
31
0.0
0
LINE
5
614
100
AcDbEntity
8
0-101
6
CONTINUOUS
62
7
100
AcDbLine
10
564.190000000000
20
95.600000000000
30
0.0
11
574.190000000000
21
105.600000000000
31
0.0
0
LINE
5
615
100
AcDbEntity
8
0-101
6
CONTINUOUS
62
7
100
AcDbLine
10
550.050000000000
20
95.600000000000
30
0.0
11
560.050000000000
21
105.600000000000
31
0.0
0
LINE
5
616
100
AcDbEntity
8
0-101
6
CONTINUOUS
62
7
100
AcDbLine
10
535.910000000000
20
95.600000000000
30
0.0
11
545.910000000000
21
105.600000000000
31
0.0
0
LINE
5
617
100
AcDbEntity
8
0-101
6
CONTINUOUS
62
7
100
AcDbLine
10
521.770000000000
20
95.600000000000
30
0.0
11
531.770000000000
21
105.600000000000
31
0.0
0
LINE
5
618
100
AcDbEntity
8
0-101
6
CONTINUOUS
62
7
100
AcDbLine
10
507.620000000000
20
95.600000000000
30
0.0
11
517.620000000000
21
105.600000000000
31
0.0
0
LINE
5
619
100
AcDbEntity
8
0-101
6
CONTINUOUS
62
7
100
AcDbLine
10
493.480000000000
20
95.600000000000
30
0.0
11
503.480000000000
21
105.600000000000
31
0.0
0
LINE
5
61a
100
AcDbEntity
8
0-101
6
CONTINUOUS
62
7
100
AcDbLine
10
479.340000000000
20
95.600000000000
30
0.0
11
489.340000000000
21
105.600000000000
31
0.0
0
LINE
5
61b
100
AcDbEntity
8
0-101
6
CONTINUOUS
62
7
100
AcDbLine
10
472.350000000000
20
102.760000000000
30
0.0
11
475.200000000000
21
105.600000000000
31
0.0
0
LINE
5
61c
100
AcDbEntity
8
0-101
6
CONTINUOUS
62
7
100
AcDbLine
10
514.990000000000
20
90.210000000000
30
0.0
11
524.450000000000
21
106.600000000000
31
0.0
0
LINE
5
61d
100
AcDbEntity
8
0-101
6
CONTINUOUS
62
7
100
AcDbLine
10
604.570000000000
20
87.270000000000
30
0.0
11
599.760000000000
21
95.600000000000
31
0.0
0
LINE
5
61e
100
AcDbEntity
8
0-101
6
CONTINUOUS
62
7
100
AcDbLine
10
381.090000000000
20
172.450000000000
30
0.0
11
384.740000000000
21
168.800000000000
31
0.0
0
LINE
5
61f
100
AcDbEntity
8
0-101
6
CONTINUOUS
62
7
100
AcDbLine
10
269.380000000000
20
112.450000000000
30
0.0
11
265.740000000000
21
108.800000000000
31
0.0
0
LINE
5
620
100
AcDbEntity
8
0-101
6
CONTINUOUS
62
7
100
AcDbLine
10
355.740000000000
20
108.800000000000
30
0.0
11
365.740000000000
21
110.400000000000
31
0.0
0
LINE
5
621
100
AcDbEntity
8
0-101
6
CONTINUOUS
62
7
100
AcDbLine
10
355.550000000000
20
109.990000000000
30
0.0
11
365.550000000000
21
111.590000000000
31
0.0
0
LINE
5
622
100
AcDbEntity
8
0-101
6
CONTINUOUS
62
7
100
AcDbLine
10
355.550000000000
20
109.990000000000
30
0.0
11
355.740000000000
21
108.800000000000
31
0.0
0
LINE
5
623
100
AcDbEntity
8
0-101
6
CONTINUOUS
62
7
100
AcDbLine
10
342.740000000000
20
108.800000000000
30
0.0
11
365.740000000000
21
108.800000000000
31
0.0
0
LINE
5
624
100
AcDbEntity
8
0-101
6
CONTINUOUS
62
7
100
AcDbLine
10
341.790000000000
20
107.600000000000
30
0.0
11
365.740000000000
21
107.600000000000
31
0.0
0
LINE
5
625
100
AcDbEntity
8
0-101
6
CONTINUOUS
62
7
100
AcDbLine
10
326.140000000000
20
108.800000000000
30
0.0
11
336.740000000000
21
108.800000000000
31
0.0
0
LINE
5
626
100
AcDbEntity
8
0-101
6
CONTINUOUS
62
7
100
AcDbLine
10
326.140000000000
20
107.600000000000
30
0.0
11
337.690000000000
21
107.600000000000
31
0.0
0
LINE
5
627
100
AcDbEntity
8
0-101
6
CONTINUOUS
62
7
100
AcDbLine
10
315.340000000000
20
112.800000000000
30
0.0
11
270.230000000000
21
112.800000000000
31
0.0
0
LINE
5
628
100
AcDbEntity
8
0-101
6
CONTINUOUS
62
7
100
AcDbLine
10
266.580000000000
20
107.950000000000
30
0.0
11
270.230000000000
21
111.600000000000
31
0.0
0
LINE
5
629
100
AcDbEntity
8
0-101
6
CONTINUOUS
62
7
100
AcDbLine
10
315.340000000000
20
111.600000000000
30
0.0
11
270.230000000000
21
111.600000000000
31
0.0
0
LINE
5
62a
100
AcDbEntity
8
0-101
6
CONTINUOUS
62
7
100
AcDbLine
10
324.940000000000
20
128.400000000000
30
0.0
11
324.940000000000
21
110.000000000000
31
0.0
0
LINE
5
62b
100
AcDbEntity
8
0-101
6
CONTINUOUS
62
7
100
AcDbLine
10
323.740000000000
20
128.400000000000
30
0.0
11
323.740000000000
21
110.000000000000
31
0.0
0
LINE
5
62c
100
AcDbEntity
8
0-101
6
CONTINUOUS
62
7
100
AcDbLine
10
328.690000000000
20
131.050000000000
30
0.0
11
324.130000000000
21
152.890000000000
31
0.0
0
LINE
5
62d
100
AcDbEntity
8
0-101
6
CONTINUOUS
62
7
100
AcDbLine
10
327.510000000000
20
129.600000000000
30
0.0
11
326.140000000000
21
129.600000000000
31
0.0
0
LINE
5
62e
100
AcDbEntity
8
0-101
6
CONTINUOUS
62
7
100
AcDbLine
10
327.510000000000
20
130.800000000000
30
0.0
11
326.140000000000
21
130.800000000000
31
0.0
0
LINE
5
62f
100
AcDbEntity
8
0-101
6
CONTINUOUS
62
7
100
AcDbLine
10
327.510000000000
20
130.800000000000
30
0.0
11
322.960000000000
21
152.650000000000
31
0.0
0
LINE
5
630
100
AcDbEntity
8
0-101
6
CONTINUOUS
62
7
100
AcDbLine
10
313.960000000000
20
126.800000000000
30
0.0
11
315.340000000000
21
126.800000000000
31
0.0
0
LINE
5
631
100
AcDbEntity
8
0-101
6
CONTINUOUS
62
7
100
AcDbLine
10
313.960000000000
20
128.000000000000
30
0.0
11
315.340000000000
21
128.000000000000
31
0.0
0
LINE
5
632
100
AcDbEntity
8
0-101
6
CONTINUOUS
62
7
100
AcDbLine
10
312.790000000000
20
128.250000000000
30
0.0
11
317.340000000000
21
152.890000000000
31
0.0
0
LINE
5
633
100
AcDbEntity
8
0-101
6
CONTINUOUS
62
7
100
AcDbLine
10
313.970000000000
20
128.030000000000
30
0.0
11
318.520000000000
21
152.670000000000
31
0.0
0
LINE
5
634
100
AcDbEntity
8
0-101
6
CONTINUOUS
62
7
100
AcDbLine
10
316.540000000000
20
114.000000000000
30
0.0
11
316.540000000000
21
125.600000000000
31
0.0
0
LINE
5
635
100
AcDbEntity
8
0-101
6
CONTINUOUS
62
7
100
AcDbLine
10
317.740000000000
20
125.600000000000
30
0.0
11
317.740000000000
21
114.000000000000
31
0.0
0
LINE
5
636
100
AcDbEntity
8
0-101
6
CONTINUOUS
62
7
100
AcDbLine
10
326.250000000000
20
212.020000000000
30
0.0
11
329.970000000000
21
188.800000000000
31
0.0
0
LINE
5
637
100
AcDbEntity
8
0-101
6
CONTINUOUS
62
7
100
AcDbLine
10
327.720000000000
20
188.800000000000
30
0.0
11
329.970000000000
21
188.800000000000
31
0.0
0
LINE
5
638
100
AcDbEntity
8
0-101
6
CONTINUOUS
62
7
100
AcDbLine
10
329.970000000000
20
187.600000000000
30
0.0
11
327.720000000000
21
187.600000000000
31
0.0
0
LINE
5
639
100
AcDbEntity
8
0-101
6
CONTINUOUS
62
7
100
AcDbLine
10
331.160000000000
20
188.990000000000
30
0.0
11
327.430000000000
21
212.210000000000
31
0.0
0
LINE
5
63a
100
AcDbEntity
8
0-101
6
CONTINUOUS
62
7
100
AcDbLine
10
313.760000000000
20
186.000000000000
30
0.0
11
311.500000000000
21
186.000000000000
31
0.0
0
LINE
5
63b
100
AcDbEntity
8
0-101
6
CONTINUOUS
62
7
100
AcDbLine
10
311.500000000000
20
184.800000000000
30
0.0
11
313.760000000000
21
184.800000000000
31
0.0
0
LINE
5
63c
100
AcDbEntity
8
0-101
6
CONTINUOUS
62
7
100
AcDbLine
10
314.050000000000
20
212.290000000000
30
0.0
11
310.310000000000
21
186.170000000000
31
0.0
0
LINE
5
63d
100
AcDbEntity
8
0-101
6
CONTINUOUS
62
7
100
AcDbLine
10
315.230000000000
20
212.020000000000
30
0.0
11
311.500000000000
21
186.000000000000
31
0.0
0
LINE
5
63e
100
AcDbEntity
8
0-101
6
CONTINUOUS
62
7
100
AcDbLine
10
310.470000000000
20
175.670000000000
30
0.0
11
314.910000000000
21
184.480000000000
31
0.0
0
LINE
5
63f
100
AcDbEntity
8
0-101
6
CONTINUOUS
62
7
100
AcDbLine
10
314.730000000000
20
184.100000000000
30
0.0
11
309.280000000000
21
176.530000000000
31
0.0
0
LINE
5
640
100
AcDbEntity
8
0-101
6
CONTINUOUS
62
7
100
AcDbLine
10
313.760000000000
20
184.800000000000
30
0.0
11
308.310000000000
21
177.230000000000
31
0.0
0
LINE
5
641
100
AcDbEntity
8
0-101
6
CONTINUOUS
62
7
100
AcDbLine
10
311.510000000000
20
175.060000000000
30
0.0
11
315.980000000000
21
183.940000000000
31
0.0
0
LINE
5
642
100
AcDbEntity
8
0-101
6
CONTINUOUS
62
7
100
AcDbLine
10
331.600000000000
20
173.680000000000
30
0.0
11
327.720000000000
21
187.600000000000
31
0.0
0
LINE
5
643
100
AcDbEntity
8
0-101
6
CONTINUOUS
62
7
100
AcDbLine
10
326.560000000000
20
187.280000000000
30
0.0
11
330.450000000000
21
173.360000000000
31
0.0
0
LINE
5
644
100
AcDbEntity
8
0-101
6
CONTINUOUS
62
7
100
AcDbLine
10
332.760000000000
20
172.800000000000
30
0.0
11
380.240000000000
21
172.800000000000
31
0.0
0
LINE
5
645
100
AcDbEntity
8
0-101
6
CONTINUOUS
62
7
100
AcDbLine
10
332.760000000000
20
171.600000000000
30
0.0
11
380.240000000000
21
171.600000000000
31
0.0
0
LINE
5
646
100
AcDbEntity
8
0-101
6
CONTINUOUS
62
7
100
AcDbLine
10
383.890000000000
20
167.950000000000
30
0.0
11
380.240000000000
21
171.600000000000
31
0.0
0
LINE
5
647
100
AcDbEntity
8
0-101
6
CONTINUOUS
62
7
100
AcDbLine
10
320.740000000000
20
153.250000000000
30
0.0
11
321.920000000000
21
153.590000000000
31
0.0
0
LINE
5
648
100
AcDbEntity
8
0-101
6
CONTINUOUS
62
7
100
AcDbLine
10
320.740000000000
20
154.500000000000
30
0.0
11
321.790000000000
21
154.800000000000
31
0.0
0
LINE
5
649
100
AcDbEntity
8
0-101
6
CONTINUOUS
62
7
100
AcDbLine
10
320.740000000000
20
153.250000000000
30
0.0
11
319.550000000000
21
153.590000000000
31
0.0
0
LINE
5
64a
100
AcDbEntity
8
0-101
6
CONTINUOUS
62
7
100
AcDbLine
10
320.740000000000
20
154.500000000000
30
0.0
11
319.690000000000
21
154.800000000000
31
0.0
0
LINE
5
64b
100
AcDbEntity
8
0-101
6
CONTINUOUS
62
7
100
AcDbLine
10
247.350000000000
20
108.800000000000
30
0.0
11
265.740000000000
21
108.800000000000
31
0.0
0
LINE
5
64c
100
AcDbEntity
8
0-101
6
CONTINUOUS
62
7
100
AcDbLine
10
265.740000000000
20
107.600000000000
30
0.0
11
247.350000000000
21
107.600000000000
31
0.0
0
LINE
5
64d
100
AcDbEntity
8
0-101
6
CONTINUOUS
62
7
100
AcDbLine
10
384.740000000000
20
168.800000000000
30
0.0
11
404.120000000000
21
168.800000000000
31
0.0
0
LINE
5
64e
100
AcDbEntity
8
0-101
6
CONTINUOUS
62
7
100
AcDbLine
10
404.120000000000
20
167.600000000000
30
0.0
11
384.740000000000
21
167.600000000000
31
0.0
0
LINE
5
64f
100
AcDbEntity
8
0-101
6
CONTINUOUS
62
7
100
AcDbLine
10
404.120000000000
20
105.600000000000
30
0.0
11
247.350000000000
21
105.600000000000
31
0.0
0
LINE
5
650
100
AcDbEntity
8
0-101
6
DASHED
62
7
100
AcDbLine
10
404.120000000000
20
106.600000000000
30
0.0
11
247.350000000000
21
106.600000000000
31
0.0
0
LINE
5
651
100
AcDbEntity
8
0-101
6
CONTINUOUS
62
7
100
AcDbLine
10
343.820000000000
20
109.400000000000
30
0.0
11
353.820000000000
21
109.400000000000
31
0.0
0
LINE
5
652
100
AcDbEntity
8
0-101
6
CONTINUOUS
62
7
100
AcDbLine
10
345.820000000000
20
109.900000000000
30
0.0
11
351.820000000000
21
109.900000000000
31
0.0
0
LINE
5
653
100
AcDbEntity
8
0-101
6
CONTINUOUS
62
7
100
AcDbLine
10
353.820000000000
20
109.400000000000
30
0.0
11
353.820000000000
21
109.000000000000
31
0.0
0
LINE
5
654
100
AcDbEntity
8
0-101
6
CONTINUOUS
62
7
100
AcDbLine
10
351.820000000000
20
109.900000000000
30
0.0
11
353.320000000000
21
109.400000000000
31
0.0
0
LINE
5
655
100
AcDbEntity
8
0-101
6
CONTINUOUS
62
7
100
AcDbLine
10
351.220000000000
20
98.690000000000
30
0.0
11
346.420000000000
21
99.490000000000
31
0.0
0
LINE
5
656
100
AcDbEntity
8
0-101
6
CONTINUOUS
62
7
100
AcDbLine
10
351.220000000000
20
97.090000000000
30
0.0
11
346.420000000000
21
97.890000000000
31
0.0
0
LINE
5
657
100
AcDbEntity
8
0-101
6
CONTINUOUS
62
7
100
AcDbLine
10
351.220000000000
20
95.490000000000
30
0.0
11
346.420000000000
21
96.290000000000
31
0.0
0
LINE
5
658
100
AcDbEntity
8
0-101
6
CONTINUOUS
62
7
100
AcDbLine
10
351.220000000000
20
100.290000000000
30
0.0
11
346.420000000000
21
101.090000000000
31
0.0
0
LINE
5
659
100
AcDbEntity
8
0-101
6
CONTINUOUS
62
7
100
AcDbLine
10
343.820000000000
20
109.400000000000
30
0.0
11
343.820000000000
21
109.000000000000
31
0.0
0
LINE
5
65a
100
AcDbEntity
8
0-101
6
CONTINUOUS
62
7
100
AcDbLine
10
345.820000000000
20
109.900000000000
30
0.0
11
344.320000000000
21
109.400000000000
31
0.0
0
LINE
5
65b
100
AcDbEntity
8
0-101
6
CONTINUOUS
62
7
100
AcDbLine
10
351.220000000000
20
92.290000000000
30
0.0
11
346.420000000000
21
93.090000000000
31
0.0
0
LINE
5
65c
100
AcDbEntity
8
0-101
6
CONTINUOUS
62
7
100
AcDbLine
10
351.220000000000
20
93.890000000000
30
0.0
11
346.420000000000
21
94.690000000000
31
0.0
0
LINE
5
65d
100
AcDbEntity
8
0-101
6
CONTINUOUS
62
7
100
AcDbLine
10
351.220000000000
20
90.690000000000
30
0.0
11
346.420000000000
21
91.490000000000
31
0.0
0
LINE
5
65e
100
AcDbEntity
8
0-101
6
CONTINUOUS
62
7
100
AcDbLine
10
351.220000000000
20
89.090000000000
30
0.0
11
346.420000000000
21
89.890000000000
31
0.0
0
LINE
5
65f
100
AcDbEntity
8
0-101
6
CONTINUOUS
62
7
100
AcDbLine
10
348.820000000000
20
74.160000000000
30
0.0
11
346.820000000000
21
75.760000000000
31
0.0
0
LINE
5
660
100
AcDbEntity
8
0-101
6
CONTINUOUS
62
7
100
AcDbLine
10
350.820000000000
20
75.760000000000
30
0.0
11
348.820000000000
21
74.160000000000
31
0.0
0
LINE
5
661
100
AcDbEntity
8
0-101
6
CONTINUOUS
62
7
100
AcDbLine
10
343.820000000000
20
109.000000000000
30
0.0
11
353.820000000000
21
109.000000000000
31
0.0
0
LINE
5
662
100
AcDbEntity
8
0-101
6
CONTINUOUS
62
7
100
AcDbLine
10
351.220000000000
20
103.330000000000
30
0.0
11
346.420000000000
21
104.130000000000
31
0.0
0
LINE
5
663
100
AcDbEntity
8
0-101
6
CONTINUOUS
62
7
100
AcDbLine
10
351.220000000000
20
101.890000000000
30
0.0
11
346.420000000000
21
102.690000000000
31
0.0
0
LINE
5
664
100
AcDbEntity
8
0-101
6
CONTINUOUS
62
7
100
AcDbLine
10
351.220000000000
20
104.930000000000
30
0.0
11
346.420000000000
21
105.730000000000
31
0.0
0
LINE
5
665
100
AcDbEntity
8
0-101
6
CONTINUOUS
62
7
100
AcDbLine
10
346.820000000000
20
75.600000000000
30
0.0
11
346.820000000000
21
109.000000000000
31
0.0
0
LINE
5
666
100
AcDbEntity
8
0-101
6
CONTINUOUS
62
7
100
AcDbLine
10
350.820000000000
20
75.600000000000
30
0.0
11
350.820000000000
21
109.000000000000
31
0.0
0
LINE
5
667
100
AcDbEntity
8
0-101
6
CONTINUOUS
62
7
100
AcDbLine
10
351.220000000000
20
87.490000000000
30
0.0
11
346.420000000000
21
88.290000000000
31
0.0
0
LINE
5
668
100
AcDbEntity
8
0-101
6
CONTINUOUS
62
7
100
AcDbLine
10
351.220000000000
20
85.890000000000
30
0.0
11
346.420000000000
21
86.690000000000
31
0.0
0
LINE
5
669
100
AcDbEntity
8
0-101
6
CONTINUOUS
62
7
100
AcDbLine
10
351.220000000000
20
84.290000000000
30
0.0
11
346.420000000000
21
85.090000000000
31
0.0
0
LINE
5
66a
100
AcDbEntity
8
0-101
6
CONTINUOUS
62
7
100
AcDbLine
10
351.220000000000
20
82.690000000000
30
0.0
11
346.420000000000
21
83.490000000000
31
0.0
0
LINE
5
66b
100
AcDbEntity
8
0-101
6
CONTINUOUS
62
7
100
AcDbLine
10
351.220000000000
20
81.090000000000
30
0.0
11
346.420000000000
21
81.890000000000
31
0.0
0
LINE
5
66c
100
AcDbEntity
8
0-101
6
CONTINUOUS
62
7
100
AcDbLine
10
348.020000000000
20
74.960000000000
30
0.0
11
348.820000000000
21
75.760000000000
31
0.0
0
LINE
5
66d
100
AcDbEntity
8
0-101
6
CONTINUOUS
62
7
100
AcDbLine
10
348.820000000000
20
75.760000000000
30
0.0
11
348.280000000000
21
76.850000000000
31
0.0
0
LINE
5
66e
100
AcDbEntity
8
0-101
6
CONTINUOUS
62
7
100
AcDbLine
10
348.280000000000
20
76.850000000000
30
0.0
11
349.500000000000
21
77.550000000000
31
0.0
0
LINE
5
66f
100
AcDbEntity
8
0-101
6
CONTINUOUS
62
7
100
AcDbLine
10
349.500000000000
20
77.550000000000
30
0.0
11
350.820000000000
21
75.760000000000
31
0.0
0
LINE
5
670
100
AcDbEntity
8
0-101
6
CONTINUOUS
62
7
100
AcDbLine
10
315.980000000000
20
183.940000000000
30
0.0
11
314.910000000000
21
184.480000000000
31
0.0
0
LINE
5
671
100
AcDbEntity
8
0-101
6
CONTINUOUS
62
7
100
AcDbLine
10
351.820000000000
20
109.900000000000
30
0.0
11
361.910000000000
21
127.390000000000
31
0.0
0
LINE
5
672
100
AcDbEntity
8
0-101
6
CONTINUOUS
62
7
100
AcDbLine
10
404.120000000000
20
95.600000000000
30
0.0
11
247.350000000000
21
95.600000000000
31
0.0
0
LINE
5
673
100
AcDbEntity
8
0-101
6
CONTINUOUS
62
7
100
AcDbLine
10
381.620000000000
20
95.600000000000
30
0.0
11
391.620000000000
21
105.600000000000
31
0.0
0
LINE
5
674
100
AcDbEntity
8
0-101
6
CONTINUOUS
62
7
100
AcDbLine
10
367.480000000000
20
95.600000000000
30
0.0
11
377.480000000000
21
105.600000000000
31
0.0
0
LINE
5
675
100
AcDbEntity
8
0-101
6
CONTINUOUS
62
7
100
AcDbLine
10
353.340000000000
20
95.600000000000
30
0.0
11
363.340000000000
21
105.600000000000
31
0.0
0
LINE
5
676
100
AcDbEntity
8
0-101
6
CONTINUOUS
62
7
100
AcDbLine
10
339.190000000000
20
95.600000000000
30
0.0
11
349.190000000000
21
105.600000000000
31
0.0
0
LINE
5
677
100
AcDbEntity
8
0-101
6
CONTINUOUS
62
7
100
AcDbLine
10
325.050000000000
20
95.600000000000
30
0.0
11
335.050000000000
21
105.600000000000
31
0.0
0
LINE
5
678
100
AcDbEntity
8
0-101
6
CONTINUOUS
62
7
100
AcDbLine
10
310.910000000000
20
95.600000000000
30
0.0
11
320.910000000000
21
105.600000000000
31
0.0
0
LINE
5
679
100
AcDbEntity
8
0-101
6
CONTINUOUS
62
7
100
AcDbLine
10
296.770000000000
20
95.600000000000
30
0.0
11
306.770000000000
21
105.600000000000
31
0.0
0
LINE
5
67a
100
AcDbEntity
8
0-101
6
CONTINUOUS
62
7
100
AcDbLine
10
282.620000000000
20
95.600000000000
30
0.0
11
292.620000000000
21
105.600000000000
31
0.0
0
LINE
5
67b
100
AcDbEntity
8
0-101
6
CONTINUOUS
62
7
100
AcDbLine
10
268.480000000000
20
95.600000000000
30
0.0
11
278.480000000000
21
105.600000000000
31
0.0
0
LINE
5
67c
100
AcDbEntity
8
0-101
6
CONTINUOUS
62
7
100
AcDbLine
10
254.340000000000
20
95.600000000000
30
0.0
11
264.340000000000
21
105.600000000000
31
0.0
0
LINE
5
67d
100
AcDbEntity
8
0-101
6
CONTINUOUS
62
7
100
AcDbLine
10
247.350000000000
20
102.760000000000
30
0.0
11
250.200000000000
21
105.600000000000
31
0.0
0
LINE
5
67e
100
AcDbEntity
8
0-101
6
CONTINUOUS
62
7
100
AcDbLine
10
289.990000000000
20
90.210000000000
30
0.0
11
299.450000000000
21
106.600000000000
31
0.0
0
LINE
5
67f
100
AcDbEntity
8
0-101
6
CONTINUOUS
62
7
100
AcDbLine
10
379.570000000000
20
87.270000000000
30
0.0
11
374.760000000000
21
95.600000000000
31
0.0
0
LINE
5
680
100
AcDbEntity
8
0-101
6
CONTINUOUS
62
7
100
AcDbLine
10
395.760000000000
20
95.600000000000
30
0.0
11
404.120000000000
21
103.960000000000
31
0.0
0
LINE
5
681
100
AcDbEntity
8
0-101
6
CONTINUOUS
62
7
100
AcDbLine
10
620.760000000000
20
95.600000000000
30
0.0
11
629.120000000000
21
103.960000000000
31
0.0
0
LINE
5
682
100
AcDbEntity
8
0-101
6
CONTINUOUS
62
7
100
AcDbLine
10
293.460000000000
20
177.160000000000
30
0.0
11
293.460000000000
21
148.040000000000
31
0.0
0
LINE
5
683
100
AcDbEntity
8
0-101
6
CONTINUOUS
62
7
100
AcDbLine
10
289.460000000000
20
168.040000000000
30
0.0
11
293.460000000000
21
148.040000000000
31
0.0
0
LINE
5
684
100
AcDbEntity
8
0-101
6
CONTINUOUS
62
7
100
AcDbLine
10
293.460000000000
20
168.040000000000
30
0.0
11
289.460000000000
21
168.040000000000
31
0.0
0
LINE
5
685
100
AcDbEntity
8
0-101
6
DOT
62
7
100
AcDbLine
10
542.710000000000
20
155.170000000000
30
0.0
11
543.430000000000
21
154.450000000000
31
0.0
0
LINE
5
686
100
AcDbEntity
8
0-101
6
DOT
62
7
100
AcDbLine
10
543.650000000000
20
155.640000000000
30
0.0
11
544.500000000000
21
154.790000000000
31
0.0
0
LINE
5
687
100
AcDbEntity
8
0-101
6
CONTINUOUS
62
7
100
AcDbLine
10
311.980000000000
20
197.790000000000
30
0.0
11
301.590000000000
21
215.770000000000
31
0.0
0
LINE
5
688
100
AcDbEntity
8
0-101
6
CONTINUOUS
62
7
100
AcDbLine
10
536.980000000000
20
137.790000000000
30
0.0
11
526.590000000000
21
155.770000000000
31
0.0
0
LINE
5
689
100
AcDbEntity
8
0-101
6
CONTINUOUS
62
7
100
AcDbLine
10
334.040000000000
20
222.760000000000
30
0.0
11
326.790000000000
21
222.760000000000
31
0.0
0
LINE
5
68a
100
AcDbEntity
8
0-101
6
CONTINUOUS
62
7
100
AcDbLine
10
320.840000000000
20
212.450000000000
30
0.0
11
326.790000000000
21
222.760000000000
31
0.0
0
LINE
5
68b
100
AcDbEntity
8
0-101
6
DOT
62
7
100
AcDbLine
10
540.050000000000
20
150.760000000000
30
0.0
11
541.570000000000
21
149.240000000000
31
0.0
0
LINE
5
68c
100
AcDbEntity
8
0-101
6
DOT
62
7
100
AcDbLine
10
540.230000000000
20
152.000000000000
30
0.0
11
541.870000000000
21
150.350000000000
31
0.0
0
LINE
5
68d
100
AcDbEntity
8
0-101
6
DOT
62
7
100
AcDbLine
10
540.310000000000
20
148.990000000000
30
0.0
11
541.910000000000
21
150.590000000000
31
0.0
0
LINE
5
68e
100
AcDbEntity
8
0-101
6
DOT
62
7
100
AcDbLine
10
539.940000000000
20
150.030000000000
30
0.0
11
542.230000000000
21
152.320000000000
31
0.0
0
LINE
5
68f
100
AcDbEntity
8
0-101
6
DOT
62
7
100
AcDbLine
10
540.180000000000
20
151.680000000000
30
0.0
11
544.270000000000
21
155.780000000000
31
0.0
0
LINE
5
690
100
AcDbEntity
8
0-101
6
DOT
62
7
100
AcDbLine
10
540.650000000000
20
152.990000000000
30
0.0
11
542.090000000000
21
151.550000000000
31
0.0
0
LINE
5
691
100
AcDbEntity
8
0-101
6
DOT
62
7
100
AcDbLine
10
541.220000000000
20
153.840000000000
30
0.0
11
542.310000000000
21
152.740000000000
31
0.0
0
LINE
5
692
100
AcDbEntity
8
0-101
6
DOT
62
7
100
AcDbLine
10
541.910000000000
20
154.560000000000
30
0.0
11
542.710000000000
21
153.760000000000
31
0.0
0
LINE
5
693
100
AcDbEntity
8
0-101
6
DOT
62
7
100
AcDbLine
10
544.790000000000
20
155.920000000000
30
0.0
11
546.100000000000
21
154.610000000000
31
0.0
0
LINE
5
694
100
AcDbEntity
8
0-101
6
DOT
62
7
100
AcDbLine
10
544.710000000000
20
154.800000000000
30
0.0
11
545.910000000000
21
156.000000000000
31
0.0
0
LINE
5
695
100
AcDbEntity
8
0-101
6
DOT
62
7
100
AcDbLine
10
546.140000000000
20
155.990000000000
30
0.0
11
547.400000000000
21
154.720000000000
31
0.0
0
LINE
5
696
100
AcDbEntity
8
0-101
6
DOT
62
7
100
AcDbLine
10
545.860000000000
20
154.540000000000
30
0.0
11
547.150000000000
21
155.830000000000
31
0.0
0
LINE
5
697
100
AcDbEntity
8
0-101
6
DOT
62
7
100
AcDbLine
10
547.450000000000
20
154.710000000000
30
0.0
11
548.190000000000
21
155.460000000000
31
0.0
0
LINE
5
698
100
AcDbEntity
8
0-101
6
DOT
62
7
100
AcDbLine
10
548.360000000000
20
154.210000000000
30
0.0
11
549.090000000000
21
154.940000000000
31
0.0
0
LINE
5
699
100
AcDbEntity
8
0-101
6
DOT
62
7
100
AcDbLine
10
548.970000000000
20
153.400000000000
30
0.0
11
549.850000000000
21
154.290000000000
31
0.0
0
LINE
5
69a
100
AcDbEntity
8
0-101
6
DOT
62
7
100
AcDbLine
10
547.990000000000
20
155.540000000000
30
0.0
11
551.080000000000
21
152.460000000000
31
0.0
0
LINE
5
69b
100
AcDbEntity
8
0-101
6
DOT
62
7
100
AcDbLine
10
549.260000000000
20
152.280000000000
30
0.0
11
550.500000000000
21
153.520000000000
31
0.0
0
LINE
5
69c
100
AcDbEntity
8
0-101
6
DOT
62
7
100
AcDbLine
10
549.510000000000
20
151.110000000000
30
0.0
11
551.010000000000
21
152.620000000000
31
0.0
0
LINE
5
69d
100
AcDbEntity
8
0-101
6
DOT
62
7
100
AcDbLine
10
549.100000000000
20
153.020000000000
30
0.0
11
551.460000000000
21
150.660000000000
31
0.0
0
LINE
5
69e
100
AcDbEntity
8
0-101
6
DOT
62
7
100
AcDbLine
10
549.480000000000
20
151.230000000000
30
0.0
11
551.440000000000
21
149.270000000000
31
0.0
0
LINE
5
69f
100
AcDbEntity
8
0-101
6
DOT
62
7
100
AcDbLine
10
549.750000000000
20
149.940000000000
30
0.0
11
551.330000000000
21
151.520000000000
31
0.0
0
LINE
5
6a0
100
AcDbEntity
8
0-101
6
DOT
62
7
100
AcDbLine
10
550.270000000000
20
149.050000000000
30
0.0
11
551.540000000000
21
150.320000000000
31
0.0
0
LINE
5
6a1
100
AcDbEntity
8
0-101
6
DOT
62
7
100
AcDbLine
10
320.490000000000
20
209.630000000000
30
0.0
11
325.000000000000
21
214.140000000000
31
0.0
0
LINE
5
6a2
100
AcDbEntity
8
0-101
6
DOT
62
7
100
AcDbLine
10
322.030000000000
20
209.750000000000
30
0.0
11
325.620000000000
21
213.340000000000
31
0.0
0
LINE
5
6a3
100
AcDbEntity
8
0-101
6
DOT
62
7
100
AcDbLine
10
323.980000000000
20
210.290000000000
30
0.0
11
326.100000000000
21
212.410000000000
31
0.0
0
LINE
5
6a4
100
AcDbEntity
8
0-101
6
DOT
62
7
100
AcDbLine
10
318.110000000000
20
210.070000000000
30
0.0
11
323.390000000000
21
215.360000000000
31
0.0
0
LINE
5
6a5
100
AcDbEntity
8
0-101
6
DOT
62
7
100
AcDbLine
10
319.240000000000
20
209.790000000000
30
0.0
11
324.260000000000
21
214.810000000000
31
0.0
0
LINE
5
6a6
100
AcDbEntity
8
0-101
6
DOT
62
7
100
AcDbLine
10
317.080000000000
20
210.460000000000
30
0.0
11
322.380000000000
21
215.760000000000
31
0.0
0
LINE
5
6a7
100
AcDbEntity
8
0-101
6
DOT
62
7
100
AcDbLine
10
316.150000000000
20
210.950000000000
30
0.0
11
321.190000000000
21
215.980000000000
31
0.0
0
LINE
5
6a8
100
AcDbEntity
8
0-101
6
DOT
62
7
100
AcDbLine
10
315.300000000000
20
211.510000000000
30
0.0
11
319.700000000000
21
215.910000000000
31
0.0
0
LINE
5
6a9
100
AcDbEntity
8
0-101
6
DOT
62
7
100
AcDbLine
10
320.980000000000
20
209.630000000000
30
0.0
11
316.470000000000
21
214.140000000000
31
0.0
0
LINE
5
6aa
100
AcDbEntity
8
0-101
6
DOT
62
7
100
AcDbLine
10
319.450000000000
20
209.750000000000
30
0.0
11
315.860000000000
21
213.340000000000
31
0.0
0
LINE
5
6ab
100
AcDbEntity
8
0-101
6
DOT
62
7
100
AcDbLine
10
317.490000000000
20
210.290000000000
30
0.0
11
315.370000000000
21
212.410000000000
31
0.0
0
LINE
5
6ac
100
AcDbEntity
8
0-101
6
DOT
62
7
100
AcDbLine
10
323.370000000000
20
210.070000000000
30
0.0
11
318.080000000000
21
215.360000000000
31
0.0
0
LINE
5
6ad
100
AcDbEntity
8
0-101
6
DOT
62
7
100
AcDbLine
10
322.240000000000
20
209.790000000000
30
0.0
11
317.210000000000
21
214.810000000000
31
0.0
0
LINE
5
6ae
100
AcDbEntity
8
0-101
6
DOT
62
7
100
AcDbLine
10
324.390000000000
20
210.460000000000
30
0.0
11
319.090000000000
21
215.760000000000
31
0.0
0
LINE
5
6af
100
AcDbEntity
8
0-101
6
DOT
62
7
100
AcDbLine
10
325.320000000000
20
210.950000000000
30
0.0
11
320.280000000000
21
215.980000000000
31
0.0
0
LINE
5
6b0
100
AcDbEntity
8
0-101
6
DOT
62
7
100
AcDbLine
10
326.170000000000
20
211.510000000000
30
0.0
11
321.770000000000
21
215.910000000000
31
0.0
0
ARC
5
6b1
100
AcDbEntity
8
0-000
6
CONTINUOUS
62
7
100
AcDbCircle
10
277.250000000000
20
488.320000000000
30
0.0
40
0.399999998769
100
AcDbArc
50
270.000000000000
51
450.000000000000
0
ARC
5
6b2
100
AcDbEntity
8
0-000
6
CONTINUOUS
62
7
100
AcDbCircle
10
277.250000000000
20
488.320000000000
30
0.0
40
0.399999998769
100
AcDbArc
50
270.000000000000
51
450.000000000000
0
ARC
5
6b3
100
AcDbEntity
8
0-000
6
CONTINUOUS
62
7
100
AcDbCircle
10
277.250000000000
20
488.320000000000
30
0.0
40
0.999999984825
100
AcDbArc
50
270.000000000000
51
450.000000000000
0
ARC
5
6b4
100
AcDbEntity
8
0-000
6
CONTINUOUS
62
7
100
AcDbCircle
10
284.500000000000
20
489.320000000000
30
0.0
40
0.600000010249
100
AcDbArc
50
45.000000000000
51
90.000000000000
0
ARC
5
6b5
100
AcDbEntity
8
0-000
6
CONTINUOUS
62
7
100
AcDbCircle
10
286.750000000000
20
487.920000000000
30
0.0
40
0.600000010249
100
AcDbArc
50
225.000000000000
51
270.000000000000
0
ARC
5
6b6
100
AcDbEntity
8
0-000
6
CONTINUOUS
62
7
100
AcDbCircle
10
227.250000000000
20
487.920000000000
30
0.0
40
0.600000010249
100
AcDbArc
50
270.000000000000
51
315.000000000000
0
ARC
5
6b7
100
AcDbEntity
8
0-000
6
CONTINUOUS
62
7
100
AcDbCircle
10
264.250000000000
20
487.290000000000
30
0.0
40
1.624999975340
100
AcDbArc
50
22.620071411133
51
157.379928588867
0
ARC
5
6b8
100
AcDbEntity
8
0-000
6
CONTINUOUS
62
7
100
AcDbCircle
10
264.250000000000
20
487.290000000000
30
0.0
40
1.024999965091
100
AcDbArc
50
1.398773193359
51
178.601226806641
0
ARC
5
6b9
100
AcDbEntity
8
0-000
6
CONTINUOUS
62
7
100
AcDbCircle
10
257.450000000000
20
488.520000000000
30
0.0
40
0.600000010249
100
AcDbArc
50
180.000000000000
51
270.000000000000
0
ARC
5
6ba
100
AcDbEntity
8
0-000
6
CONTINUOUS
62
7
100
AcDbCircle
10
257.450000000000
20
488.520000000000
30
0.0
40
1.200000020498
100
AcDbArc
50
180.000000000000
51
270.000000000000
0
ARC
5
6bb
100
AcDbEntity
8
0-000
6
CONTINUOUS
62
7
100
AcDbCircle
10
252.050000000000
20
490.520000000000
30
0.0
40
0.600000010249
100
AcDbArc
50
270.000000000000
51
360.000000000000
0
ARC
5
6bc
100
AcDbEntity
8
0-000
6
CONTINUOUS
62
7
100
AcDbCircle
10
252.050000000000
20
490.520000000000
30
0.0
40
1.200000020498
100
AcDbArc
50
270.000000000000
51
360.000000000000
0
ARC
5
6bd
100
AcDbEntity
8
0-000
6
CONTINUOUS
62
7
100
AcDbCircle
10
229.500000000000
20
489.320000000000
30
0.0
40
0.600000010249
100
AcDbArc
50
90.000000000000
51
135.000000000000
0
ARC
5
6be
100
AcDbEntity
8
0-000
6
CONTINUOUS
62
7
100
AcDbCircle
10
257.450000000000
20
497.720000000000
30
0.0
40
0.600000010249
100
AcDbArc
50
90.000000000000
51
180.000000000000
0
ARC
5
6bf
100
AcDbEntity
8
0-000
6
CONTINUOUS
62
7
100
AcDbCircle
10
257.450000000000
20
497.720000000000
30
0.0
40
1.200000020498
100
AcDbArc
50
90.000000000000
51
180.000000000000
0
ARC
5
6c0
100
AcDbEntity
8
0-000
6
CONTINUOUS
62
7
100
AcDbCircle
10
258.140000000000
20
498.920000000000
30
0.0
40
0.600000010249
100
AcDbArc
50
270.000000000000
51
371.768768310547
0
ARC
5
6c1
100
AcDbEntity
8
0-000
6
CONTINUOUS
62
7
100
AcDbCircle
10
252.050000000000
20
496.320000000000
30
0.0
40
0.600000010249
100
AcDbArc
50
360.000000000000
51
450.000000000000
0
ARC
5
6c2
100
AcDbEntity
8
0-000
6
CONTINUOUS
62
7
100
AcDbCircle
10
252.050000000000
20
496.320000000000
30
0.0
40
1.200000020498
100
AcDbArc
50
360.000000000000
51
450.000000000000
0
ARC
5
6c3
100
AcDbEntity
8
0-000
6
CONTINUOUS
62
7
100
AcDbCircle
10
251.360000000000
20
497.520000000000
30
0.0
40
0.600000010249
100
AcDbArc
50
168.231231689453
51
270.000000000000
0
ARC
5
6c4
100
AcDbEntity
8
0-000
6
CONTINUOUS
62
7
100
AcDbCircle
10
254.750000000000
20
508.620000000000
30
0.0
40
2.900000033409
100
AcDbArc
50
18.233428955078
51
90.000000000000
0
ARC
5
6c5
100
AcDbEntity
8
0-000
6
CONTINUOUS
62
7
100
AcDbCircle
10
254.750000000000
20
508.620000000000
30
0.0
40
3.499999946887
100
AcDbArc
50
18.233428955078
51
90.000000000000
0
ARC
5
6c6
100
AcDbEntity
8
0-000
6
CONTINUOUS
62
7
100
AcDbCircle
10
258.240000000000
20
497.320000000000
30
0.0
40
0.600000010249
100
AcDbArc
50
90.000000000000
51
195.594772338867
0
ARC
5
6c7
100
AcDbEntity
8
0-000
6
CONTINUOUS
62
7
100
AcDbCircle
10
259.370000000000
20
497.920000000000
30
0.0
40
0.600000010249
100
AcDbArc
50
270.000000000000
51
369.117752075195
0
ARC
5
6c8
100
AcDbEntity
8
0-000
6
CONTINUOUS
62
7
100
AcDbCircle
10
251.260000000000
20
495.920000000000
30
0.0
40
0.600000010249
100
AcDbArc
50
344.405227661133
51
450.000000000000
0
ARC
5
6c9
100
AcDbEntity
8
0-000
6
CONTINUOUS
62
7
100
AcDbCircle
10
250.130000000000
20
496.520000000000
30
0.0
40
0.600000010249
100
AcDbArc
50
170.882247924805
51
270.000000000000
0
ARC
5
6ca
100
AcDbEntity
8
0-000
6
CONTINUOUS
62
7
100
AcDbCircle
10
254.750000000000
20
508.620000000000
30
0.0
40
3.499999946887
100
AcDbArc
50
90.000000000000
51
162.672897338867
0
ARC
5
6cb
100
AcDbEntity
8
0-000
6
CONTINUOUS
62
7
100
AcDbCircle
10
254.750000000000
20
508.620000000000
30
0.0
40
2.900000033409
100
AcDbArc
50
90.000000000000
51
161.765640258789
0
ARC
5
6cc
100
AcDbEntity
8
0-000
6
CONTINUOUS
62
7
100
AcDbCircle
10
249.320000000000
20
491.560000000000
30
0.0
40
0.367100025319
100
AcDbArc
50
144.269958496094
51
324.269958496094
0
ARC
5
6cd
100
AcDbEntity
8
0-000
6
CONTINUOUS
62
7
100
AcDbCircle
10
249.320000000000
20
491.560000000000
30
0.0
40
0.967100083953
100
AcDbArc
50
144.269958496094
51
327.735595703125
0
ARC
5
6ce
100
AcDbEntity
8
0-000
6
CONTINUOUS
62
7
100
AcDbCircle
10
260.760000000000
20
490.520000000000
30
0.0
40
0.600000010249
100
AcDbArc
50
195.592498779297
51
270.000000000000
0
ARC
5
6cf
100
AcDbEntity
8
0-000
6
CONTINUOUS
62
7
100
AcDbCircle
10
260.760000000000
20
490.520000000000
30
0.0
40
1.200000020498
100
AcDbArc
50
195.592498779297
51
270.000000000000
0
ARC
5
6d0
100
AcDbEntity
8
0-000
6
CONTINUOUS
62
7
100
AcDbCircle
10
610.250000000000
20
488.320000000000
30
0.0
40
0.399999998769
100
AcDbArc
50
270.000000000000
51
450.000000000000
0
ARC
5
6d1
100
AcDbEntity
8
0-000
6
CONTINUOUS
62
7
100
AcDbCircle
10
610.250000000000
20
488.320000000000
30
0.0
40
0.999999984825
100
AcDbArc
50
270.000000000000
51
450.000000000000
0
ARC
5
6d2
100
AcDbEntity
8
0-000
6
CONTINUOUS
62
7
100
AcDbCircle
10
617.500000000000
20
489.320000000000
30
0.0
40
0.600000010249
100
AcDbArc
50
45.000000000000
51
90.000000000000
0
ARC
5
6d3
100
AcDbEntity
8
0-000
6
CONTINUOUS
62
7
100
AcDbCircle
10
619.750000000000
20
487.920000000000
30
0.0
40
0.600000010249
100
AcDbArc
50
225.000000000000
51
270.000000000000
0
ARC
5
6d4
100
AcDbEntity
8
0-000
6
CONTINUOUS
62
7
100
AcDbCircle
10
560.250000000000
20
487.920000000000
30
0.0
40
0.600000010249
100
AcDbArc
50
270.000000000000
51
315.000000000000
0
ARC
5
6d5
100
AcDbEntity
8
0-000
6
CONTINUOUS
62
7
100
AcDbCircle
10
597.250000000000
20
487.290000000000
30
0.0
40
1.624999975340
100
AcDbArc
50
22.620071411133
51
157.379928588867
0
ARC
5
6d6
100
AcDbEntity
8
0-000
6
CONTINUOUS
62
7
100
AcDbCircle
10
597.250000000000
20
487.290000000000
30
0.0
40
1.024999965091
100
AcDbArc
50
1.398773193359
51
178.601226806641
0
ARC
5
6d7
100
AcDbEntity
8
0-000
6
CONTINUOUS
62
7
100
AcDbCircle
10
590.450000000000
20
488.520000000000
30
0.0
40
0.600000010249
100
AcDbArc
50
180.000000000000
51
270.000000000000
0
ARC
5
6d8
100
AcDbEntity
8
0-000
6
CONTINUOUS
62
7
100
AcDbCircle
10
590.450000000000
20
488.520000000000
30
0.0
40
1.200000020498
100
AcDbArc
50
180.000000000000
51
270.000000000000
0
ARC
5
6d9
100
AcDbEntity
8
0-000
6
CONTINUOUS
62
7
100
AcDbCircle
10
585.050000000000
20
490.520000000000
30
0.0
40
0.600000010249
100
AcDbArc
50
270.000000000000
51
360.000000000000
0
ARC
5
6da
100
AcDbEntity
8
0-000
6
CONTINUOUS
62
7
100
AcDbCircle
10
585.050000000000
20
490.520000000000
30
0.0
40
1.200000020498
100
AcDbArc
50
270.000000000000
51
360.000000000000
0
ARC
5
6db
100
AcDbEntity
8
0-000
6
CONTINUOUS
62
7
100
AcDbCircle
10
562.500000000000
20
489.320000000000
30
0.0
40
0.600000010249
100
AcDbArc
50
90.000000000000
51
135.000000000000
0
ARC
5
6dc
100
AcDbEntity
8
0-000
6
CONTINUOUS
62
7
100
AcDbCircle
10
590.450000000000
20
497.720000000000
30
0.0
40
0.600000010249
100
AcDbArc
50
90.000000000000
51
180.000000000000
0
ARC
5
6dd
100
AcDbEntity
8
0-000
6
CONTINUOUS
62
7
100
AcDbCircle
10
590.450000000000
20
497.720000000000
30
0.0
40
1.200000020498
100
AcDbArc
50
90.000000000000
51
180.000000000000
0
ARC
5
6de
100
AcDbEntity
8
0-000
6
CONTINUOUS
62
7
100
AcDbCircle
10
591.140000000000
20
498.920000000000
30
0.0
40
0.600000010249
100
AcDbArc
50
270.000000000000
51
371.768768310547
0
ARC
5
6df
100
AcDbEntity
8
0-000
6
CONTINUOUS
62
7
100
AcDbCircle
10
585.050000000000
20
496.320000000000
30
0.0
40
0.600000010249
100
AcDbArc
50
360.000000000000
51
450.000000000000
0
ARC
5
6e0
100
AcDbEntity
8
0-000
6
CONTINUOUS
62
7
100
AcDbCircle
10
585.050000000000
20
496.320000000000
30
0.0
40
1.200000020498
100
AcDbArc
50
360.000000000000
51
450.000000000000
0
ARC
5
6e1
100
AcDbEntity
8
0-000
6
CONTINUOUS
62
7
100
AcDbCircle
10
584.360000000000
20
497.520000000000
30
0.0
40
0.600000010249
100
AcDbArc
50
168.231231689453
51
270.000000000000
0
ARC
5
6e2
100
AcDbEntity
8
0-000
6
CONTINUOUS
62
7
100
AcDbCircle
10
587.750000000000
20
508.620000000000
30
0.0
40
2.900000033409
100
AcDbArc
50
18.233428955078
51
90.000000000000
0
ARC
5
6e3
100
AcDbEntity
8
0-000
6
CONTINUOUS
62
7
100
AcDbCircle
10
587.750000000000
20
508.620000000000
30
0.0
40
3.499999946887
100
AcDbArc
50
18.233428955078
51
90.000000000000
0
ARC
5
6e4
100
AcDbEntity
8
0-000
6
CONTINUOUS
62
7
100
AcDbCircle
10
591.240000000000
20
497.320000000000
30
0.0
40
0.600000010249
100
AcDbArc
50
90.000000000000
51
195.594772338867
0
ARC
5
6e5
100
AcDbEntity
8
0-000
6
CONTINUOUS
62
7
100
AcDbCircle
10
592.370000000000
20
497.920000000000
30
0.0
40
0.600000010249
100
AcDbArc
50
270.000000000000
51
369.117752075195
0
ARC
5
6e6
100
AcDbEntity
8
0-000
6
CONTINUOUS
62
7
100
AcDbCircle
10
584.260000000000
20
495.920000000000
30
0.0
40
0.600000010249
100
AcDbArc
50
344.405227661133
51
450.000000000000
0
ARC
5
6e7
100
AcDbEntity
8
0-000
6
CONTINUOUS
62
7
100
AcDbCircle
10
583.130000000000
20
496.520000000000
30
0.0
40
0.600000010249
100
AcDbArc
50
170.882247924805
51
270.000000000000
0
ARC
5
6e8
100
AcDbEntity
8
0-000
6
CONTINUOUS
62
7
100
AcDbCircle
10
587.750000000000
20
508.620000000000
30
0.0
40
3.499999946887
100
AcDbArc
50
90.000000000000
51
162.672897338867
0
ARC
5
6e9
100
AcDbEntity
8
0-000
6
CONTINUOUS
62
7
100
AcDbCircle
10
587.750000000000
20
508.620000000000
30
0.0
40
2.900000033409
100
AcDbArc
50
90.000000000000
51
161.765640258789
0
ARC
5
6ea
100
AcDbEntity
8
0-000
6
CONTINUOUS
62
7
100
AcDbCircle
10
582.320000000000
20
491.560000000000
30
0.0
40
0.367100025319
100
AcDbArc
50
144.269958496094
51
324.269958496094
0
ARC
5
6eb
100
AcDbEntity
8
0-000
6
CONTINUOUS
62
7
100
AcDbCircle
10
582.320000000000
20
491.560000000000
30
0.0
40
0.967100083953
100
AcDbArc
50
144.269958496094
51
327.735595703125
0
ARC
5
6ec
100
AcDbEntity
8
0-000
6
CONTINUOUS
62
7
100
AcDbCircle
10
593.760000000000
20
490.520000000000
30
0.0
40
0.600000010249
100
AcDbArc
50
195.592498779297
51
270.000000000000
0
ARC
5
6ed
100
AcDbEntity
8
0-000
6
CONTINUOUS
62
7
100
AcDbCircle
10
593.760000000000
20
490.520000000000
30
0.0
40
1.200000020498
100
AcDbArc
50
195.592498779297
51
270.000000000000
0
ARC
5
6ee
100
AcDbEntity
8
0-000
6
CONTINUOUS
62
7
100
AcDbCircle
10
255.270000000000
20
509.720000000000
30
0.0
40
0.600000010249
100
AcDbArc
50
11.766448974609
51
83.303985595703
0
ARC
5
6ef
100
AcDbEntity
8
0-000
6
CONTINUOUS
62
7
100
AcDbCircle
10
255.270000000000
20
509.720000000000
30
0.0
40
1.200000020498
100
AcDbArc
50
11.766448974609
51
89.996444702148
0
ARC
5
6f0
100
AcDbEntity
8
0-000
6
CONTINUOUS
62
7
100
AcDbCircle
10
588.270000000000
20
509.720000000000
30
0.0
40
1.200000020498
100
AcDbArc
50
11.766448974609
51
89.995269775391
0
ARC
5
6f1
100
AcDbEntity
8
0-000
6
CONTINUOUS
62
7
100
AcDbCircle
10
588.270000000000
20
509.720000000000
30
0.0
40
0.600000010249
100
AcDbArc
50
11.766448974609
51
83.303985595703
0
ARC
5
6f2
100
AcDbEntity
8
0-000
6
CONTINUOUS
62
7
100
AcDbCircle
10
587.220000000000
20
509.720000000000
30
0.0
40
0.600000010249
100
AcDbArc
50
96.696014404297
51
168.233551025391
0
ARC
5
6f3
100
AcDbEntity
8
0-000
6
CONTINUOUS
62
7
100
AcDbCircle
10
587.220000000000
20
509.720000000000
30
0.0
40
1.200000020498
100
AcDbArc
50
90.004730224609
51
168.233551025391
0
ARC
5
6f4
100
AcDbEntity
8
0-000
6
CONTINUOUS
62
7
100
AcDbCircle
10
254.220000000000
20
509.720000000000
30
0.0
40
0.600000010249
100
AcDbArc
50
96.698364257813
51
168.233551025391
0
ARC
5
6f5
100
AcDbEntity
8
0-000
6
CONTINUOUS
62
7
100
AcDbCircle
10
254.220000000000
20
509.720000000000
30
0.0
40
1.200000020498
100
AcDbArc
50
90.003555297852
51
168.233551025391
0
ARC
5
6f6
100
AcDbEntity
8
0-000
6
CONTINUOUS
62
3
100
AcDbCircle
10
284.500000000000
20
280.510000000000
30
0.0
40
0.600000010249
100
AcDbArc
50
45.000000000000
51
90.000000000000
0
ARC
5
6f7
100
AcDbEntity
8
0-000
6
CONTINUOUS
62
3
100
AcDbCircle
10
286.750000000000
20
279.110000000000
30
0.0
40
0.600000010249
100
AcDbArc
50
225.000000000000
51
270.000000000000
0
ARC
5
6f8
100
AcDbEntity
8
0-000
6
CONTINUOUS
62
3
100
AcDbCircle
10
254.750000000000
20
299.810000000000
30
0.0
40
2.900000033409
100
AcDbArc
50
18.233428955078
51
90.000000000000
0
ARC
5
6f9
100
AcDbEntity
8
0-000
6
CONTINUOUS
62
3
100
AcDbCircle
10
254.750000000000
20
299.810000000000
30
0.0
40
3.499999946887
100
AcDbArc
50
18.233428955078
51
90.000000000000
0
ARC
5
6fa
100
AcDbEntity
8
0-000
6
CONTINUOUS
62
3
100
AcDbCircle
10
258.240000000000
20
288.510000000000
30
0.0
40
0.600000010249
100
AcDbArc
50
90.000000000000
51
195.594772338867
0
ARC
5
6fb
100
AcDbEntity
8
0-000
6
CONTINUOUS
62
3
100
AcDbCircle
10
259.370000000000
20
289.110000000000
30
0.0
40
0.600000010249
100
AcDbArc
50
270.000000000000
51
369.117752075195
0
ARC
5
6fc
100
AcDbEntity
8
0-000
6
CONTINUOUS
62
3
100
AcDbCircle
10
251.260000000000
20
287.110000000000
30
0.0
40
0.600000010249
100
AcDbArc
50
344.405227661133
51
450.000000000000
0
ARC
5
6fd
100
AcDbEntity
8
0-000
6
CONTINUOUS
62
3
100
AcDbCircle
10
250.130000000000
20
287.710000000000
30
0.0
40
0.600000010249
100
AcDbArc
50
170.882247924805
51
270.000000000000
0
ARC
5
6fe
100
AcDbEntity
8
0-000
6
CONTINUOUS
62
3
100
AcDbCircle
10
254.750000000000
20
299.810000000000
30
0.0
40
3.499999946887
100
AcDbArc
50
90.000000000000
51
162.672897338867
0
ARC
5
6ff
100
AcDbEntity
8
0-000
6
CONTINUOUS
62
3
100
AcDbCircle
10
254.750000000000
20
299.810000000000
30
0.0
40
2.900000033409
100
AcDbArc
50
90.000000000000
51
161.765640258789
0
ARC
5
700
100
AcDbEntity
8
0-000
6
CONTINUOUS
62
3
100
AcDbCircle
10
249.320000000000
20
282.760000000000
30
0.0
40
0.367100025319
100
AcDbArc
50
144.269958496094
51
324.269958496094
0
ARC
5
701
100
AcDbEntity
8
0-000
6
CONTINUOUS
62
3
100
AcDbCircle
10
249.320000000000
20
282.760000000000
30
0.0
40
0.967100083953
100
AcDbArc
50
144.269958496094
51
327.735595703125
0
ARC
5
702
100
AcDbEntity
8
0-000
6
CONTINUOUS
62
3
100
AcDbCircle
10
260.760000000000
20
281.710000000000
30
0.0
40
0.600000010249
100
AcDbArc
50
195.592498779297
51
270.000000000000
0
ARC
5
703
100
AcDbEntity
8
0-000
6
CONTINUOUS
62
3
100
AcDbCircle
10
260.760000000000
20
281.710000000000
30
0.0
40
1.200000020498
100
AcDbArc
50
195.592498779297
51
270.000000000000
0
ARC
5
704
100
AcDbEntity
8
0-000
6
CONTINUOUS
62
3
100
AcDbCircle
10
610.250000000000
20
279.510000000000
30
0.0
40
0.399999998769
100
AcDbArc
50
270.000000000000
51
450.000000000000
0
ARC
5
705
100
AcDbEntity
8
0-000
6
CONTINUOUS
62
3
100
AcDbCircle
10
610.250000000000
20
279.510000000000
30
0.0
40
0.999999984825
100
AcDbArc
50
270.000000000000
51
450.000000000000
0
ARC
5
706
100
AcDbEntity
8
0-000
6
CONTINUOUS
62
3
100
AcDbCircle
10
560.250000000000
20
279.110000000000
30
0.0
40
0.600000010249
100
AcDbArc
50
270.000000000000
51
315.000000000000
0
ARC
5
707
100
AcDbEntity
8
0-000
6
CONTINUOUS
62
3
100
AcDbCircle
10
597.250000000000
20
278.490000000000
30
0.0
40
1.624999975340
100
AcDbArc
50
22.620071411133
51
157.379928588867
0
ARC
5
708
100
AcDbEntity
8
0-000
6
CONTINUOUS
62
3
100
AcDbCircle
10
597.250000000000
20
278.490000000000
30
0.0
40
1.024999965091
100
AcDbArc
50
1.398773193359
51
178.601226806641
0
ARC
5
709
100
AcDbEntity
8
0-000
6
CONTINUOUS
62
3
100
AcDbCircle
10
590.450000000000
20
279.710000000000
30
0.0
40
0.600000010249
100
AcDbArc
50
180.000000000000
51
270.000000000000
0
ARC
5
70a
100
AcDbEntity
8
0-000
6
CONTINUOUS
62
3
100
AcDbCircle
10
590.450000000000
20
279.710000000000
30
0.0
40
1.200000020498
100
AcDbArc
50
180.000000000000
51
270.000000000000
0
ARC
5
70b
100
AcDbEntity
8
0-000
6
CONTINUOUS
62
3
100
AcDbCircle
10
585.050000000000
20
281.710000000000
30
0.0
40
0.600000010249
100
AcDbArc
50
270.000000000000
51
360.000000000000
0
ARC
5
70c
100
AcDbEntity
8
0-000
6
CONTINUOUS
62
3
100
AcDbCircle
10
585.050000000000
20
281.710000000000
30
0.0
40
1.200000020498
100
AcDbArc
50
270.000000000000
51
360.000000000000
0
ARC
5
70d
100
AcDbEntity
8
0-000
6
CONTINUOUS
62
3
100
AcDbCircle
10
562.500000000000
20
280.510000000000
30
0.0
40
0.600000010249
100
AcDbArc
50
90.000000000000
51
135.000000000000
0
ARC
5
70e
100
AcDbEntity
8
0-000
6
CONTINUOUS
62
3
100
AcDbCircle
10
590.450000000000
20
288.910000000000
30
0.0
40
0.600000010249
100
AcDbArc
50
90.000000000000
51
180.000000000000
0
ARC
5
70f
100
AcDbEntity
8
0-000
6
CONTINUOUS
62
3
100
AcDbCircle
10
590.450000000000
20
288.910000000000
30
0.0
40
1.200000020498
100
AcDbArc
50
90.000000000000
51
180.000000000000
0
ARC
5
710
100
AcDbEntity
8
0-000
6
CONTINUOUS
62
3
100
AcDbCircle
10
591.140000000000
20
290.110000000000
30
0.0
40
0.600000010249
100
AcDbArc
50
270.000000000000
51
371.768768310547
0
ARC
5
711
100
AcDbEntity
8
0-000
6
CONTINUOUS
62
3
100
AcDbCircle
10
585.050000000000
20
287.510000000000
30
0.0
40
0.600000010249
100
AcDbArc
50
360.000000000000
51
450.000000000000
0
ARC
5
712
100
AcDbEntity
8
0-000
6
CONTINUOUS
62
3
100
AcDbCircle
10
585.050000000000
20
287.510000000000
30
0.0
40
1.200000020498
100
AcDbArc
50
360.000000000000
51
450.000000000000
0
ARC
5
713
100
AcDbEntity
8
0-000
6
CONTINUOUS
62
3
100
AcDbCircle
10
584.360000000000
20
288.710000000000
30
0.0
40
0.600000010249
100
AcDbArc
50
168.231231689453
51
270.000000000000
0
ARC
5
714
100
AcDbEntity
8
0-000
6
CONTINUOUS
62
3
100
AcDbCircle
10
588.270000000000
20
300.910000000000
30
0.0
40
1.200000020498
100
AcDbArc
50
11.766448974609
51
89.995269775391
0
ARC
5
715
100
AcDbEntity
8
0-000
6
CONTINUOUS
62
3
100
AcDbCircle
10
588.270000000000
20
300.910000000000
30
0.0
40
0.600000010249
100
AcDbArc
50
11.766448974609
51
83.303985595703
0
ARC
5
716
100
AcDbEntity
8
0-000
6
CONTINUOUS
62
3
100
AcDbCircle
10
587.220000000000
20
300.910000000000
30
0.0
40
0.600000010249
100
AcDbArc
50
96.696014404297
51
168.233551025391
0
ARC
5
717
100
AcDbEntity
8
0-000
6
CONTINUOUS
62
3
100
AcDbCircle
10
587.220000000000
20
300.910000000000
30
0.0
40
1.200000020498
100
AcDbArc
50
90.004730224609
51
168.233551025391
0
ARC
5
718
100
AcDbEntity
8
0-000
6
CONTINUOUS
62
3
100
AcDbCircle
10
284.500000000000
20
380.510000000000
30
0.0
40
0.600000010249
100
AcDbArc
50
45.000000000000
51
90.000000000000
0
ARC
5
719
100
AcDbEntity
8
0-000
6
CONTINUOUS
62
3
100
AcDbCircle
10
286.750000000000
20
379.110000000000
30
0.0
40
0.600000010249
100
AcDbArc
50
225.000000000000
51
270.000000000000
0
ARC
5
71a
100
AcDbEntity
8
0-000
6
CONTINUOUS
62
3
100
AcDbCircle
10
254.750000000000
20
399.810000000000
30
0.0
40
2.900000033409
100
AcDbArc
50
18.233428955078
51
90.000000000000
0
ARC
5
71b
100
AcDbEntity
8
0-000
6
CONTINUOUS
62
3
100
AcDbCircle
10
254.750000000000
20
399.810000000000
30
0.0
40
3.499999946887
100
AcDbArc
50
18.233428955078
51
90.000000000000
0
ARC
5
71c
100
AcDbEntity
8
0-000
6
CONTINUOUS
62
3
100
AcDbCircle
10
258.240000000000
20
388.510000000000
30
0.0
40
0.600000010249
100
AcDbArc
50
90.000000000000
51
195.594772338867
0
ARC
5
71d
100
AcDbEntity
8
0-000
6
CONTINUOUS
62
3
100
AcDbCircle
10
259.370000000000
20
389.110000000000
30
0.0
40
0.600000010249
100
AcDbArc
50
270.000000000000
51
369.117752075195
0
ARC
5
71e
100
AcDbEntity
8
0-000
6
CONTINUOUS
62
3
100
AcDbCircle
10
251.260000000000
20
387.110000000000
30
0.0
40
0.600000010249
100
AcDbArc
50
344.405227661133
51
450.000000000000
0
ARC
5
71f
100
AcDbEntity
8
0-000
6
CONTINUOUS
62
3
100
AcDbCircle
10
250.130000000000
20
387.710000000000
30
0.0
40
0.600000010249
100
AcDbArc
50
170.882247924805
51
270.000000000000
0
ARC
5
720
100
AcDbEntity
8
0-000
6
CONTINUOUS
62
3
100
AcDbCircle
10
254.750000000000
20
399.810000000000
30
0.0
40
3.499999946887
100
AcDbArc
50
90.000000000000
51
162.672897338867
0
ARC
5
721
100
AcDbEntity
8
0-000
6
CONTINUOUS
62
3
100
AcDbCircle
10
254.750000000000
20
399.810000000000
30
0.0
40
2.900000033409
100
AcDbArc
50
90.000000000000
51
161.765640258789
0
ARC
5
722
100
AcDbEntity
8
0-000
6
CONTINUOUS
62
3
100
AcDbCircle
10
249.320000000000
20
382.760000000000
30
0.0
40
0.367100025319
100
AcDbArc
50
144.269958496094
51
324.269958496094
0
ARC
5
723
100
AcDbEntity
8
0-000
6
CONTINUOUS
62
3
100
AcDbCircle
10
249.320000000000
20
382.760000000000
30
0.0
40
0.967100083953
100
AcDbArc
50
144.269958496094
51
327.735595703125
0
ARC
5
724
100
AcDbEntity
8
0-000
6
CONTINUOUS
62
3
100
AcDbCircle
10
260.760000000000
20
381.710000000000
30
0.0
40
0.600000010249
100
AcDbArc
50
195.592498779297
51
270.000000000000
0
ARC
5
725
100
AcDbEntity
8
0-000
6
CONTINUOUS
62
3
100
AcDbCircle
10
260.760000000000
20
381.710000000000
30
0.0
40
1.200000020498
100
AcDbArc
50
195.592498779297
51
270.000000000000
0
ARC
5
726
100
AcDbEntity
8
0-000
6
CONTINUOUS
62
3
100
AcDbCircle
10
610.250000000000
20
379.510000000000
30
0.0
40
0.399999998769
100
AcDbArc
50
270.000000000000
51
450.000000000000
0
ARC
5
727
100
AcDbEntity
8
0-000
6
CONTINUOUS
62
3
100
AcDbCircle
10
610.250000000000
20
379.510000000000
30
0.0
40
0.999999984825
100
AcDbArc
50
270.000000000000
51
450.000000000000
0
ARC
5
728
100
AcDbEntity
8
0-000
6
CONTINUOUS
62
3
100
AcDbCircle
10
560.250000000000
20
379.110000000000
30
0.0
40
0.600000010249
100
AcDbArc
50
270.000000000000
51
315.000000000000
0
ARC
5
729
100
AcDbEntity
8
0-000
6
CONTINUOUS
62
3
100
AcDbCircle
10
597.250000000000
20
378.490000000000
30
0.0
40
1.624999975340
100
AcDbArc
50
22.620071411133
51
157.379928588867
0
ARC
5
72a
100
AcDbEntity
8
0-000
6
CONTINUOUS
62
3
100
AcDbCircle
10
597.250000000000
20
378.490000000000
30
0.0
40
1.024999965091
100
AcDbArc
50
1.398773193359
51
178.601226806641
0
ARC
5
72b
100
AcDbEntity
8
0-000
6
CONTINUOUS
62
3
100
AcDbCircle
10
590.450000000000
20
379.710000000000
30
0.0
40
0.600000010249
100
AcDbArc
50
180.000000000000
51
270.000000000000
0
ARC
5
72c
100
AcDbEntity
8
0-000
6
CONTINUOUS
62
3
100
AcDbCircle
10
590.450000000000
20
379.710000000000
30
0.0
40
1.200000020498
100
AcDbArc
50
180.000000000000
51
270.000000000000
0
ARC
5
72d
100
AcDbEntity
8
0-000
6
CONTINUOUS
62
3
100
AcDbCircle
10
585.050000000000
20
381.710000000000
30
0.0
40
0.600000010249
100
AcDbArc
50
270.000000000000
51
360.000000000000
0
ARC
5
72e
100
AcDbEntity
8
0-000
6
CONTINUOUS
62
3
100
AcDbCircle
10
585.050000000000
20
381.710000000000
30
0.0
40
1.200000020498
100
AcDbArc
50
270.000000000000
51
360.000000000000
0
ARC
5
72f
100
AcDbEntity
8
0-000
6
CONTINUOUS
62
3
100
AcDbCircle
10
562.500000000000
20
380.510000000000
30
0.0
40
0.600000010249
100
AcDbArc
50
90.000000000000
51
135.000000000000
0
ARC
5
730
100
AcDbEntity
8
0-000
6
CONTINUOUS
62
3
100
AcDbCircle
10
590.450000000000
20
388.910000000000
30
0.0
40
0.600000010249
100
AcDbArc
50
90.000000000000
51
180.000000000000
0
ARC
5
731
100
AcDbEntity
8
0-000
6
CONTINUOUS
62
3
100
AcDbCircle
10
590.450000000000
20
388.910000000000
30
0.0
40
1.200000020498
100
AcDbArc
50
90.000000000000
51
180.000000000000
0
ARC
5
732
100
AcDbEntity
8
0-000
6
CONTINUOUS
62
3
100
AcDbCircle
10
591.140000000000
20
390.110000000000
30
0.0
40
0.600000010249
100
AcDbArc
50
270.000000000000
51
371.768768310547
0
ARC
5
733
100
AcDbEntity
8
0-000
6
CONTINUOUS
62
3
100
AcDbCircle
10
585.050000000000
20
387.510000000000
30
0.0
40
0.600000010249
100
AcDbArc
50
360.000000000000
51
450.000000000000
0
ARC
5
734
100
AcDbEntity
8
0-000
6
CONTINUOUS
62
3
100
AcDbCircle
10
585.050000000000
20
387.510000000000
30
0.0
40
1.200000020498
100
AcDbArc
50
360.000000000000
51
450.000000000000
0
ARC
5
735
100
AcDbEntity
8
0-000
6
CONTINUOUS
62
3
100
AcDbCircle
10
584.360000000000
20
388.710000000000
30
0.0
40
0.600000010249
100
AcDbArc
50
168.231231689453
51
270.000000000000
0
ARC
5
736
100
AcDbEntity
8
0-000
6
CONTINUOUS
62
3
100
AcDbCircle
10
588.270000000000
20
400.910000000000
30
0.0
40
1.200000020498
100
AcDbArc
50
11.766448974609
51
89.995269775391
0
ARC
5
737
100
AcDbEntity
8
0-000
6
CONTINUOUS
62
3
100
AcDbCircle
10
588.270000000000
20
400.910000000000
30
0.0
40
0.600000010249
100
AcDbArc
50
11.766448974609
51
83.303985595703
0
ARC
5
738
100
AcDbEntity
8
0-000
6
CONTINUOUS
62
3
100
AcDbCircle
10
587.220000000000
20
400.910000000000
30
0.0
40
0.600000010249
100
AcDbArc
50
96.696014404297
51
168.233551025391
0
ARC
5
739
100
AcDbEntity
8
0-000
6
CONTINUOUS
62
3
100
AcDbCircle
10
587.220000000000
20
400.910000000000
30
0.0
40
1.200000020498
100
AcDbArc
50
90.004730224609
51
168.233551025391
0
ARC
5
73a
100
AcDbEntity
8
0-000
6
CONTINUOUS
62
3
100
AcDbCircle
10
462.950000000000
20
273.860000000000
30
0.0
40
6.649999976502
100
AcDbArc
50
44.367141723633
51
135.632858276367
0
ARC
5
73b
100
AcDbEntity
8
0-000
6
CONTINUOUS
62
3
100
AcDbCircle
10
462.950000000000
20
273.860000000000
30
0.0
40
7.250000277065
100
AcDbArc
50
46.397247314453
51
133.602752685547
0
ARC
5
73c
100
AcDbEntity
8
0-000
6
CONTINUOUS
62
3
100
AcDbCircle
10
421.250000000000
20
273.860000000000
30
0.0
40
7.250000277065
100
AcDbArc
50
46.397384643555
51
133.602615356445
0
ARC
5
73d
100
AcDbEntity
8
0-000
6
CONTINUOUS
62
3
100
AcDbCircle
10
421.250000000000
20
273.860000000000
30
0.0
40
6.649999976502
100
AcDbArc
50
44.366989135742
51
135.633010864258
0
ARC
5
73e
100
AcDbEntity
8
0-000
6
CONTINUOUS
62
3
100
AcDbCircle
10
296.150000000000
20
273.860000000000
30
0.0
40
6.649999976502
100
AcDbArc
50
44.366989135742
51
135.633010864258
0
ARC
5
73f
100
AcDbEntity
8
0-000
6
CONTINUOUS
62
3
100
AcDbCircle
10
296.150000000000
20
273.860000000000
30
0.0
40
7.250000277065
100
AcDbArc
50
46.397384643555
51
133.602615356445
0
ARC
5
740
100
AcDbEntity
8
0-000
6
CONTINUOUS
62
3
100
AcDbCircle
10
273.750000000000
20
275.860000000000
30
0.0
40
6.649999976502
100
AcDbArc
50
44.366989135742
51
135.633010864258
0
ARC
5
741
100
AcDbEntity
8
0-000
6
CONTINUOUS
62
3
100
AcDbCircle
10
273.750000000000
20
275.860000000000
30
0.0
40
7.250000277065
100
AcDbArc
50
46.397674560547
51
133.602325439453
0
ARC
5
742
100
AcDbEntity
8
0-000
6
CONTINUOUS
62
3
100
AcDbCircle
10
337.850000000000
20
273.860000000000
30
0.0
40
6.649999976502
100
AcDbArc
50
44.366989135742
51
135.633010864258
0
ARC
5
743
100
AcDbEntity
8
0-000
6
CONTINUOUS
62
3
100
AcDbCircle
10
337.850000000000
20
273.860000000000
30
0.0
40
7.250000277065
100
AcDbArc
50
46.397384643555
51
133.602615356445
0
ARC
5
744
100
AcDbEntity
8
0-000
6
CONTINUOUS
62
3
100
AcDbCircle
10
379.550000000000
20
273.860000000000
30
0.0
40
6.649999976502
100
AcDbArc
50
44.366989135742
51
135.633010864258
0
ARC
5
745
100
AcDbEntity
8
0-000
6
CONTINUOUS
62
3
100
AcDbCircle
10
379.550000000000
20
273.860000000000
30
0.0
40
7.250000277065
100
AcDbArc
50
46.397384643555
51
133.602615356445
0
ARC
5
746
100
AcDbEntity
8
0-000
6
CONTINUOUS
62
3
100
AcDbCircle
10
504.650000000000
20
273.860000000000
30
0.0
40
6.649999976502
100
AcDbArc
50
44.367141723633
51
135.632858276367
0
ARC
5
747
100
AcDbEntity
8
0-000
6
CONTINUOUS
62
3
100
AcDbCircle
10
504.650000000000
20
273.860000000000
30
0.0
40
7.250000277065
100
AcDbArc
50
46.397247314453
51
133.602752685547
0
ARC
5
748
100
AcDbEntity
8
0-000
6
CONTINUOUS
62
3
100
AcDbCircle
10
546.350000000000
20
273.860000000000
30
0.0
40
6.649999976502
100
AcDbArc
50
44.367141723633
51
135.632858276367
0
ARC
5
749
100
AcDbEntity
8
0-000
6
CONTINUOUS
62
3
100
AcDbCircle
10
546.350000000000
20
273.860000000000
30
0.0
40
7.250000277065
100
AcDbArc
50
46.397247314453
51
133.602752685547
0
ARC
5
74a
100
AcDbEntity
8
0-000
6
CONTINUOUS
62
3
100
AcDbCircle
10
572.950000000000
20
275.860000000000
30
0.0
40
6.649999976502
100
AcDbArc
50
44.367141723633
51
135.632858276367
0
ARC
5
74b
100
AcDbEntity
8
0-000
6
CONTINUOUS
62
3
100
AcDbCircle
10
572.950000000000
20
275.860000000000
30
0.0
40
7.250000277065
100
AcDbArc
50
46.397674560547
51
133.602325439453
0
CIRCLE
5
74c
100
AcDbEntity
8
F-7
6
CONTINUOUS
62
3
100
AcDbCircle
10
39.860000000000
20
33.550000000000
30
0.0
40
5.656899781463
0
CIRCLE
5
74d
100
AcDbEntity
8
F-7
6
CONTINUOUS
62
3
100
AcDbCircle
10
39.860000000000
20
33.550000000000
30
0.0
40
6.456899924157
0
CIRCLE
5
74e
100
AcDbEntity
8
F-7
6
CONTINUOUS
62
4
100
AcDbCircle
10
39.860000000000
20
33.550000000000
30
0.0
40
5.736899795732
0
CIRCLE
5
74f
100
AcDbEntity
8
F-7
6
CONTINUOUS
62
4
100
AcDbCircle
10
39.860000000000
20
33.550000000000
30
0.0
40
5.896900211356
0
CIRCLE
5
750
100
AcDbEntity
8
F-7
6
CONTINUOUS
62
4
100
AcDbCircle
10
39.860000000000
20
33.550000000000
30
0.0
40
6.056900239895
0
CIRCLE
5
751
100
AcDbEntity
8
F-7
6
CONTINUOUS
62
4
100
AcDbCircle
10
39.860000000000
20
33.550000000000
30
0.0
40
6.216900268434
0
CIRCLE
5
752
100
AcDbEntity
8
F-7
6
CONTINUOUS
62
4
100
AcDbCircle
10
39.860000000000
20
33.550000000000
30
0.0
40
6.376899909887
0
ARC
5
753
100
AcDbEntity
8
0-101
6
CONTINUOUS
62
7
100
AcDbCircle
10
590.740000000000
20
109.600000000000
30
0.0
40
0.800022400080
100
AcDbArc
50
270.000000000000
51
450.000000000000
0
ARC
5
754
100
AcDbEntity
8
0-101
6
CONTINUOUS
62
7
100
AcDbCircle
10
590.740000000000
20
109.600000000000
30
0.0
40
2.000006356552
100
AcDbArc
50
270.000000000000
51
450.000000000000
0
ARC
5
755
100
AcDbEntity
8
0-101
6
CONTINUOUS
62
7
100
AcDbCircle
10
605.240000000000
20
111.600000000000
30
0.0
40
1.200000020498
100
AcDbArc
50
45.000000000000
51
90.000000000000
0
ARC
5
756
100
AcDbEntity
8
0-101
6
CONTINUOUS
62
7
100
AcDbCircle
10
609.740000000000
20
108.800000000000
30
0.0
40
1.200000020498
100
AcDbArc
50
225.000000000000
51
270.000000000000
0
ARC
5
757
100
AcDbEntity
8
0-101
6
CONTINUOUS
62
7
100
AcDbCircle
10
490.740000000000
20
108.800000000000
30
0.0
40
1.200000020498
100
AcDbArc
50
270.000000000000
51
315.000000000000
0
ARC
5
758
100
AcDbEntity
8
0-101
6
CONTINUOUS
62
7
100
AcDbCircle
10
564.740000000000
20
107.550000000000
30
0.0
40
3.250015046995
100
AcDbArc
50
22.620071411133
51
157.379928588867
0
ARC
5
759
100
AcDbEntity
8
0-101
6
CONTINUOUS
62
7
100
AcDbCircle
10
564.740000000000
20
107.550000000000
30
0.0
40
2.050015026497
100
AcDbArc
50
1.398773193359
51
178.601226806641
0
ARC
5
75a
100
AcDbEntity
8
0-101
6
CONTINUOUS
62
7
100
AcDbCircle
10
551.140000000000
20
110.000000000000
30
0.0
40
1.200000020498
100
AcDbArc
50
180.000000000000
51
270.000000000000
0
ARC
5
75b
100
AcDbEntity
8
0-101
6
CONTINUOUS
62
7
100
AcDbCircle
10
551.140000000000
20
110.000000000000
30
0.0
40
2.400000040997
100
AcDbArc
50
180.000000000000
51
270.000000000000
0
ARC
5
75c
100
AcDbEntity
8
0-101
6
CONTINUOUS
62
7
100
AcDbCircle
10
540.340000000000
20
114.000000000000
30
0.0
40
1.200000020498
100
AcDbArc
50
270.000000000000
51
0.000000000000
0
ARC
5
75d
100
AcDbEntity
8
0-101
6
CONTINUOUS
62
7
100
AcDbCircle
10
540.340000000000
20
114.000000000000
30
0.0
40
2.400000040997
100
AcDbArc
50
270.000000000000
51
0.000000000000
0
ARC
5
75e
100
AcDbEntity
8
0-101
6
CONTINUOUS
62
7
100
AcDbCircle
10
495.230000000000
20
111.600000000000
30
0.0
40
1.200000020498
100
AcDbArc
50
90.000000000000
51
135.000000000000
0
ARC
5
75f
100
AcDbEntity
8
0-101
6
CONTINUOUS
62
7
100
AcDbCircle
10
551.140000000000
20
128.400000000000
30
0.0
40
1.200000020498
100
AcDbArc
50
90.000000000000
51
180.000000000000
0
ARC
5
760
100
AcDbEntity
8
0-101
6
CONTINUOUS
62
7
100
AcDbCircle
10
551.140000000000
20
128.400000000000
30
0.0
40
2.400000040997
100
AcDbArc
50
90.000000000000
51
180.000000000000
0
ARC
5
761
100
AcDbEntity
8
0-101
6
CONTINUOUS
62
7
100
AcDbCircle
10
552.510000000000
20
130.800000000000
30
0.0
40
1.200000020498
100
AcDbArc
50
270.000000000000
51
11.768768310547
0
ARC
5
762
100
AcDbEntity
8
0-101
6
CONTINUOUS
62
7
100
AcDbCircle
10
540.340000000000
20
125.600000000000
30
0.0
40
1.200000020498
100
AcDbArc
50
360.000000000000
51
450.000000000000
0
ARC
5
763
100
AcDbEntity
8
0-101
6
CONTINUOUS
62
7
100
AcDbCircle
10
540.340000000000
20
125.600000000000
30
0.0
40
2.400000040997
100
AcDbArc
50
360.000000000000
51
450.000000000000
0
ARC
5
764
100
AcDbEntity
8
0-101
6
CONTINUOUS
62
7
100
AcDbCircle
10
538.960000000000
20
128.000000000000
30
0.0
40
1.200000020498
100
AcDbArc
50
168.231231689453
51
-90.000000000000
0
ARC
5
765
100
AcDbEntity
8
0-101
6
CONTINUOUS
62
7
100
AcDbCircle
10
545.740000000000
20
150.200000000000
30
0.0
40
5.800006647263
100
AcDbArc
50
18.233428955078
51
90.000000000000
0
ARC
5
766
100
AcDbEntity
8
0-101
6
CONTINUOUS
62
7
100
AcDbCircle
10
545.740000000000
20
150.200000000000
30
0.0
40
7.000006861304
100
AcDbArc
50
18.233428955078
51
90.000000000000
0
ARC
5
767
100
AcDbEntity
8
0-101
6
CONTINUOUS
62
7
100
AcDbCircle
10
552.720000000000
20
127.600000000000
30
0.0
40
1.200000020498
100
AcDbArc
50
90.000000000000
51
195.594772338867
0
ARC
5
768
100
AcDbEntity
8
0-101
6
CONTINUOUS
62
7
100
AcDbCircle
10
554.970000000000
20
128.800000000000
30
0.0
40
1.200000020498
100
AcDbArc
50
270.000000000000
51
9.117752075195
0
ARC
5
769
100
AcDbEntity
8
0-101
6
CONTINUOUS
62
7
100
AcDbCircle
10
538.760000000000
20
124.800000000000
30
0.0
40
1.200000020498
100
AcDbArc
50
344.405227661133
51
450.000000000000
0
ARC
5
76a
100
AcDbEntity
8
0-101
6
CONTINUOUS
62
7
100
AcDbCircle
10
536.500000000000
20
126.000000000000
30
0.0
40
1.200000020498
100
AcDbArc
50
170.882247924805
51
-90.000000000000
0
ARC
5
76b
100
AcDbEntity
8
0-101
6
CONTINUOUS
62
7
100
AcDbCircle
10
545.740000000000
20
150.200000000000
30
0.0
40
7.000006861304
100
AcDbArc
50
90.000000000000
51
162.672897338867
0
ARC
5
76c
100
AcDbEntity
8
0-101
6
CONTINUOUS
62
7
100
AcDbCircle
10
545.740000000000
20
150.200000000000
30
0.0
40
5.800006647263
100
AcDbArc
50
90.000000000000
51
161.765640258789
0
ARC
5
76d
100
AcDbEntity
8
0-101
6
CONTINUOUS
62
7
100
AcDbCircle
10
534.880000000000
20
116.100000000000
30
0.0
40
0.734251629711
100
AcDbArc
50
144.269958496094
51
324.269958496094
0
ARC
5
76e
100
AcDbEntity
8
0-101
6
CONTINUOUS
62
7
100
AcDbCircle
10
534.880000000000
20
116.100000000000
30
0.0
40
1.934251650209
100
AcDbArc
50
144.269958496094
51
327.735595703125
0
ARC
5
76f
100
AcDbEntity
8
0-101
6
CONTINUOUS
62
7
100
AcDbCircle
10
557.760000000000
20
114.000000000000
30
0.0
40
1.200000020498
100
AcDbArc
50
195.592498779297
51
270.000000000000
0
ARC
5
770
100
AcDbEntity
8
0-101
6
CONTINUOUS
62
7
100
AcDbCircle
10
557.760000000000
20
114.000000000000
30
0.0
40
2.400000040997
100
AcDbArc
50
195.592498779297
51
270.000000000000
0
ARC
5
771
100
AcDbEntity
8
0-101
6
CONTINUOUS
62
7
100
AcDbCircle
10
546.780000000000
20
152.400000000000
30
0.0
40
1.200000020498
100
AcDbArc
50
11.766448974609
51
83.303985595703
0
ARC
5
772
100
AcDbEntity
8
0-101
6
CONTINUOUS
62
7
100
AcDbCircle
10
546.780000000000
20
152.400000000000
30
0.0
40
2.400000040997
100
AcDbArc
50
11.766448974609
51
89.996444702148
0
ARC
5
773
100
AcDbEntity
8
0-101
6
CONTINUOUS
62
7
100
AcDbCircle
10
544.690000000000
20
152.400000000000
30
0.0
40
1.200000020498
100
AcDbArc
50
96.698364257813
51
168.233551025391
0
ARC
5
774
100
AcDbEntity
8
0-101
6
CONTINUOUS
62
7
100
AcDbCircle
10
544.690000000000
20
152.400000000000
30
0.0
40
2.400000040997
100
AcDbArc
50
90.003555297852
51
168.233551025391
0
ARC
5
775
100
AcDbEntity
8
0-101
6
CONTINUOUS
62
7
100
AcDbCircle
10
573.820000000000
20
106.700000000000
30
0.0
40
4.390853966716
100
AcDbArc
50
46.905136108398
51
133.094863891602
0
ARC
5
776
100
AcDbEntity
8
0-101
6
CONTINUOUS
62
7
100
AcDbCircle
10
365.740000000000
20
109.600000000000
30
0.0
40
0.800022400080
100
AcDbArc
50
270.000000000000
51
450.000000000000
0
ARC
5
777
100
AcDbEntity
8
0-101
6
CONTINUOUS
62
7
100
AcDbCircle
10
365.740000000000
20
109.600000000000
30
0.0
40
2.000006356552
100
AcDbArc
50
270.000000000000
51
450.000000000000
0
ARC
5
778
100
AcDbEntity
8
0-101
6
CONTINUOUS
62
7
100
AcDbCircle
10
380.240000000000
20
171.600000000000
30
0.0
40
1.200000020498
100
AcDbArc
50
45.000000000000
51
90.000000000000
0
ARC
5
779
100
AcDbEntity
8
0-101
6
CONTINUOUS
62
7
100
AcDbCircle
10
384.740000000000
20
168.800000000000
30
0.0
40
1.200000020498
100
AcDbArc
50
225.000000000000
51
270.000000000000
0
ARC
5
77a
100
AcDbEntity
8
0-101
6
CONTINUOUS
62
7
100
AcDbCircle
10
265.740000000000
20
108.800000000000
30
0.0
40
1.200000020498
100
AcDbArc
50
270.000000000000
51
315.000000000000
0
ARC
5
77b
100
AcDbEntity
8
0-101
6
CONTINUOUS
62
7
100
AcDbCircle
10
339.740000000000
20
107.550000000000
30
0.0
40
3.250015046995
100
AcDbArc
50
22.620071411133
51
157.379928588867
0
ARC
5
77c
100
AcDbEntity
8
0-101
6
CONTINUOUS
62
7
100
AcDbCircle
10
339.740000000000
20
107.550000000000
30
0.0
40
2.050015026497
100
AcDbArc
50
1.398773193359
51
178.601226806641
0
ARC
5
77d
100
AcDbEntity
8
0-101
6
CONTINUOUS
62
7
100
AcDbCircle
10
326.140000000000
20
110.000000000000
30
0.0
40
1.200000020498
100
AcDbArc
50
180.000000000000
51
270.000000000000
0
ARC
5
77e
100
AcDbEntity
8
0-101
6
CONTINUOUS
62
7
100
AcDbCircle
10
326.140000000000
20
110.000000000000
30
0.0
40
2.400000040997
100
AcDbArc
50
180.000000000000
51
270.000000000000
0
ARC
5
77f
100
AcDbEntity
8
0-101
6
CONTINUOUS
62
7
100
AcDbCircle
10
315.340000000000
20
114.000000000000
30
0.0
40
1.200000020498
100
AcDbArc
50
270.000000000000
51
0.000000000000
0
ARC
5
780
100
AcDbEntity
8
0-101
6
CONTINUOUS
62
7
100
AcDbCircle
10
315.340000000000
20
114.000000000000
30
0.0
40
2.400000040997
100
AcDbArc
50
270.000000000000
51
0.000000000000
0
ARC
5
781
100
AcDbEntity
8
0-101
6
CONTINUOUS
62
7
100
AcDbCircle
10
270.230000000000
20
111.600000000000
30
0.0
40
1.200000020498
100
AcDbArc
50
90.000000000000
51
135.000000000000
0
ARC
5
782
100
AcDbEntity
8
0-101
6
CONTINUOUS
62
7
100
AcDbCircle
10
326.140000000000
20
128.400000000000
30
0.0
40
1.200000020498
100
AcDbArc
50
90.000000000000
51
180.000000000000
0
ARC
5
783
100
AcDbEntity
8
0-101
6
CONTINUOUS
62
7
100
AcDbCircle
10
326.140000000000
20
128.400000000000
30
0.0
40
2.400000040997
100
AcDbArc
50
90.000000000000
51
180.000000000000
0
ARC
5
784
100
AcDbEntity
8
0-101
6
CONTINUOUS
62
7
100
AcDbCircle
10
327.510000000000
20
130.800000000000
30
0.0
40
1.200000020498
100
AcDbArc
50
270.000000000000
51
11.768768310547
0
ARC
5
785
100
AcDbEntity
8
0-101
6
CONTINUOUS
62
7
100
AcDbCircle
10
315.340000000000
20
125.600000000000
30
0.0
40
1.200000020498
100
AcDbArc
50
360.000000000000
51
450.000000000000
0
ARC
5
786
100
AcDbEntity
8
0-101
6
CONTINUOUS
62
7
100
AcDbCircle
10
315.340000000000
20
125.600000000000
30
0.0
40
2.400000040997
100
AcDbArc
50
360.000000000000
51
450.000000000000
0
ARC
5
787
100
AcDbEntity
8
0-101
6
CONTINUOUS
62
7
100
AcDbCircle
10
313.960000000000
20
128.000000000000
30
0.0
40
1.200000020498
100
AcDbArc
50
168.231231689453
51
-90.000000000000
0
ARC
5
788
100
AcDbEntity
8
0-101
6
CONTINUOUS
62
7
100
AcDbCircle
10
320.740000000000
20
210.200000000000
30
0.0
40
7.000006861304
100
AcDbArc
50
18.233428955078
51
90.000000000000
0
ARC
5
789
100
AcDbEntity
8
0-101
6
CONTINUOUS
62
7
100
AcDbCircle
10
327.720000000000
20
187.600000000000
30
0.0
40
1.200000020498
100
AcDbArc
50
90.000000000000
51
195.594772338867
0
ARC
5
78a
100
AcDbEntity
8
0-101
6
CONTINUOUS
62
7
100
AcDbCircle
10
329.970000000000
20
188.800000000000
30
0.0
40
1.200000020498
100
AcDbArc
50
270.000000000000
51
9.117752075195
0
ARC
5
78b
100
AcDbEntity
8
0-101
6
CONTINUOUS
62
7
100
AcDbCircle
10
313.760000000000
20
184.800000000000
30
0.0
40
1.200000020498
100
AcDbArc
50
344.405227661133
51
450.000000000000
0
ARC
5
78c
100
AcDbEntity
8
0-101
6
CONTINUOUS
62
7
100
AcDbCircle
10
311.500000000000
20
186.000000000000
30
0.0
40
1.200000020498
100
AcDbArc
50
170.882247924805
51
-90.000000000000
0
ARC
5
78d
100
AcDbEntity
8
0-101
6
CONTINUOUS
62
7
100
AcDbCircle
10
320.740000000000
20
210.200000000000
30
0.0
40
7.000006861304
100
AcDbArc
50
90.000000000000
51
162.672897338867
0
ARC
5
78e
100
AcDbEntity
8
0-101
6
CONTINUOUS
62
7
100
AcDbCircle
10
320.740000000000
20
210.200000000000
30
0.0
40
5.800006647263
100
AcDbArc
50
90.000000000000
51
161.765640258789
0
ARC
5
78f
100
AcDbEntity
8
0-101
6
CONTINUOUS
62
7
100
AcDbCircle
10
309.880000000000
20
176.100000000000
30
0.0
40
0.734251629711
100
AcDbArc
50
144.269958496094
51
324.269958496094
0
ARC
5
790
100
AcDbEntity
8
0-101
6
CONTINUOUS
62
7
100
AcDbCircle
10
309.880000000000
20
176.100000000000
30
0.0
40
1.934251650209
100
AcDbArc
50
144.269958496094
51
327.735595703125
0
ARC
5
791
100
AcDbEntity
8
0-101
6
CONTINUOUS
62
7
100
AcDbCircle
10
332.760000000000
20
174.000000000000
30
0.0
40
1.200000020498
100
AcDbArc
50
195.592498779297
51
270.000000000000
0
ARC
5
792
100
AcDbEntity
8
0-101
6
CONTINUOUS
62
7
100
AcDbCircle
10
332.760000000000
20
174.000000000000
30
0.0
40
2.400000040997
100
AcDbArc
50
195.592498779297
51
270.000000000000
0
ARC
5
793
100
AcDbEntity
8
0-101
6
CONTINUOUS
62
7
100
AcDbCircle
10
321.780000000000
20
152.400000000000
30
0.0
40
1.200000020498
100
AcDbArc
50
11.766448974609
51
83.303985595703
0
ARC
5
794
100
AcDbEntity
8
0-101
6
CONTINUOUS
62
7
100
AcDbCircle
10
321.780000000000
20
152.400000000000
30
0.0
40
2.400000040997
100
AcDbArc
50
11.766448974609
51
89.996444702148
0
ARC
5
795
100
AcDbEntity
8
0-101
6
CONTINUOUS
62
7
100
AcDbCircle
10
319.690000000000
20
152.400000000000
30
0.0
40
1.200000020498
100
AcDbArc
50
96.698364257813
51
168.233551025391
0
ARC
5
796
100
AcDbEntity
8
0-101
6
CONTINUOUS
62
7
100
AcDbCircle
10
319.690000000000
20
152.400000000000
30
0.0
40
2.400000040997
100
AcDbArc
50
90.003555297852
51
168.233551025391
0
ARC
5
797
100
AcDbEntity
8
0-101
6
CONTINUOUS
62
7
100
AcDbCircle
10
348.820000000000
20
106.700000000000
30
0.0
40
4.390853966716
100
AcDbArc
50
46.905136108398
51
133.094863891602
0
ARC
5
798
100
AcDbEntity
8
0-101
6
CONTINUOUS
62
7
100
AcDbCircle
10
540.810000000000
20
149.780000000000
30
0.0
40
0.939343768309
100
AcDbArc
50
190.055068969727
51
349.945449829102
0
ARC
5
799
100
AcDbEntity
8
0-101
6
CONTINUOUS
62
7
100
AcDbCircle
10
550.720000000000
20
149.870000000000
30
0.0
40
0.937631981752
100
AcDbArc
50
194.624435424805
51
345.375564575195
0
ARC
5
79a
100
AcDbEntity
8
0-101
6
CONTINUOUS
62
7
100
AcDbCircle
10
321.040000000000
20
219.250000000000
30
0.0
40
9.635876748362
100
AcDbArc
50
232.501266479492
51
268.224548339844
0
ARC
5
79b
100
AcDbEntity
8
0-101
6
CONTINUOUS
62
7
100
AcDbCircle
10
320.440000000000
20
219.250000000000
30
0.0
40
9.635876748362
100
AcDbArc
50
271.775451660156
51
307.545364379883
0
ARC
5
79c
100
AcDbEntity
8
0-101
6
CONTINUOUS
62
7
100
AcDbCircle
10
320.740000000000
20
210.200000000000
30
0.0
40
5.800006647263
100
AcDbArc
50
18.233428955078
51
90.000000000000
0
TEXT
5
79d
100
AcDbEntity
8
0-000
62
3
100
AcDbText
10
305.768
20
271.253
30
0.0
40
7.800
1
2
41
1.125
50
90.000
100
AcDbText
0
TEXT
5
79e
100
AcDbEntity
8
0-000
62
3
100
AcDbText
10
250.998
20
312.459
30
0.0
40
7.800
1
11
41
1.125
50
0.000
100
AcDbText
0
TEXT
5
79f
100
AcDbEntity
8
0-000
62
3
100
AcDbText
10
320.412
20
282.785
30
0.0
40
7.800
1
24.4
41
1.125
50
90.000
100
AcDbText
0
TEXT
5
7a0
100
AcDbEntity
8
0-000
62
3
100
AcDbText
10
305.512
20
283.381
30
0.0
40
7.800
1
22.4
41
1.125
50
90.000
100
AcDbText
0
TEXT
5
7a1
100
AcDbEntity
8
0-000
62
3
100
AcDbText
10
270.498
20
265.429
30
0.0
40
6.825
1
25
41
1.143
50
0.000
100
AcDbText
0
TEXT
5
7a2
100
AcDbEntity
8
0-000
62
3
100
AcDbText
10
568.998
20
265.429
30
0.0
40
6.825
1
25
41
1.143
50
0.000
100
AcDbText
0
TEXT
5
7a3
100
AcDbEntity
8
0-000
62
3
100
AcDbText
10
585.748
20
312.459
30
0.0
40
7.800
1
8
41
1.125
50
0.000
100
AcDbText
0
TEXT
5
7a4
100
AcDbEntity
8
0-000
62
3
100
AcDbText
10
304.268
20
371.253
30
0.0
40
7.800
1
2
41
1.125
50
90.000
100
AcDbText
0
TEXT
5
7a5
100
AcDbEntity
8
0-000
62
3
100
AcDbText
10
250.998
20
412.459
30
0.0
40
7.800
1
11
41
1.125
50
0.000
100
AcDbText
0
TEXT
5
7a6
100
AcDbEntity
8
0-000
62
3
100
AcDbText
10
320.412
20
382.785
30
0.0
40
7.800
1
24.4
41
1.125
50
90.000
100
AcDbText
0
TEXT
5
7a7
100
AcDbEntity
8
0-000
62
3
100
AcDbText
10
304.012
20
383.381
30
0.0
40
7.800
1
22.4
41
1.125
50
90.000
100
AcDbText
0
TEXT
5
7a8
100
AcDbEntity
8
0-000
62
3
100
AcDbText
10
270.498
20
365.429
30
0.0
40
6.825
1
25
41
1.143
50
0.000
100
AcDbText
0
TEXT
5
7a9
100
AcDbEntity
8
0-000
62
3
100
AcDbText
10
568.998
20
365.429
30
0.0
40
6.825
1
25
41
1.143
50
0.000
100
AcDbText
0
TEXT
5
7aa
100
AcDbEntity
8
0-000
62
3
100
AcDbText
10
585.748
20
412.459
30
0.0
40
7.800
1
8
41
1.125
50
0.000
100
AcDbText
0
TEXT
5
7ab
100
AcDbEntity
8
0-000
62
3
100
AcDbText
10
391.648
20
293.259
30
0.0
40
7.800
1
31.7
41
1.125
50
0.000
100
AcDbText
0
TEXT
5
7ac
100
AcDbEntity
8
0-000
62
3
100
AcDbText
10
416.998
20
293.259
30
0.0
40
7.800
1
10
41
1.125
50
0.000
100
AcDbText
0
TEXT
5
7ad
100
AcDbEntity
8
0-000
62
3
100
AcDbText
10
475.048
20
293.259
30
0.0
40
7.800
1
41.7
41
1.125
50
0.000
100
AcDbText
0
TEXT
5
7ae
100
AcDbEntity
8
F-7
62
3
100
AcDbText
10
265.928
20
37.427
30
0.0
40
2.925
1
変　　　　　　更　　　　　　記　　　　　　事
41
1.167
50
0.000
100
AcDbText
0
TEXT
5
7af
100
AcDbEntity
8
F-7
62
3
100
AcDbText
10
407.795
20
37.027
30
0.0
40
2.925
1
受領　　日附
41
1.167
50
0.000
100
AcDbText
0
TEXT
5
7b0
100
AcDbEntity
8
F-7
62
3
100
AcDbText
10
506.904
20
22.311
30
0.0
40
2.925
1
施工者
41
1.167
50
0.000
100
AcDbText
0
TEXT
5
7b1
100
AcDbEntity
8
F-7
62
3
100
AcDbText
10
506.904
20
37.126
30
0.0
40
2.925
1
設計者
41
1.167
50
0.000
100
AcDbText
0
TEXT
5
7b2
100
AcDbEntity
8
F-7
62
3
100
AcDbText
10
609.646
20
22.040
30
0.0
40
2.925
1
作図
41
1.167
50
0.000
100
AcDbText
0
TEXT
5
7b3
100
AcDbEntity
8
F-7
62
3
100
AcDbText
10
645.559
20
22.305
30
0.0
40
2.925
1
図面名
41
1.167
50
0.000
100
AcDbText
0
TEXT
5
7b4
100
AcDbEntity
8
F-7
62
3
100
AcDbText
10
609.646
20
36.854
30
0.0
40
2.925
1
日附
41
1.167
50
0.000
100
AcDbText
0
TEXT
5
7b5
100
AcDbEntity
8
F-7
62
3
100
AcDbText
10
645.559
20
37.120
30
0.0
40
2.925
1
工事件名
41
1.167
50
0.000
100
AcDbText
0
TEXT
5
7b6
100
AcDbEntity
8
F-7
62
3
100
AcDbText
10
620.714
20
36.728
30
0.0
40
2.925
1
年　月　日
41
1.167
50
0.000
100
AcDbText
0
TEXT
5
7b7
100
AcDbEntity
8
F-7
62
3
100
AcDbText
10
620.714
20
21.914
30
0.0
40
2.925
1
年　月　日
41
1.167
50
0.000
100
AcDbText
0
TEXT
5
7b8
100
AcDbEntity
8
F-7
62
3
100
AcDbText
10
771.731
20
37.120
30
0.0
40
2.925
1
設計番号
41
1.167
50
0.000
100
AcDbText
0
TEXT
5
7b9
100
AcDbEntity
8
F-7
62
3
100
AcDbText
10
771.731
20
22.305
30
0.0
40
2.925
1
縮　尺
41
1.167
50
0.000
100
AcDbText
0
TEXT
5
7ba
100
AcDbEntity
8
F-7
62
3
100
AcDbText
10
193.389
20
33.735
30
0.0
40
2.925
1
. 　.　 
41
1.167
50
0.000
100
AcDbText
0
TEXT
5
7bb
100
AcDbEntity
8
F-7
62
3
100
AcDbText
10
193.389
20
28.797
30
0.0
40
2.925
1
. 　.　 
41
1.167
50
0.000
100
AcDbText
0
TEXT
5
7bc
100
AcDbEntity
8
F-7
62
3
100
AcDbText
10
193.389
20
23.858
30
0.0
40
2.925
1
. 　.　 
41
1.167
50
0.000
100
AcDbText
0
TEXT
5
7bd
100
AcDbEntity
8
F-7
62
3
100
AcDbText
10
193.389
20
18.920
30
0.0
40
2.925
1
. 　.　 
41
1.167
50
0.000
100
AcDbText
0
TEXT
5
7be
100
AcDbEntity
8
F-7
62
3
100
AcDbText
10
193.389
20
13.982
30
0.0
40
2.925
1
. 　.　 
41
1.167
50
0.000
100
AcDbText
0
TEXT
5
7bf
100
AcDbEntity
8
F-7
62
3
100
AcDbText
10
517.036
20
30.588
30
0.0
40
3.900
1
　　　　　　　　　　
41
1.125
50
0.000
100
AcDbText
0
TEXT
5
7c0
100
AcDbEntity
8
F-7
62
3
100
AcDbText
10
517.036
20
15.773
30
0.0
40
3.900
1
　　　　　　　　　　
41
1.125
50
0.000
100
AcDbText
0
TEXT
5
7c1
100
AcDbEntity
8
F-7
62
3
100
AcDbText
10
658.767
20
31.361
30
0.0
40
3.900
1
　　　　　　　　　　　　　
41
1.125
50
0.000
100
AcDbText
0
TEXT
5
7c2
100
AcDbEntity
8
F-7
62
3
100
AcDbText
10
188.903
20
37.394
30
0.0
40
2.925
1
年　月　日
41
1.167
50
0.000
100
AcDbText
0
TEXT
5
7c3
100
AcDbEntity
8
F-7
62
3
100
AcDbText
10
436.381
20
36.735
30
0.0
40
2.925
1
年　　月　　日
41
1.167
50
0.000
100
AcDbText
0
TEXT
5
7c4
100
AcDbEntity
8
F-7
62
3
100
AcDbText
10
442.657
20
31.524
30
0.0
40
2.925
1
.　 　.
41
1.167
50
0.000
100
AcDbText
0
TEXT
5
7c5
100
AcDbEntity
8
F-7
62
3
100
AcDbText
10
407.795
20
22.212
30
0.0
40
2.925
1
受領　　日附
41
1.167
50
0.000
100
AcDbText
0
TEXT
5
7c6
100
AcDbEntity
8
F-7
62
3
100
AcDbText
10
436.381
20
21.920
30
0.0
40
2.925
1
年　　月　　日
41
1.167
50
0.000
100
AcDbText
0
TEXT
5
7c7
100
AcDbEntity
8
F-7
62
3
100
AcDbText
10
442.657
20
16.709
30
0.0
40
2.925
1
.　 　.
41
1.167
50
0.000
100
AcDbText
0
TEXT
5
7c8
100
AcDbEntity
8
F-7
62
3
100
AcDbText
10
624.100
20
30.667
30
0.0
40
2.925
1
.　　.　
41
1.167
50
0.000
100
AcDbText
0
TEXT
5
7c9
100
AcDbEntity
8
F-7
62
3
100
AcDbText
10
783.350
20
20.225
30
0.0
40
3.900
1
Ａ１－１／１　
41
1.125
50
0.000
100
AcDbText
0
TEXT
5
7ca
100
AcDbEntity
8
F-7
62
3
100
AcDbText
10
783.350
20
12.817
30
0.0
40
3.900
1
Ａ３－１／２　
41
1.125
50
0.000
100
AcDbText
0
TEXT
5
7cb
100
AcDbEntity
8
0-000
62
3
100
AcDbText
10
160.489
20
384.431
30
0.0
40
9.750
1
フラット品
41
1.100
50
0.000
100
AcDbText
0
TEXT
5
7cc
100
AcDbEntity
8
0-000
62
3
100
AcDbText
10
160.489
20
284.431
30
0.0
40
9.750
1
リブ付
41
1.100
50
0.000
100
AcDbText
0
TEXT
5
7cd
100
AcDbEntity
8
F-7
62
3
100
AcDbText
10
83.178
20
13.785
30
0.0
40
3.900
1
電話（０５４）２６３－２２８０（代表）
41
1.125
50
0.000
100
AcDbText
0
TEXT
5
7ce
100
AcDbEntity
8
F-7
62
3
100
AcDbText
10
61.073
20
29.382
30
0.0
40
7.800
1
小　池　弥　太　郎　商　店
41
1.125
50
0.000
100
AcDbText
0
TEXT
5
7cf
100
AcDbEntity
8
F-7
62
3
100
AcDbText
10
83.176
20
21.201
30
0.0
40
3.900
1
静岡県静岡市葵区流通センター１６番
41
1.125
50
0.000
100
AcDbText
0
TEXT
5
7d0
100
AcDbEntity
8
F-7
62
3
100
AcDbText
10
49.950
20
33.676
30
0.0
40
2.925
1
株
41
1.167
50
0.000
100
AcDbText
0
TEXT
5
7d1
100
AcDbEntity
8
F-7
62
3
100
AcDbText
10
53.525
20
30.051
30
0.0
40
2.925
1
社
41
1.167
50
0.000
100
AcDbText
0
TEXT
5
7d2
100
AcDbEntity
8
F-7
62
3
100
AcDbText
10
49.925
20
30.051
30
0.0
40
2.925
1
会
41
1.167
50
0.000
100
AcDbText
0
TEXT
5
7d3
100
AcDbEntity
8
F-7
62
3
100
AcDbText
10
53.325
20
33.576
30
0.0
40
2.925
1
式
41
1.167
50
0.000
100
AcDbText
0
TEXT
5
7d4
100
AcDbEntity
8
0-000
62
3
100
AcDbText
10
105.288
20
483.468
30
0.0
40
9.750
1
嵌合図
41
1.100
50
0.000
100
AcDbText
0
TEXT
5
7d5
100
AcDbEntity
8
0-000
62
3
100
AcDbText
10
384.748
20
434.022
30
0.0
40
9.750
1
働き巾　３３３
41
1.100
50
0.000
100
AcDbText
0
TEXT
5
7d6
100
AcDbEntity
8
0-000
62
3
100
AcDbText
10
384.748
20
334.022
30
0.0
40
9.750
1
働き巾　３３３
41
1.100
50
0.000
100
AcDbText
0
TEXT
5
7d7
100
AcDbEntity
8
F-7
62
3
100
AcDbText
10
658.767
20
16.546
30
0.0
40
3.900
1
コイケルーフ　立平葺３３３（２３型）
41
1.125
50
0.000
100
AcDbText
0
TEXT
5
7d8
100
AcDbEntity
8
0-000
62
3
100
AcDbText
10
196.498
20
534.298
30
0.0
40
9.750
1
＠３３３
41
1.100
50
0.000
100
AcDbText
0
TEXT
5
7d9
100
AcDbEntity
8
0-000
62
3
100
AcDbText
10
602.998
20
534.298
30
0.0
40
9.750
1
＠３３３
41
1.100
50
0.000
100
AcDbText
0
TEXT
5
7da
100
AcDbEntity
8
0-000
62
3
100
AcDbText
10
404.748
20
534.298
30
0.0
40
9.750
1
３３３
41
1.100
50
0.000
100
AcDbText
0
TEXT
5
7db
100
AcDbEntity
8
F-7
62
3
100
AcDbText
10
774.222
20
29.845
30
0.0
40
4.875
1
KR-333(23)-01
41
1.100
50
0.000
100
AcDbText
0
TEXT
5
7dc
100
AcDbEntity
8
0-000
62
3
100
AcDbText
10
529.286
20
386.061
30
0.0
40
7.800
1
23
41
1.125
50
90.000
100
AcDbText
0
TEXT
5
7dd
100
AcDbEntity
8
0-000
62
3
100
AcDbText
10
529.286
20
286.061
30
0.0
40
7.800
1
23
41
1.125
50
90.000
100
AcDbText
0
TEXT
5
7de
100
AcDbEntity
8
F-7
62
3
100
AcDbText
10
611.241
20
15.334
30
0.0
40
2.925
1
MA 2018-01-09
41
1.167
50
0.000
100
AcDbText
0
TEXT
5
7df
100
AcDbEntity
8
0-101
62
3
100
AcDbText
10
479.749
20
74.539
30
0.0
40
4.875
1
又はゴムアス防水シート
41
1.100
50
360.000
100
AcDbText
0
TEXT
5
7e0
100
AcDbEntity
8
0-101
62
3
100
AcDbText
10
473.505
20
82.343
30
0.0
40
4.875
1
アスファルトルーフィング940以上
41
1.100
50
360.000
100
AcDbText
0
TEXT
5
7e1
100
AcDbEntity
8
0-101
62
3
100
AcDbText
10
574.283
20
131.458
30
0.0
40
4.875
1
シンワッシャー
41
1.100
50
0.000
100
AcDbText
0
TEXT
5
7e2
100
AcDbEntity
8
0-101
62
3
100
AcDbText
10
597.438
20
81.017
30
0.0
40
4.875
1
野地板材
41
1.100
50
0.000
100
AcDbText
0
TEXT
5
7e3
100
AcDbEntity
8
0-101
62
3
100
AcDbText
10
254.748
20
74.539
30
0.0
40
4.875
1
又はゴムアス防水シート
41
1.100
50
0.000
100
AcDbText
0
TEXT
5
7e4
100
AcDbEntity
8
0-101
62
3
100
AcDbText
10
248.505
20
82.343
30
0.0
40
4.875
1
アスファルトルーフィング940以上
41
1.100
50
0.000
100
AcDbText
0
TEXT
5
7e5
100
AcDbEntity
8
0-101
62
3
100
AcDbText
10
349.283
20
131.458
30
0.0
40
4.875
1
シンワッシャー
41
1.100
50
0.000
100
AcDbText
0
TEXT
5
7e6
100
AcDbEntity
8
0-101
62
3
100
AcDbText
10
372.438
20
81.017
30
0.0
40
4.875
1
野地板材
41
1.100
50
0.000
100
AcDbText
0
TEXT
5
7e7
100
AcDbEntity
8
0-101
62
3
100
AcDbText
10
241.862
20
218.682
30
0.0
40
4.875
1
KOIKE 立平３３３（２３型）
41
1.100
50
0.000
100
AcDbText
0
TEXT
5
7e8
100
AcDbEntity
8
0-101
62
3
100
AcDbText
10
466.862
20
158.682
30
0.0
40
4.875
1
KOIKE 立平３３３（２３型）
41
1.100
50
0.000
100
AcDbText
0
TEXT
5
7e9
100
AcDbEntity
8
0-101
62
3
100
AcDbText
10
336.210
20
219.978
30
0.0
40
4.875
1
防水材（オプション）
41
1.100
50
0.000
100
AcDbText
0
POINT
5
7ea
100
AcDbEntity
8
0-000
62
4
100
AcDbPoint
10
254.750000000000
20
486.320000000000
30
0.0
0
POINT
5
7eb
100
AcDbEntity
8
0-000
62
4
100
AcDbPoint
10
254.750000000000
20
486.320000000000
30
0.0
0
POINT
5
7ec
100
AcDbEntity
8
0-000
62
4
100
AcDbPoint
10
587.750000000000
20
486.320000000000
30
0.0
0
POINT
5
7ed
100
AcDbEntity
8
0-000
62
4
100
AcDbPoint
10
309.650000000000
20
278.510000000000
30
0.0
0
POINT
5
7ee
100
AcDbEntity
8
0-000
62
4
100
AcDbPoint
10
309.650000000000
20
303.310000000000
30
0.0
0
POINT
5
7ef
100
AcDbEntity
8
0-000
62
4
100
AcDbPoint
10
296.150000000000
20
278.510000000000
30
0.0
0
POINT
5
7f0
100
AcDbEntity
8
0-000
62
4
100
AcDbPoint
10
296.150000000000
20
281.110000000000
30
0.0
0
POINT
5
7f1
100
AcDbEntity
8
0-000
62
4
100
AcDbPoint
10
296.150000000000
20
303.310000000000
30
0.0
0
POINT
5
7f2
100
AcDbEntity
8
0-000
62
4
100
AcDbPoint
10
249.250000000000
20
311.960000000000
30
0.0
0
POINT
5
7f3
100
AcDbEntity
8
0-000
62
4
100
AcDbPoint
10
260.250000000000
20
311.960000000000
30
0.0
0
POINT
5
7f4
100
AcDbEntity
8
0-000
62
4
100
AcDbPoint
10
260.760000000000
20
264.930000000000
30
0.0
0
POINT
5
7f5
100
AcDbEntity
8
0-000
62
4
100
AcDbPoint
10
286.750000000000
20
264.930000000000
30
0.0
0
POINT
5
7f6
100
AcDbEntity
8
0-000
62
4
100
AcDbPoint
10
585.650000000000
20
264.930000000000
30
0.0
0
POINT
5
7f7
100
AcDbEntity
8
0-000
62
4
100
AcDbPoint
10
560.250000000000
20
264.930000000000
30
0.0
0
POINT
5
7f8
100
AcDbEntity
8
0-000
62
4
100
AcDbPoint
10
583.770000000000
20
311.960000000000
30
0.0
0
POINT
5
7f9
100
AcDbEntity
8
0-000
62
4
100
AcDbPoint
10
591.720000000000
20
311.960000000000
30
0.0
0
POINT
5
7fa
100
AcDbEntity
8
0-000
62
4
100
AcDbPoint
10
254.750000000000
20
333.520000000000
30
0.0
0
POINT
5
7fb
100
AcDbEntity
8
0-000
62
4
100
AcDbPoint
10
587.750000000000
20
333.520000000000
30
0.0
0
POINT
5
7fc
100
AcDbEntity
8
0-000
62
4
100
AcDbPoint
10
309.650000000000
20
378.510000000000
30
0.0
0
POINT
5
7fd
100
AcDbEntity
8
0-000
62
4
100
AcDbPoint
10
309.650000000000
20
403.310000000000
30
0.0
0
POINT
5
7fe
100
AcDbEntity
8
0-000
62
4
100
AcDbPoint
10
294.650000000000
20
378.510000000000
30
0.0
0
POINT
5
7ff
100
AcDbEntity
8
0-000
62
4
100
AcDbPoint
10
294.650000000000
20
381.110000000000
30
0.0
0
POINT
5
800
100
AcDbEntity
8
0-000
62
4
100
AcDbPoint
10
294.650000000000
20
403.310000000000
30
0.0
0
POINT
5
801
100
AcDbEntity
8
0-000
62
4
100
AcDbPoint
10
249.250000000000
20
411.960000000000
30
0.0
0
POINT
5
802
100
AcDbEntity
8
0-000
62
4
100
AcDbPoint
10
260.250000000000
20
411.960000000000
30
0.0
0
POINT
5
803
100
AcDbEntity
8
0-000
62
4
100
AcDbPoint
10
260.760000000000
20
364.930000000000
30
0.0
0
POINT
5
804
100
AcDbEntity
8
0-000
62
4
100
AcDbPoint
10
286.750000000000
20
364.930000000000
30
0.0
0
POINT
5
805
100
AcDbEntity
8
0-000
62
4
100
AcDbPoint
10
585.650000000000
20
364.930000000000
30
0.0
0
POINT
5
806
100
AcDbEntity
8
0-000
62
4
100
AcDbPoint
10
560.250000000000
20
364.930000000000
30
0.0
0
POINT
5
807
100
AcDbEntity
8
0-000
62
4
100
AcDbPoint
10
583.770000000000
20
411.960000000000
30
0.0
0
POINT
5
808
100
AcDbEntity
8
0-000
62
4
100
AcDbPoint
10
591.720000000000
20
411.960000000000
30
0.0
0
POINT
5
809
100
AcDbEntity
8
0-000
62
4
100
AcDbPoint
10
254.750000000000
20
433.520000000000
30
0.0
0
POINT
5
80a
100
AcDbEntity
8
0-000
62
4
100
AcDbPoint
10
587.750000000000
20
433.520000000000
30
0.0
0
POINT
5
80b
100
AcDbEntity
8
0-000
62
4
100
AcDbPoint
10
384.550000000000
20
292.760000000000
30
0.0
0
POINT
5
80c
100
AcDbEntity
8
0-000
62
4
100
AcDbPoint
10
416.250000000000
20
292.760000000000
30
0.0
0
POINT
5
80d
100
AcDbEntity
8
0-000
62
4
100
AcDbPoint
10
426.250000000000
20
292.760000000000
30
0.0
0
POINT
5
80e
100
AcDbEntity
8
0-000
62
4
100
AcDbPoint
10
462.950000000000
20
292.760000000000
30
0.0
0
POINT
5
80f
100
AcDbEntity
8
0-000
62
4
100
AcDbPoint
10
504.650000000000
20
292.760000000000
30
0.0
0
POINT
5
810
100
AcDbEntity
8
0-000
62
4
100
AcDbPoint
10
174.750000000000
20
533.800000000000
30
0.0
0
POINT
5
811
100
AcDbEntity
8
0-000
62
4
100
AcDbPoint
10
254.750000000000
20
533.800000000000
30
0.0
0
POINT
5
812
100
AcDbEntity
8
0-000
62
4
100
AcDbPoint
10
587.750000000000
20
533.800000000000
30
0.0
0
POINT
5
813
100
AcDbEntity
8
0-000
62
4
100
AcDbPoint
10
667.750000000000
20
533.800000000000
30
0.0
0
POINT
5
814
100
AcDbEntity
8
0-101
62
3
100
AcDbPoint
10
27.380000000000
20
571.820000000000
30
0.0
0
POINT
5
815
100
AcDbEntity
8
F-7
62
3
100
AcDbPoint
10
27.380000000000
20
571.820000000000
30
0.0
0
POINT
5
816
100
AcDbEntity
8
0-000
62
4
100
AcDbPoint
10
529.790000000000
20
378.510000000000
30
0.0
0
POINT
5
817
100
AcDbEntity
8
0-000
62
4
100
AcDbPoint
10
529.790000000000
20
402.110000000000
30
0.0
0
POINT
5
818
100
AcDbEntity
8
0-000
62
4
100
AcDbPoint
10
529.790000000000
20
278.510000000000
30
0.0
0
POINT
5
819
100
AcDbEntity
8
0-000
62
4
100
AcDbPoint
10
529.790000000000
20
302.110000000000
30
0.0
0
POINT
5
81a
100
AcDbEntity
8
0-101
62
7
100
AcDbPoint
10
311.980000000000
20
197.790000000000
30
0.0
0
POINT
5
81b
100
AcDbEntity
8
0-101
62
7
100
AcDbPoint
10
320.840000000000
20
212.450000000000
30
0.0
0
POINT
5
81c
100
AcDbEntity
8
0-101
62
7
100
AcDbPoint
10
299.450000000000
20
106.600000000000
30
0.0
0
POINT
5
81d
100
AcDbEntity
8
0-101
62
7
100
AcDbPoint
10
351.820000000000
20
109.900000000000
30
0.0
0
POINT
5
81e
100
AcDbEntity
8
0-101
62
7
100
AcDbPoint
10
374.760000000000
20
95.600000000000
30
0.0
0
POINT
5
81f
100
AcDbEntity
8
0-101
62
7
100
AcDbPoint
10
536.980000000000
20
137.790000000000
30
0.0
0
POINT
5
820
100
AcDbEntity
8
0-101
62
7
100
AcDbPoint
10
576.820000000000
20
109.900000000000
30
0.0
0
POINT
5
821
100
AcDbEntity
8
0-101
62
7
100
AcDbPoint
10
599.760000000000
20
95.600000000000
30
0.0
0
POINT
5
822
100
AcDbEntity
8
0-101
62
7
100
AcDbPoint
10
524.450000000000
20
106.600000000000
30
0.0
0
ENDSEC
0
EOF
