0
SECTION
2
HEADER
9
$ACADVER
1
AC1015
9
$ACADMAINTVER
 70
6
9
$DWGCODEPAGE
3
ANSI_932
9
$EXTMIN
10
0.000
20
0.000
30
0.0
9
$EXTMAX
10
841.000
20
594.000
30
0.0
9
$LIMMIN
10
0.000
20
0.000
9
$LIMMAX
10
841.000
20
594.000
9
$DIMSCALE
40
1.000000
9
$LTSCALE
40
2.000
9
$PDMODE
70
0
9
$PDSIZE
40
40.0
9
$HANDSEED
5
61f7c
9
$UNITMODE
70
0
9
$VISRETAIN
70
0
9
$PLINEGEN
70
0
9
$PSLTSCALE
70
1
9
$TREEDEPTH
70
3020
9
$CMLSTYLE
2
STANDARD
9
$CMLJUST
70
0
9
$CMLSCALE
40
1.0
9
$PROXYGRAPHICS
70
1
9
$MEASUREMENT
70
0
9
$CELWEIGHT
370
-1
9
$ENDCAPS
280
0
9
$JOINSTYLE
280
0
9
$LWDISPLAY
290
0
9
$INSUNITS
70
0
9
$HYPERLINKBASE
1

9
$STYLESHEET
1

9
$XEDIT
290
1
9
$CEPSNTYPE
380
0
9
$PSTYLEMODE
290
1
9
$FINGERPRINTGUID
2
{5F082321-0195-11D3-BDFB-0060B0CD5109}
9
$VERSIONGUID
2
{12943756-294D-11D3-98C2-0060B087942D}
9
$EXTNAMES
290
1
9
$PSVPSCALE
40
0.0
9
$OLESTARTUP
290
0
0
ENDSEC
0
SECTION
  2
CLASSES
0
ENDSEC
0
SECTION
2
TABLES
0
TABLE
2
VPORT
5
190
100
AcDbSymbolTable
70
2
0
VPORT
5
191
100
AcDbSymbolTableRecord
100
AcDbViewportTableRecord
2
*ACTIVE
70
0
10
0.0
20
0.0
11
1.0
21
1.0
12
420.500
22
297.000
13
0.0
23
0.0
14
1.0
24
1.0
15
0.0
25
0.0
16
0.0
26
0.0
36
1.0
17
0.0
27
0.0
37
0.0
40
609.420
41
2.0
42
50.0
43
0.0
44
0.0
50
0.0
51
0.0
71
0
72
1000
73
1
74
1
75
0
76
0
77
0
78
0
0
ENDTAB
0
TABLE
2
LTYPE
5
1f4
100
AcDbSymbolTable
70
9
0
LTYPE
5
1f5
100
AcDbSymbolTableRecord
100
AcDbLinetypeTableRecord
2
BYBLOCK
70
 64
3

72
 65
73
  0
40
0.0
0
LTYPE
5
1f6
100
AcDbSymbolTableRecord
100
AcDbLinetypeTableRecord
2
BYLAYER
70
 64
3

72
 65
73
  0
40
0.0
0
LTYPE
5
1f7
100
AcDbSymbolTableRecord
100
AcDbLinetypeTableRecord
2
CONTINUOUS
70
64
3
SolidLine
72
65
73
0
40
0.0
0
LTYPE
5
1f8
100
AcDbSymbolTableRecord
100
AcDbLinetypeTableRecord
2
DOT
70
64
3
--  --  --  --  --  --  --  --     
72
65
73
2
40
3.000
49
1.000
74
0
49
-2.000
74
0
0
LTYPE
5
1f9
100
AcDbSymbolTableRecord
100
AcDbLinetypeTableRecord
2
DASHED
70
64
3
----    ----    ----    ----    
72
65
73
2
40
5.000
49
2.000
74
0
49
-3.000
74
0
0
LTYPE
5
1fa
100
AcDbSymbolTableRecord
100
AcDbLinetypeTableRecord
2
DASHED2
70
64
3
------  ------  ------  ------ 
72
65
73
2
40
10.000
49
4.000
74
0
49
-6.000
74
0
0
LTYPE
5
1fb
100
AcDbSymbolTableRecord
100
AcDbLinetypeTableRecord
2
CENTER
70
64
3
----- - ----- - ----- - ----- - 
72
65
73
4
40
10.000
49
6.000
74
0
49
-3.000
74
0
49
1.000
74
0
49
-3.000
74
0
0
LTYPE
5
1fc
100
AcDbSymbolTableRecord
100
AcDbLinetypeTableRecord
2
CENTER2
70
64
3
----------  --  ----------  -- 
72
65
73
4
40
17.000
49
12.000
74
0
49
-5.000
74
0
49
2.000
74
0
49
-5.000
74
0
0
LTYPE
5
1fd
100
AcDbSymbolTableRecord
100
AcDbLinetypeTableRecord
2
PHANTOM
70
64
3
--- - - --- - - --- - - --- - -
72
65
73
6
40
13.000
49
5.000
74
0
49
-3.000
74
0
49
1.000
74
0
49
-3.000
74
0
49
1.000
74
0
49
-3.000
74
0
0
LTYPE
5
1fe
100
AcDbSymbolTableRecord
100
AcDbLinetypeTableRecord
2
PHANTOM2
70
64
3
--------  -  -  --------  -  -
72
65
73
6
40
20.000
49
6.000
74
0
49
-5.000
74
0
49
2.000
74
0
49
-5.000
74
0
49
2.000
74
0
49
-5.000
74
0
0
LTYPE
5
1ff
100
AcDbSymbolTableRecord
100
AcDbLinetypeTableRecord
2
HIDDEN
70
64
3
-   -   -   -   -   -   -   -   
72
65
73
2
40
3.000
49
0.500
74
0
49
-2.500
74
0
0
ENDTAB
0
TABLE
2
STYLE
5
200
100
AcDbSymbolTable
70
1
0
STYLE
5
201
100
AcDbSymbolTableRecord
100
AcDbTextStyleTableRecord
2
STANDARD
70
0
40
0.0
41
1.0
50
0.0
71
0
42
0.0
3
txt.shx
4
extfont.shx
0
STYLE
5
202
100
AcDbSymbolTableRecord
100
AcDbTextStyleTableRecord
2
TATEGAKI
70
4
40
0.0
41
1.0
50
0.0
71
0
42
0.0
3
txt.shx
4
extfont.shx
0
STYLE
5
203
100
AcDbSymbolTableRecord
100
AcDbTextStyleTableRecord
2
DIM
70
0
40
0.0
41
0.75
50
0.0
71
0
42
0.0
3
txt.shx
4
extfont.shx
0
STYLE
5
204
100
AcDbSymbolTableRecord
100
AcDbTextStyleTableRecord
2
_Gothic_
70
0
40
1.0
41
1.0
50
0.0
71
0
42
10.0
3

4

1001
ACAD
1000
MS Gothic
1071
32817
0
STYLE
5
205
100
AcDbSymbolTableRecord
100
AcDbTextStyleTableRecord
2
_TateGothic_
70
4
40
0.0
41
1.0
50
0.0
71
0
42
0.0
3
@MS Gothic
4

0
ENDTAB
0
TABLE
2
VIEW
5
206
100
AcDbSymbolTable
70
0
0
ENDTAB
0
TABLE
2
UCS
5
207
100
AcDbSymbolTable
70
0
0
ENDTAB
0
TABLE
2
APPID
5
208
100
AcDbSymbolTable
70
1
0
APPID
5
209
100
AcDbSymbolTableRecord
100
AcDbRegAppTableRecord
2
ACAD
70
0
0
ENDTAB
0
TABLE
2
DIMSTYLE
5
403
330
0
100
AcDbSymbolTable
70
1
100
AcDbDimStyleTable
71
0
0
DIMSTYLE
105
404
330
402
100
AcDbSymbolTableRecord
100
AcDbDimStyleTableRecord
2
JAC_DIM
70
0
41
2.000
42
0.000
44
0.0
73
0
74
0
77
1
78
8
79
2
140
0.000
170
0
171
2
172
0
173
0
174
0
175
0
176
0
177
0
178
0
270
2
271
0
272
0
273
2
274
2
340
201
275
0
280
0
281
0
282
0
283
0
284
0
285
0
286
0
287
3
288
0
0
ENDTAB
0
TABLE
2
BLOCK_RECORD
5
405
100
AcDbSymbolTable
70
0
0
BLOCK_RECORD
5
406
100
AcDbSymbolTableRecord
100
AcDbBlockTableRecord
2
*MODEL_SPACE
0
BLOCK_RECORD
5
407
100
AcDbSymbolTableRecord
100
AcDbBlockTableRecord
2
*PAPER_SPACE
0
BLOCK_RECORD
5
408
100
AcDbSymbolTableRecord
100
AcDbBlockTableRecord
2
_JACCONVERT_
0
ENDTAB
0
TABLE
2
LAYER
5
409
100
AcDbSymbolTable
70
10
0
LAYER
5
40a
100
AcDbSymbolTableRecord
100
AcDbLayerTableRecord
2
0
70
0
62
7
6
CONTINUOUS
370
-3
390
14
0
LAYER
5
40b
100
AcDbSymbolTableRecord
100
AcDbLayerTableRecord
2
0-0
70
0
62
7
6
CONTINUOUS
370
-3
390
14
0
LAYER
5
40c
100
AcDbSymbolTableRecord
100
AcDbLayerTableRecord
2
0-3
70
0
62
7
6
CONTINUOUS
370
-3
390
14
0
LAYER
5
40d
100
AcDbSymbolTableRecord
100
AcDbLayerTableRecord
2
F-E_J_ADD
70
0
62
-7
6
CONTINUOUS
290
0
370
-3
390
14
0
LAYER
5
40e
100
AcDbSymbolTableRecord
100
AcDbLayerTableRecord
2
F-F
70
0
62
7
6
CONTINUOUS
370
-3
390
14
0
ENDTAB
0
ENDSEC
0
SECTION
2
BLOCKS
0
BLOCK
5
40f
100
AcDbEntity
67
1
8
0
100
AcDbBlockBegin
2
*MODEL_SPACE
70
0
10
0.0
20
0.0
30
0.0
3
*MODEL_SPACE
1

0
ENDBLK
5
410
100
AcDbEntity
8
0
100
AcDbBlockEnd
0
BLOCK
5
411
100
AcDbEntity
67
1
8
0
100
AcDbBlockBegin
2
*PAPER_SPACE
70
0
10
0.0
20
0.0
30
0.0
3
*PAPER_SPACE
1

0
ENDBLK
5
412
100
AcDbEntity
67
1
8
0
100
AcDbBlockEnd
0
BLOCK
5
413
100
AcDbEntity
8
0
100
AcDbBlockBegin
2
_JACCONVERT_
70
2
10
0.0
20
0.0
30
0.0
3
_JACCONVERT_
1
_JACCONVERT_
0
ATTDEF
5
414
100
AcDbEntity
8
0
62
0
100
AcDbText
10
0.0
20
0.0
30
0.0
40
1.0
1
User:460950EB0890EC0964308A
100
AcDbAttributeDefinition
3

2
USER
70
8
0
ATTDEF
5
415
100
AcDbEntity
8
0
62
0
100
AcDbText
10
0.0
20
2.0
30
0.0
40
1.0
1
Date:15/05/21 15:54
100
AcDbAttributeDefinition
3

2
REVDATE
70
8
0
ATTDEF
5
416
100
AcDbEntity
8
0
62
0
100
AcDbText
10
0.0
20
4.0
30
0.0
40
1.0
1
File:立平455(31型)断面図.dxf
100
AcDbAttributeDefinition
3

2
FNAME
70
8
0
ATTDEF
5
417
100
AcDbEntity
8
0
62
0
100
AcDbText
10
0.0
20
6.0
30
0.0
40
1.0
1
JacConvert Version3.09 copyright (c) 2001-2013 K.Nakahara
100
AcDbAttributeDefinition
3

2
VER
70
8
0
ENDBLK
5
418
100
AcDbEntity
67
1
8
0
100
AcDbBlockEnd
0
ENDSEC
0
SECTION
2
ENTITIES
0
LINE
5
419
100
AcDbEntity
8
0-0
6
CONTINUOUS
62
4
100
AcDbLine
10
238.810000000000
20
382.110000000000
30
0.0
11
245.640000000000
21
382.110000000000
31
0.0
0
LINE
5
41a
100
AcDbEntity
8
0-0
6
CONTINUOUS
62
4
100
AcDbLine
10
187.000000000000
20
412.660000000000
30
0.0
11
187.000000000000
21
419.660000000000
31
0.0
0
LINE
5
41b
100
AcDbEntity
8
0-0
6
CONTINUOUS
62
4
100
AcDbLine
10
201.000000000000
20
412.660000000000
30
0.0
11
201.000000000000
21
419.660000000000
31
0.0
0
LINE
5
41c
100
AcDbEntity
8
0-0
6
CONTINUOUS
62
4
100
AcDbLine
10
646.000000000000
20
373.240000000000
30
0.0
11
646.000000000000
21
364.930000000000
31
0.0
0
LINE
5
41d
100
AcDbEntity
8
0-0
6
CONTINUOUS
62
4
100
AcDbLine
10
642.500000000000
20
412.660000000000
30
0.0
11
642.500000000000
21
419.660000000000
31
0.0
0
LINE
5
41e
100
AcDbEntity
8
0-0
6
CONTINUOUS
62
4
100
AcDbLine
10
654.500000000000
20
412.660000000000
30
0.0
11
654.500000000000
21
419.660000000000
31
0.0
0
LINE
5
41f
100
AcDbEntity
8
0-0
6
CONTINUOUS
62
4
100
AcDbLine
10
648.500000000000
20
431.220000000000
30
0.0
11
648.500000000000
21
441.220000000000
31
0.0
0
LINE
5
420
100
AcDbEntity
8
0-3
6
CONTINUOUS
62
7
100
AcDbLine
10
374.120000000000
20
85.600000000000
30
0.0
11
217.350000000000
21
85.600000000000
31
0.0
0
LINE
5
421
100
AcDbEntity
8
0-3
6
DASHED
62
7
100
AcDbLine
10
374.120000000000
20
86.600000000000
30
0.0
11
217.350000000000
21
86.600000000000
31
0.0
0
LINE
5
422
100
AcDbEntity
8
0-3
6
CONTINUOUS
62
7
100
AcDbLine
10
322.740000000000
20
89.400000000000
30
0.0
11
332.740000000000
21
89.400000000000
31
0.0
0
LINE
5
423
100
AcDbEntity
8
0-3
6
CONTINUOUS
62
7
100
AcDbLine
10
324.740000000000
20
89.900000000000
30
0.0
11
330.740000000000
21
89.900000000000
31
0.0
0
LINE
5
424
100
AcDbEntity
8
0-3
6
CONTINUOUS
62
7
100
AcDbLine
10
332.740000000000
20
89.400000000000
30
0.0
11
332.740000000000
21
89.000000000000
31
0.0
0
LINE
5
425
100
AcDbEntity
8
0-3
6
CONTINUOUS
62
7
100
AcDbLine
10
330.740000000000
20
89.900000000000
30
0.0
11
332.240000000000
21
89.400000000000
31
0.0
0
LINE
5
426
100
AcDbEntity
8
0-3
6
CONTINUOUS
62
7
100
AcDbLine
10
330.140000000000
20
78.690000000000
30
0.0
11
325.340000000000
21
79.490000000000
31
0.0
0
LINE
5
427
100
AcDbEntity
8
0-3
6
CONTINUOUS
62
7
100
AcDbLine
10
330.140000000000
20
77.090000000000
30
0.0
11
325.340000000000
21
77.890000000000
31
0.0
0
LINE
5
428
100
AcDbEntity
8
0-3
6
CONTINUOUS
62
7
100
AcDbLine
10
330.140000000000
20
75.490000000000
30
0.0
11
325.340000000000
21
76.290000000000
31
0.0
0
LINE
5
429
100
AcDbEntity
8
0-3
6
CONTINUOUS
62
7
100
AcDbLine
10
330.140000000000
20
80.290000000000
30
0.0
11
325.340000000000
21
81.090000000000
31
0.0
0
LINE
5
42a
100
AcDbEntity
8
0-3
6
CONTINUOUS
62
7
100
AcDbLine
10
322.740000000000
20
89.400000000000
30
0.0
11
322.740000000000
21
89.000000000000
31
0.0
0
LINE
5
42b
100
AcDbEntity
8
0-3
6
CONTINUOUS
62
7
100
AcDbLine
10
324.740000000000
20
89.900000000000
30
0.0
11
323.240000000000
21
89.400000000000
31
0.0
0
LINE
5
42c
100
AcDbEntity
8
0-3
6
CONTINUOUS
62
7
100
AcDbLine
10
330.140000000000
20
72.290000000000
30
0.0
11
325.340000000000
21
73.090000000000
31
0.0
0
LINE
5
42d
100
AcDbEntity
8
0-3
6
CONTINUOUS
62
7
100
AcDbLine
10
330.140000000000
20
73.890000000000
30
0.0
11
325.340000000000
21
74.690000000000
31
0.0
0
LINE
5
42e
100
AcDbEntity
8
0-3
6
CONTINUOUS
62
7
100
AcDbLine
10
330.140000000000
20
70.690000000000
30
0.0
11
325.340000000000
21
71.490000000000
31
0.0
0
LINE
5
42f
100
AcDbEntity
8
0-3
6
CONTINUOUS
62
7
100
AcDbLine
10
330.140000000000
20
69.090000000000
30
0.0
11
325.340000000000
21
69.890000000000
31
0.0
0
LINE
5
430
100
AcDbEntity
8
0-3
6
CONTINUOUS
62
7
100
AcDbLine
10
327.740000000000
20
54.160000000000
30
0.0
11
325.740000000000
21
55.760000000000
31
0.0
0
LINE
5
431
100
AcDbEntity
8
0-3
6
CONTINUOUS
62
7
100
AcDbLine
10
329.740000000000
20
55.760000000000
30
0.0
11
327.740000000000
21
54.160000000000
31
0.0
0
LINE
5
432
100
AcDbEntity
8
0-3
6
CONTINUOUS
62
7
100
AcDbLine
10
322.740000000000
20
89.000000000000
30
0.0
11
332.740000000000
21
89.000000000000
31
0.0
0
LINE
5
433
100
AcDbEntity
8
0-3
6
CONTINUOUS
62
7
100
AcDbLine
10
330.140000000000
20
83.330000000000
30
0.0
11
325.340000000000
21
84.130000000000
31
0.0
0
LINE
5
434
100
AcDbEntity
8
0-3
6
CONTINUOUS
62
7
100
AcDbLine
10
330.140000000000
20
81.890000000000
30
0.0
11
325.340000000000
21
82.690000000000
31
0.0
0
LINE
5
435
100
AcDbEntity
8
0-3
6
CONTINUOUS
62
7
100
AcDbLine
10
330.140000000000
20
84.930000000000
30
0.0
11
325.340000000000
21
85.730000000000
31
0.0
0
LINE
5
436
100
AcDbEntity
8
0-3
6
CONTINUOUS
62
7
100
AcDbLine
10
325.740000000000
20
55.600000000000
30
0.0
11
325.740000000000
21
89.000000000000
31
0.0
0
LINE
5
437
100
AcDbEntity
8
0-3
6
CONTINUOUS
62
7
100
AcDbLine
10
329.740000000000
20
55.600000000000
30
0.0
11
329.740000000000
21
89.000000000000
31
0.0
0
LINE
5
438
100
AcDbEntity
8
0-3
6
CONTINUOUS
62
7
100
AcDbLine
10
330.140000000000
20
67.490000000000
30
0.0
11
325.340000000000
21
68.290000000000
31
0.0
0
LINE
5
439
100
AcDbEntity
8
0-3
6
CONTINUOUS
62
7
100
AcDbLine
10
330.140000000000
20
65.890000000000
30
0.0
11
325.340000000000
21
66.690000000000
31
0.0
0
LINE
5
43a
100
AcDbEntity
8
0-3
6
CONTINUOUS
62
7
100
AcDbLine
10
330.140000000000
20
64.290000000000
30
0.0
11
325.340000000000
21
65.090000000000
31
0.0
0
LINE
5
43b
100
AcDbEntity
8
0-3
6
CONTINUOUS
62
7
100
AcDbLine
10
330.140000000000
20
62.690000000000
30
0.0
11
325.340000000000
21
63.490000000000
31
0.0
0
LINE
5
43c
100
AcDbEntity
8
0-3
6
CONTINUOUS
62
7
100
AcDbLine
10
330.140000000000
20
61.090000000000
30
0.0
11
325.340000000000
21
61.890000000000
31
0.0
0
POLYLINE
5
43d
100
AcDbEntity
8
0-3
6
CONTINUOUS
62
  7
100
AcDb2dPolyline
66
1
10
0.0
20
0.0
30
0.0
70
0
0
VERTEX
5
43e
100
AcDbEntity
8
0-3
6
CONTINUOUS
62
  7
100
AcDbVertex
100
AcDb2dVertex
10
326.940000000000
20
54.960000000000
30
0.0
0
VERTEX
5
43f
100
AcDbEntity
8
0-3
6
CONTINUOUS
62
  7
100
AcDbVertex
100
AcDb2dVertex
10
327.740000000000
20
55.760000000000
30
0.0
0
VERTEX
5
440
100
AcDbEntity
8
0-3
6
CONTINUOUS
62
  7
100
AcDbVertex
100
AcDb2dVertex
10
327.200000000000
20
56.850000000000
30
0.0
0
VERTEX
5
441
100
AcDbEntity
8
0-3
6
CONTINUOUS
62
  7
100
AcDbVertex
100
AcDb2dVertex
10
328.420000000000
20
57.550000000000
30
0.0
0
VERTEX
5
442
100
AcDbEntity
8
0-3
6
CONTINUOUS
62
  7
100
AcDbVertex
100
AcDb2dVertex
10
329.740000000000
20
55.760000000000
30
0.0
0
SEQEND
5
443
100
AcDbEntity
8
0-3
0
LINE
5
444
100
AcDbEntity
8
0-3
6
CONTINUOUS
62
7
100
AcDbLine
10
330.740000000000
20
89.900000000000
30
0.0
11
340.830000000000
21
107.390000000000
31
0.0
0
LINE
5
445
100
AcDbEntity
8
0-3
6
CONTINUOUS
62
7
100
AcDbLine
10
351.620000000000
20
75.600000000000
30
0.0
11
361.620000000000
21
85.600000000000
31
0.0
0
LINE
5
446
100
AcDbEntity
8
0-3
6
CONTINUOUS
62
7
100
AcDbLine
10
337.480000000000
20
75.600000000000
30
0.0
11
347.480000000000
21
85.600000000000
31
0.0
0
LINE
5
447
100
AcDbEntity
8
0-3
6
CONTINUOUS
62
7
100
AcDbLine
10
323.340000000000
20
75.600000000000
30
0.0
11
333.340000000000
21
85.600000000000
31
0.0
0
LINE
5
448
100
AcDbEntity
8
0-3
6
CONTINUOUS
62
7
100
AcDbLine
10
309.190000000000
20
75.600000000000
30
0.0
11
319.190000000000
21
85.600000000000
31
0.0
0
LINE
5
449
100
AcDbEntity
8
0-3
6
CONTINUOUS
62
7
100
AcDbLine
10
295.050000000000
20
75.600000000000
30
0.0
11
305.050000000000
21
85.600000000000
31
0.0
0
LINE
5
44a
100
AcDbEntity
8
0-3
6
CONTINUOUS
62
7
100
AcDbLine
10
280.910000000000
20
75.600000000000
30
0.0
11
290.910000000000
21
85.600000000000
31
0.0
0
LINE
5
44b
100
AcDbEntity
8
0-3
6
CONTINUOUS
62
7
100
AcDbLine
10
266.770000000000
20
75.600000000000
30
0.0
11
276.770000000000
21
85.600000000000
31
0.0
0
LINE
5
44c
100
AcDbEntity
8
0-3
6
CONTINUOUS
62
7
100
AcDbLine
10
252.620000000000
20
75.600000000000
30
0.0
11
262.620000000000
21
85.600000000000
31
0.0
0
LINE
5
44d
100
AcDbEntity
8
0-3
6
CONTINUOUS
62
7
100
AcDbLine
10
238.480000000000
20
75.600000000000
30
0.0
11
248.480000000000
21
85.600000000000
31
0.0
0
LINE
5
44e
100
AcDbEntity
8
0-3
6
CONTINUOUS
62
7
100
AcDbLine
10
224.340000000000
20
75.600000000000
30
0.0
11
234.340000000000
21
85.600000000000
31
0.0
0
LINE
5
44f
100
AcDbEntity
8
0-3
6
CONTINUOUS
62
7
100
AcDbLine
10
259.990000000000
20
70.210000000000
30
0.0
11
269.450000000000
21
86.600000000000
31
0.0
0
LINE
5
450
100
AcDbEntity
8
0-3
6
CONTINUOUS
62
7
100
AcDbLine
10
260.220000000000
20
179.050000000000
30
0.0
11
260.220000000000
21
149.930000000000
31
0.0
0
LINE
5
451
100
AcDbEntity
8
0-3
6
CONTINUOUS
62
7
100
AcDbLine
10
256.220000000000
20
169.930000000000
30
0.0
11
260.220000000000
21
149.930000000000
31
0.0
0
LINE
5
452
100
AcDbEntity
8
0-3
6
CONTINUOUS
62
7
100
AcDbLine
10
260.220000000000
20
169.930000000000
30
0.0
11
256.220000000000
21
169.930000000000
31
0.0
0
LINE
5
453
100
AcDbEntity
8
F-F
6
CONTINUOUS
62
2
100
AcDbLine
10
27.380000000000
20
11.820000000000
30
0.0
11
27.380000000000
21
571.820000000000
31
0.0
0
LINE
5
454
100
AcDbEntity
8
F-F
6
CONTINUOUS
62
2
100
AcDbLine
10
642.380000000000
20
41.450000000000
30
0.0
11
642.380000000000
21
11.820000000000
31
0.0
0
LINE
5
455
100
AcDbEntity
8
F-F
6
CONTINUOUS
62
2
100
AcDbLine
10
607.270000000000
20
41.450000000000
30
0.0
11
607.270000000000
21
11.820000000000
31
0.0
0
LINE
5
456
100
AcDbEntity
8
F-F
6
CONTINUOUS
62
2
100
AcDbLine
10
768.560000000000
20
11.820000000000
30
0.0
11
768.560000000000
21
41.450000000000
31
0.0
0
LINE
5
457
100
AcDbEntity
8
F-F
6
CONTINUOUS
62
2
100
AcDbLine
10
403.450000000000
20
41.450000000000
30
0.0
11
403.450000000000
21
11.820000000000
31
0.0
0
LINE
5
458
100
AcDbEntity
8
F-F
6
CONTINUOUS
62
2
100
AcDbLine
10
504.870000000000
20
41.450000000000
30
0.0
11
504.870000000000
21
11.820000000000
31
0.0
0
LINE
5
459
100
AcDbEntity
8
F-F
6
CONTINUOUS
62
2
100
AcDbLine
10
403.450000000000
20
31.570000000000
30
0.0
11
184.880000000000
21
31.570000000000
31
0.0
0
LINE
5
45a
100
AcDbEntity
8
F-F
6
CONTINUOUS
62
2
100
AcDbLine
10
403.450000000000
20
21.690000000000
30
0.0
11
184.880000000000
21
21.690000000000
31
0.0
0
LINE
5
45b
100
AcDbEntity
8
F-F
6
CONTINUOUS
62
2
100
AcDbLine
10
403.450000000000
20
16.760000000000
30
0.0
11
184.880000000000
21
16.760000000000
31
0.0
0
LINE
5
45c
100
AcDbEntity
8
F-F
6
CONTINUOUS
62
2
100
AcDbLine
10
403.450000000000
20
36.510000000000
30
0.0
11
184.880000000000
21
36.510000000000
31
0.0
0
LINE
5
45d
100
AcDbEntity
8
F-F
6
CONTINUOUS
62
2
100
AcDbLine
10
211.210000000000
20
41.450000000000
30
0.0
11
211.210000000000
21
11.820000000000
31
0.0
0
LINE
5
45e
100
AcDbEntity
8
F-F
6
CONTINUOUS
62
2
100
AcDbLine
10
184.880000000000
20
41.450000000000
30
0.0
11
184.880000000000
21
11.820000000000
31
0.0
0
LINE
5
45f
100
AcDbEntity
8
F-F
6
CONTINUOUS
62
2
100
AcDbLine
10
815.820000000000
20
11.820000000000
30
0.0
11
815.820000000000
21
571.820000000000
31
0.0
0
LINE
5
460
100
AcDbEntity
8
F-F
6
CONTINUOUS
62
2
100
AcDbLine
10
27.380000000000
20
571.820000000000
30
0.0
11
815.820000000000
21
571.820000000000
31
0.0
0
LINE
5
461
100
AcDbEntity
8
F-F
6
CONTINUOUS
62
2
100
AcDbLine
10
27.380000000000
20
11.820000000000
30
0.0
11
815.820000000000
21
11.820000000000
31
0.0
0
LINE
5
462
100
AcDbEntity
8
F-F
6
CONTINUOUS
62
2
100
AcDbLine
10
815.820000000000
20
41.450000000000
30
0.0
11
27.380000000000
21
41.450000000000
31
0.0
0
LINE
5
463
100
AcDbEntity
8
F-F
6
CONTINUOUS
62
2
100
AcDbLine
10
184.880000000000
20
26.630000000000
30
0.0
11
815.820000000000
21
26.630000000000
31
0.0
0
POLYLINE
5
464
100
AcDbEntity
8
F-F
6
CONTINUOUS
62
  3
100
AcDb2dPolyline
66
1
10
0.0
20
0.0
30
0.0
70
0
0
VERTEX
5
465
100
AcDbEntity
8
F-F
6
CONTINUOUS
62
  3
100
AcDbVertex
100
AcDb2dVertex
10
35.860000000000
20
29.550000000000
30
0.0
0
VERTEX
5
466
100
AcDbEntity
8
F-F
6
CONTINUOUS
62
  3
100
AcDbVertex
100
AcDb2dVertex
10
35.860000000000
20
37.550000000000
30
0.0
0
VERTEX
5
467
100
AcDbEntity
8
F-F
6
CONTINUOUS
62
  3
100
AcDbVertex
100
AcDb2dVertex
10
43.860000000000
20
37.550000000000
30
0.0
0
VERTEX
5
468
100
AcDbEntity
8
F-F
6
CONTINUOUS
62
  3
100
AcDbVertex
100
AcDb2dVertex
10
43.860000000000
20
29.550000000000
30
0.0
0
VERTEX
5
469
100
AcDbEntity
8
F-F
6
CONTINUOUS
62
  3
100
AcDbVertex
100
AcDb2dVertex
10
35.860000000000
20
29.550000000000
30
0.0
0
SEQEND
5
46a
100
AcDbEntity
8
F-F
0
LINE
5
46b
100
AcDbEntity
8
F-F
6
CONTINUOUS
62
3
100
AcDbLine
10
36.660000000000
20
30.630000000000
30
0.0
11
36.660000000000
21
36.750000000000
31
0.0
0
LINE
5
46c
100
AcDbEntity
8
F-F
6
CONTINUOUS
62
3
100
AcDbLine
10
43.060000000000
20
30.350000000000
30
0.0
11
36.940000000000
21
30.350000000000
31
0.0
0
POLYLINE
5
46d
100
AcDbEntity
8
F-F
6
CONTINUOUS
62
  3
100
AcDb2dPolyline
66
1
10
0.0
20
0.0
30
0.0
70
0
0
VERTEX
5
46e
100
AcDbEntity
8
F-F
6
CONTINUOUS
62
  3
100
AcDbVertex
100
AcDb2dVertex
10
36.660000000000
20
36.750000000000
30
0.0
0
VERTEX
5
46f
100
AcDbEntity
8
F-F
6
CONTINUOUS
62
  3
100
AcDbVertex
100
AcDb2dVertex
10
42.770000000000
20
36.750000000000
30
0.0
0
VERTEX
5
470
100
AcDbEntity
8
F-F
6
CONTINUOUS
62
  3
100
AcDbVertex
100
AcDb2dVertex
10
36.660000000000
20
30.630000000000
30
0.0
0
SEQEND
5
471
100
AcDbEntity
8
F-F
0
LINE
5
472
100
AcDbEntity
8
F-F
6
CONTINUOUS
62
3
100
AcDbLine
10
43.060000000000
20
36.470000000000
30
0.0
11
36.940000000000
21
30.350000000000
31
0.0
0
LINE
5
473
100
AcDbEntity
8
F-F
6
CONTINUOUS
62
3
100
AcDbLine
10
43.060000000000
20
36.470000000000
30
0.0
11
43.060000000000
21
30.350000000000
31
0.0
0
LINE
5
474
100
AcDbEntity
8
F-F
6
CONTINUOUS
62
4
100
AcDbLine
10
35.860000000000
20
37.470000000000
30
0.0
11
43.860000000000
21
37.470000000000
31
0.0
0
LINE
5
475
100
AcDbEntity
8
F-F
6
CONTINUOUS
62
4
100
AcDbLine
10
35.860000000000
20
37.310000000000
30
0.0
11
43.860000000000
21
37.310000000000
31
0.0
0
LINE
5
476
100
AcDbEntity
8
F-F
6
CONTINUOUS
62
4
100
AcDbLine
10
35.860000000000
20
37.150000000000
30
0.0
11
43.860000000000
21
37.150000000000
31
0.0
0
LINE
5
477
100
AcDbEntity
8
F-F
6
CONTINUOUS
62
4
100
AcDbLine
10
35.860000000000
20
36.990000000000
30
0.0
11
43.860000000000
21
36.990000000000
31
0.0
0
LINE
5
478
100
AcDbEntity
8
F-F
6
CONTINUOUS
62
4
100
AcDbLine
10
35.860000000000
20
36.830000000000
30
0.0
11
43.860000000000
21
36.830000000000
31
0.0
0
LINE
5
479
100
AcDbEntity
8
F-F
6
CONTINUOUS
62
4
100
AcDbLine
10
35.860000000000
20
30.270000000000
30
0.0
11
43.860000000000
21
30.270000000000
31
0.0
0
LINE
5
47a
100
AcDbEntity
8
F-F
6
CONTINUOUS
62
4
100
AcDbLine
10
35.860000000000
20
30.110000000000
30
0.0
11
43.860000000000
21
30.110000000000
31
0.0
0
LINE
5
47b
100
AcDbEntity
8
F-F
6
CONTINUOUS
62
4
100
AcDbLine
10
35.860000000000
20
29.950000000000
30
0.0
11
43.860000000000
21
29.950000000000
31
0.0
0
LINE
5
47c
100
AcDbEntity
8
F-F
6
CONTINUOUS
62
4
100
AcDbLine
10
35.860000000000
20
29.790000000000
30
0.0
11
43.860000000000
21
29.790000000000
31
0.0
0
LINE
5
47d
100
AcDbEntity
8
F-F
6
CONTINUOUS
62
4
100
AcDbLine
10
35.860000000000
20
29.630000000000
30
0.0
11
43.860000000000
21
29.630000000000
31
0.0
0
LINE
5
47e
100
AcDbEntity
8
F-F
6
CONTINUOUS
62
4
100
AcDbLine
10
35.860000000000
20
30.750000000000
30
0.0
11
36.660000000000
21
30.750000000000
31
0.0
0
LINE
5
47f
100
AcDbEntity
8
F-F
6
CONTINUOUS
62
4
100
AcDbLine
10
35.860000000000
20
30.910000000000
30
0.0
11
36.660000000000
21
30.910000000000
31
0.0
0
LINE
5
480
100
AcDbEntity
8
F-F
6
CONTINUOUS
62
4
100
AcDbLine
10
35.860000000000
20
31.070000000000
30
0.0
11
36.660000000000
21
31.070000000000
31
0.0
0
LINE
5
481
100
AcDbEntity
8
F-F
6
CONTINUOUS
62
4
100
AcDbLine
10
35.860000000000
20
31.230000000000
30
0.0
11
36.660000000000
21
31.230000000000
31
0.0
0
LINE
5
482
100
AcDbEntity
8
F-F
6
CONTINUOUS
62
4
100
AcDbLine
10
35.860000000000
20
31.390000000000
30
0.0
11
36.660000000000
21
31.390000000000
31
0.0
0
LINE
5
483
100
AcDbEntity
8
F-F
6
CONTINUOUS
62
4
100
AcDbLine
10
35.860000000000
20
31.550000000000
30
0.0
11
36.660000000000
21
31.550000000000
31
0.0
0
LINE
5
484
100
AcDbEntity
8
F-F
6
CONTINUOUS
62
4
100
AcDbLine
10
35.860000000000
20
31.710000000000
30
0.0
11
36.660000000000
21
31.710000000000
31
0.0
0
LINE
5
485
100
AcDbEntity
8
F-F
6
CONTINUOUS
62
4
100
AcDbLine
10
35.860000000000
20
31.870000000000
30
0.0
11
36.660000000000
21
31.870000000000
31
0.0
0
LINE
5
486
100
AcDbEntity
8
F-F
6
CONTINUOUS
62
4
100
AcDbLine
10
35.860000000000
20
32.030000000000
30
0.0
11
36.660000000000
21
32.030000000000
31
0.0
0
LINE
5
487
100
AcDbEntity
8
F-F
6
CONTINUOUS
62
4
100
AcDbLine
10
35.860000000000
20
32.190000000000
30
0.0
11
36.660000000000
21
32.190000000000
31
0.0
0
LINE
5
488
100
AcDbEntity
8
F-F
6
CONTINUOUS
62
4
100
AcDbLine
10
35.860000000000
20
32.350000000000
30
0.0
11
36.660000000000
21
32.350000000000
31
0.0
0
LINE
5
489
100
AcDbEntity
8
F-F
6
CONTINUOUS
62
4
100
AcDbLine
10
35.860000000000
20
32.510000000000
30
0.0
11
36.660000000000
21
32.510000000000
31
0.0
0
LINE
5
48a
100
AcDbEntity
8
F-F
6
CONTINUOUS
62
4
100
AcDbLine
10
35.860000000000
20
32.670000000000
30
0.0
11
36.660000000000
21
32.670000000000
31
0.0
0
LINE
5
48b
100
AcDbEntity
8
F-F
6
CONTINUOUS
62
4
100
AcDbLine
10
35.860000000000
20
32.830000000000
30
0.0
11
36.660000000000
21
32.830000000000
31
0.0
0
LINE
5
48c
100
AcDbEntity
8
F-F
6
CONTINUOUS
62
4
100
AcDbLine
10
35.860000000000
20
32.990000000000
30
0.0
11
36.660000000000
21
32.990000000000
31
0.0
0
LINE
5
48d
100
AcDbEntity
8
F-F
6
CONTINUOUS
62
4
100
AcDbLine
10
35.860000000000
20
33.150000000000
30
0.0
11
36.660000000000
21
33.150000000000
31
0.0
0
LINE
5
48e
100
AcDbEntity
8
F-F
6
CONTINUOUS
62
4
100
AcDbLine
10
35.860000000000
20
33.310000000000
30
0.0
11
36.660000000000
21
33.310000000000
31
0.0
0
LINE
5
48f
100
AcDbEntity
8
F-F
6
CONTINUOUS
62
4
100
AcDbLine
10
35.860000000000
20
33.470000000000
30
0.0
11
36.660000000000
21
33.470000000000
31
0.0
0
LINE
5
490
100
AcDbEntity
8
F-F
6
CONTINUOUS
62
4
100
AcDbLine
10
35.860000000000
20
33.630000000000
30
0.0
11
36.660000000000
21
33.630000000000
31
0.0
0
LINE
5
491
100
AcDbEntity
8
F-F
6
CONTINUOUS
62
4
100
AcDbLine
10
35.860000000000
20
33.790000000000
30
0.0
11
36.660000000000
21
33.790000000000
31
0.0
0
LINE
5
492
100
AcDbEntity
8
F-F
6
CONTINUOUS
62
4
100
AcDbLine
10
35.860000000000
20
33.950000000000
30
0.0
11
36.660000000000
21
33.950000000000
31
0.0
0
LINE
5
493
100
AcDbEntity
8
F-F
6
CONTINUOUS
62
4
100
AcDbLine
10
35.860000000000
20
34.110000000000
30
0.0
11
36.660000000000
21
34.110000000000
31
0.0
0
LINE
5
494
100
AcDbEntity
8
F-F
6
CONTINUOUS
62
4
100
AcDbLine
10
35.860000000000
20
34.270000000000
30
0.0
11
36.660000000000
21
34.270000000000
31
0.0
0
LINE
5
495
100
AcDbEntity
8
F-F
6
CONTINUOUS
62
4
100
AcDbLine
10
35.860000000000
20
34.430000000000
30
0.0
11
36.660000000000
21
34.430000000000
31
0.0
0
LINE
5
496
100
AcDbEntity
8
F-F
6
CONTINUOUS
62
4
100
AcDbLine
10
35.860000000000
20
34.910000000000
30
0.0
11
36.660000000000
21
34.910000000000
31
0.0
0
LINE
5
497
100
AcDbEntity
8
F-F
6
CONTINUOUS
62
4
100
AcDbLine
10
35.860000000000
20
35.390000000000
30
0.0
11
36.660000000000
21
35.390000000000
31
0.0
0
LINE
5
498
100
AcDbEntity
8
F-F
6
CONTINUOUS
62
4
100
AcDbLine
10
35.860000000000
20
35.550000000000
30
0.0
11
36.660000000000
21
35.550000000000
31
0.0
0
LINE
5
499
100
AcDbEntity
8
F-F
6
CONTINUOUS
62
4
100
AcDbLine
10
35.860000000000
20
35.710000000000
30
0.0
11
36.660000000000
21
35.710000000000
31
0.0
0
LINE
5
49a
100
AcDbEntity
8
F-F
6
CONTINUOUS
62
4
100
AcDbLine
10
35.860000000000
20
35.870000000000
30
0.0
11
36.660000000000
21
35.870000000000
31
0.0
0
LINE
5
49b
100
AcDbEntity
8
F-F
6
CONTINUOUS
62
4
100
AcDbLine
10
35.860000000000
20
36.670000000000
30
0.0
11
36.660000000000
21
36.670000000000
31
0.0
0
LINE
5
49c
100
AcDbEntity
8
F-F
6
CONTINUOUS
62
4
100
AcDbLine
10
35.860000000000
20
36.510000000000
30
0.0
11
36.660000000000
21
36.510000000000
31
0.0
0
LINE
5
49d
100
AcDbEntity
8
F-F
6
CONTINUOUS
62
4
100
AcDbLine
10
35.860000000000
20
36.350000000000
30
0.0
11
36.660000000000
21
36.350000000000
31
0.0
0
LINE
5
49e
100
AcDbEntity
8
F-F
6
CONTINUOUS
62
4
100
AcDbLine
10
35.860000000000
20
36.190000000000
30
0.0
11
36.660000000000
21
36.190000000000
31
0.0
0
LINE
5
49f
100
AcDbEntity
8
F-F
6
CONTINUOUS
62
4
100
AcDbLine
10
35.860000000000
20
36.030000000000
30
0.0
11
36.660000000000
21
36.030000000000
31
0.0
0
LINE
5
4a0
100
AcDbEntity
8
F-F
6
CONTINUOUS
62
4
100
AcDbLine
10
35.860000000000
20
35.070000000000
30
0.0
11
36.660000000000
21
35.070000000000
31
0.0
0
LINE
5
4a1
100
AcDbEntity
8
F-F
6
CONTINUOUS
62
4
100
AcDbLine
10
35.860000000000
20
35.230000000000
30
0.0
11
36.660000000000
21
35.230000000000
31
0.0
0
LINE
5
4a2
100
AcDbEntity
8
F-F
6
CONTINUOUS
62
4
100
AcDbLine
10
35.860000000000
20
34.750000000000
30
0.0
11
36.660000000000
21
34.750000000000
31
0.0
0
LINE
5
4a3
100
AcDbEntity
8
F-F
6
CONTINUOUS
62
4
100
AcDbLine
10
35.860000000000
20
34.590000000000
30
0.0
11
36.660000000000
21
34.590000000000
31
0.0
0
LINE
5
4a4
100
AcDbEntity
8
F-F
6
CONTINUOUS
62
4
100
AcDbLine
10
36.940000000000
20
30.910000000000
30
0.0
11
37.500000000000
21
30.910000000000
31
0.0
0
LINE
5
4a5
100
AcDbEntity
8
F-F
6
CONTINUOUS
62
4
100
AcDbLine
10
36.770000000000
20
30.750000000000
30
0.0
11
37.340000000000
21
30.750000000000
31
0.0
0
LINE
5
4a6
100
AcDbEntity
8
F-F
6
CONTINUOUS
62
4
100
AcDbLine
10
35.860000000000
20
30.590000000000
30
0.0
11
37.180000000000
21
30.590000000000
31
0.0
0
LINE
5
4a7
100
AcDbEntity
8
F-F
6
CONTINUOUS
62
4
100
AcDbLine
10
35.860000000000
20
30.430000000000
30
0.0
11
37.020000000000
21
30.430000000000
31
0.0
0
LINE
5
4a8
100
AcDbEntity
8
F-F
6
CONTINUOUS
62
4
100
AcDbLine
10
37.900000000000
20
31.870000000000
30
0.0
11
38.460000000000
21
31.870000000000
31
0.0
0
LINE
5
4a9
100
AcDbEntity
8
F-F
6
CONTINUOUS
62
4
100
AcDbLine
10
37.740000000000
20
31.710000000000
30
0.0
11
38.300000000000
21
31.710000000000
31
0.0
0
LINE
5
4aa
100
AcDbEntity
8
F-F
6
CONTINUOUS
62
4
100
AcDbLine
10
37.580000000000
20
31.550000000000
30
0.0
11
38.140000000000
21
31.550000000000
31
0.0
0
LINE
5
4ab
100
AcDbEntity
8
F-F
6
CONTINUOUS
62
4
100
AcDbLine
10
37.410000000000
20
31.390000000000
30
0.0
11
37.980000000000
21
31.390000000000
31
0.0
0
LINE
5
4ac
100
AcDbEntity
8
F-F
6
CONTINUOUS
62
4
100
AcDbLine
10
37.250000000000
20
31.230000000000
30
0.0
11
37.820000000000
21
31.230000000000
31
0.0
0
LINE
5
4ad
100
AcDbEntity
8
F-F
6
CONTINUOUS
62
4
100
AcDbLine
10
37.100000000000
20
31.070000000000
30
0.0
11
37.660000000000
21
31.070000000000
31
0.0
0
LINE
5
4ae
100
AcDbEntity
8
F-F
6
CONTINUOUS
62
4
100
AcDbLine
10
36.660000000000
20
36.750000000000
30
0.0
11
36.660000000000
21
36.910000000000
31
0.0
0
LINE
5
4af
100
AcDbEntity
8
F-F
6
CONTINUOUS
62
4
100
AcDbLine
10
43.060000000000
20
30.750000000000
30
0.0
11
43.860000000000
21
30.750000000000
31
0.0
0
LINE
5
4b0
100
AcDbEntity
8
F-F
6
CONTINUOUS
62
4
100
AcDbLine
10
43.060000000000
20
30.910000000000
30
0.0
11
43.860000000000
21
30.910000000000
31
0.0
0
LINE
5
4b1
100
AcDbEntity
8
F-F
6
CONTINUOUS
62
4
100
AcDbLine
10
43.060000000000
20
31.070000000000
30
0.0
11
43.860000000000
21
31.070000000000
31
0.0
0
LINE
5
4b2
100
AcDbEntity
8
F-F
6
CONTINUOUS
62
4
100
AcDbLine
10
43.060000000000
20
31.230000000000
30
0.0
11
43.860000000000
21
31.230000000000
31
0.0
0
LINE
5
4b3
100
AcDbEntity
8
F-F
6
CONTINUOUS
62
4
100
AcDbLine
10
43.060000000000
20
31.390000000000
30
0.0
11
43.860000000000
21
31.390000000000
31
0.0
0
LINE
5
4b4
100
AcDbEntity
8
F-F
6
CONTINUOUS
62
4
100
AcDbLine
10
43.060000000000
20
31.550000000000
30
0.0
11
43.860000000000
21
31.550000000000
31
0.0
0
LINE
5
4b5
100
AcDbEntity
8
F-F
6
CONTINUOUS
62
4
100
AcDbLine
10
43.060000000000
20
31.710000000000
30
0.0
11
43.860000000000
21
31.710000000000
31
0.0
0
LINE
5
4b6
100
AcDbEntity
8
F-F
6
CONTINUOUS
62
4
100
AcDbLine
10
43.060000000000
20
31.870000000000
30
0.0
11
43.860000000000
21
31.870000000000
31
0.0
0
LINE
5
4b7
100
AcDbEntity
8
F-F
6
CONTINUOUS
62
4
100
AcDbLine
10
43.060000000000
20
32.030000000000
30
0.0
11
43.860000000000
21
32.030000000000
31
0.0
0
LINE
5
4b8
100
AcDbEntity
8
F-F
6
CONTINUOUS
62
4
100
AcDbLine
10
43.060000000000
20
32.190000000000
30
0.0
11
43.860000000000
21
32.190000000000
31
0.0
0
LINE
5
4b9
100
AcDbEntity
8
F-F
6
CONTINUOUS
62
4
100
AcDbLine
10
43.060000000000
20
32.350000000000
30
0.0
11
43.860000000000
21
32.350000000000
31
0.0
0
LINE
5
4ba
100
AcDbEntity
8
F-F
6
CONTINUOUS
62
4
100
AcDbLine
10
43.060000000000
20
32.510000000000
30
0.0
11
43.860000000000
21
32.510000000000
31
0.0
0
LINE
5
4bb
100
AcDbEntity
8
F-F
6
CONTINUOUS
62
4
100
AcDbLine
10
43.060000000000
20
32.670000000000
30
0.0
11
43.860000000000
21
32.670000000000
31
0.0
0
LINE
5
4bc
100
AcDbEntity
8
F-F
6
CONTINUOUS
62
4
100
AcDbLine
10
43.060000000000
20
32.990000000000
30
0.0
11
43.860000000000
21
32.990000000000
31
0.0
0
LINE
5
4bd
100
AcDbEntity
8
F-F
6
CONTINUOUS
62
4
100
AcDbLine
10
43.060000000000
20
33.150000000000
30
0.0
11
43.860000000000
21
33.150000000000
31
0.0
0
LINE
5
4be
100
AcDbEntity
8
F-F
6
CONTINUOUS
62
4
100
AcDbLine
10
43.060000000000
20
33.310000000000
30
0.0
11
43.860000000000
21
33.310000000000
31
0.0
0
LINE
5
4bf
100
AcDbEntity
8
F-F
6
CONTINUOUS
62
4
100
AcDbLine
10
43.060000000000
20
33.470000000000
30
0.0
11
43.860000000000
21
33.470000000000
31
0.0
0
LINE
5
4c0
100
AcDbEntity
8
F-F
6
CONTINUOUS
62
4
100
AcDbLine
10
43.060000000000
20
33.630000000000
30
0.0
11
43.860000000000
21
33.630000000000
31
0.0
0
LINE
5
4c1
100
AcDbEntity
8
F-F
6
CONTINUOUS
62
4
100
AcDbLine
10
43.060000000000
20
33.790000000000
30
0.0
11
43.860000000000
21
33.790000000000
31
0.0
0
LINE
5
4c2
100
AcDbEntity
8
F-F
6
CONTINUOUS
62
4
100
AcDbLine
10
43.060000000000
20
33.950000000000
30
0.0
11
43.860000000000
21
33.950000000000
31
0.0
0
LINE
5
4c3
100
AcDbEntity
8
F-F
6
CONTINUOUS
62
4
100
AcDbLine
10
43.060000000000
20
34.110000000000
30
0.0
11
43.860000000000
21
34.110000000000
31
0.0
0
LINE
5
4c4
100
AcDbEntity
8
F-F
6
CONTINUOUS
62
4
100
AcDbLine
10
43.060000000000
20
34.270000000000
30
0.0
11
43.860000000000
21
34.270000000000
31
0.0
0
LINE
5
4c5
100
AcDbEntity
8
F-F
6
CONTINUOUS
62
4
100
AcDbLine
10
43.060000000000
20
34.430000000000
30
0.0
11
43.860000000000
21
34.430000000000
31
0.0
0
LINE
5
4c6
100
AcDbEntity
8
F-F
6
CONTINUOUS
62
4
100
AcDbLine
10
43.060000000000
20
34.910000000000
30
0.0
11
43.860000000000
21
34.910000000000
31
0.0
0
LINE
5
4c7
100
AcDbEntity
8
F-F
6
CONTINUOUS
62
4
100
AcDbLine
10
43.060000000000
20
35.390000000000
30
0.0
11
43.860000000000
21
35.390000000000
31
0.0
0
LINE
5
4c8
100
AcDbEntity
8
F-F
6
CONTINUOUS
62
4
100
AcDbLine
10
43.060000000000
20
35.550000000000
30
0.0
11
43.860000000000
21
35.550000000000
31
0.0
0
LINE
5
4c9
100
AcDbEntity
8
F-F
6
CONTINUOUS
62
4
100
AcDbLine
10
43.060000000000
20
35.710000000000
30
0.0
11
43.860000000000
21
35.710000000000
31
0.0
0
LINE
5
4ca
100
AcDbEntity
8
F-F
6
CONTINUOUS
62
4
100
AcDbLine
10
43.060000000000
20
35.870000000000
30
0.0
11
43.860000000000
21
35.870000000000
31
0.0
0
LINE
5
4cb
100
AcDbEntity
8
F-F
6
CONTINUOUS
62
4
100
AcDbLine
10
43.060000000000
20
36.350000000000
30
0.0
11
43.860000000000
21
36.350000000000
31
0.0
0
LINE
5
4cc
100
AcDbEntity
8
F-F
6
CONTINUOUS
62
4
100
AcDbLine
10
43.060000000000
20
36.190000000000
30
0.0
11
43.860000000000
21
36.190000000000
31
0.0
0
LINE
5
4cd
100
AcDbEntity
8
F-F
6
CONTINUOUS
62
4
100
AcDbLine
10
43.060000000000
20
36.030000000000
30
0.0
11
43.860000000000
21
36.030000000000
31
0.0
0
LINE
5
4ce
100
AcDbEntity
8
F-F
6
CONTINUOUS
62
4
100
AcDbLine
10
43.060000000000
20
35.070000000000
30
0.0
11
43.860000000000
21
35.070000000000
31
0.0
0
LINE
5
4cf
100
AcDbEntity
8
F-F
6
CONTINUOUS
62
4
100
AcDbLine
10
43.060000000000
20
35.230000000000
30
0.0
11
43.860000000000
21
35.230000000000
31
0.0
0
LINE
5
4d0
100
AcDbEntity
8
F-F
6
CONTINUOUS
62
4
100
AcDbLine
10
43.060000000000
20
34.750000000000
30
0.0
11
43.860000000000
21
34.750000000000
31
0.0
0
LINE
5
4d1
100
AcDbEntity
8
F-F
6
CONTINUOUS
62
4
100
AcDbLine
10
43.060000000000
20
34.590000000000
30
0.0
11
43.860000000000
21
34.590000000000
31
0.0
0
LINE
5
4d2
100
AcDbEntity
8
F-F
6
CONTINUOUS
62
4
100
AcDbLine
10
43.060000000000
20
30.430000000000
30
0.0
11
43.860000000000
21
30.430000000000
31
0.0
0
LINE
5
4d3
100
AcDbEntity
8
F-F
6
CONTINUOUS
62
4
100
AcDbLine
10
43.060000000000
20
30.590000000000
30
0.0
11
43.860000000000
21
30.590000000000
31
0.0
0
LINE
5
4d4
100
AcDbEntity
8
F-F
6
CONTINUOUS
62
4
100
AcDbLine
10
42.690000000000
20
36.670000000000
30
0.0
11
43.860000000000
21
36.670000000000
31
0.0
0
LINE
5
4d5
100
AcDbEntity
8
F-F
6
CONTINUOUS
62
4
100
AcDbLine
10
42.530000000000
20
36.510000000000
30
0.0
11
43.860000000000
21
36.510000000000
31
0.0
0
LINE
5
4d6
100
AcDbEntity
8
F-F
6
CONTINUOUS
62
4
100
AcDbLine
10
38.530000000000
20
32.510000000000
30
0.0
11
39.100000000000
21
32.510000000000
31
0.0
0
LINE
5
4d7
100
AcDbEntity
8
F-F
6
CONTINUOUS
62
4
100
AcDbLine
10
38.380000000000
20
32.350000000000
30
0.0
11
38.940000000000
21
32.350000000000
31
0.0
0
LINE
5
4d8
100
AcDbEntity
8
F-F
6
CONTINUOUS
62
4
100
AcDbLine
10
38.210000000000
20
32.190000000000
30
0.0
11
38.780000000000
21
32.190000000000
31
0.0
0
LINE
5
4d9
100
AcDbEntity
8
F-F
6
CONTINUOUS
62
4
100
AcDbLine
10
38.060000000000
20
32.030000000000
30
0.0
11
38.620000000000
21
32.030000000000
31
0.0
0
LINE
5
4da
100
AcDbEntity
8
F-F
6
CONTINUOUS
62
4
100
AcDbLine
10
39.170000000000
20
33.150000000000
30
0.0
11
39.740000000000
21
33.150000000000
31
0.0
0
LINE
5
4db
100
AcDbEntity
8
F-F
6
CONTINUOUS
62
4
100
AcDbLine
10
39.010000000000
20
32.990000000000
30
0.0
11
39.580000000000
21
32.990000000000
31
0.0
0
LINE
5
4dc
100
AcDbEntity
8
F-F
6
CONTINUOUS
62
4
100
AcDbLine
10
38.860000000000
20
32.830000000000
30
0.0
11
39.420000000000
21
32.830000000000
31
0.0
0
LINE
5
4dd
100
AcDbEntity
8
F-F
6
CONTINUOUS
62
4
100
AcDbLine
10
38.700000000000
20
32.670000000000
30
0.0
11
39.260000000000
21
32.670000000000
31
0.0
0
LINE
5
4de
100
AcDbEntity
8
F-F
6
CONTINUOUS
62
4
100
AcDbLine
10
39.810000000000
20
33.790000000000
30
0.0
11
40.380000000000
21
33.790000000000
31
0.0
0
LINE
5
4df
100
AcDbEntity
8
F-F
6
CONTINUOUS
62
4
100
AcDbLine
10
39.660000000000
20
33.630000000000
30
0.0
11
40.220000000000
21
33.630000000000
31
0.0
0
LINE
5
4e0
100
AcDbEntity
8
F-F
6
CONTINUOUS
62
4
100
AcDbLine
10
39.500000000000
20
33.470000000000
30
0.0
11
40.060000000000
21
33.470000000000
31
0.0
0
LINE
5
4e1
100
AcDbEntity
8
F-F
6
CONTINUOUS
62
4
100
AcDbLine
10
39.340000000000
20
33.310000000000
30
0.0
11
39.900000000000
21
33.310000000000
31
0.0
0
LINE
5
4e2
100
AcDbEntity
8
F-F
6
CONTINUOUS
62
4
100
AcDbLine
10
40.460000000000
20
34.430000000000
30
0.0
11
41.020000000000
21
34.430000000000
31
0.0
0
LINE
5
4e3
100
AcDbEntity
8
F-F
6
CONTINUOUS
62
4
100
AcDbLine
10
40.290000000000
20
34.270000000000
30
0.0
11
40.860000000000
21
34.270000000000
31
0.0
0
LINE
5
4e4
100
AcDbEntity
8
F-F
6
CONTINUOUS
62
4
100
AcDbLine
10
40.140000000000
20
34.110000000000
30
0.0
11
40.700000000000
21
34.110000000000
31
0.0
0
LINE
5
4e5
100
AcDbEntity
8
F-F
6
CONTINUOUS
62
4
100
AcDbLine
10
39.970000000000
20
33.950000000000
30
0.0
11
40.540000000000
21
33.950000000000
31
0.0
0
LINE
5
4e6
100
AcDbEntity
8
F-F
6
CONTINUOUS
62
4
100
AcDbLine
10
41.100000000000
20
35.070000000000
30
0.0
11
41.660000000000
21
35.070000000000
31
0.0
0
LINE
5
4e7
100
AcDbEntity
8
F-F
6
CONTINUOUS
62
4
100
AcDbLine
10
40.930000000000
20
34.910000000000
30
0.0
11
41.500000000000
21
34.910000000000
31
0.0
0
LINE
5
4e8
100
AcDbEntity
8
F-F
6
CONTINUOUS
62
4
100
AcDbLine
10
40.770000000000
20
34.750000000000
30
0.0
11
41.340000000000
21
34.750000000000
31
0.0
0
LINE
5
4e9
100
AcDbEntity
8
F-F
6
CONTINUOUS
62
4
100
AcDbLine
10
40.610000000000
20
34.590000000000
30
0.0
11
41.180000000000
21
34.590000000000
31
0.0
0
LINE
5
4ea
100
AcDbEntity
8
F-F
6
CONTINUOUS
62
4
100
AcDbLine
10
41.730000000000
20
35.710000000000
30
0.0
11
42.300000000000
21
35.710000000000
31
0.0
0
LINE
5
4eb
100
AcDbEntity
8
F-F
6
CONTINUOUS
62
4
100
AcDbLine
10
41.570000000000
20
35.550000000000
30
0.0
11
42.140000000000
21
35.550000000000
31
0.0
0
LINE
5
4ec
100
AcDbEntity
8
F-F
6
CONTINUOUS
62
4
100
AcDbLine
10
41.420000000000
20
35.390000000000
30
0.0
11
41.980000000000
21
35.390000000000
31
0.0
0
LINE
5
4ed
100
AcDbEntity
8
F-F
6
CONTINUOUS
62
4
100
AcDbLine
10
41.260000000000
20
35.230000000000
30
0.0
11
41.820000000000
21
35.230000000000
31
0.0
0
LINE
5
4ee
100
AcDbEntity
8
F-F
6
CONTINUOUS
62
4
100
AcDbLine
10
42.370000000000
20
36.350000000000
30
0.0
11
42.940000000000
21
36.350000000000
31
0.0
0
LINE
5
4ef
100
AcDbEntity
8
F-F
6
CONTINUOUS
62
4
100
AcDbLine
10
42.220000000000
20
36.190000000000
30
0.0
11
42.780000000000
21
36.190000000000
31
0.0
0
LINE
5
4f0
100
AcDbEntity
8
F-F
6
CONTINUOUS
62
4
100
AcDbLine
10
42.050000000000
20
36.030000000000
30
0.0
11
42.620000000000
21
36.030000000000
31
0.0
0
LINE
5
4f1
100
AcDbEntity
8
F-F
6
CONTINUOUS
62
4
100
AcDbLine
10
41.890000000000
20
35.870000000000
30
0.0
11
42.460000000000
21
35.870000000000
31
0.0
0
LINE
5
4f2
100
AcDbEntity
8
F-F
6
CONTINUOUS
62
4
100
AcDbLine
10
43.060000000000
20
32.830000000000
30
0.0
11
43.860000000000
21
32.830000000000
31
0.0
0
LINE
5
4f3
100
AcDbEntity
8
0-0
6
CONTINUOUS
62
4
100
AcDbLine
10
114.000000000000
20
540.030000000000
30
0.0
11
194.000000000000
21
540.030000000000
31
0.0
0
LINE
5
4f4
100
AcDbEntity
8
0-0
6
CONTINUOUS
62
4
100
AcDbLine
10
648.500000000000
20
540.030000000000
30
0.0
11
728.500000000000
21
540.030000000000
31
0.0
0
LINE
5
4f5
100
AcDbEntity
8
0-0
6
CONTINUOUS
62
4
100
AcDbLine
10
114.000000000000
20
540.030000000000
30
0.0
11
116.900000000000
21
540.800000000000
31
0.0
0
LINE
5
4f6
100
AcDbEntity
8
0-0
6
CONTINUOUS
62
4
100
AcDbLine
10
114.000000000000
20
540.030000000000
30
0.0
11
116.900000000000
21
539.250000000000
31
0.0
0
LINE
5
4f7
100
AcDbEntity
8
0-0
6
CONTINUOUS
62
4
100
AcDbLine
10
728.500000000000
20
540.030000000000
30
0.0
11
725.600000000000
21
539.250000000000
31
0.0
0
LINE
5
4f8
100
AcDbEntity
8
0-0
6
CONTINUOUS
62
4
100
AcDbLine
10
728.500000000000
20
540.030000000000
30
0.0
11
725.600000000000
21
540.800000000000
31
0.0
0
LINE
5
4f9
100
AcDbEntity
8
0-0
6
CONTINUOUS
62
7
100
AcDbLine
10
190.470000000000
20
410.210000000000
30
0.0
11
187.920000000000
21
392.400000000000
31
0.0
0
LINE
5
4fa
100
AcDbEntity
8
0-0
6
CONTINUOUS
62
7
100
AcDbLine
10
197.520000000000
20
410.210000000000
30
0.0
11
200.080000000000
21
392.400000000000
31
0.0
0
LINE
5
4fb
100
AcDbEntity
8
0-0
6
CONTINUOUS
62
7
100
AcDbLine
10
188.510000000000
20
391.710000000000
30
0.0
11
189.800000000000
21
391.710000000000
31
0.0
0
LINE
5
4fc
100
AcDbEntity
8
0-0
6
CONTINUOUS
62
7
100
AcDbLine
10
188.510000000000
20
391.110000000000
30
0.0
11
189.800000000000
21
391.110000000000
31
0.0
0
LINE
5
4fd
100
AcDbEntity
8
0-0
6
CONTINUOUS
62
7
100
AcDbLine
10
188.480000000000
20
385.820000000000
30
0.0
11
190.840000000000
21
389.910000000000
31
0.0
0
LINE
5
4fe
100
AcDbEntity
8
0-0
6
CONTINUOUS
62
7
100
AcDbLine
10
190.320000000000
20
390.210000000000
30
0.0
11
187.960000000000
21
386.120000000000
31
0.0
0
POLYLINE
5
4ff
100
AcDbEntity
8
0-0
6
CONTINUOUS
62
  7
100
AcDb2dPolyline
66
1
10
0.0
20
0.0
30
0.0
70
0
0
VERTEX
5
500
100
AcDbEntity
8
0-0
6
CONTINUOUS
62
  7
100
AcDbVertex
100
AcDb2dVertex
10
189.900000000000
20
388.240000000000
30
0.0
0
VERTEX
5
501
100
AcDbEntity
8
0-0
6
CONTINUOUS
62
  7
100
AcDbVertex
100
AcDb2dVertex
10
190.500000000000
20
388.180000000000
30
0.0
0
VERTEX
5
502
100
AcDbEntity
8
0-0
6
CONTINUOUS
62
  7
100
AcDbVertex
100
AcDb2dVertex
10
190.190000000000
20
385.390000000000
30
0.0
0
SEQEND
5
503
100
AcDbEntity
8
0-0
0
LINE
5
504
100
AcDbEntity
8
0-0
6
CONTINUOUS
62
7
100
AcDbLine
10
189.900000000000
20
388.240000000000
30
0.0
11
189.590000000000
21
385.460000000000
31
0.0
0
LINE
5
505
100
AcDbEntity
8
0-0
6
CONTINUOUS
62
7
100
AcDbLine
10
199.480000000000
20
391.710000000000
30
0.0
11
198.200000000000
21
391.710000000000
31
0.0
0
LINE
5
506
100
AcDbEntity
8
0-0
6
CONTINUOUS
62
7
100
AcDbLine
10
199.480000000000
20
391.110000000000
30
0.0
11
198.200000000000
21
391.110000000000
31
0.0
0
LINE
5
507
100
AcDbEntity
8
0-0
6
CONTINUOUS
62
7
100
AcDbLine
10
202.170000000000
20
382.410000000000
30
0.0
11
197.680000000000
21
390.210000000000
31
0.0
0
LINE
5
508
100
AcDbEntity
8
0-0
6
CONTINUOUS
62
7
100
AcDbLine
10
201.650000000000
20
382.110000000000
30
0.0
11
197.160000000000
21
389.910000000000
31
0.0
0
LINE
5
509
100
AcDbEntity
8
0-0
6
CONTINUOUS
62
7
100
AcDbLine
10
202.690000000000
20
382.110000000000
30
0.0
11
231.750000000000
21
382.110000000000
31
0.0
0
LINE
5
50a
100
AcDbEntity
8
0-0
6
CONTINUOUS
62
7
100
AcDbLine
10
232.600000000000
20
381.760000000000
30
0.0
11
235.070000000000
21
379.290000000000
31
0.0
0
LINE
5
50b
100
AcDbEntity
8
0-0
6
CONTINUOUS
62
7
100
AcDbLine
10
202.690000000000
20
381.510000000000
30
0.0
11
231.750000000000
21
381.510000000000
31
0.0
0
LINE
5
50c
100
AcDbEntity
8
0-0
6
CONTINUOUS
62
7
100
AcDbLine
10
232.170000000000
20
381.340000000000
30
0.0
11
234.650000000000
21
378.860000000000
31
0.0
0
LINE
5
50d
100
AcDbEntity
8
0-0
6
CONTINUOUS
62
7
100
AcDbLine
10
189.840000000000
20
410.010000000000
30
0.0
11
187.320000000000
21
392.480000000000
31
0.0
0
LINE
5
50e
100
AcDbEntity
8
0-0
6
CONTINUOUS
62
7
100
AcDbLine
10
198.160000000000
20
410.010000000000
30
0.0
11
200.670000000000
21
392.480000000000
31
0.0
0
LINE
5
50f
100
AcDbEntity
8
0-0
6
CONTINUOUS
62
7
100
AcDbLine
10
645.400000000000
20
382.710000000000
30
0.0
11
645.400000000000
21
391.510000000000
31
0.0
0
LINE
5
510
100
AcDbEntity
8
0-0
6
CONTINUOUS
62
7
100
AcDbLine
10
646.000000000000
20
382.710000000000
30
0.0
11
646.000000000000
21
391.510000000000
31
0.0
0
LINE
5
511
100
AcDbEntity
8
0-0
6
CONTINUOUS
62
7
100
AcDbLine
10
644.800000000000
20
392.710000000000
30
0.0
11
644.020000000000
21
392.710000000000
31
0.0
0
LINE
5
512
100
AcDbEntity
8
0-0
6
CONTINUOUS
62
7
100
AcDbLine
10
644.800000000000
20
392.110000000000
30
0.0
11
644.020000000000
21
392.110000000000
31
0.0
0
LINE
5
513
100
AcDbEntity
8
0-0
6
CONTINUOUS
62
7
100
AcDbLine
10
643.430000000000
20
393.430000000000
30
0.0
11
646.440000000000
21
408.930000000000
31
0.0
0
LINE
5
514
100
AcDbEntity
8
0-0
6
CONTINUOUS
62
7
100
AcDbLine
10
642.840000000000
20
393.540000000000
30
0.0
11
645.850000000000
21
409.040000000000
31
0.0
0
LINE
5
515
100
AcDbEntity
8
0-0
6
CONTINUOUS
62
7
100
AcDbLine
10
652.200000000000
20
392.710000000000
30
0.0
11
652.980000000000
21
392.710000000000
31
0.0
0
LINE
5
516
100
AcDbEntity
8
0-0
6
CONTINUOUS
62
7
100
AcDbLine
10
652.200000000000
20
392.110000000000
30
0.0
11
652.980000000000
21
392.110000000000
31
0.0
0
LINE
5
517
100
AcDbEntity
8
0-0
6
CONTINUOUS
62
7
100
AcDbLine
10
653.570000000000
20
393.430000000000
30
0.0
11
650.550000000000
21
408.930000000000
31
0.0
0
LINE
5
518
100
AcDbEntity
8
0-0
6
CONTINUOUS
62
7
100
AcDbLine
10
654.160000000000
20
393.540000000000
30
0.0
11
651.140000000000
21
409.040000000000
31
0.0
0
LINE
5
519
100
AcDbEntity
8
0-0
6
CONTINUOUS
62
7
100
AcDbLine
10
651.600000000000
20
379.710000000000
30
0.0
11
651.600000000000
21
391.510000000000
31
0.0
0
LINE
5
51a
100
AcDbEntity
8
0-0
6
CONTINUOUS
62
7
100
AcDbLine
10
651.000000000000
20
379.710000000000
30
0.0
11
651.000000000000
21
391.510000000000
31
0.0
0
LINE
5
51b
100
AcDbEntity
8
0-0
6
CONTINUOUS
62
7
100
AcDbLine
10
652.200000000000
20
379.110000000000
30
0.0
11
657.000000000000
21
379.110000000000
31
0.0
0
LINE
5
51c
100
AcDbEntity
8
0-0
6
CONTINUOUS
62
7
100
AcDbLine
10
657.850000000000
20
378.860000000000
30
0.0
11
658.570000000000
21
379.590000000000
31
0.0
0
LINE
5
51d
100
AcDbEntity
8
0-0
6
CONTINUOUS
62
7
100
AcDbLine
10
652.200000000000
20
378.510000000000
30
0.0
11
657.000000000000
21
378.510000000000
31
0.0
0
LINE
5
51e
100
AcDbEntity
8
0-0
6
CONTINUOUS
62
7
100
AcDbLine
10
660.150000000000
20
378.860000000000
30
0.0
11
659.420000000000
21
379.590000000000
31
0.0
0
LINE
5
51f
100
AcDbEntity
8
0-0
6
CONTINUOUS
62
7
100
AcDbLine
10
660.570000000000
20
379.290000000000
30
0.0
11
659.850000000000
21
380.010000000000
31
0.0
0
LINE
5
520
100
AcDbEntity
8
0-0
6
CONTINUOUS
62
7
100
AcDbLine
10
657.430000000000
20
379.290000000000
30
0.0
11
658.150000000000
21
380.010000000000
31
0.0
0
LINE
5
521
100
AcDbEntity
8
0-0
6
CONTINUOUS
62
7
100
AcDbLine
10
661.000000000000
20
378.510000000000
30
0.0
11
666.490000000000
21
378.510000000000
31
0.0
0
LINE
5
522
100
AcDbEntity
8
0-0
6
CONTINUOUS
62
7
100
AcDbLine
10
667.150000000000
20
378.310000000000
30
0.0
11
667.510000000000
21
378.510000000000
31
0.0
0
LINE
5
523
100
AcDbEntity
8
0-0
6
CONTINUOUS
62
7
100
AcDbLine
10
666.850000000000
20
378.310000000000
30
0.0
11
666.490000000000
21
378.510000000000
31
0.0
0
LINE
5
524
100
AcDbEntity
8
0-0
6
CONTINUOUS
62
7
100
AcDbLine
10
667.000000000000
20
378.910000000000
30
0.0
11
666.720000000000
21
379.070000000000
31
0.0
0
LINE
5
525
100
AcDbEntity
8
0-0
6
CONTINUOUS
62
7
100
AcDbLine
10
661.000000000000
20
379.110000000000
30
0.0
11
666.570000000000
21
379.110000000000
31
0.0
0
LINE
5
526
100
AcDbEntity
8
0-0
6
CONTINUOUS
62
7
100
AcDbLine
10
667.000000000000
20
378.910000000000
30
0.0
11
667.280000000000
21
379.070000000000
31
0.0
0
LINE
5
527
100
AcDbEntity
8
0-0
6
CONTINUOUS
62
7
100
AcDbLine
10
674.000000000000
20
379.910000000000
30
0.0
11
674.000000000000
21
380.510000000000
31
0.0
0
LINE
5
528
100
AcDbEntity
8
0-0
6
CONTINUOUS
62
7
100
AcDbLine
10
677.000000000000
20
380.510000000000
30
0.0
11
674.000000000000
21
380.510000000000
31
0.0
0
LINE
5
529
100
AcDbEntity
8
0-0
6
CONTINUOUS
62
7
100
AcDbLine
10
677.000000000000
20
379.910000000000
30
0.0
11
674.000000000000
21
379.910000000000
31
0.0
0
LINE
5
52a
100
AcDbEntity
8
0-0
6
CONTINUOUS
62
7
100
AcDbLine
10
667.430000000000
20
379.110000000000
30
0.0
11
677.000000000000
21
379.110000000000
31
0.0
0
LINE
5
52b
100
AcDbEntity
8
0-0
6
CONTINUOUS
62
7
100
AcDbLine
10
667.510000000000
20
378.510000000000
30
0.0
11
677.000000000000
21
378.510000000000
31
0.0
0
LINE
5
52c
100
AcDbEntity
8
0-0
6
CONTINUOUS
62
7
100
AcDbLine
10
644.800000000000
20
382.110000000000
30
0.0
11
616.250000000000
21
382.110000000000
31
0.0
0
LINE
5
52d
100
AcDbEntity
8
0-0
6
CONTINUOUS
62
7
100
AcDbLine
10
615.400000000000
20
381.760000000000
30
0.0
11
612.930000000000
21
379.290000000000
31
0.0
0
LINE
5
52e
100
AcDbEntity
8
0-0
6
CONTINUOUS
62
7
100
AcDbLine
10
615.820000000000
20
381.340000000000
30
0.0
11
613.350000000000
21
378.860000000000
31
0.0
0
LINE
5
52f
100
AcDbEntity
8
0-0
6
CONTINUOUS
62
7
100
AcDbLine
10
644.800000000000
20
381.510000000000
30
0.0
11
616.250000000000
21
381.510000000000
31
0.0
0
LINE
5
530
100
AcDbEntity
8
0-0
6
CONTINUOUS
62
7
100
AcDbLine
10
235.500000000000
20
378.510000000000
30
0.0
11
421.250000000000
21
378.510000000000
31
0.0
0
LINE
5
531
100
AcDbEntity
8
0-0
6
CONTINUOUS
62
7
100
AcDbLine
10
235.500000000000
20
379.110000000000
30
0.0
11
421.250000000000
21
379.110000000000
31
0.0
0
LINE
5
532
100
AcDbEntity
8
0-0
6
CONTINUOUS
62
7
100
AcDbLine
10
612.500000000000
20
379.110000000000
30
0.0
11
421.250000000000
21
379.110000000000
31
0.0
0
LINE
5
533
100
AcDbEntity
8
0-0
6
CONTINUOUS
62
7
100
AcDbLine
10
612.500000000000
20
378.510000000000
30
0.0
11
421.250000000000
21
378.510000000000
31
0.0
0
LINE
5
534
100
AcDbEntity
8
0-0
6
CONTINUOUS
62
4
100
AcDbLine
10
616.000000000000
20
373.240000000000
30
0.0
11
616.000000000000
21
364.930000000000
31
0.0
0
LINE
5
535
100
AcDbEntity
8
0-0
6
CONTINUOUS
62
4
100
AcDbLine
10
646.000000000000
20
364.930000000000
30
0.0
11
616.000000000000
21
364.930000000000
31
0.0
0
LINE
5
536
100
AcDbEntity
8
0-0
6
CONTINUOUS
62
4
100
AcDbLine
10
245.640000000000
20
379.110000000000
30
0.0
11
245.640000000000
21
382.110000000000
31
0.0
0
LINE
5
537
100
AcDbEntity
8
0-0
6
CONTINUOUS
62
4
100
AcDbLine
10
202.000000000000
20
373.240000000000
30
0.0
11
202.000000000000
21
364.930000000000
31
0.0
0
LINE
5
538
100
AcDbEntity
8
0-0
6
CONTINUOUS
62
4
100
AcDbLine
10
232.000000000000
20
373.240000000000
30
0.0
11
232.000000000000
21
364.930000000000
31
0.0
0
LINE
5
539
100
AcDbEntity
8
0-0
6
CONTINUOUS
62
4
100
AcDbLine
10
202.000000000000
20
364.930000000000
30
0.0
11
232.000000000000
21
364.930000000000
31
0.0
0
POLYLINE
5
53a
100
AcDbEntity
8
0-0
6
CONTINUOUS
62
  4
100
AcDb2dPolyline
66
1
10
0.0
20
0.0
30
0.0
70
0
0
VERTEX
5
53b
100
AcDbEntity
8
0-0
6
CONTINUOUS
62
  4
100
AcDbVertex
100
AcDb2dVertex
10
194.000000000000
20
431.220000000000
30
0.0
0
VERTEX
5
53c
100
AcDbEntity
8
0-0
6
CONTINUOUS
62
  4
100
AcDbVertex
100
AcDb2dVertex
10
194.000000000000
20
441.220000000000
30
0.0
0
VERTEX
5
53d
100
AcDbEntity
8
0-0
6
CONTINUOUS
62
  4
100
AcDbVertex
100
AcDb2dVertex
10
648.500000000000
20
441.220000000000
30
0.0
0
SEQEND
5
53e
100
AcDbEntity
8
0-0
0
LINE
5
53f
100
AcDbEntity
8
0-0
6
CONTINUOUS
62
4
100
AcDbLine
10
642.500000000000
20
419.660000000000
30
0.0
11
654.500000000000
21
419.660000000000
31
0.0
0
LINE
5
540
100
AcDbEntity
8
0-0
6
CONTINUOUS
62
4
100
AcDbLine
10
187.000000000000
20
419.660000000000
30
0.0
11
201.000000000000
21
419.660000000000
31
0.0
0
LINE
5
541
100
AcDbEntity
8
0-0
6
CONTINUOUS
62
4
100
AcDbLine
10
245.640000000000
20
382.110000000000
30
0.0
11
245.640000000000
21
411.610000000000
31
0.0
0
LINE
5
542
100
AcDbEntity
8
0-0
6
CONTINUOUS
62
4
100
AcDbLine
10
238.810000000000
20
272.110000000000
30
0.0
11
245.640000000000
21
272.110000000000
31
0.0
0
LINE
5
543
100
AcDbEntity
8
0-0
6
CONTINUOUS
62
4
100
AcDbLine
10
187.000000000000
20
302.660000000000
30
0.0
11
187.000000000000
21
309.660000000000
31
0.0
0
LINE
5
544
100
AcDbEntity
8
0-0
6
CONTINUOUS
62
4
100
AcDbLine
10
201.000000000000
20
302.660000000000
30
0.0
11
201.000000000000
21
309.660000000000
31
0.0
0
LINE
5
545
100
AcDbEntity
8
0-0
6
CONTINUOUS
62
4
100
AcDbLine
10
646.000000000000
20
263.240000000000
30
0.0
11
646.000000000000
21
254.930000000000
31
0.0
0
LINE
5
546
100
AcDbEntity
8
0-0
6
CONTINUOUS
62
4
100
AcDbLine
10
642.500000000000
20
302.660000000000
30
0.0
11
642.500000000000
21
309.660000000000
31
0.0
0
LINE
5
547
100
AcDbEntity
8
0-0
6
CONTINUOUS
62
4
100
AcDbLine
10
654.500000000000
20
302.660000000000
30
0.0
11
654.500000000000
21
309.660000000000
31
0.0
0
LINE
5
548
100
AcDbEntity
8
0-0
6
CONTINUOUS
62
4
100
AcDbLine
10
648.500000000000
20
321.220000000000
30
0.0
11
648.500000000000
21
331.220000000000
31
0.0
0
LINE
5
549
100
AcDbEntity
8
0-0
6
CONTINUOUS
62
7
100
AcDbLine
10
190.470000000000
20
300.210000000000
30
0.0
11
187.920000000000
21
282.400000000000
31
0.0
0
LINE
5
54a
100
AcDbEntity
8
0-0
6
CONTINUOUS
62
7
100
AcDbLine
10
197.520000000000
20
300.210000000000
30
0.0
11
200.080000000000
21
282.400000000000
31
0.0
0
LINE
5
54b
100
AcDbEntity
8
0-0
6
CONTINUOUS
62
7
100
AcDbLine
10
188.510000000000
20
281.710000000000
30
0.0
11
189.800000000000
21
281.710000000000
31
0.0
0
LINE
5
54c
100
AcDbEntity
8
0-0
6
CONTINUOUS
62
7
100
AcDbLine
10
188.510000000000
20
281.110000000000
30
0.0
11
189.800000000000
21
281.110000000000
31
0.0
0
LINE
5
54d
100
AcDbEntity
8
0-0
6
CONTINUOUS
62
7
100
AcDbLine
10
188.480000000000
20
275.820000000000
30
0.0
11
190.840000000000
21
279.910000000000
31
0.0
0
LINE
5
54e
100
AcDbEntity
8
0-0
6
CONTINUOUS
62
7
100
AcDbLine
10
190.320000000000
20
280.210000000000
30
0.0
11
187.960000000000
21
276.120000000000
31
0.0
0
POLYLINE
5
54f
100
AcDbEntity
8
0-0
6
CONTINUOUS
62
  7
100
AcDb2dPolyline
66
1
10
0.0
20
0.0
30
0.0
70
0
0
VERTEX
5
550
100
AcDbEntity
8
0-0
6
CONTINUOUS
62
  7
100
AcDbVertex
100
AcDb2dVertex
10
189.900000000000
20
278.240000000000
30
0.0
0
VERTEX
5
551
100
AcDbEntity
8
0-0
6
CONTINUOUS
62
  7
100
AcDbVertex
100
AcDb2dVertex
10
190.500000000000
20
278.180000000000
30
0.0
0
VERTEX
5
552
100
AcDbEntity
8
0-0
6
CONTINUOUS
62
  7
100
AcDbVertex
100
AcDb2dVertex
10
190.190000000000
20
275.390000000000
30
0.0
0
SEQEND
5
553
100
AcDbEntity
8
0-0
0
LINE
5
554
100
AcDbEntity
8
0-0
6
CONTINUOUS
62
7
100
AcDbLine
10
189.900000000000
20
278.240000000000
30
0.0
11
189.590000000000
21
275.460000000000
31
0.0
0
LINE
5
555
100
AcDbEntity
8
0-0
6
CONTINUOUS
62
7
100
AcDbLine
10
199.480000000000
20
281.710000000000
30
0.0
11
198.200000000000
21
281.710000000000
31
0.0
0
LINE
5
556
100
AcDbEntity
8
0-0
6
CONTINUOUS
62
7
100
AcDbLine
10
199.480000000000
20
281.110000000000
30
0.0
11
198.200000000000
21
281.110000000000
31
0.0
0
LINE
5
557
100
AcDbEntity
8
0-0
6
CONTINUOUS
62
7
100
AcDbLine
10
202.170000000000
20
272.410000000000
30
0.0
11
197.680000000000
21
280.210000000000
31
0.0
0
LINE
5
558
100
AcDbEntity
8
0-0
6
CONTINUOUS
62
7
100
AcDbLine
10
201.650000000000
20
272.110000000000
30
0.0
11
197.160000000000
21
279.910000000000
31
0.0
0
LINE
5
559
100
AcDbEntity
8
0-0
6
CONTINUOUS
62
7
100
AcDbLine
10
189.840000000000
20
300.010000000000
30
0.0
11
187.320000000000
21
282.480000000000
31
0.0
0
LINE
5
55a
100
AcDbEntity
8
0-0
6
CONTINUOUS
62
7
100
AcDbLine
10
198.160000000000
20
300.010000000000
30
0.0
11
200.670000000000
21
282.480000000000
31
0.0
0
LINE
5
55b
100
AcDbEntity
8
0-0
6
CONTINUOUS
62
7
100
AcDbLine
10
645.400000000000
20
272.710000000000
30
0.0
11
645.400000000000
21
281.510000000000
31
0.0
0
LINE
5
55c
100
AcDbEntity
8
0-0
6
CONTINUOUS
62
7
100
AcDbLine
10
646.000000000000
20
272.710000000000
30
0.0
11
646.000000000000
21
281.510000000000
31
0.0
0
LINE
5
55d
100
AcDbEntity
8
0-0
6
CONTINUOUS
62
7
100
AcDbLine
10
644.800000000000
20
282.710000000000
30
0.0
11
644.020000000000
21
282.710000000000
31
0.0
0
LINE
5
55e
100
AcDbEntity
8
0-0
6
CONTINUOUS
62
7
100
AcDbLine
10
644.800000000000
20
282.110000000000
30
0.0
11
644.020000000000
21
282.110000000000
31
0.0
0
LINE
5
55f
100
AcDbEntity
8
0-0
6
CONTINUOUS
62
7
100
AcDbLine
10
643.430000000000
20
283.430000000000
30
0.0
11
646.440000000000
21
298.930000000000
31
0.0
0
LINE
5
560
100
AcDbEntity
8
0-0
6
CONTINUOUS
62
7
100
AcDbLine
10
642.840000000000
20
283.540000000000
30
0.0
11
645.850000000000
21
299.040000000000
31
0.0
0
LINE
5
561
100
AcDbEntity
8
0-0
6
CONTINUOUS
62
7
100
AcDbLine
10
652.200000000000
20
282.710000000000
30
0.0
11
652.980000000000
21
282.710000000000
31
0.0
0
LINE
5
562
100
AcDbEntity
8
0-0
6
CONTINUOUS
62
7
100
AcDbLine
10
652.200000000000
20
282.110000000000
30
0.0
11
652.980000000000
21
282.110000000000
31
0.0
0
LINE
5
563
100
AcDbEntity
8
0-0
6
CONTINUOUS
62
7
100
AcDbLine
10
653.570000000000
20
283.430000000000
30
0.0
11
650.550000000000
21
298.930000000000
31
0.0
0
LINE
5
564
100
AcDbEntity
8
0-0
6
CONTINUOUS
62
7
100
AcDbLine
10
654.160000000000
20
283.540000000000
30
0.0
11
651.140000000000
21
299.040000000000
31
0.0
0
LINE
5
565
100
AcDbEntity
8
0-0
6
CONTINUOUS
62
7
100
AcDbLine
10
651.600000000000
20
269.710000000000
30
0.0
11
651.600000000000
21
281.510000000000
31
0.0
0
LINE
5
566
100
AcDbEntity
8
0-0
6
CONTINUOUS
62
7
100
AcDbLine
10
651.000000000000
20
269.710000000000
30
0.0
11
651.000000000000
21
281.510000000000
31
0.0
0
LINE
5
567
100
AcDbEntity
8
0-0
6
CONTINUOUS
62
7
100
AcDbLine
10
652.200000000000
20
269.110000000000
30
0.0
11
657.000000000000
21
269.110000000000
31
0.0
0
LINE
5
568
100
AcDbEntity
8
0-0
6
CONTINUOUS
62
7
100
AcDbLine
10
657.850000000000
20
268.860000000000
30
0.0
11
658.570000000000
21
269.590000000000
31
0.0
0
LINE
5
569
100
AcDbEntity
8
0-0
6
CONTINUOUS
62
7
100
AcDbLine
10
652.200000000000
20
268.510000000000
30
0.0
11
657.000000000000
21
268.510000000000
31
0.0
0
LINE
5
56a
100
AcDbEntity
8
0-0
6
CONTINUOUS
62
7
100
AcDbLine
10
660.150000000000
20
268.860000000000
30
0.0
11
659.420000000000
21
269.590000000000
31
0.0
0
LINE
5
56b
100
AcDbEntity
8
0-0
6
CONTINUOUS
62
7
100
AcDbLine
10
660.570000000000
20
269.290000000000
30
0.0
11
659.850000000000
21
270.010000000000
31
0.0
0
LINE
5
56c
100
AcDbEntity
8
0-0
6
CONTINUOUS
62
7
100
AcDbLine
10
657.430000000000
20
269.290000000000
30
0.0
11
658.150000000000
21
270.010000000000
31
0.0
0
LINE
5
56d
100
AcDbEntity
8
0-0
6
CONTINUOUS
62
7
100
AcDbLine
10
661.000000000000
20
268.510000000000
30
0.0
11
666.490000000000
21
268.510000000000
31
0.0
0
LINE
5
56e
100
AcDbEntity
8
0-0
6
CONTINUOUS
62
7
100
AcDbLine
10
667.150000000000
20
268.300000000000
30
0.0
11
667.510000000000
21
268.510000000000
31
0.0
0
LINE
5
56f
100
AcDbEntity
8
0-0
6
CONTINUOUS
62
7
100
AcDbLine
10
666.850000000000
20
268.300000000000
30
0.0
11
666.490000000000
21
268.510000000000
31
0.0
0
LINE
5
570
100
AcDbEntity
8
0-0
6
CONTINUOUS
62
7
100
AcDbLine
10
667.000000000000
20
268.910000000000
30
0.0
11
666.720000000000
21
269.070000000000
31
0.0
0
LINE
5
571
100
AcDbEntity
8
0-0
6
CONTINUOUS
62
7
100
AcDbLine
10
661.000000000000
20
269.110000000000
30
0.0
11
666.570000000000
21
269.110000000000
31
0.0
0
LINE
5
572
100
AcDbEntity
8
0-0
6
CONTINUOUS
62
7
100
AcDbLine
10
667.000000000000
20
268.910000000000
30
0.0
11
667.280000000000
21
269.070000000000
31
0.0
0
LINE
5
573
100
AcDbEntity
8
0-0
6
CONTINUOUS
62
7
100
AcDbLine
10
674.000000000000
20
269.910000000000
30
0.0
11
674.000000000000
21
270.510000000000
31
0.0
0
LINE
5
574
100
AcDbEntity
8
0-0
6
CONTINUOUS
62
7
100
AcDbLine
10
677.000000000000
20
270.510000000000
30
0.0
11
674.000000000000
21
270.510000000000
31
0.0
0
LINE
5
575
100
AcDbEntity
8
0-0
6
CONTINUOUS
62
7
100
AcDbLine
10
677.000000000000
20
269.910000000000
30
0.0
11
674.000000000000
21
269.910000000000
31
0.0
0
LINE
5
576
100
AcDbEntity
8
0-0
6
CONTINUOUS
62
7
100
AcDbLine
10
667.430000000000
20
269.110000000000
30
0.0
11
677.000000000000
21
269.110000000000
31
0.0
0
LINE
5
577
100
AcDbEntity
8
0-0
6
CONTINUOUS
62
7
100
AcDbLine
10
667.510000000000
20
268.510000000000
30
0.0
11
677.000000000000
21
268.510000000000
31
0.0
0
LINE
5
578
100
AcDbEntity
8
0-0
6
CONTINUOUS
62
4
100
AcDbLine
10
616.000000000000
20
263.240000000000
30
0.0
11
616.000000000000
21
254.930000000000
31
0.0
0
LINE
5
579
100
AcDbEntity
8
0-0
6
CONTINUOUS
62
4
100
AcDbLine
10
646.000000000000
20
254.930000000000
30
0.0
11
616.000000000000
21
254.930000000000
31
0.0
0
LINE
5
57a
100
AcDbEntity
8
0-0
6
CONTINUOUS
62
4
100
AcDbLine
10
245.640000000000
20
269.110000000000
30
0.0
11
245.640000000000
21
272.110000000000
31
0.0
0
LINE
5
57b
100
AcDbEntity
8
0-0
6
CONTINUOUS
62
4
100
AcDbLine
10
202.000000000000
20
263.240000000000
30
0.0
11
202.000000000000
21
254.930000000000
31
0.0
0
LINE
5
57c
100
AcDbEntity
8
0-0
6
CONTINUOUS
62
4
100
AcDbLine
10
232.000000000000
20
263.240000000000
30
0.0
11
232.000000000000
21
254.930000000000
31
0.0
0
LINE
5
57d
100
AcDbEntity
8
0-0
6
CONTINUOUS
62
4
100
AcDbLine
10
202.000000000000
20
254.930000000000
30
0.0
11
232.000000000000
21
254.930000000000
31
0.0
0
POLYLINE
5
57e
100
AcDbEntity
8
0-0
6
CONTINUOUS
62
  4
100
AcDb2dPolyline
66
1
10
0.0
20
0.0
30
0.0
70
0
0
VERTEX
5
57f
100
AcDbEntity
8
0-0
6
CONTINUOUS
62
  4
100
AcDbVertex
100
AcDb2dVertex
10
194.000000000000
20
321.220000000000
30
0.0
0
VERTEX
5
580
100
AcDbEntity
8
0-0
6
CONTINUOUS
62
  4
100
AcDbVertex
100
AcDb2dVertex
10
194.000000000000
20
331.220000000000
30
0.0
0
VERTEX
5
581
100
AcDbEntity
8
0-0
6
CONTINUOUS
62
  4
100
AcDbVertex
100
AcDb2dVertex
10
648.500000000000
20
331.220000000000
30
0.0
0
SEQEND
5
582
100
AcDbEntity
8
0-0
0
LINE
5
583
100
AcDbEntity
8
0-0
6
CONTINUOUS
62
4
100
AcDbLine
10
642.500000000000
20
309.660000000000
30
0.0
11
654.500000000000
21
309.660000000000
31
0.0
0
LINE
5
584
100
AcDbEntity
8
0-0
6
CONTINUOUS
62
4
100
AcDbLine
10
187.000000000000
20
309.660000000000
30
0.0
11
201.000000000000
21
309.660000000000
31
0.0
0
LINE
5
585
100
AcDbEntity
8
0-0
6
CONTINUOUS
62
4
100
AcDbLine
10
245.640000000000
20
272.110000000000
30
0.0
11
245.640000000000
21
301.610000000000
31
0.0
0
LINE
5
586
100
AcDbEntity
8
0-0
6
CONTINUOUS
62
7
100
AcDbLine
10
232.600000000000
20
271.760000000000
30
0.0
11
235.070000000000
21
269.290000000000
31
0.0
0
LINE
5
587
100
AcDbEntity
8
0-0
6
CONTINUOUS
62
7
100
AcDbLine
10
232.170000000000
20
271.340000000000
30
0.0
11
234.650000000000
21
268.860000000000
31
0.0
0
LINE
5
588
100
AcDbEntity
8
0-0
6
CONTINUOUS
62
7
100
AcDbLine
10
222.050000000000
20
271.510000000000
30
0.0
11
231.750000000000
21
271.510000000000
31
0.0
0
LINE
5
589
100
AcDbEntity
8
0-0
6
CONTINUOUS
62
7
100
AcDbLine
10
202.690000000000
20
271.510000000000
30
0.0
11
212.050000000000
21
271.510000000000
31
0.0
0
LINE
5
58a
100
AcDbEntity
8
0-0
6
CONTINUOUS
62
7
100
AcDbLine
10
202.690000000000
20
272.110000000000
30
0.0
11
211.900000000000
21
272.110000000000
31
0.0
0
LINE
5
58b
100
AcDbEntity
8
0-0
6
CONTINUOUS
62
7
100
AcDbLine
10
222.190000000000
20
272.110000000000
30
0.0
11
231.750000000000
21
272.110000000000
31
0.0
0
LINE
5
58c
100
AcDbEntity
8
0-0
6
CONTINUOUS
62
7
100
AcDbLine
10
615.400000000000
20
271.760000000000
30
0.0
11
612.930000000000
21
269.290000000000
31
0.0
0
LINE
5
58d
100
AcDbEntity
8
0-0
6
CONTINUOUS
62
7
100
AcDbLine
10
615.820000000000
20
271.340000000000
30
0.0
11
613.350000000000
21
268.860000000000
31
0.0
0
LINE
5
58e
100
AcDbEntity
8
0-0
6
CONTINUOUS
62
7
100
AcDbLine
10
644.800000000000
20
272.110000000000
30
0.0
11
636.090000000000
21
272.110000000000
31
0.0
0
LINE
5
58f
100
AcDbEntity
8
0-0
6
CONTINUOUS
62
7
100
AcDbLine
10
644.800000000000
20
271.510000000000
30
0.0
11
635.950000000000
21
271.510000000000
31
0.0
0
LINE
5
590
100
AcDbEntity
8
0-0
6
CONTINUOUS
62
7
100
AcDbLine
10
625.950000000000
20
271.510000000000
30
0.0
11
616.250000000000
21
271.510000000000
31
0.0
0
LINE
5
591
100
AcDbEntity
8
0-0
6
CONTINUOUS
62
7
100
AcDbLine
10
625.800000000000
20
272.110000000000
30
0.0
11
616.250000000000
21
272.110000000000
31
0.0
0
LINE
5
592
100
AcDbEntity
8
0-0
6
CONTINUOUS
62
7
100
AcDbLine
10
594.390000000000
20
269.110000000000
30
0.0
11
612.500000000000
21
269.110000000000
31
0.0
0
LINE
5
593
100
AcDbEntity
8
0-0
6
CONTINUOUS
62
7
100
AcDbLine
10
594.250000000000
20
268.510000000000
30
0.0
11
612.500000000000
21
268.510000000000
31
0.0
0
LINE
5
594
100
AcDbEntity
8
0-0
6
CONTINUOUS
62
7
100
AcDbLine
10
552.690000000000
20
269.110000000000
30
0.0
11
584.100000000000
21
269.110000000000
31
0.0
0
LINE
5
595
100
AcDbEntity
8
0-0
6
CONTINUOUS
62
7
100
AcDbLine
10
552.550000000000
20
268.510000000000
30
0.0
11
584.250000000000
21
268.510000000000
31
0.0
0
LINE
5
596
100
AcDbEntity
8
0-0
6
CONTINUOUS
62
7
100
AcDbLine
10
510.990000000000
20
269.110000000000
30
0.0
11
542.400000000000
21
269.110000000000
31
0.0
0
LINE
5
597
100
AcDbEntity
8
0-0
6
CONTINUOUS
62
7
100
AcDbLine
10
510.850000000000
20
268.510000000000
30
0.0
11
542.550000000000
21
268.510000000000
31
0.0
0
LINE
5
598
100
AcDbEntity
8
0-0
6
CONTINUOUS
62
7
100
AcDbLine
10
469.290000000000
20
269.110000000000
30
0.0
11
500.700000000000
21
269.110000000000
31
0.0
0
LINE
5
599
100
AcDbEntity
8
0-0
6
CONTINUOUS
62
7
100
AcDbLine
10
469.150000000000
20
268.510000000000
30
0.0
11
500.850000000000
21
268.510000000000
31
0.0
0
LINE
5
59a
100
AcDbEntity
8
0-0
6
CONTINUOUS
62
7
100
AcDbLine
10
427.590000000000
20
269.110000000000
30
0.0
11
459.000000000000
21
269.110000000000
31
0.0
0
LINE
5
59b
100
AcDbEntity
8
0-0
6
CONTINUOUS
62
7
100
AcDbLine
10
427.450000000000
20
268.510000000000
30
0.0
11
459.150000000000
21
268.510000000000
31
0.0
0
LINE
5
59c
100
AcDbEntity
8
0-0
6
CONTINUOUS
62
7
100
AcDbLine
10
385.890000000000
20
269.110000000000
30
0.0
11
417.300000000000
21
269.110000000000
31
0.0
0
LINE
5
59d
100
AcDbEntity
8
0-0
6
CONTINUOUS
62
7
100
AcDbLine
10
385.750000000000
20
268.510000000000
30
0.0
11
417.450000000000
21
268.510000000000
31
0.0
0
LINE
5
59e
100
AcDbEntity
8
0-0
6
CONTINUOUS
62
7
100
AcDbLine
10
345.220000000000
20
269.110000000000
30
0.0
11
375.600000000000
21
269.110000000000
31
0.0
0
LINE
5
59f
100
AcDbEntity
8
0-0
6
CONTINUOUS
62
7
100
AcDbLine
10
345.080000000000
20
268.510000000000
30
0.0
11
375.750000000000
21
268.510000000000
31
0.0
0
LINE
5
5a0
100
AcDbEntity
8
0-0
6
CONTINUOUS
62
7
100
AcDbLine
10
304.550000000000
20
269.110000000000
30
0.0
11
334.930000000000
21
269.110000000000
31
0.0
0
LINE
5
5a1
100
AcDbEntity
8
0-0
6
CONTINUOUS
62
7
100
AcDbLine
10
304.410000000000
20
268.510000000000
30
0.0
11
335.080000000000
21
268.510000000000
31
0.0
0
LINE
5
5a2
100
AcDbEntity
8
0-0
6
CONTINUOUS
62
7
100
AcDbLine
10
235.500000000000
20
268.510000000000
30
0.0
11
253.740000000000
21
268.510000000000
31
0.0
0
LINE
5
5a3
100
AcDbEntity
8
0-0
6
CONTINUOUS
62
7
100
AcDbLine
10
235.500000000000
20
269.110000000000
30
0.0
11
253.590000000000
21
269.110000000000
31
0.0
0
LINE
5
5a4
100
AcDbEntity
8
0-0
6
CONTINUOUS
62
7
100
AcDbLine
10
263.880000000000
20
269.110000000000
30
0.0
11
294.260000000000
21
269.110000000000
31
0.0
0
LINE
5
5a5
100
AcDbEntity
8
0-0
6
CONTINUOUS
62
7
100
AcDbLine
10
263.740000000000
20
268.510000000000
30
0.0
11
294.410000000000
21
268.510000000000
31
0.0
0
LINE
5
5a6
100
AcDbEntity
8
0-0
6
CONTINUOUS
62
4
100
AcDbLine
10
222.490000000000
20
301.610000000000
30
0.0
11
267.460000000000
21
301.610000000000
31
0.0
0
LINE
5
5a7
100
AcDbEntity
8
0-0
6
CONTINUOUS
62
4
100
AcDbLine
10
267.460000000000
20
269.110000000000
30
0.0
11
267.460000000000
21
301.610000000000
31
0.0
0
LINE
5
5a8
100
AcDbEntity
8
0-0
6
CONTINUOUS
62
4
100
AcDbLine
10
222.490000000000
20
411.610000000000
30
0.0
11
267.460000000000
21
411.610000000000
31
0.0
0
LINE
5
5a9
100
AcDbEntity
8
0-0
6
CONTINUOUS
62
4
100
AcDbLine
10
267.460000000000
20
379.110000000000
30
0.0
11
267.460000000000
21
411.610000000000
31
0.0
0
LINE
5
5aa
100
AcDbEntity
8
0-0
6
CONTINUOUS
62
4
100
AcDbLine
10
385.890000000000
20
282.760000000000
30
0.0
11
417.590000000000
21
282.760000000000
31
0.0
0
LINE
5
5ab
100
AcDbEntity
8
0-0
6
CONTINUOUS
62
4
100
AcDbLine
10
385.890000000000
20
275.760000000000
30
0.0
11
385.890000000000
21
282.760000000000
31
0.0
0
POLYLINE
5
5ac
100
AcDbEntity
8
0-0
6
CONTINUOUS
62
  4
100
AcDb2dPolyline
66
1
10
0.0
20
0.0
30
0.0
70
0
0
VERTEX
5
5ad
100
AcDbEntity
8
0-0
6
CONTINUOUS
62
  4
100
AcDbVertex
100
AcDb2dVertex
10
417.590000000000
20
275.760000000000
30
0.0
0
VERTEX
5
5ae
100
AcDbEntity
8
0-0
6
CONTINUOUS
62
  4
100
AcDbVertex
100
AcDb2dVertex
10
417.590000000000
20
282.760000000000
30
0.0
0
VERTEX
5
5af
100
AcDbEntity
8
0-0
6
CONTINUOUS
62
  4
100
AcDbVertex
100
AcDb2dVertex
10
427.590000000000
20
282.760000000000
30
0.0
0
SEQEND
5
5b0
100
AcDbEntity
8
0-0
0
LINE
5
5b1
100
AcDbEntity
8
0-0
6
CONTINUOUS
62
4
100
AcDbLine
10
427.590000000000
20
275.760000000000
30
0.0
11
427.590000000000
21
282.760000000000
31
0.0
0
LINE
5
5b2
100
AcDbEntity
8
0-0
6
CONTINUOUS
62
4
100
AcDbLine
10
464.290000000000
20
282.760000000000
30
0.0
11
505.990000000000
21
282.760000000000
31
0.0
0
LINE
5
5b3
100
AcDbEntity
8
0-0
6
CONTINUOUS
62
4
100
AcDbLine
10
464.290000000000
20
275.760000000000
30
0.0
11
464.290000000000
21
282.760000000000
31
0.0
0
LINE
5
5b4
100
AcDbEntity
8
0-0
6
CONTINUOUS
62
4
100
AcDbLine
10
505.990000000000
20
275.760000000000
30
0.0
11
505.990000000000
21
282.760000000000
31
0.0
0
LINE
5
5b5
100
AcDbEntity
8
0-0
6
CONTINUOUS
62
7
100
AcDbLine
10
190.470000000000
20
509.010000000000
30
0.0
11
187.920000000000
21
491.200000000000
31
0.0
0
LINE
5
5b6
100
AcDbEntity
8
0-0
6
CONTINUOUS
62
7
100
AcDbLine
10
188.510000000000
20
490.520000000000
30
0.0
11
189.800000000000
21
490.520000000000
31
0.0
0
LINE
5
5b7
100
AcDbEntity
8
0-0
6
CONTINUOUS
62
7
100
AcDbLine
10
188.510000000000
20
489.920000000000
30
0.0
11
189.800000000000
21
489.920000000000
31
0.0
0
LINE
5
5b8
100
AcDbEntity
8
0-0
6
CONTINUOUS
62
7
100
AcDbLine
10
188.480000000000
20
484.630000000000
30
0.0
11
190.840000000000
21
488.720000000000
31
0.0
0
LINE
5
5b9
100
AcDbEntity
8
0-0
6
CONTINUOUS
62
7
100
AcDbLine
10
190.320000000000
20
489.020000000000
30
0.0
11
187.960000000000
21
484.930000000000
31
0.0
0
POLYLINE
5
5ba
100
AcDbEntity
8
0-0
6
CONTINUOUS
62
  7
100
AcDb2dPolyline
66
1
10
0.0
20
0.0
30
0.0
70
0
0
VERTEX
5
5bb
100
AcDbEntity
8
0-0
6
CONTINUOUS
62
  7
100
AcDbVertex
100
AcDb2dVertex
10
189.900000000000
20
487.050000000000
30
0.0
0
VERTEX
5
5bc
100
AcDbEntity
8
0-0
6
CONTINUOUS
62
  7
100
AcDbVertex
100
AcDb2dVertex
10
190.500000000000
20
486.980000000000
30
0.0
0
VERTEX
5
5bd
100
AcDbEntity
8
0-0
6
CONTINUOUS
62
  7
100
AcDbVertex
100
AcDb2dVertex
10
190.190000000000
20
484.200000000000
30
0.0
0
SEQEND
5
5be
100
AcDbEntity
8
0-0
0
LINE
5
5bf
100
AcDbEntity
8
0-0
6
CONTINUOUS
62
7
100
AcDbLine
10
189.900000000000
20
487.050000000000
30
0.0
11
189.590000000000
21
484.260000000000
31
0.0
0
LINE
5
5c0
100
AcDbEntity
8
0-0
6
CONTINUOUS
62
7
100
AcDbLine
10
199.480000000000
20
490.520000000000
30
0.0
11
198.200000000000
21
490.520000000000
31
0.0
0
LINE
5
5c1
100
AcDbEntity
8
0-0
6
CONTINUOUS
62
7
100
AcDbLine
10
199.480000000000
20
489.920000000000
30
0.0
11
198.200000000000
21
489.920000000000
31
0.0
0
LINE
5
5c2
100
AcDbEntity
8
0-0
6
CONTINUOUS
62
7
100
AcDbLine
10
202.170000000000
20
481.220000000000
30
0.0
11
197.680000000000
21
489.020000000000
31
0.0
0
LINE
5
5c3
100
AcDbEntity
8
0-0
6
CONTINUOUS
62
7
100
AcDbLine
10
201.650000000000
20
480.920000000000
30
0.0
11
197.160000000000
21
488.720000000000
31
0.0
0
LINE
5
5c4
100
AcDbEntity
8
0-0
6
CONTINUOUS
62
7
100
AcDbLine
10
202.690000000000
20
480.920000000000
30
0.0
11
231.750000000000
21
480.920000000000
31
0.0
0
LINE
5
5c5
100
AcDbEntity
8
0-0
6
CONTINUOUS
62
7
100
AcDbLine
10
232.600000000000
20
480.560000000000
30
0.0
11
235.070000000000
21
478.090000000000
31
0.0
0
LINE
5
5c6
100
AcDbEntity
8
0-0
6
CONTINUOUS
62
7
100
AcDbLine
10
202.690000000000
20
480.320000000000
30
0.0
11
231.750000000000
21
480.320000000000
31
0.0
0
LINE
5
5c7
100
AcDbEntity
8
0-0
6
CONTINUOUS
62
7
100
AcDbLine
10
232.170000000000
20
480.140000000000
30
0.0
11
234.650000000000
21
477.670000000000
31
0.0
0
LINE
5
5c8
100
AcDbEntity
8
0-0
6
CONTINUOUS
62
7
100
AcDbLine
10
189.840000000000
20
508.820000000000
30
0.0
11
187.320000000000
21
491.290000000000
31
0.0
0
LINE
5
5c9
100
AcDbEntity
8
0-0
6
CONTINUOUS
62
7
100
AcDbLine
10
198.160000000000
20
508.820000000000
30
0.0
11
200.670000000000
21
491.290000000000
31
0.0
0
LINE
5
5ca
100
AcDbEntity
8
0-0
6
CONTINUOUS
62
7
100
AcDbLine
10
190.900000000000
20
481.520000000000
30
0.0
11
190.900000000000
21
490.320000000000
31
0.0
0
LINE
5
5cb
100
AcDbEntity
8
0-0
6
CONTINUOUS
62
7
100
AcDbLine
10
191.500000000000
20
481.520000000000
30
0.0
11
191.500000000000
21
490.320000000000
31
0.0
0
LINE
5
5cc
100
AcDbEntity
8
0-0
6
CONTINUOUS
62
7
100
AcDbLine
10
190.300000000000
20
491.520000000000
30
0.0
11
189.520000000000
21
491.520000000000
31
0.0
0
LINE
5
5cd
100
AcDbEntity
8
0-0
6
CONTINUOUS
62
7
100
AcDbLine
10
190.300000000000
20
490.920000000000
30
0.0
11
189.520000000000
21
490.920000000000
31
0.0
0
LINE
5
5ce
100
AcDbEntity
8
0-0
6
CONTINUOUS
62
7
100
AcDbLine
10
188.930000000000
20
492.230000000000
30
0.0
11
191.940000000000
21
507.730000000000
31
0.0
0
LINE
5
5cf
100
AcDbEntity
8
0-0
6
CONTINUOUS
62
7
100
AcDbLine
10
188.340000000000
20
492.350000000000
30
0.0
11
191.350000000000
21
507.850000000000
31
0.0
0
LINE
5
5d0
100
AcDbEntity
8
0-0
6
CONTINUOUS
62
7
100
AcDbLine
10
197.700000000000
20
491.520000000000
30
0.0
11
198.480000000000
21
491.520000000000
31
0.0
0
LINE
5
5d1
100
AcDbEntity
8
0-0
6
CONTINUOUS
62
7
100
AcDbLine
10
197.700000000000
20
490.920000000000
30
0.0
11
198.480000000000
21
490.920000000000
31
0.0
0
LINE
5
5d2
100
AcDbEntity
8
0-0
6
CONTINUOUS
62
7
100
AcDbLine
10
199.070000000000
20
492.230000000000
30
0.0
11
196.050000000000
21
507.730000000000
31
0.0
0
LINE
5
5d3
100
AcDbEntity
8
0-0
6
CONTINUOUS
62
7
100
AcDbLine
10
199.660000000000
20
492.350000000000
30
0.0
11
196.640000000000
21
507.850000000000
31
0.0
0
LINE
5
5d4
100
AcDbEntity
8
0-0
6
CONTINUOUS
62
7
100
AcDbLine
10
197.100000000000
20
478.520000000000
30
0.0
11
197.100000000000
21
490.320000000000
31
0.0
0
LINE
5
5d5
100
AcDbEntity
8
0-0
6
CONTINUOUS
62
7
100
AcDbLine
10
196.500000000000
20
478.520000000000
30
0.0
11
196.500000000000
21
490.320000000000
31
0.0
0
LINE
5
5d6
100
AcDbEntity
8
0-0
6
CONTINUOUS
62
7
100
AcDbLine
10
197.700000000000
20
477.920000000000
30
0.0
11
202.500000000000
21
477.920000000000
31
0.0
0
LINE
5
5d7
100
AcDbEntity
8
0-0
6
CONTINUOUS
62
7
100
AcDbLine
10
203.350000000000
20
477.670000000000
30
0.0
11
204.070000000000
21
478.390000000000
31
0.0
0
LINE
5
5d8
100
AcDbEntity
8
0-0
6
CONTINUOUS
62
7
100
AcDbLine
10
197.700000000000
20
477.320000000000
30
0.0
11
202.500000000000
21
477.320000000000
31
0.0
0
LINE
5
5d9
100
AcDbEntity
8
0-0
6
CONTINUOUS
62
7
100
AcDbLine
10
205.650000000000
20
477.670000000000
30
0.0
11
204.920000000000
21
478.390000000000
31
0.0
0
LINE
5
5da
100
AcDbEntity
8
0-0
6
CONTINUOUS
62
7
100
AcDbLine
10
206.070000000000
20
478.090000000000
30
0.0
11
205.350000000000
21
478.820000000000
31
0.0
0
LINE
5
5db
100
AcDbEntity
8
0-0
6
CONTINUOUS
62
7
100
AcDbLine
10
202.930000000000
20
478.090000000000
30
0.0
11
203.650000000000
21
478.820000000000
31
0.0
0
LINE
5
5dc
100
AcDbEntity
8
0-0
6
CONTINUOUS
62
7
100
AcDbLine
10
206.500000000000
20
477.320000000000
30
0.0
11
211.990000000000
21
477.320000000000
31
0.0
0
LINE
5
5dd
100
AcDbEntity
8
0-0
6
CONTINUOUS
62
7
100
AcDbLine
10
212.650000000000
20
477.110000000000
30
0.0
11
213.010000000000
21
477.320000000000
31
0.0
0
LINE
5
5de
100
AcDbEntity
8
0-0
6
CONTINUOUS
62
7
100
AcDbLine
10
212.350000000000
20
477.110000000000
30
0.0
11
211.990000000000
21
477.320000000000
31
0.0
0
LINE
5
5df
100
AcDbEntity
8
0-0
6
CONTINUOUS
62
7
100
AcDbLine
10
212.500000000000
20
477.720000000000
30
0.0
11
212.220000000000
21
477.880000000000
31
0.0
0
LINE
5
5e0
100
AcDbEntity
8
0-0
6
CONTINUOUS
62
7
100
AcDbLine
10
206.500000000000
20
477.920000000000
30
0.0
11
212.070000000000
21
477.920000000000
31
0.0
0
LINE
5
5e1
100
AcDbEntity
8
0-0
6
CONTINUOUS
62
7
100
AcDbLine
10
212.500000000000
20
477.720000000000
30
0.0
11
212.780000000000
21
477.880000000000
31
0.0
0
LINE
5
5e2
100
AcDbEntity
8
0-0
6
CONTINUOUS
62
7
100
AcDbLine
10
219.500000000000
20
478.720000000000
30
0.0
11
219.500000000000
21
479.320000000000
31
0.0
0
LINE
5
5e3
100
AcDbEntity
8
0-0
6
CONTINUOUS
62
7
100
AcDbLine
10
222.500000000000
20
479.320000000000
30
0.0
11
219.500000000000
21
479.320000000000
31
0.0
0
LINE
5
5e4
100
AcDbEntity
8
0-0
6
CONTINUOUS
62
7
100
AcDbLine
10
222.500000000000
20
478.720000000000
30
0.0
11
219.500000000000
21
478.720000000000
31
0.0
0
LINE
5
5e5
100
AcDbEntity
8
0-0
6
CONTINUOUS
62
7
100
AcDbLine
10
212.930000000000
20
477.920000000000
30
0.0
11
222.500000000000
21
477.920000000000
31
0.0
0
LINE
5
5e6
100
AcDbEntity
8
0-0
6
CONTINUOUS
62
7
100
AcDbLine
10
213.010000000000
20
477.320000000000
30
0.0
11
222.500000000000
21
477.320000000000
31
0.0
0
LINE
5
5e7
100
AcDbEntity
8
0-0
6
CONTINUOUS
62
7
100
AcDbLine
10
190.300000000000
20
480.920000000000
30
0.0
11
161.750000000000
21
480.920000000000
31
0.0
0
LINE
5
5e8
100
AcDbEntity
8
0-0
6
CONTINUOUS
62
7
100
AcDbLine
10
160.900000000000
20
480.560000000000
30
0.0
11
158.430000000000
21
478.090000000000
31
0.0
0
LINE
5
5e9
100
AcDbEntity
8
0-0
6
CONTINUOUS
62
7
100
AcDbLine
10
161.320000000000
20
480.140000000000
30
0.0
11
158.850000000000
21
477.670000000000
31
0.0
0
LINE
5
5ea
100
AcDbEntity
8
0-0
6
CONTINUOUS
62
7
100
AcDbLine
10
190.300000000000
20
480.320000000000
30
0.0
11
161.750000000000
21
480.320000000000
31
0.0
0
LINE
5
5eb
100
AcDbEntity
8
0-0
6
CONTINUOUS
62
7
100
AcDbLine
10
158.000000000000
20
477.920000000000
30
0.0
11
114.000000000000
21
477.920000000000
31
0.0
0
LINE
5
5ec
100
AcDbEntity
8
0-0
6
CONTINUOUS
62
7
100
AcDbLine
10
158.000000000000
20
477.320000000000
30
0.0
11
114.000000000000
21
477.320000000000
31
0.0
0
LINE
5
5ed
100
AcDbEntity
8
0-0
6
CONTINUOUS
62
7
100
AcDbLine
10
644.970000000000
20
509.010000000000
30
0.0
11
642.420000000000
21
491.200000000000
31
0.0
0
LINE
5
5ee
100
AcDbEntity
8
0-0
6
CONTINUOUS
62
7
100
AcDbLine
10
652.020000000000
20
509.010000000000
30
0.0
11
654.580000000000
21
491.200000000000
31
0.0
0
LINE
5
5ef
100
AcDbEntity
8
0-0
6
CONTINUOUS
62
7
100
AcDbLine
10
643.010000000000
20
490.520000000000
30
0.0
11
644.300000000000
21
490.520000000000
31
0.0
0
LINE
5
5f0
100
AcDbEntity
8
0-0
6
CONTINUOUS
62
7
100
AcDbLine
10
643.010000000000
20
489.920000000000
30
0.0
11
644.300000000000
21
489.920000000000
31
0.0
0
LINE
5
5f1
100
AcDbEntity
8
0-0
6
CONTINUOUS
62
7
100
AcDbLine
10
642.980000000000
20
484.630000000000
30
0.0
11
645.340000000000
21
488.720000000000
31
0.0
0
LINE
5
5f2
100
AcDbEntity
8
0-0
6
CONTINUOUS
62
7
100
AcDbLine
10
644.820000000000
20
489.020000000000
30
0.0
11
642.460000000000
21
484.930000000000
31
0.0
0
POLYLINE
5
5f3
100
AcDbEntity
8
0-0
6
CONTINUOUS
62
  7
100
AcDb2dPolyline
66
1
10
0.0
20
0.0
30
0.0
70
0
0
VERTEX
5
5f4
100
AcDbEntity
8
0-0
6
CONTINUOUS
62
  7
100
AcDbVertex
100
AcDb2dVertex
10
644.400000000000
20
487.050000000000
30
0.0
0
VERTEX
5
5f5
100
AcDbEntity
8
0-0
6
CONTINUOUS
62
  7
100
AcDbVertex
100
AcDb2dVertex
10
645.000000000000
20
486.980000000000
30
0.0
0
VERTEX
5
5f6
100
AcDbEntity
8
0-0
6
CONTINUOUS
62
  7
100
AcDbVertex
100
AcDb2dVertex
10
644.690000000000
20
484.200000000000
30
0.0
0
SEQEND
5
5f7
100
AcDbEntity
8
0-0
0
LINE
5
5f8
100
AcDbEntity
8
0-0
6
CONTINUOUS
62
7
100
AcDbLine
10
644.400000000000
20
487.050000000000
30
0.0
11
644.090000000000
21
484.260000000000
31
0.0
0
LINE
5
5f9
100
AcDbEntity
8
0-0
6
CONTINUOUS
62
7
100
AcDbLine
10
653.980000000000
20
490.520000000000
30
0.0
11
652.700000000000
21
490.520000000000
31
0.0
0
LINE
5
5fa
100
AcDbEntity
8
0-0
6
CONTINUOUS
62
7
100
AcDbLine
10
653.980000000000
20
489.920000000000
30
0.0
11
652.700000000000
21
489.920000000000
31
0.0
0
LINE
5
5fb
100
AcDbEntity
8
0-0
6
CONTINUOUS
62
7
100
AcDbLine
10
656.670000000000
20
481.220000000000
30
0.0
11
652.180000000000
21
489.020000000000
31
0.0
0
LINE
5
5fc
100
AcDbEntity
8
0-0
6
CONTINUOUS
62
7
100
AcDbLine
10
656.150000000000
20
480.920000000000
30
0.0
11
651.660000000000
21
488.720000000000
31
0.0
0
LINE
5
5fd
100
AcDbEntity
8
0-0
6
CONTINUOUS
62
7
100
AcDbLine
10
657.190000000000
20
480.920000000000
30
0.0
11
686.250000000000
21
480.920000000000
31
0.0
0
LINE
5
5fe
100
AcDbEntity
8
0-0
6
CONTINUOUS
62
7
100
AcDbLine
10
687.100000000000
20
480.560000000000
30
0.0
11
689.570000000000
21
478.090000000000
31
0.0
0
LINE
5
5ff
100
AcDbEntity
8
0-0
6
CONTINUOUS
62
7
100
AcDbLine
10
657.190000000000
20
480.320000000000
30
0.0
11
686.250000000000
21
480.320000000000
31
0.0
0
LINE
5
600
100
AcDbEntity
8
0-0
6
CONTINUOUS
62
7
100
AcDbLine
10
686.670000000000
20
480.140000000000
30
0.0
11
689.150000000000
21
477.670000000000
31
0.0
0
LINE
5
601
100
AcDbEntity
8
0-0
6
CONTINUOUS
62
7
100
AcDbLine
10
644.340000000000
20
508.820000000000
30
0.0
11
641.820000000000
21
491.290000000000
31
0.0
0
LINE
5
602
100
AcDbEntity
8
0-0
6
CONTINUOUS
62
7
100
AcDbLine
10
652.660000000000
20
508.820000000000
30
0.0
11
655.170000000000
21
491.290000000000
31
0.0
0
LINE
5
603
100
AcDbEntity
8
0-0
6
CONTINUOUS
62
7
100
AcDbLine
10
645.400000000000
20
481.520000000000
30
0.0
11
645.400000000000
21
490.320000000000
31
0.0
0
LINE
5
604
100
AcDbEntity
8
0-0
6
CONTINUOUS
62
7
100
AcDbLine
10
646.000000000000
20
481.520000000000
30
0.0
11
646.000000000000
21
490.320000000000
31
0.0
0
LINE
5
605
100
AcDbEntity
8
0-0
6
CONTINUOUS
62
7
100
AcDbLine
10
644.800000000000
20
491.520000000000
30
0.0
11
644.020000000000
21
491.520000000000
31
0.0
0
LINE
5
606
100
AcDbEntity
8
0-0
6
CONTINUOUS
62
7
100
AcDbLine
10
644.800000000000
20
490.920000000000
30
0.0
11
644.020000000000
21
490.920000000000
31
0.0
0
LINE
5
607
100
AcDbEntity
8
0-0
6
CONTINUOUS
62
7
100
AcDbLine
10
643.430000000000
20
492.230000000000
30
0.0
11
646.440000000000
21
507.730000000000
31
0.0
0
LINE
5
608
100
AcDbEntity
8
0-0
6
CONTINUOUS
62
7
100
AcDbLine
10
642.840000000000
20
492.350000000000
30
0.0
11
645.850000000000
21
507.850000000000
31
0.0
0
LINE
5
609
100
AcDbEntity
8
0-0
6
CONTINUOUS
62
7
100
AcDbLine
10
652.200000000000
20
491.520000000000
30
0.0
11
652.980000000000
21
491.520000000000
31
0.0
0
LINE
5
60a
100
AcDbEntity
8
0-0
6
CONTINUOUS
62
7
100
AcDbLine
10
652.200000000000
20
490.920000000000
30
0.0
11
652.980000000000
21
490.920000000000
31
0.0
0
LINE
5
60b
100
AcDbEntity
8
0-0
6
CONTINUOUS
62
7
100
AcDbLine
10
653.570000000000
20
492.230000000000
30
0.0
11
650.550000000000
21
507.730000000000
31
0.0
0
LINE
5
60c
100
AcDbEntity
8
0-0
6
CONTINUOUS
62
7
100
AcDbLine
10
654.160000000000
20
492.350000000000
30
0.0
11
651.140000000000
21
507.850000000000
31
0.0
0
LINE
5
60d
100
AcDbEntity
8
0-0
6
CONTINUOUS
62
7
100
AcDbLine
10
651.600000000000
20
478.520000000000
30
0.0
11
651.600000000000
21
490.320000000000
31
0.0
0
LINE
5
60e
100
AcDbEntity
8
0-0
6
CONTINUOUS
62
7
100
AcDbLine
10
651.000000000000
20
478.520000000000
30
0.0
11
651.000000000000
21
490.320000000000
31
0.0
0
LINE
5
60f
100
AcDbEntity
8
0-0
6
CONTINUOUS
62
7
100
AcDbLine
10
652.200000000000
20
477.920000000000
30
0.0
11
657.000000000000
21
477.920000000000
31
0.0
0
LINE
5
610
100
AcDbEntity
8
0-0
6
CONTINUOUS
62
7
100
AcDbLine
10
657.850000000000
20
477.670000000000
30
0.0
11
658.570000000000
21
478.390000000000
31
0.0
0
LINE
5
611
100
AcDbEntity
8
0-0
6
CONTINUOUS
62
7
100
AcDbLine
10
652.200000000000
20
477.320000000000
30
0.0
11
657.000000000000
21
477.320000000000
31
0.0
0
LINE
5
612
100
AcDbEntity
8
0-0
6
CONTINUOUS
62
7
100
AcDbLine
10
660.150000000000
20
477.670000000000
30
0.0
11
659.420000000000
21
478.390000000000
31
0.0
0
LINE
5
613
100
AcDbEntity
8
0-0
6
CONTINUOUS
62
7
100
AcDbLine
10
660.570000000000
20
478.090000000000
30
0.0
11
659.850000000000
21
478.820000000000
31
0.0
0
LINE
5
614
100
AcDbEntity
8
0-0
6
CONTINUOUS
62
7
100
AcDbLine
10
657.430000000000
20
478.090000000000
30
0.0
11
658.150000000000
21
478.820000000000
31
0.0
0
LINE
5
615
100
AcDbEntity
8
0-0
6
CONTINUOUS
62
7
100
AcDbLine
10
661.000000000000
20
477.320000000000
30
0.0
11
666.490000000000
21
477.320000000000
31
0.0
0
LINE
5
616
100
AcDbEntity
8
0-0
6
CONTINUOUS
62
7
100
AcDbLine
10
667.150000000000
20
477.110000000000
30
0.0
11
667.510000000000
21
477.320000000000
31
0.0
0
LINE
5
617
100
AcDbEntity
8
0-0
6
CONTINUOUS
62
7
100
AcDbLine
10
666.850000000000
20
477.110000000000
30
0.0
11
666.490000000000
21
477.320000000000
31
0.0
0
LINE
5
618
100
AcDbEntity
8
0-0
6
CONTINUOUS
62
7
100
AcDbLine
10
667.000000000000
20
477.720000000000
30
0.0
11
666.720000000000
21
477.880000000000
31
0.0
0
LINE
5
619
100
AcDbEntity
8
0-0
6
CONTINUOUS
62
7
100
AcDbLine
10
661.000000000000
20
477.920000000000
30
0.0
11
666.570000000000
21
477.920000000000
31
0.0
0
LINE
5
61a
100
AcDbEntity
8
0-0
6
CONTINUOUS
62
7
100
AcDbLine
10
667.000000000000
20
477.720000000000
30
0.0
11
667.280000000000
21
477.880000000000
31
0.0
0
LINE
5
61b
100
AcDbEntity
8
0-0
6
CONTINUOUS
62
7
100
AcDbLine
10
674.000000000000
20
478.720000000000
30
0.0
11
674.000000000000
21
479.320000000000
31
0.0
0
LINE
5
61c
100
AcDbEntity
8
0-0
6
CONTINUOUS
62
7
100
AcDbLine
10
677.000000000000
20
479.320000000000
30
0.0
11
674.000000000000
21
479.320000000000
31
0.0
0
LINE
5
61d
100
AcDbEntity
8
0-0
6
CONTINUOUS
62
7
100
AcDbLine
10
677.000000000000
20
478.720000000000
30
0.0
11
674.000000000000
21
478.720000000000
31
0.0
0
LINE
5
61e
100
AcDbEntity
8
0-0
6
CONTINUOUS
62
7
100
AcDbLine
10
667.430000000000
20
477.920000000000
30
0.0
11
677.000000000000
21
477.920000000000
31
0.0
0
LINE
5
61f
100
AcDbEntity
8
0-0
6
CONTINUOUS
62
7
100
AcDbLine
10
667.510000000000
20
477.320000000000
30
0.0
11
677.000000000000
21
477.320000000000
31
0.0
0
LINE
5
620
100
AcDbEntity
8
0-0
6
CONTINUOUS
62
7
100
AcDbLine
10
644.800000000000
20
480.920000000000
30
0.0
11
616.250000000000
21
480.920000000000
31
0.0
0
LINE
5
621
100
AcDbEntity
8
0-0
6
CONTINUOUS
62
7
100
AcDbLine
10
615.400000000000
20
480.560000000000
30
0.0
11
612.930000000000
21
478.090000000000
31
0.0
0
LINE
5
622
100
AcDbEntity
8
0-0
6
CONTINUOUS
62
7
100
AcDbLine
10
615.820000000000
20
480.140000000000
30
0.0
11
613.350000000000
21
477.670000000000
31
0.0
0
LINE
5
623
100
AcDbEntity
8
0-0
6
CONTINUOUS
62
7
100
AcDbLine
10
644.800000000000
20
480.320000000000
30
0.0
11
616.250000000000
21
480.320000000000
31
0.0
0
LINE
5
624
100
AcDbEntity
8
0-0
6
CONTINUOUS
62
7
100
AcDbLine
10
690.000000000000
20
477.320000000000
30
0.0
11
728.500000000000
21
477.320000000000
31
0.0
0
LINE
5
625
100
AcDbEntity
8
0-0
6
CONTINUOUS
62
7
100
AcDbLine
10
690.000000000000
20
477.920000000000
30
0.0
11
728.500000000000
21
477.920000000000
31
0.0
0
LINE
5
626
100
AcDbEntity
8
0-0
6
CONTINUOUS
62
4
100
AcDbLine
10
190.900000000000
20
505.500000000000
30
0.0
11
190.000000000000
21
505.680000000000
31
0.0
0
LINE
5
627
100
AcDbEntity
8
0-0
6
CONTINUOUS
62
7
100
AcDbLine
10
197.520000000000
20
509.010000000000
30
0.0
11
200.080000000000
21
491.200000000000
31
0.0
0
LINE
5
628
100
AcDbEntity
8
0-0
6
CONTINUOUS
62
4
100
AcDbLine
10
197.100000000000
20
505.500000000000
30
0.0
11
198.000000000000
21
505.680000000000
31
0.0
0
LINE
5
629
100
AcDbEntity
8
0-0
6
CONTINUOUS
62
7
100
AcDbLine
10
207.480000000000
20
519.400000000000
30
0.0
11
200.240000000000
21
519.400000000000
31
0.0
0
LINE
5
62a
100
AcDbEntity
8
0-0
6
CONTINUOUS
62
7
100
AcDbLine
10
194.340000000000
20
509.190000000000
30
0.0
11
200.240000000000
21
519.400000000000
31
0.0
0
LINE
5
62b
100
AcDbEntity
8
0-0
6
CONTINUOUS
62
4
100
AcDbLine
10
194.000000000000
20
540.030000000000
30
0.0
11
648.500000000000
21
540.030000000000
31
0.0
0
LINE
5
62c
100
AcDbEntity
8
0-0
6
DASHED
62
7
100
AcDbLine
10
728.500000000000
20
476.820000000000
30
0.0
11
114.000000000000
21
476.820000000000
31
0.0
0
LINE
5
62d
100
AcDbEntity
8
0-0
6
CONTINUOUS
62
7
100
AcDbLine
10
728.500000000000
20
476.320000000000
30
0.0
11
114.000000000000
21
476.320000000000
31
0.0
0
LINE
5
62e
100
AcDbEntity
8
0-0
6
CENTER2
62
7
100
AcDbLine
10
648.500000000000
20
467.220000000000
30
0.0
11
648.500000000000
21
540.030000000000
31
0.0
0
LINE
5
62f
100
AcDbEntity
8
0-0
6
CENTER2
62
7
100
AcDbLine
10
194.000000000000
20
467.220000000000
30
0.0
11
194.000000000000
21
540.030000000000
31
0.0
0
LINE
5
630
100
AcDbEntity
8
0-0
6
CONTINUOUS
62
7
100
AcDbLine
10
612.500000000000
20
477.920000000000
30
0.0
11
421.250000000000
21
477.920000000000
31
0.0
0
LINE
5
631
100
AcDbEntity
8
0-0
6
CONTINUOUS
62
7
100
AcDbLine
10
612.500000000000
20
477.320000000000
30
0.0
11
421.250000000000
21
477.320000000000
31
0.0
0
LINE
5
632
100
AcDbEntity
8
0-0
6
CONTINUOUS
62
7
100
AcDbLine
10
235.500000000000
20
477.920000000000
30
0.0
11
421.250000000000
21
477.920000000000
31
0.0
0
LINE
5
633
100
AcDbEntity
8
0-0
6
CONTINUOUS
62
7
100
AcDbLine
10
235.500000000000
20
477.320000000000
30
0.0
11
421.250000000000
21
477.320000000000
31
0.0
0
LINE
5
634
100
AcDbEntity
8
0-3
6
CONTINUOUS
62
7
100
AcDbLine
10
283.690000000000
20
226.000000000000
30
0.0
11
278.580000000000
21
190.370000000000
31
0.0
0
LINE
5
635
100
AcDbEntity
8
0-3
6
CONTINUOUS
62
7
100
AcDbLine
10
297.780000000000
20
226.000000000000
30
0.0
11
302.900000000000
21
190.370000000000
31
0.0
0
LINE
5
636
100
AcDbEntity
8
0-3
6
CONTINUOUS
62
7
100
AcDbLine
10
279.770000000000
20
189.000000000000
30
0.0
11
282.340000000000
21
189.000000000000
31
0.0
0
LINE
5
637
100
AcDbEntity
8
0-3
6
CONTINUOUS
62
7
100
AcDbLine
10
279.770000000000
20
187.800000000000
30
0.0
11
282.340000000000
21
187.800000000000
31
0.0
0
LINE
5
638
100
AcDbEntity
8
0-3
6
CONTINUOUS
62
7
100
AcDbLine
10
279.690000000000
20
177.230000000000
30
0.0
11
284.410000000000
21
185.400000000000
31
0.0
0
LINE
5
639
100
AcDbEntity
8
0-3
6
CONTINUOUS
62
7
100
AcDbLine
10
283.380000000000
20
186.000000000000
30
0.0
11
278.660000000000
21
177.830000000000
31
0.0
0
POLYLINE
5
63a
100
AcDbEntity
8
0-3
6
CONTINUOUS
62
  7
100
AcDb2dPolyline
66
1
10
0.0
20
0.0
30
0.0
70
0
0
VERTEX
5
63b
100
AcDbEntity
8
0-3
6
CONTINUOUS
62
  7
100
AcDbVertex
100
AcDb2dVertex
10
282.540000000000
20
182.060000000000
30
0.0
0
VERTEX
5
63c
100
AcDbEntity
8
0-3
6
CONTINUOUS
62
  7
100
AcDbVertex
100
AcDb2dVertex
10
283.730000000000
20
181.930000000000
30
0.0
0
VERTEX
5
63d
100
AcDbEntity
8
0-3
6
CONTINUOUS
62
  7
100
AcDbVertex
100
AcDb2dVertex
10
283.120000000000
20
176.360000000000
30
0.0
0
SEQEND
5
63e
100
AcDbEntity
8
0-3
0
LINE
5
63f
100
AcDbEntity
8
0-3
6
CONTINUOUS
62
7
100
AcDbLine
10
282.540000000000
20
182.060000000000
30
0.0
11
281.930000000000
21
176.500000000000
31
0.0
0
LINE
5
640
100
AcDbEntity
8
0-3
6
CONTINUOUS
62
7
100
AcDbLine
10
301.710000000000
20
189.000000000000
30
0.0
11
299.140000000000
21
189.000000000000
31
0.0
0
LINE
5
641
100
AcDbEntity
8
0-3
6
CONTINUOUS
62
7
100
AcDbLine
10
301.710000000000
20
187.800000000000
30
0.0
11
299.140000000000
21
187.800000000000
31
0.0
0
LINE
5
642
100
AcDbEntity
8
0-3
6
CONTINUOUS
62
7
100
AcDbLine
10
307.080000000000
20
170.400000000000
30
0.0
11
298.100000000000
21
186.000000000000
31
0.0
0
LINE
5
643
100
AcDbEntity
8
0-3
6
CONTINUOUS
62
7
100
AcDbLine
10
306.040000000000
20
169.800000000000
30
0.0
11
297.060000000000
21
185.400000000000
31
0.0
0
LINE
5
644
100
AcDbEntity
8
0-3
6
CONTINUOUS
62
7
100
AcDbLine
10
308.120000000000
20
169.800000000000
30
0.0
11
366.240000000000
21
169.800000000000
31
0.0
0
LINE
5
645
100
AcDbEntity
8
0-3
6
CONTINUOUS
62
7
100
AcDbLine
10
367.940000000000
20
169.100000000000
30
0.0
11
372.880000000000
21
164.150000000000
31
0.0
0
LINE
5
646
100
AcDbEntity
8
0-3
6
CONTINUOUS
62
7
100
AcDbLine
10
308.120000000000
20
168.600000000000
30
0.0
11
366.240000000000
21
168.600000000000
31
0.0
0
LINE
5
647
100
AcDbEntity
8
0-3
6
CONTINUOUS
62
7
100
AcDbLine
10
367.090000000000
20
168.250000000000
30
0.0
11
372.030000000000
21
163.300000000000
31
0.0
0
LINE
5
648
100
AcDbEntity
8
0-3
6
CONTINUOUS
62
7
100
AcDbLine
10
282.420000000000
20
225.600000000000
30
0.0
11
277.390000000000
21
190.540000000000
31
0.0
0
LINE
5
649
100
AcDbEntity
8
0-3
6
CONTINUOUS
62
7
100
AcDbLine
10
299.050000000000
20
225.600000000000
30
0.0
11
304.080000000000
21
190.540000000000
31
0.0
0
LINE
5
64a
100
AcDbEntity
8
0-3
6
CONTINUOUS
62
7
100
AcDbLine
10
284.540000000000
20
96.000000000000
30
0.0
11
284.540000000000
21
113.600000000000
31
0.0
0
LINE
5
64b
100
AcDbEntity
8
0-3
6
CONTINUOUS
62
7
100
AcDbLine
10
285.740000000000
20
96.000000000000
30
0.0
11
285.740000000000
21
113.600000000000
31
0.0
0
LINE
5
64c
100
AcDbEntity
8
0-3
6
CONTINUOUS
62
7
100
AcDbLine
10
283.340000000000
20
116.000000000000
30
0.0
11
281.780000000000
21
116.000000000000
31
0.0
0
LINE
5
64d
100
AcDbEntity
8
0-3
6
CONTINUOUS
62
7
100
AcDbLine
10
283.340000000000
20
114.800000000000
30
0.0
11
281.780000000000
21
114.800000000000
31
0.0
0
LINE
5
64e
100
AcDbEntity
8
0-3
6
CONTINUOUS
62
7
100
AcDbLine
10
280.600000000000
20
117.430000000000
30
0.0
11
286.630000000000
21
148.430000000000
31
0.0
0
LINE
5
64f
100
AcDbEntity
8
0-3
6
CONTINUOUS
62
7
100
AcDbLine
10
279.420000000000
20
117.660000000000
30
0.0
11
285.450000000000
21
148.660000000000
31
0.0
0
LINE
5
650
100
AcDbEntity
8
0-3
6
CONTINUOUS
62
7
100
AcDbLine
10
298.140000000000
20
116.000000000000
30
0.0
11
299.690000000000
21
116.000000000000
31
0.0
0
LINE
5
651
100
AcDbEntity
8
0-3
6
CONTINUOUS
62
7
100
AcDbLine
10
298.140000000000
20
114.800000000000
30
0.0
11
299.690000000000
21
114.800000000000
31
0.0
0
LINE
5
652
100
AcDbEntity
8
0-3
6
CONTINUOUS
62
7
100
AcDbLine
10
300.870000000000
20
117.430000000000
30
0.0
11
294.850000000000
21
148.430000000000
31
0.0
0
LINE
5
653
100
AcDbEntity
8
0-3
6
CONTINUOUS
62
7
100
AcDbLine
10
302.050000000000
20
117.660000000000
30
0.0
11
296.020000000000
21
148.660000000000
31
0.0
0
LINE
5
654
100
AcDbEntity
8
0-3
6
CONTINUOUS
62
7
100
AcDbLine
10
296.940000000000
20
90.000000000000
30
0.0
11
296.940000000000
21
113.600000000000
31
0.0
0
LINE
5
655
100
AcDbEntity
8
0-3
6
CONTINUOUS
62
7
100
AcDbLine
10
295.740000000000
20
90.000000000000
30
0.0
11
295.740000000000
21
113.600000000000
31
0.0
0
LINE
5
656
100
AcDbEntity
8
0-3
6
CONTINUOUS
62
7
100
AcDbLine
10
298.140000000000
20
88.800000000000
30
0.0
11
307.740000000000
21
88.800000000000
31
0.0
0
LINE
5
657
100
AcDbEntity
8
0-3
6
CONTINUOUS
62
7
100
AcDbLine
10
309.440000000000
20
88.300000000000
30
0.0
11
310.890000000000
21
89.750000000000
31
0.0
0
LINE
5
658
100
AcDbEntity
8
0-3
6
CONTINUOUS
62
7
100
AcDbLine
10
298.140000000000
20
87.600000000000
30
0.0
11
307.740000000000
21
87.600000000000
31
0.0
0
LINE
5
659
100
AcDbEntity
8
0-3
6
CONTINUOUS
62
7
100
AcDbLine
10
314.030000000000
20
88.300000000000
30
0.0
11
312.580000000000
21
89.750000000000
31
0.0
0
LINE
5
65a
100
AcDbEntity
8
0-3
6
CONTINUOUS
62
7
100
AcDbLine
10
314.880000000000
20
89.150000000000
30
0.0
11
313.430000000000
21
90.600000000000
31
0.0
0
LINE
5
65b
100
AcDbEntity
8
0-3
6
CONTINUOUS
62
7
100
AcDbLine
10
308.590000000000
20
89.150000000000
30
0.0
11
310.040000000000
21
90.600000000000
31
0.0
0
LINE
5
65c
100
AcDbEntity
8
0-3
6
CONTINUOUS
62
7
100
AcDbLine
10
315.730000000000
20
87.600000000000
30
0.0
11
326.720000000000
21
87.600000000000
31
0.0
0
LINE
5
65d
100
AcDbEntity
8
0-3
6
CONTINUOUS
62
7
100
AcDbLine
10
328.040000000000
20
87.190000000000
30
0.0
11
328.750000000000
21
87.600000000000
31
0.0
0
LINE
5
65e
100
AcDbEntity
8
0-3
6
CONTINUOUS
62
7
100
AcDbLine
10
327.440000000000
20
87.190000000000
30
0.0
11
326.720000000000
21
87.600000000000
31
0.0
0
LINE
5
65f
100
AcDbEntity
8
0-3
6
CONTINUOUS
62
7
100
AcDbLine
10
327.740000000000
20
88.400000000000
30
0.0
11
327.180000000000
21
88.720000000000
31
0.0
0
LINE
5
660
100
AcDbEntity
8
0-3
6
CONTINUOUS
62
7
100
AcDbLine
10
315.730000000000
20
88.800000000000
30
0.0
11
326.880000000000
21
88.800000000000
31
0.0
0
LINE
5
661
100
AcDbEntity
8
0-3
6
CONTINUOUS
62
7
100
AcDbLine
10
327.740000000000
20
88.400000000000
30
0.0
11
328.290000000000
21
88.720000000000
31
0.0
0
LINE
5
662
100
AcDbEntity
8
0-3
6
CONTINUOUS
62
7
100
AcDbLine
10
341.740000000000
20
90.400000000000
30
0.0
11
341.740000000000
21
91.600000000000
31
0.0
0
LINE
5
663
100
AcDbEntity
8
0-3
6
CONTINUOUS
62
7
100
AcDbLine
10
347.740000000000
20
91.600000000000
30
0.0
11
341.740000000000
21
91.600000000000
31
0.0
0
LINE
5
664
100
AcDbEntity
8
0-3
6
CONTINUOUS
62
7
100
AcDbLine
10
347.740000000000
20
90.400000000000
30
0.0
11
341.740000000000
21
90.400000000000
31
0.0
0
LINE
5
665
100
AcDbEntity
8
0-3
6
CONTINUOUS
62
7
100
AcDbLine
10
328.590000000000
20
88.800000000000
30
0.0
11
347.740000000000
21
88.800000000000
31
0.0
0
LINE
5
666
100
AcDbEntity
8
0-3
6
CONTINUOUS
62
7
100
AcDbLine
10
328.750000000000
20
87.600000000000
30
0.0
11
347.740000000000
21
87.600000000000
31
0.0
0
LINE
5
667
100
AcDbEntity
8
0-3
6
CONTINUOUS
62
7
100
AcDbLine
10
283.340000000000
20
94.800000000000
30
0.0
11
226.230000000000
21
94.800000000000
31
0.0
0
LINE
5
668
100
AcDbEntity
8
0-3
6
CONTINUOUS
62
7
100
AcDbLine
10
224.540000000000
20
94.100000000000
30
0.0
11
219.590000000000
21
89.150000000000
31
0.0
0
LINE
5
669
100
AcDbEntity
8
0-3
6
CONTINUOUS
62
7
100
AcDbLine
10
225.380000000000
20
93.250000000000
30
0.0
11
220.440000000000
21
88.300000000000
31
0.0
0
LINE
5
66a
100
AcDbEntity
8
0-3
6
CONTINUOUS
62
7
100
AcDbLine
10
283.340000000000
20
93.600000000000
30
0.0
11
226.230000000000
21
93.600000000000
31
0.0
0
LINE
5
66b
100
AcDbEntity
8
0-3
6
CONTINUOUS
62
7
100
AcDbLine
10
365.760000000000
20
75.600000000000
30
0.0
11
375.760000000000
21
85.600000000000
31
0.0
0
LINE
5
66c
100
AcDbEntity
8
0-3
6
CONTINUOUS
62
7
100
AcDbLine
10
210.200000000000
20
75.600000000000
30
0.0
11
220.200000000000
21
85.600000000000
31
0.0
0
LINE
5
66d
100
AcDbEntity
8
0-3
6
CONTINUOUS
62
7
100
AcDbLine
10
196.060000000000
20
75.600000000000
30
0.0
11
206.060000000000
21
85.600000000000
31
0.0
0
LINE
5
66e
100
AcDbEntity
8
0-3
6
CONTINUOUS
62
7
100
AcDbLine
10
181.910000000000
20
75.600000000000
30
0.0
11
191.910000000000
21
85.600000000000
31
0.0
0
LINE
5
66f
100
AcDbEntity
8
0-3
6
CONTINUOUS
62
7
100
AcDbLine
10
379.900000000000
20
75.600000000000
30
0.0
11
389.900000000000
21
85.600000000000
31
0.0
0
LINE
5
670
100
AcDbEntity
8
0-3
6
CONTINUOUS
62
7
100
AcDbLine
10
394.050000000000
20
75.600000000000
30
0.0
11
404.050000000000
21
85.600000000000
31
0.0
0
LINE
5
671
100
AcDbEntity
8
0-3
6
CONTINUOUS
62
7
100
AcDbLine
10
218.740000000000
20
88.800000000000
30
0.0
11
180.450000000000
21
88.800000000000
31
0.0
0
LINE
5
672
100
AcDbEntity
8
0-3
6
CONTINUOUS
62
7
100
AcDbLine
10
218.740000000000
20
87.600000000000
30
0.0
11
180.450000000000
21
87.600000000000
31
0.0
0
LINE
5
673
100
AcDbEntity
8
0-3
6
DASHED
62
7
100
AcDbLine
10
407.350000000000
20
86.600000000000
30
0.0
11
180.450000000000
21
86.600000000000
31
0.0
0
LINE
5
674
100
AcDbEntity
8
0-3
6
CONTINUOUS
62
7
100
AcDbLine
10
407.350000000000
20
85.600000000000
30
0.0
11
180.450000000000
21
85.600000000000
31
0.0
0
LINE
5
675
100
AcDbEntity
8
0-3
6
CONTINUOUS
62
7
100
AcDbLine
10
407.350000000000
20
75.600000000000
30
0.0
11
180.450000000000
21
75.600000000000
31
0.0
0
LINE
5
676
100
AcDbEntity
8
0-3
6
CONTINUOUS
62
7
100
AcDbLine
10
635.140000000000
20
85.600000000000
30
0.0
11
478.380000000000
21
85.600000000000
31
0.0
0
LINE
5
677
100
AcDbEntity
8
0-3
6
DASHED
62
7
100
AcDbLine
10
635.140000000000
20
86.600000000000
30
0.0
11
478.380000000000
21
86.600000000000
31
0.0
0
LINE
5
678
100
AcDbEntity
8
0-3
6
CONTINUOUS
62
7
100
AcDbLine
10
583.760000000000
20
89.400000000000
30
0.0
11
593.760000000000
21
89.400000000000
31
0.0
0
LINE
5
679
100
AcDbEntity
8
0-3
6
CONTINUOUS
62
7
100
AcDbLine
10
585.760000000000
20
89.900000000000
30
0.0
11
591.760000000000
21
89.900000000000
31
0.0
0
LINE
5
67a
100
AcDbEntity
8
0-3
6
CONTINUOUS
62
7
100
AcDbLine
10
593.760000000000
20
89.400000000000
30
0.0
11
593.760000000000
21
89.000000000000
31
0.0
0
LINE
5
67b
100
AcDbEntity
8
0-3
6
CONTINUOUS
62
7
100
AcDbLine
10
591.760000000000
20
89.900000000000
30
0.0
11
593.260000000000
21
89.400000000000
31
0.0
0
LINE
5
67c
100
AcDbEntity
8
0-3
6
CONTINUOUS
62
7
100
AcDbLine
10
591.160000000000
20
78.690000000000
30
0.0
11
586.360000000000
21
79.490000000000
31
0.0
0
LINE
5
67d
100
AcDbEntity
8
0-3
6
CONTINUOUS
62
7
100
AcDbLine
10
591.160000000000
20
77.090000000000
30
0.0
11
586.360000000000
21
77.890000000000
31
0.0
0
LINE
5
67e
100
AcDbEntity
8
0-3
6
CONTINUOUS
62
7
100
AcDbLine
10
591.160000000000
20
75.490000000000
30
0.0
11
586.360000000000
21
76.290000000000
31
0.0
0
LINE
5
67f
100
AcDbEntity
8
0-3
6
CONTINUOUS
62
7
100
AcDbLine
10
591.160000000000
20
80.290000000000
30
0.0
11
586.360000000000
21
81.090000000000
31
0.0
0
LINE
5
680
100
AcDbEntity
8
0-3
6
CONTINUOUS
62
7
100
AcDbLine
10
583.760000000000
20
89.400000000000
30
0.0
11
583.760000000000
21
89.000000000000
31
0.0
0
LINE
5
681
100
AcDbEntity
8
0-3
6
CONTINUOUS
62
7
100
AcDbLine
10
585.760000000000
20
89.900000000000
30
0.0
11
584.260000000000
21
89.400000000000
31
0.0
0
LINE
5
682
100
AcDbEntity
8
0-3
6
CONTINUOUS
62
7
100
AcDbLine
10
591.160000000000
20
72.290000000000
30
0.0
11
586.360000000000
21
73.090000000000
31
0.0
0
LINE
5
683
100
AcDbEntity
8
0-3
6
CONTINUOUS
62
7
100
AcDbLine
10
591.160000000000
20
73.890000000000
30
0.0
11
586.360000000000
21
74.690000000000
31
0.0
0
LINE
5
684
100
AcDbEntity
8
0-3
6
CONTINUOUS
62
7
100
AcDbLine
10
591.160000000000
20
70.690000000000
30
0.0
11
586.360000000000
21
71.490000000000
31
0.0
0
LINE
5
685
100
AcDbEntity
8
0-3
6
CONTINUOUS
62
7
100
AcDbLine
10
591.160000000000
20
69.090000000000
30
0.0
11
586.360000000000
21
69.890000000000
31
0.0
0
LINE
5
686
100
AcDbEntity
8
0-3
6
CONTINUOUS
62
7
100
AcDbLine
10
588.760000000000
20
54.160000000000
30
0.0
11
586.760000000000
21
55.760000000000
31
0.0
0
LINE
5
687
100
AcDbEntity
8
0-3
6
CONTINUOUS
62
7
100
AcDbLine
10
590.760000000000
20
55.760000000000
30
0.0
11
588.760000000000
21
54.160000000000
31
0.0
0
LINE
5
688
100
AcDbEntity
8
0-3
6
CONTINUOUS
62
7
100
AcDbLine
10
583.760000000000
20
89.000000000000
30
0.0
11
593.760000000000
21
89.000000000000
31
0.0
0
LINE
5
689
100
AcDbEntity
8
0-3
6
CONTINUOUS
62
7
100
AcDbLine
10
591.160000000000
20
83.330000000000
30
0.0
11
586.360000000000
21
84.130000000000
31
0.0
0
LINE
5
68a
100
AcDbEntity
8
0-3
6
CONTINUOUS
62
7
100
AcDbLine
10
591.160000000000
20
81.890000000000
30
0.0
11
586.360000000000
21
82.690000000000
31
0.0
0
LINE
5
68b
100
AcDbEntity
8
0-3
6
CONTINUOUS
62
7
100
AcDbLine
10
591.160000000000
20
84.930000000000
30
0.0
11
586.360000000000
21
85.730000000000
31
0.0
0
LINE
5
68c
100
AcDbEntity
8
0-3
6
CONTINUOUS
62
7
100
AcDbLine
10
586.760000000000
20
55.600000000000
30
0.0
11
586.760000000000
21
89.000000000000
31
0.0
0
LINE
5
68d
100
AcDbEntity
8
0-3
6
CONTINUOUS
62
7
100
AcDbLine
10
590.760000000000
20
55.600000000000
30
0.0
11
590.760000000000
21
89.000000000000
31
0.0
0
LINE
5
68e
100
AcDbEntity
8
0-3
6
CONTINUOUS
62
7
100
AcDbLine
10
591.160000000000
20
67.490000000000
30
0.0
11
586.360000000000
21
68.290000000000
31
0.0
0
LINE
5
68f
100
AcDbEntity
8
0-3
6
CONTINUOUS
62
7
100
AcDbLine
10
591.160000000000
20
65.890000000000
30
0.0
11
586.360000000000
21
66.690000000000
31
0.0
0
LINE
5
690
100
AcDbEntity
8
0-3
6
CONTINUOUS
62
7
100
AcDbLine
10
591.160000000000
20
64.290000000000
30
0.0
11
586.360000000000
21
65.090000000000
31
0.0
0
LINE
5
691
100
AcDbEntity
8
0-3
6
CONTINUOUS
62
7
100
AcDbLine
10
591.160000000000
20
62.690000000000
30
0.0
11
586.360000000000
21
63.490000000000
31
0.0
0
LINE
5
692
100
AcDbEntity
8
0-3
6
CONTINUOUS
62
7
100
AcDbLine
10
591.160000000000
20
61.090000000000
30
0.0
11
586.360000000000
21
61.890000000000
31
0.0
0
POLYLINE
5
693
100
AcDbEntity
8
0-3
6
CONTINUOUS
62
  7
100
AcDb2dPolyline
66
1
10
0.0
20
0.0
30
0.0
70
0
0
VERTEX
5
694
100
AcDbEntity
8
0-3
6
CONTINUOUS
62
  7
100
AcDbVertex
100
AcDb2dVertex
10
587.960000000000
20
54.960000000000
30
0.0
0
VERTEX
5
695
100
AcDbEntity
8
0-3
6
CONTINUOUS
62
  7
100
AcDbVertex
100
AcDb2dVertex
10
588.760000000000
20
55.760000000000
30
0.0
0
VERTEX
5
696
100
AcDbEntity
8
0-3
6
CONTINUOUS
62
  7
100
AcDbVertex
100
AcDb2dVertex
10
588.220000000000
20
56.850000000000
30
0.0
0
VERTEX
5
697
100
AcDbEntity
8
0-3
6
CONTINUOUS
62
  7
100
AcDbVertex
100
AcDb2dVertex
10
589.440000000000
20
57.550000000000
30
0.0
0
VERTEX
5
698
100
AcDbEntity
8
0-3
6
CONTINUOUS
62
  7
100
AcDbVertex
100
AcDb2dVertex
10
590.760000000000
20
55.760000000000
30
0.0
0
SEQEND
5
699
100
AcDbEntity
8
0-3
0
LINE
5
69a
100
AcDbEntity
8
0-3
6
CONTINUOUS
62
7
100
AcDbLine
10
591.760000000000
20
89.900000000000
30
0.0
11
601.860000000000
21
107.390000000000
31
0.0
0
LINE
5
69b
100
AcDbEntity
8
0-3
6
CONTINUOUS
62
7
100
AcDbLine
10
612.640000000000
20
75.600000000000
30
0.0
11
622.640000000000
21
85.600000000000
31
0.0
0
LINE
5
69c
100
AcDbEntity
8
0-3
6
CONTINUOUS
62
7
100
AcDbLine
10
598.500000000000
20
75.600000000000
30
0.0
11
608.500000000000
21
85.600000000000
31
0.0
0
LINE
5
69d
100
AcDbEntity
8
0-3
6
CONTINUOUS
62
7
100
AcDbLine
10
584.360000000000
20
75.600000000000
30
0.0
11
594.360000000000
21
85.600000000000
31
0.0
0
LINE
5
69e
100
AcDbEntity
8
0-3
6
CONTINUOUS
62
7
100
AcDbLine
10
570.220000000000
20
75.600000000000
30
0.0
11
580.220000000000
21
85.600000000000
31
0.0
0
LINE
5
69f
100
AcDbEntity
8
0-3
6
CONTINUOUS
62
7
100
AcDbLine
10
556.070000000000
20
75.600000000000
30
0.0
11
566.070000000000
21
85.600000000000
31
0.0
0
LINE
5
6a0
100
AcDbEntity
8
0-3
6
CONTINUOUS
62
7
100
AcDbLine
10
541.930000000000
20
75.600000000000
30
0.0
11
551.930000000000
21
85.600000000000
31
0.0
0
LINE
5
6a1
100
AcDbEntity
8
0-3
6
CONTINUOUS
62
7
100
AcDbLine
10
527.790000000000
20
75.600000000000
30
0.0
11
537.790000000000
21
85.600000000000
31
0.0
0
LINE
5
6a2
100
AcDbEntity
8
0-3
6
CONTINUOUS
62
7
100
AcDbLine
10
513.650000000000
20
75.600000000000
30
0.0
11
523.650000000000
21
85.600000000000
31
0.0
0
LINE
5
6a3
100
AcDbEntity
8
0-3
6
CONTINUOUS
62
7
100
AcDbLine
10
499.510000000000
20
75.600000000000
30
0.0
11
509.510000000000
21
85.600000000000
31
0.0
0
LINE
5
6a4
100
AcDbEntity
8
0-3
6
CONTINUOUS
62
7
100
AcDbLine
10
485.360000000000
20
75.600000000000
30
0.0
11
495.360000000000
21
85.600000000000
31
0.0
0
LINE
5
6a5
100
AcDbEntity
8
0-3
6
CONTINUOUS
62
7
100
AcDbLine
10
521.010000000000
20
70.210000000000
30
0.0
11
530.470000000000
21
86.600000000000
31
0.0
0
LINE
5
6a6
100
AcDbEntity
8
0-3
6
CONTINUOUS
62
7
100
AcDbLine
10
558.180000000000
20
149.360000000000
30
0.0
11
560.670000000000
21
153.670000000000
31
0.0
0
LINE
5
6a7
100
AcDbEntity
8
0-3
6
CONTINUOUS
62
7
100
AcDbLine
10
567.920000000000
20
153.670000000000
30
0.0
11
560.670000000000
21
153.670000000000
31
0.0
0
LINE
5
6a8
100
AcDbEntity
8
0-3
6
CONTINUOUS
62
7
100
AcDbLine
10
545.560000000000
20
96.000000000000
30
0.0
11
545.560000000000
21
113.600000000000
31
0.0
0
LINE
5
6a9
100
AcDbEntity
8
0-3
6
CONTINUOUS
62
7
100
AcDbLine
10
546.760000000000
20
96.000000000000
30
0.0
11
546.760000000000
21
113.600000000000
31
0.0
0
LINE
5
6aa
100
AcDbEntity
8
0-3
6
CONTINUOUS
62
7
100
AcDbLine
10
544.360000000000
20
116.000000000000
30
0.0
11
542.800000000000
21
116.000000000000
31
0.0
0
LINE
5
6ab
100
AcDbEntity
8
0-3
6
CONTINUOUS
62
7
100
AcDbLine
10
544.360000000000
20
114.800000000000
30
0.0
11
542.800000000000
21
114.800000000000
31
0.0
0
LINE
5
6ac
100
AcDbEntity
8
0-3
6
CONTINUOUS
62
7
100
AcDbLine
10
541.620000000000
20
117.430000000000
30
0.0
11
547.650000000000
21
148.430000000000
31
0.0
0
LINE
5
6ad
100
AcDbEntity
8
0-3
6
CONTINUOUS
62
7
100
AcDbLine
10
540.450000000000
20
117.660000000000
30
0.0
11
546.470000000000
21
148.660000000000
31
0.0
0
LINE
5
6ae
100
AcDbEntity
8
0-3
6
CONTINUOUS
62
7
100
AcDbLine
10
559.160000000000
20
116.000000000000
30
0.0
11
560.720000000000
21
116.000000000000
31
0.0
0
LINE
5
6af
100
AcDbEntity
8
0-3
6
CONTINUOUS
62
7
100
AcDbLine
10
559.160000000000
20
114.800000000000
30
0.0
11
560.720000000000
21
114.800000000000
31
0.0
0
LINE
5
6b0
100
AcDbEntity
8
0-3
6
CONTINUOUS
62
7
100
AcDbLine
10
561.900000000000
20
117.430000000000
30
0.0
11
555.870000000000
21
148.430000000000
31
0.0
0
LINE
5
6b1
100
AcDbEntity
8
0-3
6
CONTINUOUS
62
7
100
AcDbLine
10
563.070000000000
20
117.660000000000
30
0.0
11
557.050000000000
21
148.660000000000
31
0.0
0
LINE
5
6b2
100
AcDbEntity
8
0-3
6
CONTINUOUS
62
7
100
AcDbLine
10
557.960000000000
20
90.000000000000
30
0.0
11
557.960000000000
21
113.600000000000
31
0.0
0
LINE
5
6b3
100
AcDbEntity
8
0-3
6
CONTINUOUS
62
7
100
AcDbLine
10
556.760000000000
20
90.000000000000
30
0.0
11
556.760000000000
21
113.600000000000
31
0.0
0
LINE
5
6b4
100
AcDbEntity
8
0-3
6
CONTINUOUS
62
7
100
AcDbLine
10
559.160000000000
20
88.800000000000
30
0.0
11
568.770000000000
21
88.800000000000
31
0.0
0
LINE
5
6b5
100
AcDbEntity
8
0-3
6
CONTINUOUS
62
7
100
AcDbLine
10
570.460000000000
20
88.300000000000
30
0.0
11
571.910000000000
21
89.750000000000
31
0.0
0
LINE
5
6b6
100
AcDbEntity
8
0-3
6
CONTINUOUS
62
7
100
AcDbLine
10
559.160000000000
20
87.600000000000
30
0.0
11
568.770000000000
21
87.600000000000
31
0.0
0
LINE
5
6b7
100
AcDbEntity
8
0-3
6
CONTINUOUS
62
7
100
AcDbLine
10
575.060000000000
20
88.300000000000
30
0.0
11
573.610000000000
21
89.750000000000
31
0.0
0
LINE
5
6b8
100
AcDbEntity
8
0-3
6
CONTINUOUS
62
7
100
AcDbLine
10
575.910000000000
20
89.150000000000
30
0.0
11
574.460000000000
21
90.600000000000
31
0.0
0
LINE
5
6b9
100
AcDbEntity
8
0-3
6
CONTINUOUS
62
7
100
AcDbLine
10
569.610000000000
20
89.150000000000
30
0.0
11
571.060000000000
21
90.600000000000
31
0.0
0
LINE
5
6ba
100
AcDbEntity
8
0-3
6
CONTINUOUS
62
7
100
AcDbLine
10
576.750000000000
20
87.600000000000
30
0.0
11
587.750000000000
21
87.600000000000
31
0.0
0
LINE
5
6bb
100
AcDbEntity
8
0-3
6
CONTINUOUS
62
7
100
AcDbLine
10
589.060000000000
20
87.190000000000
30
0.0
11
589.770000000000
21
87.600000000000
31
0.0
0
LINE
5
6bc
100
AcDbEntity
8
0-3
6
CONTINUOUS
62
7
100
AcDbLine
10
588.460000000000
20
87.190000000000
30
0.0
11
587.750000000000
21
87.600000000000
31
0.0
0
LINE
5
6bd
100
AcDbEntity
8
0-3
6
CONTINUOUS
62
7
100
AcDbLine
10
588.760000000000
20
88.400000000000
30
0.0
11
588.210000000000
21
88.720000000000
31
0.0
0
LINE
5
6be
100
AcDbEntity
8
0-3
6
CONTINUOUS
62
7
100
AcDbLine
10
576.750000000000
20
88.800000000000
30
0.0
11
587.910000000000
21
88.800000000000
31
0.0
0
LINE
5
6bf
100
AcDbEntity
8
0-3
6
CONTINUOUS
62
7
100
AcDbLine
10
588.760000000000
20
88.400000000000
30
0.0
11
589.310000000000
21
88.720000000000
31
0.0
0
LINE
5
6c0
100
AcDbEntity
8
0-3
6
CONTINUOUS
62
7
100
AcDbLine
10
602.760000000000
20
90.400000000000
30
0.0
11
602.760000000000
21
91.600000000000
31
0.0
0
LINE
5
6c1
100
AcDbEntity
8
0-3
6
CONTINUOUS
62
7
100
AcDbLine
10
608.760000000000
20
91.600000000000
30
0.0
11
602.760000000000
21
91.600000000000
31
0.0
0
LINE
5
6c2
100
AcDbEntity
8
0-3
6
CONTINUOUS
62
7
100
AcDbLine
10
608.760000000000
20
90.400000000000
30
0.0
11
602.760000000000
21
90.400000000000
31
0.0
0
LINE
5
6c3
100
AcDbEntity
8
0-3
6
CONTINUOUS
62
7
100
AcDbLine
10
589.610000000000
20
88.800000000000
30
0.0
11
608.760000000000
21
88.800000000000
31
0.0
0
LINE
5
6c4
100
AcDbEntity
8
0-3
6
CONTINUOUS
62
7
100
AcDbLine
10
589.770000000000
20
87.600000000000
30
0.0
11
608.760000000000
21
87.600000000000
31
0.0
0
LINE
5
6c5
100
AcDbEntity
8
0-3
6
CONTINUOUS
62
7
100
AcDbLine
10
544.360000000000
20
94.800000000000
30
0.0
11
487.260000000000
21
94.800000000000
31
0.0
0
LINE
5
6c6
100
AcDbEntity
8
0-3
6
CONTINUOUS
62
7
100
AcDbLine
10
485.560000000000
20
94.100000000000
30
0.0
11
480.610000000000
21
89.150000000000
31
0.0
0
LINE
5
6c7
100
AcDbEntity
8
0-3
6
CONTINUOUS
62
7
100
AcDbLine
10
486.410000000000
20
93.250000000000
30
0.0
11
481.460000000000
21
88.300000000000
31
0.0
0
LINE
5
6c8
100
AcDbEntity
8
0-3
6
CONTINUOUS
62
7
100
AcDbLine
10
544.360000000000
20
93.600000000000
30
0.0
11
487.260000000000
21
93.600000000000
31
0.0
0
LINE
5
6c9
100
AcDbEntity
8
0-3
6
CONTINUOUS
62
7
100
AcDbLine
10
626.790000000000
20
75.600000000000
30
0.0
11
636.790000000000
21
85.600000000000
31
0.0
0
LINE
5
6ca
100
AcDbEntity
8
0-3
6
CONTINUOUS
62
7
100
AcDbLine
10
471.220000000000
20
75.600000000000
30
0.0
11
481.220000000000
21
85.600000000000
31
0.0
0
LINE
5
6cb
100
AcDbEntity
8
0-3
6
CONTINUOUS
62
7
100
AcDbLine
10
457.080000000000
20
75.600000000000
30
0.0
11
467.080000000000
21
85.600000000000
31
0.0
0
LINE
5
6cc
100
AcDbEntity
8
0-3
6
CONTINUOUS
62
7
100
AcDbLine
10
442.940000000000
20
75.600000000000
30
0.0
11
452.940000000000
21
85.600000000000
31
0.0
0
LINE
5
6cd
100
AcDbEntity
8
0-3
6
CONTINUOUS
62
7
100
AcDbLine
10
640.930000000000
20
75.600000000000
30
0.0
11
650.930000000000
21
85.600000000000
31
0.0
0
LINE
5
6ce
100
AcDbEntity
8
0-3
6
CONTINUOUS
62
7
100
AcDbLine
10
655.070000000000
20
75.600000000000
30
0.0
11
665.070000000000
21
85.600000000000
31
0.0
0
LINE
5
6cf
100
AcDbEntity
8
0-3
6
CONTINUOUS
62
7
100
AcDbLine
10
479.770000000000
20
88.800000000000
30
0.0
11
441.480000000000
21
88.800000000000
31
0.0
0
LINE
5
6d0
100
AcDbEntity
8
0-3
6
CONTINUOUS
62
7
100
AcDbLine
10
479.770000000000
20
87.600000000000
30
0.0
11
441.480000000000
21
87.600000000000
31
0.0
0
LINE
5
6d1
100
AcDbEntity
8
0-3
6
DASHED
62
7
100
AcDbLine
10
668.370000000000
20
86.600000000000
30
0.0
11
441.480000000000
21
86.600000000000
31
0.0
0
LINE
5
6d2
100
AcDbEntity
8
0-3
6
CONTINUOUS
62
7
100
AcDbLine
10
668.370000000000
20
85.600000000000
30
0.0
11
441.480000000000
21
85.600000000000
31
0.0
0
LINE
5
6d3
100
AcDbEntity
8
0-3
6
CONTINUOUS
62
7
100
AcDbLine
10
668.370000000000
20
75.600000000000
30
0.0
11
441.480000000000
21
75.600000000000
31
0.0
0
LINE
5
6d4
100
AcDbEntity
8
0-3
6
CONTINUOUS
62
7
100
AcDbLine
10
544.710000000000
20
151.000000000000
30
0.0
11
539.600000000000
21
115.370000000000
31
0.0
0
LINE
5
6d5
100
AcDbEntity
8
0-3
6
CONTINUOUS
62
7
100
AcDbLine
10
558.810000000000
20
151.000000000000
30
0.0
11
563.920000000000
21
115.370000000000
31
0.0
0
LINE
5
6d6
100
AcDbEntity
8
0-3
6
CONTINUOUS
62
7
100
AcDbLine
10
540.790000000000
20
114.000000000000
30
0.0
11
543.360000000000
21
114.000000000000
31
0.0
0
LINE
5
6d7
100
AcDbEntity
8
0-3
6
CONTINUOUS
62
7
100
AcDbLine
10
540.790000000000
20
112.800000000000
30
0.0
11
543.360000000000
21
112.800000000000
31
0.0
0
LINE
5
6d8
100
AcDbEntity
8
0-3
6
CONTINUOUS
62
7
100
AcDbLine
10
540.720000000000
20
102.230000000000
30
0.0
11
545.440000000000
21
110.400000000000
31
0.0
0
LINE
5
6d9
100
AcDbEntity
8
0-3
6
CONTINUOUS
62
7
100
AcDbLine
10
544.400000000000
20
111.000000000000
30
0.0
11
539.680000000000
21
102.830000000000
31
0.0
0
POLYLINE
5
6da
100
AcDbEntity
8
0-3
6
CONTINUOUS
62
  7
100
AcDb2dPolyline
66
1
10
0.0
20
0.0
30
0.0
70
0
0
VERTEX
5
6db
100
AcDbEntity
8
0-3
6
CONTINUOUS
62
  7
100
AcDbVertex
100
AcDb2dVertex
10
543.560000000000
20
107.060000000000
30
0.0
0
VERTEX
5
6dc
100
AcDbEntity
8
0-3
6
CONTINUOUS
62
  7
100
AcDbVertex
100
AcDb2dVertex
10
544.760000000000
20
106.930000000000
30
0.0
0
VERTEX
5
6dd
100
AcDbEntity
8
0-3
6
CONTINUOUS
62
  7
100
AcDbVertex
100
AcDb2dVertex
10
544.140000000000
20
101.360000000000
30
0.0
0
SEQEND
5
6de
100
AcDbEntity
8
0-3
0
LINE
5
6df
100
AcDbEntity
8
0-3
6
CONTINUOUS
62
7
100
AcDbLine
10
543.560000000000
20
107.060000000000
30
0.0
11
542.950000000000
21
101.500000000000
31
0.0
0
LINE
5
6e0
100
AcDbEntity
8
0-3
6
CONTINUOUS
62
7
100
AcDbLine
10
562.730000000000
20
114.000000000000
30
0.0
11
560.160000000000
21
114.000000000000
31
0.0
0
LINE
5
6e1
100
AcDbEntity
8
0-3
6
CONTINUOUS
62
7
100
AcDbLine
10
562.730000000000
20
112.800000000000
30
0.0
11
560.160000000000
21
112.800000000000
31
0.0
0
LINE
5
6e2
100
AcDbEntity
8
0-3
6
CONTINUOUS
62
7
100
AcDbLine
10
568.110000000000
20
95.400000000000
30
0.0
11
559.120000000000
21
111.000000000000
31
0.0
0
LINE
5
6e3
100
AcDbEntity
8
0-3
6
CONTINUOUS
62
7
100
AcDbLine
10
567.070000000000
20
94.800000000000
30
0.0
11
558.080000000000
21
110.400000000000
31
0.0
0
LINE
5
6e4
100
AcDbEntity
8
0-3
6
CONTINUOUS
62
7
100
AcDbLine
10
569.150000000000
20
94.800000000000
30
0.0
11
627.260000000000
21
94.800000000000
31
0.0
0
LINE
5
6e5
100
AcDbEntity
8
0-3
6
CONTINUOUS
62
7
100
AcDbLine
10
628.960000000000
20
94.100000000000
30
0.0
11
633.910000000000
21
89.150000000000
31
0.0
0
LINE
5
6e6
100
AcDbEntity
8
0-3
6
CONTINUOUS
62
7
100
AcDbLine
10
569.150000000000
20
93.600000000000
30
0.0
11
627.260000000000
21
93.600000000000
31
0.0
0
LINE
5
6e7
100
AcDbEntity
8
0-3
6
CONTINUOUS
62
7
100
AcDbLine
10
628.110000000000
20
93.250000000000
30
0.0
11
633.060000000000
21
88.300000000000
31
0.0
0
LINE
5
6e8
100
AcDbEntity
8
0-3
6
CONTINUOUS
62
7
100
AcDbLine
10
543.440000000000
20
150.600000000000
30
0.0
11
538.410000000000
21
115.540000000000
31
0.0
0
LINE
5
6e9
100
AcDbEntity
8
0-3
6
CONTINUOUS
62
7
100
AcDbLine
10
560.080000000000
20
150.600000000000
30
0.0
11
565.110000000000
21
115.540000000000
31
0.0
0
LINE
5
6ea
100
AcDbEntity
8
0-3
6
CONTINUOUS
62
3
100
AcDbLine
10
545.560000000000
20
143.970000000000
30
0.0
11
543.760000000000
21
144.320000000000
31
0.0
0
LINE
5
6eb
100
AcDbEntity
8
0-3
6
CONTINUOUS
62
3
100
AcDbLine
10
557.960000000000
20
143.970000000000
30
0.0
11
559.760000000000
21
144.320000000000
31
0.0
0
LINE
5
6ec
100
AcDbEntity
8
0-3
6
CONTINUOUS
62
7
100
AcDbLine
10
634.750000000000
20
88.800000000000
30
0.0
11
668.370000000000
21
88.800000000000
31
0.0
0
LINE
5
6ed
100
AcDbEntity
8
0-3
6
CONTINUOUS
62
7
100
AcDbLine
10
634.750000000000
20
87.600000000000
30
0.0
11
668.370000000000
21
87.600000000000
31
0.0
0
LINE
5
6ee
100
AcDbEntity
8
0-3
6
CONTINUOUS
62
3
100
AcDbLine
10
545.090000000000
20
144.060000000000
30
0.0
11
545.690000000000
21
144.660000000000
31
0.0
0
LINE
5
6ef
100
AcDbEntity
8
0-3
6
CONTINUOUS
62
3
100
AcDbLine
10
543.910000000000
20
144.290000000000
30
0.0
11
546.040000000000
21
146.420000000000
31
0.0
0
LINE
5
6f0
100
AcDbEntity
8
0-3
6
CONTINUOUS
62
3
100
AcDbLine
10
543.850000000000
20
145.650000000000
30
0.0
11
546.380000000000
21
148.170000000000
31
0.0
0
LINE
5
6f1
100
AcDbEntity
8
0-3
6
CONTINUOUS
62
3
100
AcDbLine
10
557.690000000000
20
145.350000000000
30
0.0
11
559.400000000000
21
147.050000000000
31
0.0
0
LINE
5
6f2
100
AcDbEntity
8
0-3
6
CONTINUOUS
62
3
100
AcDbLine
10
544.670000000000
20
150.710000000000
30
0.0
11
546.030000000000
21
152.070000000000
31
0.0
0
LINE
5
6f3
100
AcDbEntity
8
0-3
6
CONTINUOUS
62
3
100
AcDbLine
10
544.530000000000
20
149.160000000000
30
0.0
11
547.710000000000
21
152.340000000000
31
0.0
0
LINE
5
6f4
100
AcDbEntity
8
0-3
6
CONTINUOUS
62
3
100
AcDbLine
10
548.830000000000
20
150.630000000000
30
0.0
11
550.790000000000
21
152.590000000000
31
0.0
0
LINE
5
6f5
100
AcDbEntity
8
0-3
6
CONTINUOUS
62
3
100
AcDbLine
10
544.190000000000
20
147.400000000000
30
0.0
11
549.290000000000
21
152.500000000000
31
0.0
0
LINE
5
6f6
100
AcDbEntity
8
0-3
6
CONTINUOUS
62
3
100
AcDbLine
10
550.240000000000
20
150.630000000000
30
0.0
11
552.220000000000
21
152.600000000000
31
0.0
0
LINE
5
6f7
100
AcDbEntity
8
0-3
6
CONTINUOUS
62
3
100
AcDbLine
10
551.660000000000
20
150.630000000000
30
0.0
11
553.580000000000
21
152.550000000000
31
0.0
0
LINE
5
6f8
100
AcDbEntity
8
0-3
6
CONTINUOUS
62
3
100
AcDbLine
10
553.070000000000
20
150.630000000000
30
0.0
11
554.890000000000
21
152.450000000000
31
0.0
0
LINE
5
6f9
100
AcDbEntity
8
0-3
6
CONTINUOUS
62
3
100
AcDbLine
10
554.490000000000
20
150.630000000000
30
0.0
11
556.150000000000
21
152.290000000000
31
0.0
0
LINE
5
6fa
100
AcDbEntity
8
0-3
6
CONTINUOUS
62
3
100
AcDbLine
10
555.670000000000
20
150.390000000000
30
0.0
11
557.370000000000
21
152.100000000000
31
0.0
0
LINE
5
6fb
100
AcDbEntity
8
0-3
6
CONTINUOUS
62
3
100
AcDbLine
10
559.430000000000
20
144.260000000000
30
0.0
11
559.730000000000
21
144.560000000000
31
0.0
0
LINE
5
6fc
100
AcDbEntity
8
0-3
6
CONTINUOUS
62
3
100
AcDbLine
10
557.920000000000
20
144.160000000000
30
0.0
11
559.550000000000
21
145.790000000000
31
0.0
0
LINE
5
6fd
100
AcDbEntity
8
0-3
6
CONTINUOUS
62
3
100
AcDbLine
10
557.460000000000
20
146.530000000000
30
0.0
11
559.200000000000
21
148.270000000000
31
0.0
0
LINE
5
6fe
100
AcDbEntity
8
0-3
6
CONTINUOUS
62
3
100
AcDbLine
10
557.230000000000
20
147.720000000000
30
0.0
11
559.020000000000
21
149.500000000000
31
0.0
0
LINE
5
6ff
100
AcDbEntity
8
0-3
6
CONTINUOUS
62
3
100
AcDbLine
10
557.000000000000
20
148.900000000000
30
0.0
11
558.840000000000
21
150.740000000000
31
0.0
0
LINE
5
700
100
AcDbEntity
8
0-3
6
CONTINUOUS
62
3
100
AcDbLine
10
556.490000000000
20
149.800000000000
30
0.0
11
558.360000000000
21
151.670000000000
31
0.0
0
LINE
5
701
100
AcDbEntity
8
0-3
6
CONTINUOUS
62
7
100
AcDbLine
10
373.730000000000
20
163.800000000000
30
0.0
11
407.350000000000
21
163.800000000000
31
0.0
0
LINE
5
702
100
AcDbEntity
8
0-3
6
CONTINUOUS
62
7
100
AcDbLine
10
373.730000000000
20
162.600000000000
30
0.0
11
407.350000000000
21
162.600000000000
31
0.0
0
LINE
5
703
100
AcDbEntity
8
0-0
6
CONTINUOUS
62
4
100
AcDbLine
10
190.670000000000
20
505.550000000000
30
0.0
11
190.970000000000
21
505.850000000000
31
0.0
0
LINE
5
704
100
AcDbEntity
8
0-0
6
CONTINUOUS
62
4
100
AcDbLine
10
190.070000000000
20
505.660000000000
30
0.0
11
191.140000000000
21
506.720000000000
31
0.0
0
LINE
5
705
100
AcDbEntity
8
0-0
6
CONTINUOUS
62
4
100
AcDbLine
10
190.040000000000
20
506.340000000000
30
0.0
11
191.310000000000
21
507.600000000000
31
0.0
0
LINE
5
706
100
AcDbEntity
8
0-0
6
CONTINUOUS
62
4
100
AcDbLine
10
196.960000000000
20
506.190000000000
30
0.0
11
197.820000000000
21
507.040000000000
31
0.0
0
LINE
5
707
100
AcDbEntity
8
0-0
6
CONTINUOUS
62
4
100
AcDbLine
10
190.450000000000
20
508.870000000000
30
0.0
11
191.140000000000
21
509.550000000000
31
0.0
0
LINE
5
708
100
AcDbEntity
8
0-0
6
CONTINUOUS
62
4
100
AcDbLine
10
190.380000000000
20
508.090000000000
30
0.0
11
191.980000000000
21
509.680000000000
31
0.0
0
LINE
5
709
100
AcDbEntity
8
0-0
6
CONTINUOUS
62
4
100
AcDbLine
10
192.530000000000
20
508.830000000000
30
0.0
11
193.510000000000
21
509.810000000000
31
0.0
0
LINE
5
70a
100
AcDbEntity
8
0-0
6
CONTINUOUS
62
4
100
AcDbLine
10
190.210000000000
20
507.220000000000
30
0.0
11
192.760000000000
21
509.770000000000
31
0.0
0
LINE
5
70b
100
AcDbEntity
8
0-0
6
CONTINUOUS
62
4
100
AcDbLine
10
193.240000000000
20
508.830000000000
30
0.0
11
194.230000000000
21
509.810000000000
31
0.0
0
LINE
5
70c
100
AcDbEntity
8
0-0
6
CONTINUOUS
62
4
100
AcDbLine
10
193.950000000000
20
508.830000000000
30
0.0
11
194.910000000000
21
509.790000000000
31
0.0
0
LINE
5
70d
100
AcDbEntity
8
0-0
6
CONTINUOUS
62
4
100
AcDbLine
10
194.650000000000
20
508.830000000000
30
0.0
11
195.560000000000
21
509.740000000000
31
0.0
0
LINE
5
70e
100
AcDbEntity
8
0-0
6
CONTINUOUS
62
4
100
AcDbLine
10
195.360000000000
20
508.830000000000
30
0.0
11
196.190000000000
21
509.660000000000
31
0.0
0
LINE
5
70f
100
AcDbEntity
8
0-0
6
CONTINUOUS
62
4
100
AcDbLine
10
195.950000000000
20
508.710000000000
30
0.0
11
196.800000000000
21
509.560000000000
31
0.0
0
LINE
5
710
100
AcDbEntity
8
0-0
6
CONTINUOUS
62
4
100
AcDbLine
10
197.830000000000
20
505.640000000000
30
0.0
11
197.980000000000
21
505.790000000000
31
0.0
0
LINE
5
711
100
AcDbEntity
8
0-0
6
CONTINUOUS
62
4
100
AcDbLine
10
197.080000000000
20
505.600000000000
30
0.0
11
197.890000000000
21
506.410000000000
31
0.0
0
LINE
5
712
100
AcDbEntity
8
0-0
6
CONTINUOUS
62
4
100
AcDbLine
10
196.850000000000
20
506.780000000000
30
0.0
11
197.720000000000
21
507.650000000000
31
0.0
0
LINE
5
713
100
AcDbEntity
8
0-0
6
CONTINUOUS
62
4
100
AcDbLine
10
196.730000000000
20
507.370000000000
30
0.0
11
197.630000000000
21
508.270000000000
31
0.0
0
LINE
5
714
100
AcDbEntity
8
0-0
6
CONTINUOUS
62
4
100
AcDbLine
10
196.620000000000
20
507.970000000000
30
0.0
11
197.540000000000
21
508.890000000000
31
0.0
0
LINE
5
715
100
AcDbEntity
8
0-0
6
CONTINUOUS
62
4
100
AcDbLine
10
196.360000000000
20
508.410000000000
30
0.0
11
197.300000000000
21
509.350000000000
31
0.0
0
LINE
5
716
100
AcDbEntity
8
0-0
6
CONTINUOUS
62
4
100
AcDbLine
10
625.510000000000
20
410.010000000000
30
0.0
11
580.540000000000
21
410.010000000000
31
0.0
0
LINE
5
717
100
AcDbEntity
8
0-0
6
CONTINUOUS
62
4
100
AcDbLine
10
580.540000000000
20
379.110000000000
30
0.0
11
580.540000000000
21
410.010000000000
31
0.0
0
LINE
5
718
100
AcDbEntity
8
0-0
6
CONTINUOUS
62
4
100
AcDbLine
10
625.510000000000
20
300.010000000000
30
0.0
11
580.540000000000
21
300.010000000000
31
0.0
0
LINE
5
719
100
AcDbEntity
8
0-0
6
CONTINUOUS
62
4
100
AcDbLine
10
580.540000000000
20
269.110000000000
30
0.0
11
580.540000000000
21
300.010000000000
31
0.0
0
LINE
5
71a
100
AcDbEntity
8
0-0
6
CONTINUOUS
62
4
100
AcDbLine
10
609.180000000000
20
382.110000000000
30
0.0
11
602.360000000000
21
382.110000000000
31
0.0
0
POLYLINE
5
71b
100
AcDbEntity
8
0-0
6
CONTINUOUS
62
  4
100
AcDb2dPolyline
66
1
10
0.0
20
0.0
30
0.0
70
0
0
VERTEX
5
71c
100
AcDbEntity
8
0-0
6
CONTINUOUS
62
  4
100
AcDbVertex
100
AcDb2dVertex
10
602.360000000000
20
379.110000000000
30
0.0
0
VERTEX
5
71d
100
AcDbEntity
8
0-0
6
CONTINUOUS
62
  4
100
AcDbVertex
100
AcDb2dVertex
10
602.360000000000
20
382.110000000000
30
0.0
0
VERTEX
5
71e
100
AcDbEntity
8
0-0
6
CONTINUOUS
62
  4
100
AcDbVertex
100
AcDb2dVertex
10
602.360000000000
20
410.010000000000
30
0.0
0
SEQEND
5
71f
100
AcDbEntity
8
0-0
0
LINE
5
720
100
AcDbEntity
8
0-0
6
CONTINUOUS
62
4
100
AcDbLine
10
609.180000000000
20
272.110000000000
30
0.0
11
602.360000000000
21
272.110000000000
31
0.0
0
POLYLINE
5
721
100
AcDbEntity
8
0-0
6
CONTINUOUS
62
  4
100
AcDb2dPolyline
66
1
10
0.0
20
0.0
30
0.0
70
0
0
VERTEX
5
722
100
AcDbEntity
8
0-0
6
CONTINUOUS
62
  4
100
AcDbVertex
100
AcDb2dVertex
10
602.360000000000
20
269.110000000000
30
0.0
0
VERTEX
5
723
100
AcDbEntity
8
0-0
6
CONTINUOUS
62
  4
100
AcDbVertex
100
AcDb2dVertex
10
602.360000000000
20
272.110000000000
30
0.0
0
VERTEX
5
724
100
AcDbEntity
8
0-0
6
CONTINUOUS
62
  4
100
AcDbVertex
100
AcDb2dVertex
10
602.360000000000
20
300.010000000000
30
0.0
0
SEQEND
5
725
100
AcDbEntity
8
0-0
0
LINE
5
726
100
AcDbEntity
8
0-3
6
CONTINUOUS
62
7
100
AcDbLine
10
280.290000000000
20
210.740000000000
30
0.0
11
268.870000000000
21
230.520000000000
31
0.0
0
LINE
5
727
100
AcDbEntity
8
0-3
6
CONTINUOUS
62
7
100
AcDbLine
10
541.310000000000
20
135.740000000000
30
0.0
11
529.900000000000
21
155.520000000000
31
0.0
0
LINE
5
728
100
AcDbEntity
8
0-0
6
CONTINUOUS
62
7
100
AcDbLine
10
631.200000000000
20
519.020000000000
30
0.0
11
638.450000000000
21
519.020000000000
31
0.0
0
LINE
5
729
100
AcDbEntity
8
0-0
6
CONTINUOUS
62
7
100
AcDbLine
10
644.340000000000
20
508.820000000000
30
0.0
11
638.450000000000
21
519.020000000000
31
0.0
0
LINE
5
72a
100
AcDbEntity
8
0-3
6
DOT
62
7
100
AcDbLine
10
283.820000000000
20
225.840000000000
30
0.0
11
285.070000000000
21
227.080000000000
31
0.0
0
LINE
5
72b
100
AcDbEntity
8
0-3
6
DOT
62
7
100
AcDbLine
10
284.530000000000
20
225.130000000000
30
0.0
11
286.740000000000
21
227.350000000000
31
0.0
0
LINE
5
72c
100
AcDbEntity
8
0-3
6
DOT
62
7
100
AcDbLine
10
285.300000000000
20
224.490000000000
30
0.0
11
288.320000000000
21
227.510000000000
31
0.0
0
LINE
5
72d
100
AcDbEntity
8
0-3
6
DOT
62
7
100
AcDbLine
10
286.150000000000
20
223.930000000000
30
0.0
11
289.810000000000
21
227.590000000000
31
0.0
0
LINE
5
72e
100
AcDbEntity
8
0-3
6
DOT
62
7
100
AcDbLine
10
287.080000000000
20
223.440000000000
30
0.0
11
291.240000000000
21
227.600000000000
31
0.0
0
LINE
5
72f
100
AcDbEntity
8
0-3
6
DOT
62
7
100
AcDbLine
10
288.110000000000
20
223.050000000000
30
0.0
11
292.600000000000
21
227.550000000000
31
0.0
0
LINE
5
730
100
AcDbEntity
8
0-3
6
DOT
62
7
100
AcDbLine
10
289.240000000000
20
222.770000000000
30
0.0
11
293.910000000000
21
227.440000000000
31
0.0
0
LINE
5
731
100
AcDbEntity
8
0-3
6
DOT
62
7
100
AcDbLine
10
290.490000000000
20
222.610000000000
30
0.0
11
295.170000000000
21
227.290000000000
31
0.0
0
LINE
5
732
100
AcDbEntity
8
0-3
6
DOT
62
7
100
AcDbLine
10
293.980000000000
20
223.270000000000
30
0.0
11
297.410000000000
21
226.700000000000
31
0.0
0
LINE
5
733
100
AcDbEntity
8
0-3
6
DOT
62
7
100
AcDbLine
10
292.030000000000
20
222.730000000000
30
0.0
11
296.380000000000
21
227.090000000000
31
0.0
0
LINE
5
734
100
AcDbEntity
8
0-3
6
CONTINUOUS
62
7
100
AcDbLine
10
304.040000000000
20
235.740000000000
30
0.0
11
296.790000000000
21
235.740000000000
31
0.0
0
LINE
5
735
100
AcDbEntity
8
0-3
6
CONTINUOUS
62
7
100
AcDbLine
10
290.840000000000
20
225.430000000000
30
0.0
11
296.790000000000
21
235.740000000000
31
0.0
0
LINE
5
736
100
AcDbEntity
8
0-3
6
CONTINUOUS
62
7
100
AcDbLine
10
610.000000000000
20
68.300000000000
30
0.0
11
605.790000000000
21
75.600000000000
31
0.0
0
LINE
5
737
100
AcDbEntity
8
0-3
6
CONTINUOUS
62
7
100
AcDbLine
10
348.980000000000
20
68.300000000000
30
0.0
11
344.760000000000
21
75.600000000000
31
0.0
0
ARC
5
738
100
AcDbEntity
8
0-3
6
CONTINUOUS
62
7
100
AcDbCircle
10
327.740000000000
20
86.700000000000
30
0.0
40
4.390853966716
100
AcDbArc
50
46.905136108398
51
133.094863891602
0
CIRCLE
5
739
100
AcDbEntity
8
F-F
6
CONTINUOUS
62
3
100
AcDbCircle
10
39.860000000000
20
33.550000000000
30
0.0
40
5.656854879605
0
CIRCLE
5
73a
100
AcDbEntity
8
F-F
6
CONTINUOUS
62
3
100
AcDbCircle
10
39.860000000000
20
33.550000000000
30
0.0
40
6.456854635214
0
CIRCLE
5
73b
100
AcDbEntity
8
F-F
6
CONTINUOUS
62
4
100
AcDbCircle
10
39.860000000000
20
33.550000000000
30
0.0
40
5.736855280960
0
CIRCLE
5
73c
100
AcDbEntity
8
F-F
6
CONTINUOUS
62
4
100
AcDbCircle
10
39.860000000000
20
33.550000000000
30
0.0
40
5.896853761158
0
CIRCLE
5
73d
100
AcDbEntity
8
F-F
6
CONTINUOUS
62
4
100
AcDbCircle
10
39.860000000000
20
33.550000000000
30
0.0
40
6.056854563867
0
CIRCLE
5
73e
100
AcDbEntity
8
F-F
6
CONTINUOUS
62
4
100
AcDbCircle
10
39.860000000000
20
33.550000000000
30
0.0
40
6.216853431151
0
CIRCLE
5
73f
100
AcDbEntity
8
F-F
6
CONTINUOUS
62
4
100
AcDbCircle
10
39.860000000000
20
33.550000000000
30
0.0
40
6.376853072605
0
ARC
5
740
100
AcDbEntity
8
0-0
6
CONTINUOUS
62
7
100
AcDbCircle
10
191.070000000000
20
410.120000000000
30
0.0
40
0.600000010249
100
AcDbArc
50
101.224548339844
51
171.833770751953
0
ARC
5
741
100
AcDbEntity
8
0-0
6
CONTINUOUS
62
7
100
AcDbCircle
10
196.930000000000
20
410.120000000000
30
0.0
40
0.600000010249
100
AcDbArc
50
8.166290283203
51
78.775817871094
0
ARC
5
742
100
AcDbEntity
8
0-0
6
CONTINUOUS
62
7
100
AcDbCircle
10
194.000000000000
20
395.360000000000
30
0.0
40
15.649999065756
100
AcDbArc
50
78.775772094727
51
101.224212646484
0
ARC
5
743
100
AcDbEntity
8
0-0
6
CONTINUOUS
62
7
100
AcDbCircle
10
188.510000000000
20
392.310000000000
30
0.0
40
0.600000010249
100
AcDbArc
50
171.832382202148
51
270.000350952148
0
ARC
5
744
100
AcDbEntity
8
0-0
6
CONTINUOUS
62
7
100
AcDbCircle
10
199.480000000000
20
392.310000000000
30
0.0
40
0.600000010249
100
AcDbArc
50
269.999633789063
51
8.167602539063
0
ARC
5
745
100
AcDbEntity
8
0-0
6
CONTINUOUS
62
7
100
AcDbCircle
10
188.510000000000
20
392.310000000000
30
0.0
40
1.200000020498
100
AcDbArc
50
171.833847045898
51
269.999969482422
0
ARC
5
746
100
AcDbEntity
8
0-0
6
CONTINUOUS
62
7
100
AcDbCircle
10
199.480000000000
20
392.310000000000
30
0.0
40
1.200000020498
100
AcDbArc
50
269.999832153320
51
8.166137695313
0
ARC
5
747
100
AcDbEntity
8
0-0
6
CONTINUOUS
62
7
100
AcDbCircle
10
189.800000000000
20
390.510000000000
30
0.0
40
1.200000020498
100
AcDbArc
50
330.000671386719
51
89.999649047852
0
ARC
5
748
100
AcDbEntity
8
0-0
6
CONTINUOUS
62
7
100
AcDbCircle
10
189.800000000000
20
390.510000000000
30
0.0
40
0.600000010249
100
AcDbArc
50
329.997299194336
51
90.001327514648
0
ARC
5
749
100
AcDbEntity
8
0-0
6
CONTINUOUS
62
7
100
AcDbCircle
10
189.000000000000
20
385.520000000000
30
0.0
40
1.200000020498
100
AcDbArc
50
89.576950073242
51
90.109527587891
0
ARC
5
74a
100
AcDbEntity
8
0-0
6
CONTINUOUS
62
7
100
AcDbCircle
10
189.000000000000
20
385.520000000000
30
0.0
40
1.200000020498
100
AcDbArc
50
150.000564575195
51
353.713760375977
0
ARC
5
74b
100
AcDbEntity
8
0-0
6
CONTINUOUS
62
7
100
AcDbCircle
10
189.000000000000
20
385.520000000000
30
0.0
40
0.600000010249
100
AcDbArc
50
149.999328613281
51
353.717773437500
0
ARC
5
74c
100
AcDbEntity
8
0-0
6
CONTINUOUS
62
7
100
AcDbCircle
10
198.200000000000
20
390.510000000000
30
0.0
40
1.200000020498
100
AcDbArc
50
90.000518798828
51
209.999313354492
0
ARC
5
74d
100
AcDbEntity
8
0-0
6
CONTINUOUS
62
7
100
AcDbCircle
10
198.200000000000
20
390.510000000000
30
0.0
40
0.600000010249
100
AcDbArc
50
89.999023437500
51
210.002685546875
0
ARC
5
74e
100
AcDbEntity
8
0-0
6
CONTINUOUS
62
7
100
AcDbCircle
10
202.690000000000
20
382.710000000000
30
0.0
40
0.600000010249
100
AcDbArc
50
209.947509765625
51
270.000717163086
0
ARC
5
74f
100
AcDbEntity
8
0-0
6
CONTINUOUS
62
7
100
AcDbCircle
10
202.690000000000
20
382.710000000000
30
0.0
40
1.200000020498
100
AcDbArc
50
209.945831298828
51
269.999877929688
0
ARC
5
750
100
AcDbEntity
8
0-0
6
CONTINUOUS
62
7
100
AcDbCircle
10
235.500000000000
20
379.710000000000
30
0.0
40
0.600000010249
100
AcDbArc
50
225.002120971680
51
270.001388549805
0
ARC
5
751
100
AcDbEntity
8
0-0
6
CONTINUOUS
62
7
100
AcDbCircle
10
231.750000000000
20
380.910000000000
30
0.0
40
1.200000020498
100
AcDbArc
50
45.000061035156
51
89.999938964844
0
ARC
5
752
100
AcDbEntity
8
0-0
6
CONTINUOUS
62
7
100
AcDbCircle
10
235.500000000000
20
379.710000000000
30
0.0
40
1.200000020498
100
AcDbArc
50
225.000061035156
51
269.999938964844
0
ARC
5
753
100
AcDbEntity
8
0-0
6
CONTINUOUS
62
7
100
AcDbCircle
10
231.750000000000
20
380.910000000000
30
0.0
40
0.600000010249
100
AcDbArc
50
44.998001098633
51
89.998474121094
0
ARC
5
754
100
AcDbEntity
8
0-0
6
CONTINUOUS
62
7
100
AcDbCircle
10
191.420000000000
20
409.780000000000
30
0.0
40
1.599999995074
100
AcDbArc
50
100.120040893555
51
171.833953857422
0
ARC
5
755
100
AcDbEntity
8
0-0
6
CONTINUOUS
62
7
100
AcDbCircle
10
196.570000000000
20
409.780000000000
30
0.0
40
1.599999995074
100
AcDbArc
50
8.166030883789
51
79.879943847656
0
ARC
5
756
100
AcDbEntity
8
0-0
6
CONTINUOUS
62
7
100
AcDbCircle
10
194.000000000000
20
395.360000000000
30
0.0
40
16.249999366319
100
AcDbArc
50
79.361419677734
51
100.120162963867
0
ARC
5
757
100
AcDbEntity
8
0-0
6
CONTINUOUS
62
7
100
AcDbCircle
10
644.800000000000
20
382.710000000000
30
0.0
40
0.600000010249
100
AcDbArc
50
270.002319335938
51
359.997665405273
0
ARC
5
758
100
AcDbEntity
8
0-0
6
CONTINUOUS
62
7
100
AcDbCircle
10
644.800000000000
20
382.710000000000
30
0.0
40
1.200000020498
100
AcDbArc
50
269.999404907227
51
0.000000000000
0
ARC
5
759
100
AcDbEntity
8
0-0
6
CONTINUOUS
62
7
100
AcDbCircle
10
644.800000000000
20
391.510000000000
30
0.0
40
0.600000010249
100
AcDbArc
50
360.000000000000
51
449.997665405273
0
ARC
5
75a
100
AcDbEntity
8
0-0
6
CONTINUOUS
62
7
100
AcDbCircle
10
644.800000000000
20
391.510000000000
30
0.0
40
1.200000020498
100
AcDbArc
50
0.000869750977
51
90.000579833984
0
ARC
5
75b
100
AcDbEntity
8
0-0
6
CONTINUOUS
62
7
100
AcDbCircle
10
644.020000000000
20
393.310000000000
30
0.0
40
0.600000010249
100
AcDbArc
50
168.997787475586
51
270.001647949219
0
ARC
5
75c
100
AcDbEntity
8
0-0
6
CONTINUOUS
62
7
100
AcDbCircle
10
644.020000000000
20
393.310000000000
30
0.0
40
1.200000020498
100
AcDbArc
50
169.000762939453
51
269.999618530273
0
ARC
5
75d
100
AcDbEntity
8
0-0
6
CONTINUOUS
62
7
100
AcDbCircle
10
647.030000000000
20
408.810000000000
30
0.0
40
1.200000020498
100
AcDbArc
50
61.770935058594
51
168.998626708984
0
ARC
5
75e
100
AcDbEntity
8
0-0
6
CONTINUOUS
62
7
100
AcDbCircle
10
647.030000000000
20
408.810000000000
30
0.0
40
0.600000010249
100
AcDbArc
50
61.773635864258
51
168.995834350586
0
ARC
5
75f
100
AcDbEntity
8
0-0
6
CONTINUOUS
62
7
100
AcDbCircle
10
652.200000000000
20
391.510000000000
30
0.0
40
0.600000010249
100
AcDbArc
50
90.002319335938
51
180.000579833984
0
ARC
5
760
100
AcDbEntity
8
0-0
6
CONTINUOUS
62
7
100
AcDbCircle
10
652.200000000000
20
391.510000000000
30
0.0
40
1.200000020498
100
AcDbArc
50
90.002319335938
51
179.999114990234
0
ARC
5
761
100
AcDbEntity
8
0-0
6
CONTINUOUS
62
7
100
AcDbCircle
10
652.980000000000
20
393.310000000000
30
0.0
40
0.600000010249
100
AcDbArc
50
269.998336791992
51
11.002197265625
0
ARC
5
762
100
AcDbEntity
8
0-0
6
CONTINUOUS
62
7
100
AcDbCircle
10
652.980000000000
20
393.310000000000
30
0.0
40
1.200000020498
100
AcDbArc
50
269.998901367188
51
10.999221801758
0
ARC
5
763
100
AcDbEntity
8
0-0
6
CONTINUOUS
62
7
100
AcDbCircle
10
649.960000000000
20
408.810000000000
30
0.0
40
1.200000020498
100
AcDbArc
50
10.999908447266
51
118.232040405273
0
ARC
5
764
100
AcDbEntity
8
0-0
6
CONTINUOUS
62
7
100
AcDbCircle
10
649.960000000000
20
408.810000000000
30
0.0
40
0.600000010249
100
AcDbArc
50
11.001251220703
51
118.232330322266
0
ARC
5
765
100
AcDbEntity
8
0-0
6
CONTINUOUS
62
7
100
AcDbCircle
10
648.500000000000
20
411.540000000000
30
0.0
40
1.899999855042
100
AcDbArc
50
241.768280029297
51
298.231704711914
0
ARC
5
766
100
AcDbEntity
8
0-0
6
CONTINUOUS
62
7
100
AcDbCircle
10
648.500000000000
20
411.540000000000
30
0.0
40
2.499999962062
100
AcDbArc
50
241.768524169922
51
298.231460571289
0
ARC
5
767
100
AcDbEntity
8
0-0
6
CONTINUOUS
62
7
100
AcDbCircle
10
652.200000000000
20
379.710000000000
30
0.0
40
0.600000010249
100
AcDbArc
50
180.002319335938
51
269.997665405273
0
ARC
5
768
100
AcDbEntity
8
0-0
6
CONTINUOUS
62
7
100
AcDbCircle
10
652.200000000000
20
379.710000000000
30
0.0
40
1.200000020498
100
AcDbArc
50
180.000869750977
51
269.997665405273
0
ARC
5
769
100
AcDbEntity
8
0-0
6
CONTINUOUS
62
7
100
AcDbCircle
10
657.000000000000
20
379.710000000000
30
0.0
40
0.600000010249
100
AcDbArc
50
269.999328613281
51
314.997863769531
0
ARC
5
76a
100
AcDbEntity
8
0-0
6
CONTINUOUS
62
7
100
AcDbCircle
10
661.000000000000
20
379.710000000000
30
0.0
40
0.600000010249
100
AcDbArc
50
225.002120971680
51
270.000656127930
0
ARC
5
76b
100
AcDbEntity
8
0-0
6
CONTINUOUS
62
7
100
AcDbCircle
10
659.000000000000
20
379.160000000000
30
0.0
40
0.600000010249
100
AcDbArc
50
44.997055053711
51
135.002929687500
0
ARC
5
76c
100
AcDbEntity
8
0-0
6
CONTINUOUS
62
7
100
AcDbCircle
10
657.000000000000
20
379.710000000000
30
0.0
40
1.200000020498
100
AcDbArc
50
270.000778198242
51
314.999923706055
0
ARC
5
76d
100
AcDbEntity
8
0-0
6
CONTINUOUS
62
7
100
AcDbCircle
10
661.000000000000
20
379.710000000000
30
0.0
40
1.200000020498
100
AcDbArc
50
225.000061035156
51
269.999206542969
0
ARC
5
76e
100
AcDbEntity
8
0-0
6
CONTINUOUS
62
7
100
AcDbCircle
10
659.000000000000
20
379.160000000000
30
0.0
40
1.200000020498
100
AcDbArc
50
44.999114990234
51
135.000869750977
0
ARC
5
76f
100
AcDbEntity
8
0-0
6
CONTINUOUS
62
7
100
AcDbCircle
10
667.000000000000
20
378.560000000000
30
0.0
40
0.300000005125
100
AcDbArc
50
240.001342773438
51
299.998641967773
0
ARC
5
770
100
AcDbEntity
8
0-0
6
CONTINUOUS
62
7
100
AcDbCircle
10
666.570000000000
20
378.810000000000
30
0.0
40
0.300000005125
100
AcDbArc
50
60.000274658203
51
90.004898071289
0
ARC
5
771
100
AcDbEntity
8
0-0
6
CONTINUOUS
62
7
100
AcDbCircle
10
667.430000000000
20
378.810000000000
30
0.0
40
0.300000005125
100
AcDbArc
50
90.006744384766
51
119.999710083008
0
ARC
5
772
100
AcDbEntity
8
0-0
6
CONTINUOUS
62
7
100
AcDbCircle
10
677.000000000000
20
379.510000000000
30
0.0
40
0.399999998769
100
AcDbArc
50
270.316665649414
51
89.683319091797
0
ARC
5
773
100
AcDbEntity
8
0-0
6
CONTINUOUS
62
7
100
AcDbCircle
10
677.000000000000
20
379.510000000000
30
0.0
40
0.999999984825
100
AcDbArc
50
270.000000000000
51
90.000000000000
0
ARC
5
774
100
AcDbEntity
8
0-0
6
CONTINUOUS
62
7
100
AcDbCircle
10
612.500000000000
20
379.710000000000
30
0.0
40
0.600000010249
100
AcDbArc
50
269.999328613281
51
314.997863769531
0
ARC
5
775
100
AcDbEntity
8
0-0
6
CONTINUOUS
62
7
100
AcDbCircle
10
616.250000000000
20
380.910000000000
30
0.0
40
1.200000020498
100
AcDbArc
50
89.999328613281
51
134.999923706055
0
ARC
5
776
100
AcDbEntity
8
0-0
6
CONTINUOUS
62
7
100
AcDbCircle
10
612.500000000000
20
379.710000000000
30
0.0
40
1.200000020498
100
AcDbArc
50
270.000778198242
51
314.999923706055
0
ARC
5
777
100
AcDbEntity
8
0-0
6
CONTINUOUS
62
7
100
AcDbCircle
10
616.250000000000
20
380.910000000000
30
0.0
40
0.600000010249
100
AcDbArc
50
90.002243041992
51
135.001983642578
0
ARC
5
778
100
AcDbEntity
8
0-0
6
CONTINUOUS
62
7
100
AcDbCircle
10
191.070000000000
20
300.120000000000
30
0.0
40
0.600000010249
100
AcDbArc
50
101.224548339844
51
171.833770751953
0
ARC
5
779
100
AcDbEntity
8
0-0
6
CONTINUOUS
62
7
100
AcDbCircle
10
196.930000000000
20
300.120000000000
30
0.0
40
0.600000010249
100
AcDbArc
50
8.166290283203
51
78.775817871094
0
ARC
5
77a
100
AcDbEntity
8
0-0
6
CONTINUOUS
62
7
100
AcDbCircle
10
194.000000000000
20
285.360000000000
30
0.0
40
15.649999065756
100
AcDbArc
50
78.775772094727
51
101.224212646484
0
ARC
5
77b
100
AcDbEntity
8
0-0
6
CONTINUOUS
62
7
100
AcDbCircle
10
188.510000000000
20
282.310000000000
30
0.0
40
0.600000010249
100
AcDbArc
50
171.832382202148
51
270.000350952148
0
ARC
5
77c
100
AcDbEntity
8
0-0
6
CONTINUOUS
62
7
100
AcDbCircle
10
199.480000000000
20
282.310000000000
30
0.0
40
0.600000010249
100
AcDbArc
50
269.999633789063
51
8.167602539063
0
ARC
5
77d
100
AcDbEntity
8
0-0
6
CONTINUOUS
62
7
100
AcDbCircle
10
188.510000000000
20
282.310000000000
30
0.0
40
1.200000020498
100
AcDbArc
50
171.833847045898
51
269.999969482422
0
ARC
5
77e
100
AcDbEntity
8
0-0
6
CONTINUOUS
62
7
100
AcDbCircle
10
199.480000000000
20
282.310000000000
30
0.0
40
1.200000020498
100
AcDbArc
50
269.999832153320
51
8.166137695313
0
ARC
5
77f
100
AcDbEntity
8
0-0
6
CONTINUOUS
62
7
100
AcDbCircle
10
189.800000000000
20
280.510000000000
30
0.0
40
1.200000020498
100
AcDbArc
50
330.000671386719
51
89.999649047852
0
ARC
5
780
100
AcDbEntity
8
0-0
6
CONTINUOUS
62
7
100
AcDbCircle
10
189.800000000000
20
280.510000000000
30
0.0
40
0.600000010249
100
AcDbArc
50
329.997299194336
51
90.001327514648
0
ARC
5
781
100
AcDbEntity
8
0-0
6
CONTINUOUS
62
7
100
AcDbCircle
10
189.000000000000
20
275.520000000000
30
0.0
40
1.200000020498
100
AcDbArc
50
89.576950073242
51
90.109527587891
0
ARC
5
782
100
AcDbEntity
8
0-0
6
CONTINUOUS
62
7
100
AcDbCircle
10
189.000000000000
20
275.520000000000
30
0.0
40
1.200000020498
100
AcDbArc
50
150.000564575195
51
353.713760375977
0
ARC
5
783
100
AcDbEntity
8
0-0
6
CONTINUOUS
62
7
100
AcDbCircle
10
189.000000000000
20
275.520000000000
30
0.0
40
0.600000010249
100
AcDbArc
50
149.999328613281
51
353.717773437500
0
ARC
5
784
100
AcDbEntity
8
0-0
6
CONTINUOUS
62
7
100
AcDbCircle
10
198.200000000000
20
280.510000000000
30
0.0
40
1.200000020498
100
AcDbArc
50
90.000518798828
51
209.999313354492
0
ARC
5
785
100
AcDbEntity
8
0-0
6
CONTINUOUS
62
7
100
AcDbCircle
10
198.200000000000
20
280.510000000000
30
0.0
40
0.600000010249
100
AcDbArc
50
89.999023437500
51
210.002685546875
0
ARC
5
786
100
AcDbEntity
8
0-0
6
CONTINUOUS
62
7
100
AcDbCircle
10
191.420000000000
20
299.780000000000
30
0.0
40
1.599999995074
100
AcDbArc
50
100.120040893555
51
171.833953857422
0
ARC
5
787
100
AcDbEntity
8
0-0
6
CONTINUOUS
62
7
100
AcDbCircle
10
196.570000000000
20
299.780000000000
30
0.0
40
1.599999995074
100
AcDbArc
50
8.166030883789
51
79.879943847656
0
ARC
5
788
100
AcDbEntity
8
0-0
6
CONTINUOUS
62
7
100
AcDbCircle
10
194.000000000000
20
285.360000000000
30
0.0
40
16.249999366319
100
AcDbArc
50
79.361419677734
51
100.120162963867
0
ARC
5
789
100
AcDbEntity
8
0-0
6
CONTINUOUS
62
7
100
AcDbCircle
10
644.800000000000
20
281.510000000000
30
0.0
40
0.600000010249
100
AcDbArc
50
360.000000000000
51
449.997665405273
0
ARC
5
78a
100
AcDbEntity
8
0-0
6
CONTINUOUS
62
7
100
AcDbCircle
10
644.800000000000
20
281.510000000000
30
0.0
40
1.200000020498
100
AcDbArc
50
0.000869750977
51
90.000579833984
0
ARC
5
78b
100
AcDbEntity
8
0-0
6
CONTINUOUS
62
7
100
AcDbCircle
10
644.020000000000
20
283.310000000000
30
0.0
40
0.600000010249
100
AcDbArc
50
168.997787475586
51
270.001647949219
0
ARC
5
78c
100
AcDbEntity
8
0-0
6
CONTINUOUS
62
7
100
AcDbCircle
10
644.020000000000
20
283.310000000000
30
0.0
40
1.200000020498
100
AcDbArc
50
169.000762939453
51
269.999618530273
0
ARC
5
78d
100
AcDbEntity
8
0-0
6
CONTINUOUS
62
7
100
AcDbCircle
10
647.030000000000
20
298.810000000000
30
0.0
40
1.200000020498
100
AcDbArc
50
61.770935058594
51
168.998626708984
0
ARC
5
78e
100
AcDbEntity
8
0-0
6
CONTINUOUS
62
7
100
AcDbCircle
10
647.030000000000
20
298.810000000000
30
0.0
40
0.600000010249
100
AcDbArc
50
61.773635864258
51
168.995834350586
0
ARC
5
78f
100
AcDbEntity
8
0-0
6
CONTINUOUS
62
7
100
AcDbCircle
10
652.200000000000
20
281.510000000000
30
0.0
40
0.600000010249
100
AcDbArc
50
90.002319335938
51
180.000579833984
0
ARC
5
790
100
AcDbEntity
8
0-0
6
CONTINUOUS
62
7
100
AcDbCircle
10
652.200000000000
20
281.510000000000
30
0.0
40
1.200000020498
100
AcDbArc
50
90.002319335938
51
179.999114990234
0
ARC
5
791
100
AcDbEntity
8
0-0
6
CONTINUOUS
62
7
100
AcDbCircle
10
652.980000000000
20
283.310000000000
30
0.0
40
0.600000010249
100
AcDbArc
50
269.998336791992
51
11.002197265625
0
ARC
5
792
100
AcDbEntity
8
0-0
6
CONTINUOUS
62
7
100
AcDbCircle
10
652.980000000000
20
283.310000000000
30
0.0
40
1.200000020498
100
AcDbArc
50
269.998901367188
51
10.999221801758
0
ARC
5
793
100
AcDbEntity
8
0-0
6
CONTINUOUS
62
7
100
AcDbCircle
10
649.960000000000
20
298.810000000000
30
0.0
40
1.200000020498
100
AcDbArc
50
10.999908447266
51
118.232040405273
0
ARC
5
794
100
AcDbEntity
8
0-0
6
CONTINUOUS
62
7
100
AcDbCircle
10
649.960000000000
20
298.810000000000
30
0.0
40
0.600000010249
100
AcDbArc
50
11.001251220703
51
118.232330322266
0
ARC
5
795
100
AcDbEntity
8
0-0
6
CONTINUOUS
62
7
100
AcDbCircle
10
648.500000000000
20
301.540000000000
30
0.0
40
1.899999855042
100
AcDbArc
50
241.768280029297
51
298.231704711914
0
ARC
5
796
100
AcDbEntity
8
0-0
6
CONTINUOUS
62
7
100
AcDbCircle
10
648.500000000000
20
301.540000000000
30
0.0
40
2.499999962062
100
AcDbArc
50
241.768524169922
51
298.231460571289
0
ARC
5
797
100
AcDbEntity
8
0-0
6
CONTINUOUS
62
7
100
AcDbCircle
10
652.200000000000
20
269.710000000000
30
0.0
40
0.600000010249
100
AcDbArc
50
180.002319335938
51
269.997665405273
0
ARC
5
798
100
AcDbEntity
8
0-0
6
CONTINUOUS
62
7
100
AcDbCircle
10
652.200000000000
20
269.710000000000
30
0.0
40
1.200000020498
100
AcDbArc
50
180.000869750977
51
269.997665405273
0
ARC
5
799
100
AcDbEntity
8
0-0
6
CONTINUOUS
62
7
100
AcDbCircle
10
657.000000000000
20
269.710000000000
30
0.0
40
0.600000010249
100
AcDbArc
50
269.999328613281
51
314.997863769531
0
ARC
5
79a
100
AcDbEntity
8
0-0
6
CONTINUOUS
62
7
100
AcDbCircle
10
661.000000000000
20
269.710000000000
30
0.0
40
0.600000010249
100
AcDbArc
50
225.002120971680
51
270.000656127930
0
ARC
5
79b
100
AcDbEntity
8
0-0
6
CONTINUOUS
62
7
100
AcDbCircle
10
659.000000000000
20
269.160000000000
30
0.0
40
0.600000010249
100
AcDbArc
50
44.997055053711
51
135.002929687500
0
ARC
5
79c
100
AcDbEntity
8
0-0
6
CONTINUOUS
62
7
100
AcDbCircle
10
657.000000000000
20
269.710000000000
30
0.0
40
1.200000020498
100
AcDbArc
50
270.000778198242
51
314.999923706055
0
ARC
5
79d
100
AcDbEntity
8
0-0
6
CONTINUOUS
62
7
100
AcDbCircle
10
661.000000000000
20
269.710000000000
30
0.0
40
1.200000020498
100
AcDbArc
50
225.000061035156
51
269.999206542969
0
ARC
5
79e
100
AcDbEntity
8
0-0
6
CONTINUOUS
62
7
100
AcDbCircle
10
659.000000000000
20
269.160000000000
30
0.0
40
1.200000020498
100
AcDbArc
50
44.999114990234
51
135.000869750977
0
ARC
5
79f
100
AcDbEntity
8
0-0
6
CONTINUOUS
62
7
100
AcDbCircle
10
667.000000000000
20
268.560000000000
30
0.0
40
0.300000005125
100
AcDbArc
50
240.001342773438
51
299.998641967773
0
ARC
5
7a0
100
AcDbEntity
8
0-0
6
CONTINUOUS
62
7
100
AcDbCircle
10
666.570000000000
20
268.810000000000
30
0.0
40
0.300000005125
100
AcDbArc
50
60.000274658203
51
90.004898071289
0
ARC
5
7a1
100
AcDbEntity
8
0-0
6
CONTINUOUS
62
7
100
AcDbCircle
10
667.430000000000
20
268.810000000000
30
0.0
40
0.300000005125
100
AcDbArc
50
90.006744384766
51
119.999710083008
0
ARC
5
7a2
100
AcDbEntity
8
0-0
6
CONTINUOUS
62
7
100
AcDbCircle
10
677.000000000000
20
269.510000000000
30
0.0
40
0.399999998769
100
AcDbArc
50
270.316665649414
51
89.683319091797
0
ARC
5
7a3
100
AcDbEntity
8
0-0
6
CONTINUOUS
62
7
100
AcDbCircle
10
677.000000000000
20
269.510000000000
30
0.0
40
0.999999984825
100
AcDbArc
50
270.000000000000
51
90.000000000000
0
ARC
5
7a4
100
AcDbEntity
8
0-0
6
CONTINUOUS
62
7
100
AcDbCircle
10
202.690000000000
20
272.710000000000
30
0.0
40
0.600000010249
100
AcDbArc
50
209.945831298828
51
269.999877929688
0
ARC
5
7a5
100
AcDbEntity
8
0-0
6
CONTINUOUS
62
7
100
AcDbCircle
10
202.690000000000
20
272.710000000000
30
0.0
40
1.200000020498
100
AcDbArc
50
209.946670532227
51
270.000305175781
0
ARC
5
7a6
100
AcDbEntity
8
0-0
6
CONTINUOUS
62
7
100
AcDbCircle
10
235.500000000000
20
269.710000000000
30
0.0
40
0.600000010249
100
AcDbArc
50
225.000061035156
51
269.999938964844
0
ARC
5
7a7
100
AcDbEntity
8
0-0
6
CONTINUOUS
62
7
100
AcDbCircle
10
231.750000000000
20
270.910000000000
30
0.0
40
1.200000020498
100
AcDbArc
50
45.000061035156
51
89.999938964844
0
ARC
5
7a8
100
AcDbEntity
8
0-0
6
CONTINUOUS
62
7
100
AcDbCircle
10
235.500000000000
20
269.710000000000
30
0.0
40
1.200000020498
100
AcDbArc
50
225.000061035156
51
269.999938964844
0
ARC
5
7a9
100
AcDbEntity
8
0-0
6
CONTINUOUS
62
7
100
AcDbCircle
10
644.800000000000
20
272.710000000000
30
0.0
40
0.600000010249
100
AcDbArc
50
270.002319335938
51
0.000579833984
0
ARC
5
7aa
100
AcDbEntity
8
0-0
6
CONTINUOUS
62
7
100
AcDbCircle
10
644.800000000000
20
272.710000000000
30
0.0
40
1.200000020498
100
AcDbArc
50
269.999404907227
51
0.000000000000
0
ARC
5
7ab
100
AcDbEntity
8
0-0
6
CONTINUOUS
62
7
100
AcDbCircle
10
231.750000000000
20
270.910000000000
30
0.0
40
0.600000010249
100
AcDbArc
50
45.000061035156
51
89.999938964844
0
ARC
5
7ac
100
AcDbEntity
8
0-0
6
CONTINUOUS
62
7
100
AcDbCircle
10
612.500000000000
20
269.710000000000
30
0.0
40
0.600000010249
100
AcDbArc
50
270.000778198242
51
314.999923706055
0
ARC
5
7ad
100
AcDbEntity
8
0-0
6
CONTINUOUS
62
7
100
AcDbCircle
10
616.250000000000
20
270.910000000000
30
0.0
40
1.200000020498
100
AcDbArc
50
89.999328613281
51
134.999923706055
0
ARC
5
7ae
100
AcDbEntity
8
0-0
6
CONTINUOUS
62
7
100
AcDbCircle
10
612.500000000000
20
269.710000000000
30
0.0
40
1.200000020498
100
AcDbArc
50
270.000778198242
51
314.999923706055
0
ARC
5
7af
100
AcDbEntity
8
0-0
6
CONTINUOUS
62
7
100
AcDbCircle
10
616.250000000000
20
270.910000000000
30
0.0
40
0.600000010249
100
AcDbArc
50
90.000778198242
51
134.999923706055
0
ARC
5
7b0
100
AcDbEntity
8
0-0
6
CONTINUOUS
62
7
100
AcDbCircle
10
589.250000000000
20
258.960000000000
30
0.0
40
11.379998836369
100
AcDbArc
50
63.118392944336
51
116.881591796875
0
ARC
5
7b1
100
AcDbEntity
8
0-0
6
CONTINUOUS
62
7
100
AcDbCircle
10
589.250000000000
20
258.960000000000
30
0.0
40
10.779999309976
100
AcDbArc
50
62.365982055664
51
117.634002685547
0
ARC
5
7b2
100
AcDbEntity
8
0-0
6
CONTINUOUS
62
7
100
AcDbCircle
10
547.550000000000
20
258.960000000000
30
0.0
40
11.379998836369
100
AcDbArc
50
63.118392944336
51
116.881591796875
0
ARC
5
7b3
100
AcDbEntity
8
0-0
6
CONTINUOUS
62
7
100
AcDbCircle
10
547.550000000000
20
258.960000000000
30
0.0
40
10.779999309976
100
AcDbArc
50
62.365982055664
51
117.634002685547
0
ARC
5
7b4
100
AcDbEntity
8
0-0
6
CONTINUOUS
62
7
100
AcDbCircle
10
505.850000000000
20
258.960000000000
30
0.0
40
11.379998836369
100
AcDbArc
50
63.118392944336
51
116.881591796875
0
ARC
5
7b5
100
AcDbEntity
8
0-0
6
CONTINUOUS
62
7
100
AcDbCircle
10
505.850000000000
20
258.960000000000
30
0.0
40
10.779999309976
100
AcDbArc
50
62.365982055664
51
117.634002685547
0
ARC
5
7b6
100
AcDbEntity
8
0-0
6
CONTINUOUS
62
7
100
AcDbCircle
10
422.450000000000
20
258.960000000000
30
0.0
40
11.379998836369
100
AcDbArc
50
63.118392944336
51
116.881591796875
0
ARC
5
7b7
100
AcDbEntity
8
0-0
6
CONTINUOUS
62
7
100
AcDbCircle
10
422.450000000000
20
258.960000000000
30
0.0
40
10.779999309976
100
AcDbArc
50
62.365982055664
51
117.634002685547
0
ARC
5
7b8
100
AcDbEntity
8
0-0
6
CONTINUOUS
62
7
100
AcDbCircle
10
464.150000000000
20
258.960000000000
30
0.0
40
11.379998836369
100
AcDbArc
50
63.118392944336
51
116.881591796875
0
ARC
5
7b9
100
AcDbEntity
8
0-0
6
CONTINUOUS
62
7
100
AcDbCircle
10
464.150000000000
20
258.960000000000
30
0.0
40
10.779999309976
100
AcDbArc
50
62.365982055664
51
117.634002685547
0
ARC
5
7ba
100
AcDbEntity
8
0-0
6
CONTINUOUS
62
7
100
AcDbCircle
10
380.750000000000
20
258.960000000000
30
0.0
40
11.379998836369
100
AcDbArc
50
63.118347167969
51
116.881637573242
0
ARC
5
7bb
100
AcDbEntity
8
0-0
6
CONTINUOUS
62
7
100
AcDbCircle
10
380.750000000000
20
258.960000000000
30
0.0
40
10.779999309976
100
AcDbArc
50
62.365982055664
51
117.634002685547
0
ARC
5
7bc
100
AcDbEntity
8
0-0
6
CONTINUOUS
62
7
100
AcDbCircle
10
422.450000000000
20
258.960000000000
30
0.0
40
11.379998836369
100
AcDbArc
50
63.118392944336
51
116.881591796875
0
ARC
5
7bd
100
AcDbEntity
8
0-0
6
CONTINUOUS
62
7
100
AcDbCircle
10
422.450000000000
20
258.960000000000
30
0.0
40
10.779999309976
100
AcDbArc
50
62.365982055664
51
117.634002685547
0
ARC
5
7be
100
AcDbEntity
8
0-0
6
CONTINUOUS
62
7
100
AcDbCircle
10
217.050000000000
20
261.960000000000
30
0.0
40
11.379998836369
100
AcDbArc
50
63.118377685547
51
116.881607055664
0
ARC
5
7bf
100
AcDbEntity
8
0-0
6
CONTINUOUS
62
7
100
AcDbCircle
10
217.050000000000
20
261.960000000000
30
0.0
40
10.779999309976
100
AcDbArc
50
62.365982055664
51
117.634002685547
0
ARC
5
7c0
100
AcDbEntity
8
0-0
6
CONTINUOUS
62
7
100
AcDbCircle
10
630.950000000000
20
261.960000000000
30
0.0
40
11.379998836369
100
AcDbArc
50
63.118392944336
51
116.881591796875
0
ARC
5
7c1
100
AcDbEntity
8
0-0
6
CONTINUOUS
62
7
100
AcDbCircle
10
630.950000000000
20
261.960000000000
30
0.0
40
10.779999309976
100
AcDbArc
50
62.365982055664
51
117.634002685547
0
ARC
5
7c2
100
AcDbEntity
8
0-0
6
CONTINUOUS
62
7
100
AcDbCircle
10
340.080000000000
20
258.960000000000
30
0.0
40
11.379998836369
100
AcDbArc
50
63.118392944336
51
116.881591796875
0
ARC
5
7c3
100
AcDbEntity
8
0-0
6
CONTINUOUS
62
7
100
AcDbCircle
10
340.080000000000
20
258.960000000000
30
0.0
40
10.779999309976
100
AcDbArc
50
62.365982055664
51
117.634002685547
0
ARC
5
7c4
100
AcDbEntity
8
0-0
6
CONTINUOUS
62
7
100
AcDbCircle
10
299.410000000000
20
258.960000000000
30
0.0
40
11.379998836369
100
AcDbArc
50
63.118392944336
51
116.881591796875
0
ARC
5
7c5
100
AcDbEntity
8
0-0
6
CONTINUOUS
62
7
100
AcDbCircle
10
299.410000000000
20
258.960000000000
30
0.0
40
10.779999309976
100
AcDbArc
50
62.365982055664
51
117.634002685547
0
ARC
5
7c6
100
AcDbEntity
8
0-0
6
CONTINUOUS
62
7
100
AcDbCircle
10
258.740000000000
20
258.960000000000
30
0.0
40
11.379998836369
100
AcDbArc
50
63.118392944336
51
116.881591796875
0
ARC
5
7c7
100
AcDbEntity
8
0-0
6
CONTINUOUS
62
7
100
AcDbCircle
10
258.740000000000
20
258.960000000000
30
0.0
40
10.779999309976
100
AcDbArc
50
62.365982055664
51
117.634002685547
0
ARC
5
7c8
100
AcDbEntity
8
0-0
6
CONTINUOUS
62
7
100
AcDbCircle
10
191.070000000000
20
508.930000000000
30
0.0
40
0.600000010249
100
AcDbArc
50
101.224548339844
51
171.833770751953
0
ARC
5
7c9
100
AcDbEntity
8
0-0
6
CONTINUOUS
62
7
100
AcDbCircle
10
196.930000000000
20
508.930000000000
30
0.0
40
0.600000010249
100
AcDbArc
50
8.166290283203
51
78.775817871094
0
ARC
5
7ca
100
AcDbEntity
8
0-0
6
CONTINUOUS
62
7
100
AcDbCircle
10
194.000000000000
20
494.170000000000
30
0.0
40
15.649999065756
100
AcDbArc
50
78.775772094727
51
101.224212646484
0
ARC
5
7cb
100
AcDbEntity
8
0-0
6
CONTINUOUS
62
7
100
AcDbCircle
10
188.510000000000
20
491.120000000000
30
0.0
40
0.600000010249
100
AcDbArc
50
171.832382202148
51
270.000350952148
0
ARC
5
7cc
100
AcDbEntity
8
0-0
6
CONTINUOUS
62
7
100
AcDbCircle
10
199.480000000000
20
491.120000000000
30
0.0
40
0.600000010249
100
AcDbArc
50
269.999633789063
51
8.167602539063
0
ARC
5
7cd
100
AcDbEntity
8
0-0
6
CONTINUOUS
62
7
100
AcDbCircle
10
188.510000000000
20
491.120000000000
30
0.0
40
1.200000020498
100
AcDbArc
50
171.833847045898
51
269.999969482422
0
ARC
5
7ce
100
AcDbEntity
8
0-0
6
CONTINUOUS
62
7
100
AcDbCircle
10
199.480000000000
20
491.120000000000
30
0.0
40
1.200000020498
100
AcDbArc
50
269.999832153320
51
8.166137695313
0
ARC
5
7cf
100
AcDbEntity
8
0-0
6
CONTINUOUS
62
7
100
AcDbCircle
10
189.800000000000
20
489.320000000000
30
0.0
40
1.200000020498
100
AcDbArc
50
330.000671386719
51
89.999649047852
0
ARC
5
7d0
100
AcDbEntity
8
0-0
6
CONTINUOUS
62
7
100
AcDbCircle
10
189.800000000000
20
489.320000000000
30
0.0
40
0.600000010249
100
AcDbArc
50
329.997299194336
51
90.001327514648
0
ARC
5
7d1
100
AcDbEntity
8
0-0
6
CONTINUOUS
62
7
100
AcDbCircle
10
189.000000000000
20
484.330000000000
30
0.0
40
1.200000020498
100
AcDbArc
50
89.576950073242
51
90.109527587891
0
ARC
5
7d2
100
AcDbEntity
8
0-0
6
CONTINUOUS
62
7
100
AcDbCircle
10
189.000000000000
20
484.330000000000
30
0.0
40
1.200000020498
100
AcDbArc
50
150.000564575195
51
353.713760375977
0
ARC
5
7d3
100
AcDbEntity
8
0-0
6
CONTINUOUS
62
7
100
AcDbCircle
10
189.000000000000
20
484.330000000000
30
0.0
40
0.600000010249
100
AcDbArc
50
149.999328613281
51
353.717773437500
0
ARC
5
7d4
100
AcDbEntity
8
0-0
6
CONTINUOUS
62
7
100
AcDbCircle
10
198.200000000000
20
489.320000000000
30
0.0
40
1.200000020498
100
AcDbArc
50
90.000518798828
51
209.999313354492
0
ARC
5
7d5
100
AcDbEntity
8
0-0
6
CONTINUOUS
62
7
100
AcDbCircle
10
198.200000000000
20
489.320000000000
30
0.0
40
0.600000010249
100
AcDbArc
50
89.999023437500
51
210.002685546875
0
ARC
5
7d6
100
AcDbEntity
8
0-0
6
CONTINUOUS
62
7
100
AcDbCircle
10
202.690000000000
20
481.520000000000
30
0.0
40
0.600000010249
100
AcDbArc
50
209.947509765625
51
270.000717163086
0
ARC
5
7d7
100
AcDbEntity
8
0-0
6
CONTINUOUS
62
7
100
AcDbCircle
10
202.690000000000
20
481.520000000000
30
0.0
40
1.200000020498
100
AcDbArc
50
209.945831298828
51
269.999877929688
0
ARC
5
7d8
100
AcDbEntity
8
0-0
6
CONTINUOUS
62
7
100
AcDbCircle
10
235.500000000000
20
478.520000000000
30
0.0
40
0.600000010249
100
AcDbArc
50
225.002120971680
51
270.001388549805
0
ARC
5
7d9
100
AcDbEntity
8
0-0
6
CONTINUOUS
62
7
100
AcDbCircle
10
231.750000000000
20
479.720000000000
30
0.0
40
1.200000020498
100
AcDbArc
50
45.000061035156
51
89.999938964844
0
ARC
5
7da
100
AcDbEntity
8
0-0
6
CONTINUOUS
62
7
100
AcDbCircle
10
235.500000000000
20
478.520000000000
30
0.0
40
1.200000020498
100
AcDbArc
50
225.000061035156
51
269.999938964844
0
ARC
5
7db
100
AcDbEntity
8
0-0
6
CONTINUOUS
62
7
100
AcDbCircle
10
231.750000000000
20
479.720000000000
30
0.0
40
0.600000010249
100
AcDbArc
50
44.998001098633
51
89.998474121094
0
ARC
5
7dc
100
AcDbEntity
8
0-0
6
CONTINUOUS
62
7
100
AcDbCircle
10
191.420000000000
20
508.590000000000
30
0.0
40
1.599999995074
100
AcDbArc
50
100.120040893555
51
171.833953857422
0
ARC
5
7dd
100
AcDbEntity
8
0-0
6
CONTINUOUS
62
7
100
AcDbCircle
10
196.570000000000
20
508.590000000000
30
0.0
40
1.599999995074
100
AcDbArc
50
8.166030883789
51
79.879943847656
0
ARC
5
7de
100
AcDbEntity
8
0-0
6
CONTINUOUS
62
7
100
AcDbCircle
10
194.000000000000
20
494.170000000000
30
0.0
40
16.249999366319
100
AcDbArc
50
79.361419677734
51
100.120162963867
0
ARC
5
7df
100
AcDbEntity
8
0-0
6
CONTINUOUS
62
7
100
AcDbCircle
10
190.300000000000
20
481.520000000000
30
0.0
40
0.600000010249
100
AcDbArc
50
270.002319335938
51
359.997665405273
0
ARC
5
7e0
100
AcDbEntity
8
0-0
6
CONTINUOUS
62
7
100
AcDbCircle
10
190.300000000000
20
481.520000000000
30
0.0
40
1.200000020498
100
AcDbArc
50
269.999404907227
51
0.000000000000
0
ARC
5
7e1
100
AcDbEntity
8
0-0
6
CONTINUOUS
62
7
100
AcDbCircle
10
190.300000000000
20
490.320000000000
30
0.0
40
0.600000010249
100
AcDbArc
50
360.000000000000
51
449.997665405273
0
ARC
5
7e2
100
AcDbEntity
8
0-0
6
CONTINUOUS
62
7
100
AcDbCircle
10
190.300000000000
20
490.320000000000
30
0.0
40
1.200000020498
100
AcDbArc
50
0.000869750977
51
90.000579833984
0
ARC
5
7e3
100
AcDbEntity
8
0-0
6
CONTINUOUS
62
7
100
AcDbCircle
10
189.520000000000
20
492.120000000000
30
0.0
40
0.600000010249
100
AcDbArc
50
168.997787475586
51
270.001647949219
0
ARC
5
7e4
100
AcDbEntity
8
0-0
6
CONTINUOUS
62
7
100
AcDbCircle
10
189.520000000000
20
492.120000000000
30
0.0
40
1.200000020498
100
AcDbArc
50
169.000762939453
51
269.999618530273
0
ARC
5
7e5
100
AcDbEntity
8
0-0
6
CONTINUOUS
62
7
100
AcDbCircle
10
192.530000000000
20
507.620000000000
30
0.0
40
1.200000020498
100
AcDbArc
50
61.770935058594
51
168.998626708984
0
ARC
5
7e6
100
AcDbEntity
8
0-0
6
CONTINUOUS
62
7
100
AcDbCircle
10
192.530000000000
20
507.620000000000
30
0.0
40
0.600000010249
100
AcDbArc
50
61.773635864258
51
168.995834350586
0
ARC
5
7e7
100
AcDbEntity
8
0-0
6
CONTINUOUS
62
7
100
AcDbCircle
10
197.700000000000
20
490.320000000000
30
0.0
40
0.600000010249
100
AcDbArc
50
90.002319335938
51
180.000579833984
0
ARC
5
7e8
100
AcDbEntity
8
0-0
6
CONTINUOUS
62
7
100
AcDbCircle
10
197.700000000000
20
490.320000000000
30
0.0
40
1.200000020498
100
AcDbArc
50
90.002319335938
51
179.999114990234
0
ARC
5
7e9
100
AcDbEntity
8
0-0
6
CONTINUOUS
62
7
100
AcDbCircle
10
198.480000000000
20
492.120000000000
30
0.0
40
0.600000010249
100
AcDbArc
50
269.998336791992
51
11.002197265625
0
ARC
5
7ea
100
AcDbEntity
8
0-0
6
CONTINUOUS
62
7
100
AcDbCircle
10
198.480000000000
20
492.120000000000
30
0.0
40
1.200000020498
100
AcDbArc
50
269.998901367188
51
10.999221801758
0
ARC
5
7eb
100
AcDbEntity
8
0-0
6
CONTINUOUS
62
7
100
AcDbCircle
10
195.460000000000
20
507.620000000000
30
0.0
40
1.200000020498
100
AcDbArc
50
10.999908447266
51
118.232040405273
0
ARC
5
7ec
100
AcDbEntity
8
0-0
6
CONTINUOUS
62
7
100
AcDbCircle
10
195.460000000000
20
507.620000000000
30
0.0
40
0.600000010249
100
AcDbArc
50
11.001251220703
51
118.232330322266
0
ARC
5
7ed
100
AcDbEntity
8
0-0
6
CONTINUOUS
62
7
100
AcDbCircle
10
194.000000000000
20
510.350000000000
30
0.0
40
1.899999855042
100
AcDbArc
50
241.768280029297
51
298.231704711914
0
ARC
5
7ee
100
AcDbEntity
8
0-0
6
CONTINUOUS
62
7
100
AcDbCircle
10
194.000000000000
20
510.350000000000
30
0.0
40
2.499999962062
100
AcDbArc
50
241.768524169922
51
298.231460571289
0
ARC
5
7ef
100
AcDbEntity
8
0-0
6
CONTINUOUS
62
7
100
AcDbCircle
10
197.700000000000
20
478.520000000000
30
0.0
40
0.600000010249
100
AcDbArc
50
180.002319335938
51
269.997665405273
0
ARC
5
7f0
100
AcDbEntity
8
0-0
6
CONTINUOUS
62
7
100
AcDbCircle
10
197.700000000000
20
478.520000000000
30
0.0
40
1.200000020498
100
AcDbArc
50
180.000869750977
51
269.997665405273
0
ARC
5
7f1
100
AcDbEntity
8
0-0
6
CONTINUOUS
62
7
100
AcDbCircle
10
202.500000000000
20
478.520000000000
30
0.0
40
0.600000010249
100
AcDbArc
50
269.999328613281
51
314.997863769531
0
ARC
5
7f2
100
AcDbEntity
8
0-0
6
CONTINUOUS
62
7
100
AcDbCircle
10
206.500000000000
20
478.520000000000
30
0.0
40
0.600000010249
100
AcDbArc
50
225.002120971680
51
270.000656127930
0
ARC
5
7f3
100
AcDbEntity
8
0-0
6
CONTINUOUS
62
7
100
AcDbCircle
10
204.500000000000
20
477.970000000000
30
0.0
40
0.600000010249
100
AcDbArc
50
44.997055053711
51
135.002929687500
0
ARC
5
7f4
100
AcDbEntity
8
0-0
6
CONTINUOUS
62
7
100
AcDbCircle
10
202.500000000000
20
478.520000000000
30
0.0
40
1.200000020498
100
AcDbArc
50
270.000778198242
51
314.999923706055
0
ARC
5
7f5
100
AcDbEntity
8
0-0
6
CONTINUOUS
62
7
100
AcDbCircle
10
206.500000000000
20
478.520000000000
30
0.0
40
1.200000020498
100
AcDbArc
50
225.000061035156
51
269.999206542969
0
ARC
5
7f6
100
AcDbEntity
8
0-0
6
CONTINUOUS
62
7
100
AcDbCircle
10
204.500000000000
20
477.970000000000
30
0.0
40
1.200000020498
100
AcDbArc
50
44.999114990234
51
135.000869750977
0
ARC
5
7f7
100
AcDbEntity
8
0-0
6
CONTINUOUS
62
7
100
AcDbCircle
10
212.500000000000
20
477.370000000000
30
0.0
40
0.300000005125
100
AcDbArc
50
240.001342773438
51
299.998641967773
0
ARC
5
7f8
100
AcDbEntity
8
0-0
6
CONTINUOUS
62
7
100
AcDbCircle
10
212.070000000000
20
477.620000000000
30
0.0
40
0.300000005125
100
AcDbArc
50
60.000274658203
51
90.004898071289
0
ARC
5
7f9
100
AcDbEntity
8
0-0
6
CONTINUOUS
62
7
100
AcDbCircle
10
212.930000000000
20
477.620000000000
30
0.0
40
0.300000005125
100
AcDbArc
50
90.006744384766
51
119.999710083008
0
ARC
5
7fa
100
AcDbEntity
8
0-0
6
CONTINUOUS
62
7
100
AcDbCircle
10
222.500000000000
20
478.320000000000
30
0.0
40
0.399999998769
100
AcDbArc
50
270.316665649414
51
89.683319091797
0
ARC
5
7fb
100
AcDbEntity
8
0-0
6
CONTINUOUS
62
7
100
AcDbCircle
10
222.500000000000
20
478.320000000000
30
0.0
40
0.999999984825
100
AcDbArc
50
270.000000000000
51
90.000000000000
0
ARC
5
7fc
100
AcDbEntity
8
0-0
6
CONTINUOUS
62
7
100
AcDbCircle
10
158.000000000000
20
478.520000000000
30
0.0
40
0.600000010249
100
AcDbArc
50
269.999328613281
51
314.997863769531
0
ARC
5
7fd
100
AcDbEntity
8
0-0
6
CONTINUOUS
62
7
100
AcDbCircle
10
161.750000000000
20
479.720000000000
30
0.0
40
1.200000020498
100
AcDbArc
50
89.999328613281
51
134.999923706055
0
ARC
5
7fe
100
AcDbEntity
8
0-0
6
CONTINUOUS
62
7
100
AcDbCircle
10
158.000000000000
20
478.520000000000
30
0.0
40
1.200000020498
100
AcDbArc
50
270.000778198242
51
314.999923706055
0
ARC
5
7ff
100
AcDbEntity
8
0-0
6
CONTINUOUS
62
7
100
AcDbCircle
10
161.750000000000
20
479.720000000000
30
0.0
40
0.600000010249
100
AcDbArc
50
90.002243041992
51
135.001983642578
0
ARC
5
800
100
AcDbEntity
8
0-0
6
CONTINUOUS
62
7
100
AcDbCircle
10
645.570000000000
20
508.930000000000
30
0.0
40
0.600000010249
100
AcDbArc
50
101.224548339844
51
171.833770751953
0
ARC
5
801
100
AcDbEntity
8
0-0
6
CONTINUOUS
62
7
100
AcDbCircle
10
651.430000000000
20
508.930000000000
30
0.0
40
0.600000010249
100
AcDbArc
50
8.166290283203
51
78.775817871094
0
ARC
5
802
100
AcDbEntity
8
0-0
6
CONTINUOUS
62
7
100
AcDbCircle
10
648.500000000000
20
494.170000000000
30
0.0
40
15.649999065756
100
AcDbArc
50
78.775772094727
51
101.224212646484
0
ARC
5
803
100
AcDbEntity
8
0-0
6
CONTINUOUS
62
7
100
AcDbCircle
10
643.010000000000
20
491.120000000000
30
0.0
40
0.600000010249
100
AcDbArc
50
171.832382202148
51
270.000350952148
0
ARC
5
804
100
AcDbEntity
8
0-0
6
CONTINUOUS
62
7
100
AcDbCircle
10
653.980000000000
20
491.120000000000
30
0.0
40
0.600000010249
100
AcDbArc
50
269.999633789063
51
8.167602539063
0
ARC
5
805
100
AcDbEntity
8
0-0
6
CONTINUOUS
62
7
100
AcDbCircle
10
643.010000000000
20
491.120000000000
30
0.0
40
1.200000020498
100
AcDbArc
50
171.833847045898
51
269.999969482422
0
ARC
5
806
100
AcDbEntity
8
0-0
6
CONTINUOUS
62
7
100
AcDbCircle
10
653.980000000000
20
491.120000000000
30
0.0
40
1.200000020498
100
AcDbArc
50
269.999832153320
51
8.166137695313
0
ARC
5
807
100
AcDbEntity
8
0-0
6
CONTINUOUS
62
7
100
AcDbCircle
10
644.300000000000
20
489.320000000000
30
0.0
40
1.200000020498
100
AcDbArc
50
330.000671386719
51
89.999649047852
0
ARC
5
808
100
AcDbEntity
8
0-0
6
CONTINUOUS
62
7
100
AcDbCircle
10
644.300000000000
20
489.320000000000
30
0.0
40
0.600000010249
100
AcDbArc
50
329.997299194336
51
90.001327514648
0
ARC
5
809
100
AcDbEntity
8
0-0
6
CONTINUOUS
62
7
100
AcDbCircle
10
643.500000000000
20
484.330000000000
30
0.0
40
1.200000020498
100
AcDbArc
50
89.576950073242
51
90.109527587891
0
ARC
5
80a
100
AcDbEntity
8
0-0
6
CONTINUOUS
62
7
100
AcDbCircle
10
643.500000000000
20
484.330000000000
30
0.0
40
1.200000020498
100
AcDbArc
50
150.000564575195
51
353.713760375977
0
ARC
5
80b
100
AcDbEntity
8
0-0
6
CONTINUOUS
62
7
100
AcDbCircle
10
643.500000000000
20
484.330000000000
30
0.0
40
0.600000010249
100
AcDbArc
50
149.999328613281
51
353.717773437500
0
ARC
5
80c
100
AcDbEntity
8
0-0
6
CONTINUOUS
62
7
100
AcDbCircle
10
652.700000000000
20
489.320000000000
30
0.0
40
1.200000020498
100
AcDbArc
50
90.000518798828
51
209.999313354492
0
ARC
5
80d
100
AcDbEntity
8
0-0
6
CONTINUOUS
62
7
100
AcDbCircle
10
652.700000000000
20
489.320000000000
30
0.0
40
0.600000010249
100
AcDbArc
50
89.999023437500
51
210.002685546875
0
ARC
5
80e
100
AcDbEntity
8
0-0
6
CONTINUOUS
62
7
100
AcDbCircle
10
657.190000000000
20
481.520000000000
30
0.0
40
0.600000010249
100
AcDbArc
50
209.947509765625
51
270.000717163086
0
ARC
5
80f
100
AcDbEntity
8
0-0
6
CONTINUOUS
62
7
100
AcDbCircle
10
657.190000000000
20
481.520000000000
30
0.0
40
1.200000020498
100
AcDbArc
50
209.945831298828
51
269.999877929688
0
ARC
5
810
100
AcDbEntity
8
0-0
6
CONTINUOUS
62
7
100
AcDbCircle
10
690.000000000000
20
478.520000000000
30
0.0
40
0.600000010249
100
AcDbArc
50
225.002120971680
51
270.001388549805
0
ARC
5
811
100
AcDbEntity
8
0-0
6
CONTINUOUS
62
7
100
AcDbCircle
10
686.250000000000
20
479.720000000000
30
0.0
40
1.200000020498
100
AcDbArc
50
45.000061035156
51
89.999938964844
0
ARC
5
812
100
AcDbEntity
8
0-0
6
CONTINUOUS
62
7
100
AcDbCircle
10
690.000000000000
20
478.520000000000
30
0.0
40
1.200000020498
100
AcDbArc
50
225.000061035156
51
269.999938964844
0
ARC
5
813
100
AcDbEntity
8
0-0
6
CONTINUOUS
62
7
100
AcDbCircle
10
686.250000000000
20
479.720000000000
30
0.0
40
0.600000010249
100
AcDbArc
50
44.998001098633
51
89.998474121094
0
ARC
5
814
100
AcDbEntity
8
0-0
6
CONTINUOUS
62
7
100
AcDbCircle
10
645.920000000000
20
508.590000000000
30
0.0
40
1.599999995074
100
AcDbArc
50
100.120040893555
51
171.833953857422
0
ARC
5
815
100
AcDbEntity
8
0-0
6
CONTINUOUS
62
7
100
AcDbCircle
10
651.070000000000
20
508.590000000000
30
0.0
40
1.599999995074
100
AcDbArc
50
8.166030883789
51
79.879943847656
0
ARC
5
816
100
AcDbEntity
8
0-0
6
CONTINUOUS
62
7
100
AcDbCircle
10
648.500000000000
20
494.170000000000
30
0.0
40
16.249999366319
100
AcDbArc
50
79.361419677734
51
100.120162963867
0
ARC
5
817
100
AcDbEntity
8
0-0
6
CONTINUOUS
62
7
100
AcDbCircle
10
644.800000000000
20
481.520000000000
30
0.0
40
0.600000010249
100
AcDbArc
50
270.002319335938
51
359.997665405273
0
ARC
5
818
100
AcDbEntity
8
0-0
6
CONTINUOUS
62
7
100
AcDbCircle
10
644.800000000000
20
481.520000000000
30
0.0
40
1.200000020498
100
AcDbArc
50
269.999404907227
51
0.000000000000
0
ARC
5
819
100
AcDbEntity
8
0-0
6
CONTINUOUS
62
7
100
AcDbCircle
10
644.800000000000
20
490.320000000000
30
0.0
40
0.600000010249
100
AcDbArc
50
360.000000000000
51
449.997665405273
0
ARC
5
81a
100
AcDbEntity
8
0-0
6
CONTINUOUS
62
7
100
AcDbCircle
10
644.800000000000
20
490.320000000000
30
0.0
40
1.200000020498
100
AcDbArc
50
0.000869750977
51
90.000579833984
0
ARC
5
81b
100
AcDbEntity
8
0-0
6
CONTINUOUS
62
7
100
AcDbCircle
10
644.020000000000
20
492.120000000000
30
0.0
40
0.600000010249
100
AcDbArc
50
168.997787475586
51
270.001647949219
0
ARC
5
81c
100
AcDbEntity
8
0-0
6
CONTINUOUS
62
7
100
AcDbCircle
10
644.020000000000
20
492.120000000000
30
0.0
40
1.200000020498
100
AcDbArc
50
169.000762939453
51
269.999618530273
0
ARC
5
81d
100
AcDbEntity
8
0-0
6
CONTINUOUS
62
7
100
AcDbCircle
10
647.030000000000
20
507.620000000000
30
0.0
40
1.200000020498
100
AcDbArc
50
61.770935058594
51
168.998626708984
0
ARC
5
81e
100
AcDbEntity
8
0-0
6
CONTINUOUS
62
7
100
AcDbCircle
10
647.030000000000
20
507.620000000000
30
0.0
40
0.600000010249
100
AcDbArc
50
61.773635864258
51
168.995834350586
0
ARC
5
81f
100
AcDbEntity
8
0-0
6
CONTINUOUS
62
7
100
AcDbCircle
10
652.200000000000
20
490.320000000000
30
0.0
40
0.600000010249
100
AcDbArc
50
90.002319335938
51
180.000579833984
0
ARC
5
820
100
AcDbEntity
8
0-0
6
CONTINUOUS
62
7
100
AcDbCircle
10
652.200000000000
20
490.320000000000
30
0.0
40
1.200000020498
100
AcDbArc
50
90.002319335938
51
179.999114990234
0
ARC
5
821
100
AcDbEntity
8
0-0
6
CONTINUOUS
62
7
100
AcDbCircle
10
652.980000000000
20
492.120000000000
30
0.0
40
0.600000010249
100
AcDbArc
50
269.998336791992
51
11.002197265625
0
ARC
5
822
100
AcDbEntity
8
0-0
6
CONTINUOUS
62
7
100
AcDbCircle
10
652.980000000000
20
492.120000000000
30
0.0
40
1.200000020498
100
AcDbArc
50
269.998901367188
51
10.999221801758
0
ARC
5
823
100
AcDbEntity
8
0-0
6
CONTINUOUS
62
7
100
AcDbCircle
10
649.960000000000
20
507.620000000000
30
0.0
40
1.200000020498
100
AcDbArc
50
10.999908447266
51
118.232040405273
0
ARC
5
824
100
AcDbEntity
8
0-0
6
CONTINUOUS
62
7
100
AcDbCircle
10
649.960000000000
20
507.620000000000
30
0.0
40
0.600000010249
100
AcDbArc
50
11.001251220703
51
118.232330322266
0
ARC
5
825
100
AcDbEntity
8
0-0
6
CONTINUOUS
62
7
100
AcDbCircle
10
648.500000000000
20
510.350000000000
30
0.0
40
1.899999855042
100
AcDbArc
50
241.768280029297
51
298.231704711914
0
ARC
5
826
100
AcDbEntity
8
0-0
6
CONTINUOUS
62
7
100
AcDbCircle
10
648.500000000000
20
510.350000000000
30
0.0
40
2.499999962062
100
AcDbArc
50
241.768524169922
51
298.231460571289
0
ARC
5
827
100
AcDbEntity
8
0-0
6
CONTINUOUS
62
7
100
AcDbCircle
10
652.200000000000
20
478.520000000000
30
0.0
40
0.600000010249
100
AcDbArc
50
180.002319335938
51
269.997665405273
0
ARC
5
828
100
AcDbEntity
8
0-0
6
CONTINUOUS
62
7
100
AcDbCircle
10
652.200000000000
20
478.520000000000
30
0.0
40
1.200000020498
100
AcDbArc
50
180.000869750977
51
269.997665405273
0
ARC
5
829
100
AcDbEntity
8
0-0
6
CONTINUOUS
62
7
100
AcDbCircle
10
657.000000000000
20
478.520000000000
30
0.0
40
0.600000010249
100
AcDbArc
50
269.999328613281
51
314.997863769531
0
ARC
5
82a
100
AcDbEntity
8
0-0
6
CONTINUOUS
62
7
100
AcDbCircle
10
661.000000000000
20
478.520000000000
30
0.0
40
0.600000010249
100
AcDbArc
50
225.002120971680
51
270.000656127930
0
ARC
5
82b
100
AcDbEntity
8
0-0
6
CONTINUOUS
62
7
100
AcDbCircle
10
659.000000000000
20
477.970000000000
30
0.0
40
0.600000010249
100
AcDbArc
50
44.997055053711
51
135.002929687500
0
ARC
5
82c
100
AcDbEntity
8
0-0
6
CONTINUOUS
62
7
100
AcDbCircle
10
657.000000000000
20
478.520000000000
30
0.0
40
1.200000020498
100
AcDbArc
50
270.000778198242
51
314.999923706055
0
ARC
5
82d
100
AcDbEntity
8
0-0
6
CONTINUOUS
62
7
100
AcDbCircle
10
661.000000000000
20
478.520000000000
30
0.0
40
1.200000020498
100
AcDbArc
50
225.000061035156
51
269.999206542969
0
ARC
5
82e
100
AcDbEntity
8
0-0
6
CONTINUOUS
62
7
100
AcDbCircle
10
659.000000000000
20
477.970000000000
30
0.0
40
1.200000020498
100
AcDbArc
50
44.999114990234
51
135.000869750977
0
ARC
5
82f
100
AcDbEntity
8
0-0
6
CONTINUOUS
62
7
100
AcDbCircle
10
667.000000000000
20
477.370000000000
30
0.0
40
0.300000005125
100
AcDbArc
50
240.001342773438
51
299.998641967773
0
ARC
5
830
100
AcDbEntity
8
0-0
6
CONTINUOUS
62
7
100
AcDbCircle
10
666.570000000000
20
477.620000000000
30
0.0
40
0.300000005125
100
AcDbArc
50
60.000274658203
51
90.004898071289
0
ARC
5
831
100
AcDbEntity
8
0-0
6
CONTINUOUS
62
7
100
AcDbCircle
10
667.430000000000
20
477.620000000000
30
0.0
40
0.300000005125
100
AcDbArc
50
90.006744384766
51
119.999710083008
0
ARC
5
832
100
AcDbEntity
8
0-0
6
CONTINUOUS
62
7
100
AcDbCircle
10
677.000000000000
20
478.320000000000
30
0.0
40
0.399999998769
100
AcDbArc
50
270.316665649414
51
89.683319091797
0
ARC
5
833
100
AcDbEntity
8
0-0
6
CONTINUOUS
62
7
100
AcDbCircle
10
677.000000000000
20
478.320000000000
30
0.0
40
0.999999984825
100
AcDbArc
50
270.000000000000
51
90.000000000000
0
ARC
5
834
100
AcDbEntity
8
0-0
6
CONTINUOUS
62
7
100
AcDbCircle
10
612.500000000000
20
478.520000000000
30
0.0
40
0.600000010249
100
AcDbArc
50
269.999328613281
51
314.997863769531
0
ARC
5
835
100
AcDbEntity
8
0-0
6
CONTINUOUS
62
7
100
AcDbCircle
10
616.250000000000
20
479.720000000000
30
0.0
40
1.200000020498
100
AcDbArc
50
89.999328613281
51
134.999923706055
0
ARC
5
836
100
AcDbEntity
8
0-0
6
CONTINUOUS
62
7
100
AcDbCircle
10
612.500000000000
20
478.520000000000
30
0.0
40
1.200000020498
100
AcDbArc
50
270.000778198242
51
314.999923706055
0
ARC
5
837
100
AcDbEntity
8
0-0
6
CONTINUOUS
62
7
100
AcDbCircle
10
616.250000000000
20
479.720000000000
30
0.0
40
0.600000010249
100
AcDbArc
50
90.002243041992
51
135.001983642578
0
ARC
5
838
100
AcDbEntity
8
0-3
6
CONTINUOUS
62
7
100
AcDbCircle
10
284.880000000000
20
225.830000000000
30
0.0
40
1.200000020498
100
AcDbArc
50
101.224548339844
51
171.833770751953
0
ARC
5
839
100
AcDbEntity
8
0-3
6
CONTINUOUS
62
7
100
AcDbCircle
10
296.600000000000
20
225.830000000000
30
0.0
40
1.200000020498
100
AcDbArc
50
8.166290283203
51
78.775817871094
0
ARC
5
83a
100
AcDbEntity
8
0-3
6
CONTINUOUS
62
7
100
AcDbCircle
10
290.740000000000
20
196.300000000000
30
0.0
40
31.299998131512
100
AcDbArc
50
78.775772094727
51
101.224212646484
0
ARC
5
83b
100
AcDbEntity
8
0-3
6
CONTINUOUS
62
7
100
AcDbCircle
10
279.770000000000
20
190.200000000000
30
0.0
40
1.200000020498
100
AcDbArc
50
171.832382202148
51
270.000350952148
0
ARC
5
83c
100
AcDbEntity
8
0-3
6
CONTINUOUS
62
7
100
AcDbCircle
10
301.710000000000
20
190.200000000000
30
0.0
40
1.200000020498
100
AcDbArc
50
269.999633789063
51
8.167602539063
0
ARC
5
83d
100
AcDbEntity
8
0-3
6
CONTINUOUS
62
7
100
AcDbCircle
10
279.770000000000
20
190.200000000000
30
0.0
40
2.400000040997
100
AcDbArc
50
171.833847045898
51
269.999969482422
0
ARC
5
83e
100
AcDbEntity
8
0-3
6
CONTINUOUS
62
7
100
AcDbCircle
10
301.710000000000
20
190.200000000000
30
0.0
40
2.400000040997
100
AcDbArc
50
269.999832153320
51
8.166137695313
0
ARC
5
83f
100
AcDbEntity
8
0-3
6
CONTINUOUS
62
7
100
AcDbCircle
10
282.340000000000
20
186.600000000000
30
0.0
40
2.400000040997
100
AcDbArc
50
330.000671386719
51
89.999649047852
0
ARC
5
840
100
AcDbEntity
8
0-3
6
CONTINUOUS
62
7
100
AcDbCircle
10
282.340000000000
20
186.600000000000
30
0.0
40
1.200000020498
100
AcDbArc
50
329.997299194336
51
90.001327514648
0
ARC
5
841
100
AcDbEntity
8
0-3
6
CONTINUOUS
62
7
100
AcDbCircle
10
280.740000000000
20
176.630000000000
30
0.0
40
2.400000040997
100
AcDbArc
50
89.576950073242
51
90.109527587891
0
ARC
5
842
100
AcDbEntity
8
0-3
6
CONTINUOUS
62
7
100
AcDbCircle
10
280.730000000000
20
176.630000000000
30
0.0
40
2.400000040997
100
AcDbArc
50
150.000564575195
51
353.713760375977
0
ARC
5
843
100
AcDbEntity
8
0-3
6
CONTINUOUS
62
7
100
AcDbCircle
10
280.730000000000
20
176.630000000000
30
0.0
40
1.200000020498
100
AcDbArc
50
149.999328613281
51
353.717773437500
0
ARC
5
844
100
AcDbEntity
8
0-3
6
CONTINUOUS
62
7
100
AcDbCircle
10
299.140000000000
20
186.600000000000
30
0.0
40
2.400000040997
100
AcDbArc
50
90.000518798828
51
209.999313354492
0
ARC
5
845
100
AcDbEntity
8
0-3
6
CONTINUOUS
62
7
100
AcDbCircle
10
299.140000000000
20
186.600000000000
30
0.0
40
1.200000020498
100
AcDbArc
50
89.999023437500
51
210.002685546875
0
ARC
5
846
100
AcDbEntity
8
0-3
6
CONTINUOUS
62
7
100
AcDbCircle
10
308.120000000000
20
171.000000000000
30
0.0
40
1.200000020498
100
AcDbArc
50
209.947509765625
51
270.000717163086
0
ARC
5
847
100
AcDbEntity
8
0-3
6
CONTINUOUS
62
7
100
AcDbCircle
10
308.120000000000
20
171.000000000000
30
0.0
40
2.400000040997
100
AcDbArc
50
209.945831298828
51
269.999877929688
0
ARC
5
848
100
AcDbEntity
8
0-3
6
CONTINUOUS
62
7
100
AcDbCircle
10
373.730000000000
20
165.000000000000
30
0.0
40
1.200000020498
100
AcDbArc
50
225.002120971680
51
270.001388549805
0
ARC
5
849
100
AcDbEntity
8
0-3
6
CONTINUOUS
62
7
100
AcDbCircle
10
366.240000000000
20
167.400000000000
30
0.0
40
2.400000040997
100
AcDbArc
50
45.000061035156
51
89.999938964844
0
ARC
5
84a
100
AcDbEntity
8
0-3
6
CONTINUOUS
62
7
100
AcDbCircle
10
373.730000000000
20
165.000000000000
30
0.0
40
2.400000040997
100
AcDbArc
50
225.000061035156
51
269.999938964844
0
ARC
5
84b
100
AcDbEntity
8
0-3
6
CONTINUOUS
62
7
100
AcDbCircle
10
366.240000000000
20
167.400000000000
30
0.0
40
1.200000020498
100
AcDbArc
50
44.998001098633
51
89.998474121094
0
ARC
5
84c
100
AcDbEntity
8
0-3
6
CONTINUOUS
62
7
100
AcDbCircle
10
285.590000000000
20
225.150000000000
30
0.0
40
3.199999990148
100
AcDbArc
50
100.120040893555
51
171.833953857422
0
ARC
5
84d
100
AcDbEntity
8
0-3
6
CONTINUOUS
62
7
100
AcDbCircle
10
295.880000000000
20
225.150000000000
30
0.0
40
3.199999990148
100
AcDbArc
50
8.166030883789
51
79.879943847656
0
ARC
5
84e
100
AcDbEntity
8
0-3
6
CONTINUOUS
62
7
100
AcDbCircle
10
290.740000000000
20
196.300000000000
30
0.0
40
32.499998732638
100
AcDbArc
50
79.361419677734
51
100.120162963867
0
ARC
5
84f
100
AcDbEntity
8
0-3
6
CONTINUOUS
62
7
100
AcDbCircle
10
283.340000000000
20
96.000000000000
30
0.0
40
1.200000020498
100
AcDbArc
50
270.002319335938
51
359.997665405273
0
ARC
5
850
100
AcDbEntity
8
0-3
6
CONTINUOUS
62
7
100
AcDbCircle
10
283.340000000000
20
96.000000000000
30
0.0
40
2.400000040997
100
AcDbArc
50
269.999404907227
51
0.000000000000
0
ARC
5
851
100
AcDbEntity
8
0-3
6
CONTINUOUS
62
7
100
AcDbCircle
10
283.340000000000
20
113.600000000000
30
0.0
40
1.200000020498
100
AcDbArc
50
360.000000000000
51
449.997665405273
0
ARC
5
852
100
AcDbEntity
8
0-3
6
CONTINUOUS
62
7
100
AcDbCircle
10
283.340000000000
20
113.600000000000
30
0.0
40
2.400000040997
100
AcDbArc
50
0.000869750977
51
90.000579833984
0
ARC
5
853
100
AcDbEntity
8
0-3
6
CONTINUOUS
62
7
100
AcDbCircle
10
281.780000000000
20
117.200000000000
30
0.0
40
1.200000020498
100
AcDbArc
50
168.997787475586
51
270.001647949219
0
ARC
5
854
100
AcDbEntity
8
0-3
6
CONTINUOUS
62
7
100
AcDbCircle
10
281.780000000000
20
117.200000000000
30
0.0
40
2.400000040997
100
AcDbArc
50
169.000762939453
51
269.999618530273
0
ARC
5
855
100
AcDbEntity
8
0-3
6
CONTINUOUS
62
7
100
AcDbCircle
10
287.800000000000
20
148.200000000000
30
0.0
40
2.400000040997
100
AcDbArc
50
61.770935058594
51
168.998626708984
0
ARC
5
856
100
AcDbEntity
8
0-3
6
CONTINUOUS
62
7
100
AcDbCircle
10
287.800000000000
20
148.200000000000
30
0.0
40
1.200000020498
100
AcDbArc
50
61.773635864258
51
168.995834350586
0
ARC
5
857
100
AcDbEntity
8
0-3
6
CONTINUOUS
62
7
100
AcDbCircle
10
298.140000000000
20
113.600000000000
30
0.0
40
1.200000020498
100
AcDbArc
50
90.002319335938
51
180.000579833984
0
ARC
5
858
100
AcDbEntity
8
0-3
6
CONTINUOUS
62
7
100
AcDbCircle
10
298.140000000000
20
113.600000000000
30
0.0
40
2.400000040997
100
AcDbArc
50
90.002319335938
51
179.999114990234
0
ARC
5
859
100
AcDbEntity
8
0-3
6
CONTINUOUS
62
7
100
AcDbCircle
10
299.690000000000
20
117.200000000000
30
0.0
40
1.200000020498
100
AcDbArc
50
269.998336791992
51
11.002197265625
0
ARC
5
85a
100
AcDbEntity
8
0-3
6
CONTINUOUS
62
7
100
AcDbCircle
10
299.690000000000
20
117.200000000000
30
0.0
40
2.400000040997
100
AcDbArc
50
269.998901367188
51
10.999221801758
0
ARC
5
85b
100
AcDbEntity
8
0-3
6
CONTINUOUS
62
7
100
AcDbCircle
10
293.670000000000
20
148.200000000000
30
0.0
40
2.400000040997
100
AcDbArc
50
10.999908447266
51
118.232040405273
0
ARC
5
85c
100
AcDbEntity
8
0-3
6
CONTINUOUS
62
7
100
AcDbCircle
10
293.670000000000
20
148.200000000000
30
0.0
40
1.200000020498
100
AcDbArc
50
11.001251220703
51
118.232330322266
0
ARC
5
85d
100
AcDbEntity
8
0-3
6
CONTINUOUS
62
7
100
AcDbCircle
10
290.740000000000
20
153.660000000000
30
0.0
40
3.799999710083
100
AcDbArc
50
241.768280029297
51
298.231704711914
0
ARC
5
85e
100
AcDbEntity
8
0-3
6
CONTINUOUS
62
7
100
AcDbCircle
10
290.740000000000
20
153.660000000000
30
0.0
40
4.999999924124
100
AcDbArc
50
241.768524169922
51
298.231460571289
0
ARC
5
85f
100
AcDbEntity
8
0-3
6
CONTINUOUS
62
7
100
AcDbCircle
10
298.140000000000
20
90.000000000000
30
0.0
40
1.200000020498
100
AcDbArc
50
180.002319335938
51
269.997665405273
0
ARC
5
860
100
AcDbEntity
8
0-3
6
CONTINUOUS
62
7
100
AcDbCircle
10
298.140000000000
20
90.000000000000
30
0.0
40
2.400000040997
100
AcDbArc
50
180.000869750977
51
269.997665405273
0
ARC
5
861
100
AcDbEntity
8
0-3
6
CONTINUOUS
62
7
100
AcDbCircle
10
307.740000000000
20
90.000000000000
30
0.0
40
1.200000020498
100
AcDbArc
50
269.999328613281
51
314.997863769531
0
ARC
5
862
100
AcDbEntity
8
0-3
6
CONTINUOUS
62
7
100
AcDbCircle
10
315.730000000000
20
90.000000000000
30
0.0
40
1.200000020498
100
AcDbArc
50
225.002120971680
51
270.000656127930
0
ARC
5
863
100
AcDbEntity
8
0-3
6
CONTINUOUS
62
7
100
AcDbCircle
10
311.740000000000
20
88.910000000000
30
0.0
40
1.200000020498
100
AcDbArc
50
44.997055053711
51
135.002929687500
0
ARC
5
864
100
AcDbEntity
8
0-3
6
CONTINUOUS
62
7
100
AcDbCircle
10
307.740000000000
20
90.000000000000
30
0.0
40
2.400000040997
100
AcDbArc
50
270.000778198242
51
314.999923706055
0
ARC
5
865
100
AcDbEntity
8
0-3
6
CONTINUOUS
62
7
100
AcDbCircle
10
315.730000000000
20
90.000000000000
30
0.0
40
2.400000040997
100
AcDbArc
50
225.000061035156
51
269.999206542969
0
ARC
5
866
100
AcDbEntity
8
0-3
6
CONTINUOUS
62
7
100
AcDbCircle
10
311.740000000000
20
88.910000000000
30
0.0
40
2.400000040997
100
AcDbArc
50
44.999114990234
51
135.000869750977
0
ARC
5
867
100
AcDbEntity
8
0-3
6
CONTINUOUS
62
7
100
AcDbCircle
10
327.740000000000
20
87.710000000000
30
0.0
40
0.600000010249
100
AcDbArc
50
240.001342773438
51
299.998641967773
0
ARC
5
868
100
AcDbEntity
8
0-3
6
CONTINUOUS
62
7
100
AcDbCircle
10
326.880000000000
20
88.200000000000
30
0.0
40
0.600000010249
100
AcDbArc
50
60.000274658203
51
90.004898071289
0
ARC
5
869
100
AcDbEntity
8
0-3
6
CONTINUOUS
62
7
100
AcDbCircle
10
328.590000000000
20
88.200000000000
30
0.0
40
0.600000010249
100
AcDbArc
50
90.006744384766
51
119.999710083008
0
ARC
5
86a
100
AcDbEntity
8
0-3
6
CONTINUOUS
62
7
100
AcDbCircle
10
347.730000000000
20
89.600000000000
30
0.0
40
0.799999997537
100
AcDbArc
50
270.316665649414
51
89.683319091797
0
ARC
5
86b
100
AcDbEntity
8
0-3
6
CONTINUOUS
62
7
100
AcDbCircle
10
347.740000000000
20
89.600000000000
30
0.0
40
1.999999969650
100
AcDbArc
50
270.000000000000
51
90.000000000000
0
ARC
5
86c
100
AcDbEntity
8
0-3
6
CONTINUOUS
62
7
100
AcDbCircle
10
218.740000000000
20
90.000000000000
30
0.0
40
1.200000020498
100
AcDbArc
50
269.999328613281
51
314.997863769531
0
ARC
5
86d
100
AcDbEntity
8
0-3
6
CONTINUOUS
62
7
100
AcDbCircle
10
226.230000000000
20
92.400000000000
30
0.0
40
2.400000040997
100
AcDbArc
50
89.999328613281
51
134.999923706055
0
ARC
5
86e
100
AcDbEntity
8
0-3
6
CONTINUOUS
62
7
100
AcDbCircle
10
218.740000000000
20
90.000000000000
30
0.0
40
2.400000040997
100
AcDbArc
50
270.000778198242
51
314.999923706055
0
ARC
5
86f
100
AcDbEntity
8
0-3
6
CONTINUOUS
62
7
100
AcDbCircle
10
226.230000000000
20
92.400000000000
30
0.0
40
1.200000020498
100
AcDbArc
50
90.002243041992
51
135.001983642578
0
ARC
5
870
100
AcDbEntity
8
0-3
6
CONTINUOUS
62
7
100
AcDbCircle
10
588.760000000000
20
86.700000000000
30
0.0
40
4.390853966716
100
AcDbArc
50
46.905136108398
51
133.094863891602
0
ARC
5
871
100
AcDbEntity
8
0-3
6
CONTINUOUS
62
7
100
AcDbCircle
10
544.360000000000
20
96.000000000000
30
0.0
40
1.200000020498
100
AcDbArc
50
270.002319335938
51
359.997665405273
0
ARC
5
872
100
AcDbEntity
8
0-3
6
CONTINUOUS
62
7
100
AcDbCircle
10
544.360000000000
20
96.000000000000
30
0.0
40
2.400000040997
100
AcDbArc
50
269.999404907227
51
0.000000000000
0
ARC
5
873
100
AcDbEntity
8
0-3
6
CONTINUOUS
62
7
100
AcDbCircle
10
544.360000000000
20
113.600000000000
30
0.0
40
1.200000020498
100
AcDbArc
50
360.000000000000
51
449.997665405273
0
ARC
5
874
100
AcDbEntity
8
0-3
6
CONTINUOUS
62
7
100
AcDbCircle
10
544.360000000000
20
113.600000000000
30
0.0
40
2.400000040997
100
AcDbArc
50
0.000869750977
51
90.000579833984
0
ARC
5
875
100
AcDbEntity
8
0-3
6
CONTINUOUS
62
7
100
AcDbCircle
10
542.800000000000
20
117.200000000000
30
0.0
40
1.200000020498
100
AcDbArc
50
168.997787475586
51
270.001647949219
0
ARC
5
876
100
AcDbEntity
8
0-3
6
CONTINUOUS
62
7
100
AcDbCircle
10
542.800000000000
20
117.200000000000
30
0.0
40
2.400000040997
100
AcDbArc
50
169.000762939453
51
269.999618530273
0
ARC
5
877
100
AcDbEntity
8
0-3
6
CONTINUOUS
62
7
100
AcDbCircle
10
548.830000000000
20
148.200000000000
30
0.0
40
2.400000040997
100
AcDbArc
50
61.770935058594
51
168.998626708984
0
ARC
5
878
100
AcDbEntity
8
0-3
6
CONTINUOUS
62
7
100
AcDbCircle
10
548.830000000000
20
148.200000000000
30
0.0
40
1.200000020498
100
AcDbArc
50
61.773635864258
51
168.995834350586
0
ARC
5
879
100
AcDbEntity
8
0-3
6
CONTINUOUS
62
7
100
AcDbCircle
10
559.160000000000
20
113.600000000000
30
0.0
40
1.200000020498
100
AcDbArc
50
90.002319335938
51
180.000579833984
0
ARC
5
87a
100
AcDbEntity
8
0-3
6
CONTINUOUS
62
7
100
AcDbCircle
10
559.160000000000
20
113.600000000000
30
0.0
40
2.400000040997
100
AcDbArc
50
90.002319335938
51
179.999114990234
0
ARC
5
87b
100
AcDbEntity
8
0-3
6
CONTINUOUS
62
7
100
AcDbCircle
10
560.720000000000
20
117.200000000000
30
0.0
40
1.200000020498
100
AcDbArc
50
269.998336791992
51
11.002197265625
0
ARC
5
87c
100
AcDbEntity
8
0-3
6
CONTINUOUS
62
7
100
AcDbCircle
10
560.720000000000
20
117.200000000000
30
0.0
40
2.400000040997
100
AcDbArc
50
269.998901367188
51
10.999221801758
0
ARC
5
87d
100
AcDbEntity
8
0-3
6
CONTINUOUS
62
7
100
AcDbCircle
10
554.690000000000
20
148.200000000000
30
0.0
40
2.400000040997
100
AcDbArc
50
10.999908447266
51
118.232040405273
0
ARC
5
87e
100
AcDbEntity
8
0-3
6
CONTINUOUS
62
7
100
AcDbCircle
10
554.690000000000
20
148.200000000000
30
0.0
40
1.200000020498
100
AcDbArc
50
11.001251220703
51
118.232330322266
0
ARC
5
87f
100
AcDbEntity
8
0-3
6
CONTINUOUS
62
7
100
AcDbCircle
10
551.760000000000
20
153.660000000000
30
0.0
40
3.799999710083
100
AcDbArc
50
241.768280029297
51
298.231704711914
0
ARC
5
880
100
AcDbEntity
8
0-3
6
CONTINUOUS
62
7
100
AcDbCircle
10
551.760000000000
20
153.660000000000
30
0.0
40
4.999999924124
100
AcDbArc
50
241.768524169922
51
298.231460571289
0
ARC
5
881
100
AcDbEntity
8
0-3
6
CONTINUOUS
62
7
100
AcDbCircle
10
559.160000000000
20
90.000000000000
30
0.0
40
1.200000020498
100
AcDbArc
50
180.002319335938
51
269.997665405273
0
ARC
5
882
100
AcDbEntity
8
0-3
6
CONTINUOUS
62
7
100
AcDbCircle
10
559.160000000000
20
90.000000000000
30
0.0
40
2.400000040997
100
AcDbArc
50
180.000869750977
51
269.997665405273
0
ARC
5
883
100
AcDbEntity
8
0-3
6
CONTINUOUS
62
7
100
AcDbCircle
10
568.770000000000
20
90.000000000000
30
0.0
40
1.200000020498
100
AcDbArc
50
269.999328613281
51
314.997863769531
0
ARC
5
884
100
AcDbEntity
8
0-3
6
CONTINUOUS
62
7
100
AcDbCircle
10
576.750000000000
20
90.000000000000
30
0.0
40
1.200000020498
100
AcDbArc
50
225.002120971680
51
270.000656127930
0
ARC
5
885
100
AcDbEntity
8
0-3
6
CONTINUOUS
62
7
100
AcDbCircle
10
572.760000000000
20
88.910000000000
30
0.0
40
1.200000020498
100
AcDbArc
50
44.997055053711
51
135.002929687500
0
ARC
5
886
100
AcDbEntity
8
0-3
6
CONTINUOUS
62
7
100
AcDbCircle
10
568.770000000000
20
90.000000000000
30
0.0
40
2.400000040997
100
AcDbArc
50
270.000778198242
51
314.999923706055
0
ARC
5
887
100
AcDbEntity
8
0-3
6
CONTINUOUS
62
7
100
AcDbCircle
10
576.750000000000
20
90.000000000000
30
0.0
40
2.400000040997
100
AcDbArc
50
225.000061035156
51
269.999206542969
0
ARC
5
888
100
AcDbEntity
8
0-3
6
CONTINUOUS
62
7
100
AcDbCircle
10
572.760000000000
20
88.910000000000
30
0.0
40
2.400000040997
100
AcDbArc
50
44.999114990234
51
135.000869750977
0
ARC
5
889
100
AcDbEntity
8
0-3
6
CONTINUOUS
62
7
100
AcDbCircle
10
588.760000000000
20
87.710000000000
30
0.0
40
0.600000010249
100
AcDbArc
50
240.001342773438
51
299.998641967773
0
ARC
5
88a
100
AcDbEntity
8
0-3
6
CONTINUOUS
62
7
100
AcDbCircle
10
587.910000000000
20
88.200000000000
30
0.0
40
0.600000010249
100
AcDbArc
50
60.000274658203
51
90.004898071289
0
ARC
5
88b
100
AcDbEntity
8
0-3
6
CONTINUOUS
62
7
100
AcDbCircle
10
589.610000000000
20
88.200000000000
30
0.0
40
0.600000010249
100
AcDbArc
50
90.006744384766
51
119.999710083008
0
ARC
5
88c
100
AcDbEntity
8
0-3
6
CONTINUOUS
62
7
100
AcDbCircle
10
608.760000000000
20
89.600000000000
30
0.0
40
0.799999997537
100
AcDbArc
50
270.316665649414
51
89.683319091797
0
ARC
5
88d
100
AcDbEntity
8
0-3
6
CONTINUOUS
62
7
100
AcDbCircle
10
608.760000000000
20
89.600000000000
30
0.0
40
1.999999969650
100
AcDbArc
50
270.000000000000
51
90.000000000000
0
ARC
5
88e
100
AcDbEntity
8
0-3
6
CONTINUOUS
62
7
100
AcDbCircle
10
479.770000000000
20
90.000000000000
30
0.0
40
1.200000020498
100
AcDbArc
50
269.999328613281
51
314.997863769531
0
ARC
5
88f
100
AcDbEntity
8
0-3
6
CONTINUOUS
62
7
100
AcDbCircle
10
487.260000000000
20
92.400000000000
30
0.0
40
2.400000040997
100
AcDbArc
50
89.999328613281
51
134.999923706055
0
ARC
5
890
100
AcDbEntity
8
0-3
6
CONTINUOUS
62
7
100
AcDbCircle
10
479.770000000000
20
90.000000000000
30
0.0
40
2.400000040997
100
AcDbArc
50
270.000778198242
51
314.999923706055
0
ARC
5
891
100
AcDbEntity
8
0-3
6
CONTINUOUS
62
7
100
AcDbCircle
10
487.260000000000
20
92.400000000000
30
0.0
40
1.200000020498
100
AcDbArc
50
90.002243041992
51
135.001983642578
0
ARC
5
892
100
AcDbEntity
8
0-3
6
CONTINUOUS
62
7
100
AcDbCircle
10
545.900000000000
20
150.830000000000
30
0.0
40
1.200000020498
100
AcDbArc
50
101.224548339844
51
171.833770751953
0
ARC
5
893
100
AcDbEntity
8
0-3
6
CONTINUOUS
62
7
100
AcDbCircle
10
557.620000000000
20
150.830000000000
30
0.0
40
1.200000020498
100
AcDbArc
50
8.166290283203
51
78.775817871094
0
ARC
5
894
100
AcDbEntity
8
0-3
6
CONTINUOUS
62
7
100
AcDbCircle
10
551.760000000000
20
121.300000000000
30
0.0
40
31.299998131512
100
AcDbArc
50
78.775772094727
51
101.224212646484
0
ARC
5
895
100
AcDbEntity
8
0-3
6
CONTINUOUS
62
7
100
AcDbCircle
10
540.790000000000
20
115.200000000000
30
0.0
40
1.200000020498
100
AcDbArc
50
171.832382202148
51
270.000350952148
0
ARC
5
896
100
AcDbEntity
8
0-3
6
CONTINUOUS
62
7
100
AcDbCircle
10
562.730000000000
20
115.200000000000
30
0.0
40
1.200000020498
100
AcDbArc
50
269.999633789063
51
8.167602539063
0
ARC
5
897
100
AcDbEntity
8
0-3
6
CONTINUOUS
62
7
100
AcDbCircle
10
540.790000000000
20
115.200000000000
30
0.0
40
2.400000040997
100
AcDbArc
50
171.833847045898
51
269.999969482422
0
ARC
5
898
100
AcDbEntity
8
0-3
6
CONTINUOUS
62
7
100
AcDbCircle
10
562.730000000000
20
115.200000000000
30
0.0
40
2.400000040997
100
AcDbArc
50
269.999832153320
51
8.166137695313
0
ARC
5
899
100
AcDbEntity
8
0-3
6
CONTINUOUS
62
7
100
AcDbCircle
10
543.360000000000
20
111.600000000000
30
0.0
40
2.400000040997
100
AcDbArc
50
330.000671386719
51
89.999649047852
0
ARC
5
89a
100
AcDbEntity
8
0-3
6
CONTINUOUS
62
7
100
AcDbCircle
10
543.360000000000
20
111.600000000000
30
0.0
40
1.200000020498
100
AcDbArc
50
329.997299194336
51
90.001327514648
0
ARC
5
89b
100
AcDbEntity
8
0-3
6
CONTINUOUS
62
7
100
AcDbCircle
10
541.760000000000
20
101.630000000000
30
0.0
40
2.400000040997
100
AcDbArc
50
89.576950073242
51
90.109527587891
0
ARC
5
89c
100
AcDbEntity
8
0-3
6
CONTINUOUS
62
7
100
AcDbCircle
10
541.760000000000
20
101.630000000000
30
0.0
40
2.400000040997
100
AcDbArc
50
150.000564575195
51
353.713760375977
0
ARC
5
89d
100
AcDbEntity
8
0-3
6
CONTINUOUS
62
7
100
AcDbCircle
10
541.760000000000
20
101.630000000000
30
0.0
40
1.200000020498
100
AcDbArc
50
149.999328613281
51
353.717773437500
0
ARC
5
89e
100
AcDbEntity
8
0-3
6
CONTINUOUS
62
7
100
AcDbCircle
10
560.160000000000
20
111.600000000000
30
0.0
40
2.400000040997
100
AcDbArc
50
90.000518798828
51
209.999313354492
0
ARC
5
89f
100
AcDbEntity
8
0-3
6
CONTINUOUS
62
7
100
AcDbCircle
10
560.160000000000
20
111.600000000000
30
0.0
40
1.200000020498
100
AcDbArc
50
89.999023437500
51
210.002685546875
0
ARC
5
8a0
100
AcDbEntity
8
0-3
6
CONTINUOUS
62
7
100
AcDbCircle
10
569.150000000000
20
96.000000000000
30
0.0
40
1.200000020498
100
AcDbArc
50
209.947509765625
51
270.000717163086
0
ARC
5
8a1
100
AcDbEntity
8
0-3
6
CONTINUOUS
62
7
100
AcDbCircle
10
569.150000000000
20
96.000000000000
30
0.0
40
2.400000040997
100
AcDbArc
50
209.945831298828
51
269.999877929688
0
ARC
5
8a2
100
AcDbEntity
8
0-3
6
CONTINUOUS
62
7
100
AcDbCircle
10
634.750000000000
20
90.000000000000
30
0.0
40
1.200000020498
100
AcDbArc
50
225.002120971680
51
270.001388549805
0
ARC
5
8a3
100
AcDbEntity
8
0-3
6
CONTINUOUS
62
7
100
AcDbCircle
10
627.260000000000
20
92.400000000000
30
0.0
40
2.400000040997
100
AcDbArc
50
45.000061035156
51
89.999938964844
0
ARC
5
8a4
100
AcDbEntity
8
0-3
6
CONTINUOUS
62
7
100
AcDbCircle
10
634.750000000000
20
90.000000000000
30
0.0
40
2.400000040997
100
AcDbArc
50
225.000061035156
51
269.999938964844
0
ARC
5
8a5
100
AcDbEntity
8
0-3
6
CONTINUOUS
62
7
100
AcDbCircle
10
627.260000000000
20
92.400000000000
30
0.0
40
1.200000020498
100
AcDbArc
50
44.998001098633
51
89.998474121094
0
ARC
5
8a6
100
AcDbEntity
8
0-3
6
CONTINUOUS
62
7
100
AcDbCircle
10
546.610000000000
20
150.150000000000
30
0.0
40
3.199999990148
100
AcDbArc
50
100.120040893555
51
171.833953857422
0
ARC
5
8a7
100
AcDbEntity
8
0-3
6
CONTINUOUS
62
7
100
AcDbCircle
10
556.910000000000
20
150.150000000000
30
0.0
40
3.199999990148
100
AcDbArc
50
8.166030883789
51
79.879943847656
0
ARC
5
8a8
100
AcDbEntity
8
0-3
6
CONTINUOUS
62
7
100
AcDbCircle
10
551.760000000000
20
121.300000000000
30
0.0
40
32.499998732638
100
AcDbArc
50
79.361419677734
51
100.120162963867
0
ARC
5
8a9
100
AcDbEntity
8
0-3
6
CONTINUOUS
62
7
100
AcDbCircle
10
291.040000000000
20
232.230000000000
30
0.0
40
9.635876748362
100
AcDbArc
50
220.332824707031
51
268.224548339844
0
ARC
5
8aa
100
AcDbEntity
8
0-3
6
CONTINUOUS
62
7
100
AcDbCircle
10
290.440000000000
20
232.230000000000
30
0.0
40
9.635876748362
100
AcDbArc
50
271.775451660156
51
319.667175292969
0
TEXT
5
8ab
100
AcDbEntity
8
0-3
62
3
370
-3
100
AcDbText
10
209.982
20
55.437
30
0.0
40
4.923
1
又はゴムアス防水シート
41
0.999
50
0.000
100
AcDbText
0
MTEXT
5
8ac
100
AcDbEntity
8
0-3
62
3
370
-3
100
AcDbMText
10
203.739
20
62.694
30
0.0
40
4.649
41
0.000
71
7
72
1
1
\W1.134;アスファルトルーフィング{\W0.817;940}以上
7
STANDARD
11
1.00000
21
0.00000
31
0.0
0
TEXT
5
8ad
100
AcDbEntity
8
0-3
62
3
370
-3
100
AcDbText
10
328.436
20
112.356
30
0.0
40
4.923
1
シンワッシャー
41
0.999
50
0.000
100
AcDbText
0
TEXT
5
8ae
100
AcDbEntity
8
F-F
62
3
370
-3
100
AcDbText
10
266.045
20
37.876
30
0.0
40
2.461
1
変　　　　　　更　　　　　　記　　　　　　事
41
0.999
50
0.000
100
AcDbText
0
TEXT
5
8af
100
AcDbEntity
8
F-F
62
3
370
-3
100
AcDbText
10
407.912
20
37.476
30
0.0
40
2.461
1
受領　　日附
41
0.999
50
0.000
100
AcDbText
0
TEXT
5
8b0
100
AcDbEntity
8
F-F
62
3
370
-3
100
AcDbText
10
507.021
20
22.760
30
0.0
40
2.461
1
施工者
41
0.999
50
0.000
100
AcDbText
0
TEXT
5
8b1
100
AcDbEntity
8
F-F
62
3
370
-3
100
AcDbText
10
507.021
20
37.575
30
0.0
40
2.461
1
設計者
41
0.999
50
0.000
100
AcDbText
0
TEXT
5
8b2
100
AcDbEntity
8
F-F
62
3
370
-3
100
AcDbText
10
609.763
20
22.489
30
0.0
40
2.461
1
作図
41
0.999
50
0.000
100
AcDbText
0
TEXT
5
8b3
100
AcDbEntity
8
F-F
62
3
370
-3
100
AcDbText
10
645.676
20
22.754
30
0.0
40
2.461
1
図面名
41
0.999
50
0.000
100
AcDbText
0
TEXT
5
8b4
100
AcDbEntity
8
F-F
62
3
370
-3
100
AcDbText
10
609.763
20
37.303
30
0.0
40
2.461
1
日附
41
0.999
50
0.000
100
AcDbText
0
TEXT
5
8b5
100
AcDbEntity
8
F-F
62
3
370
-3
100
AcDbText
10
645.676
20
37.569
30
0.0
40
2.461
1
工事件名
41
0.999
50
0.000
100
AcDbText
0
TEXT
5
8b6
100
AcDbEntity
8
F-F
62
3
370
-3
100
AcDbText
10
620.831
20
37.177
30
0.0
40
2.461
1
年　月　日
41
0.999
50
0.000
100
AcDbText
0
TEXT
5
8b7
100
AcDbEntity
8
F-F
62
3
370
-3
100
AcDbText
10
620.831
20
22.363
30
0.0
40
2.461
1
年　月　日
41
0.999
50
0.000
100
AcDbText
0
TEXT
5
8b8
100
AcDbEntity
8
F-F
62
3
370
-3
100
AcDbText
10
771.848
20
37.569
30
0.0
40
2.461
1
設計番号
41
0.999
50
0.000
100
AcDbText
0
TEXT
5
8b9
100
AcDbEntity
8
F-F
62
3
370
-3
100
AcDbText
10
771.848
20
22.754
30
0.0
40
2.461
1
縮　尺
41
0.999
50
0.000
100
AcDbText
0
MTEXT
5
8ba
100
AcDbEntity
8
F-F
62
3
370
-3
100
AcDbMText
10
193.506
20
33.910
30
0.0
40
2.325
41
0.000
71
7
72
1
1
\W1.134;{\W0.817;. }　{\W0.817;.}　{\W0.817; }
7
STANDARD
11
1.00000
21
0.00000
31
0.0
0
MTEXT
5
8bb
100
AcDbEntity
8
F-F
62
3
370
-3
100
AcDbMText
10
193.506
20
28.972
30
0.0
40
2.325
41
0.000
71
7
72
1
1
\W1.134;{\W0.817;. }　{\W0.817;.}　{\W0.817; }
7
STANDARD
11
1.00000
21
0.00000
31
0.0
0
MTEXT
5
8bc
100
AcDbEntity
8
F-F
62
3
370
-3
100
AcDbMText
10
193.506
20
24.034
30
0.0
40
2.325
41
0.000
71
7
72
1
1
\W1.134;{\W0.817;. }　{\W0.817;.}　{\W0.817; }
7
STANDARD
11
1.00000
21
0.00000
31
0.0
0
MTEXT
5
8bd
100
AcDbEntity
8
F-F
62
3
370
-3
100
AcDbMText
10
193.506
20
19.095
30
0.0
40
2.325
41
0.000
71
7
72
1
1
\W1.134;{\W0.817;. }　{\W0.817;.}　{\W0.817; }
7
STANDARD
11
1.00000
21
0.00000
31
0.0
0
MTEXT
5
8be
100
AcDbEntity
8
F-F
62
3
370
-3
100
AcDbMText
10
193.506
20
14.157
30
0.0
40
2.325
41
0.000
71
7
72
1
1
\W1.134;{\W0.817;. }　{\W0.817;.}　{\W0.817; }
7
STANDARD
11
1.00000
21
0.00000
31
0.0
0
TEXT
5
8bf
100
AcDbEntity
8
F-F
62
3
370
-3
100
AcDbText
10
517.191
20
31.186
30
0.0
40
3.282
1
　　　　　　　　　　
41
0.963
50
0.000
100
AcDbText
0
TEXT
5
8c0
100
AcDbEntity
8
F-F
62
3
370
-3
100
AcDbText
10
517.191
20
16.371
30
0.0
40
3.282
1
　　　　　　　　　　
41
0.963
50
0.000
100
AcDbText
0
TEXT
5
8c1
100
AcDbEntity
8
F-F
62
3
370
-3
100
AcDbText
10
658.923
20
31.960
30
0.0
40
3.282
1
　　　　　　　　　　　　　
41
0.963
50
0.000
100
AcDbText
0
TEXT
5
8c2
100
AcDbEntity
8
F-F
62
3
370
-3
100
AcDbText
10
189.020
20
37.843
30
0.0
40
2.461
1
年　月　日
41
0.999
50
0.000
100
AcDbText
0
TEXT
5
8c3
100
AcDbEntity
8
F-F
62
3
370
-3
100
AcDbText
10
436.498
20
37.184
30
0.0
40
2.461
1
年　　月　　日
41
0.999
50
0.000
100
AcDbText
0
MTEXT
5
8c4
100
AcDbEntity
8
F-F
62
3
370
-3
100
AcDbMText
10
442.774
20
31.699
30
0.0
40
2.325
41
0.000
71
7
72
1
1
\W1.134;{\W0.817;.}　{\W0.817; }　{\W0.817;.}
7
STANDARD
11
1.00000
21
0.00000
31
0.0
0
TEXT
5
8c5
100
AcDbEntity
8
F-F
62
3
370
-3
100
AcDbText
10
407.912
20
22.661
30
0.0
40
2.461
1
受領　　日附
41
0.999
50
0.000
100
AcDbText
0
TEXT
5
8c6
100
AcDbEntity
8
F-F
62
3
370
-3
100
AcDbText
10
436.498
20
22.369
30
0.0
40
2.461
1
年　　月　　日
41
0.999
50
0.000
100
AcDbText
0
MTEXT
5
8c7
100
AcDbEntity
8
F-F
62
3
370
-3
100
AcDbMText
10
442.774
20
16.884
30
0.0
40
2.325
41
0.000
71
7
72
1
1
\W1.134;{\W0.817;.}　{\W0.817; }　{\W0.817;.}
7
STANDARD
11
1.00000
21
0.00000
31
0.0
0
MTEXT
5
8c8
100
AcDbEntity
8
F-F
62
3
370
-3
100
AcDbMText
10
624.217
20
30.842
30
0.0
40
2.325
41
0.000
71
7
72
1
1
\W1.134;{\W0.817;.}　　{\W0.817;.}　
7
STANDARD
11
1.00000
21
0.00000
31
0.0
0
TEXT
5
8c9
100
AcDbEntity
8
F-F
62
3
370
-3
100
AcDbText
10
783.506
20
20.823
30
0.0
40
3.282
1
Ａ１－１／１　
41
0.963
50
0.000
100
AcDbText
0
TEXT
5
8ca
100
AcDbEntity
8
F-F
62
3
370
-3
100
AcDbText
10
783.506
20
13.416
30
0.0
40
3.282
1
Ａ３－１／２　
41
0.963
50
0.000
100
AcDbText
0
TEXT
5
8cb
100
AcDbEntity
8
0-0
62
6
370
-3
100
AcDbText
10
100.129
20
385.928
30
0.0
40
8.205
1
フラット品
41
0.942
50
0.000
100
AcDbText
0
TEXT
5
8cc
100
AcDbEntity
8
F-F
62
3
370
-3
100
AcDbText
10
83.334
20
14.383
30
0.0
40
3.282
1
電話（０５４）２６３－２２８０（代表）
41
0.963
50
0.000
100
AcDbText
0
TEXT
5
8cd
100
AcDbEntity
8
F-F
62
2
370
-3
100
AcDbText
10
61.385
20
30.579
30
0.0
40
6.564
1
小　池　弥　太　郎　商　店
41
0.963
50
0.000
100
AcDbText
0
TEXT
5
8ce
100
AcDbEntity
8
F-F
62
3
370
-3
100
AcDbText
10
83.332
20
21.800
30
0.0
40
3.282
1
静岡県静岡市葵区流通センター１６番
41
0.963
50
0.000
100
AcDbText
0
TEXT
5
8cf
100
AcDbEntity
8
F-F
62
3
370
-3
100
AcDbText
10
50.067
20
34.125
30
0.0
40
2.461
1
株
41
0.999
50
0.000
100
AcDbText
0
TEXT
5
8d0
100
AcDbEntity
8
F-F
62
3
370
-3
100
AcDbText
10
53.642
20
30.500
30
0.0
40
2.461
1
社
41
0.999
50
0.000
100
AcDbText
0
TEXT
5
8d1
100
AcDbEntity
8
F-F
62
3
370
-3
100
AcDbText
10
50.042
20
30.500
30
0.0
40
2.461
1
会
41
0.999
50
0.000
100
AcDbText
0
TEXT
5
8d2
100
AcDbEntity
8
F-F
62
3
370
-3
100
AcDbText
10
53.442
20
34.025
30
0.0
40
2.461
1
式
41
0.999
50
0.000
100
AcDbText
0
TEXT
5
8d3
100
AcDbEntity
8
0-0
62
2
370
-3
100
AcDbText
10
274.764
20
386.923
30
0.0
40
6.564
41
0.664
50
90.000
1
32.5
72
1
11
275.493
21
395.698
31
0.0
100
AcDbText
73
1
0
TEXT
5
8d4
100
AcDbEntity
8
0-0
62
2
370
-3
100
AcDbText
10
252.939
20
372.923
30
0.0
40
6.564
41
0.581
50
90.000
1
3
72
1
11
253.669
21
375.117
31
0.0
100
AcDbText
73
1
0
TEXT
5
8d5
100
AcDbEntity
8
0-0
62
2
370
-3
100
AcDbText
10
252.939
20
388.423
30
0.0
40
6.564
41
0.675
50
90.000
1
29.5
72
1
11
253.669
21
397.198
31
0.0
100
AcDbText
73
1
0
TEXT
5
8d6
100
AcDbEntity
8
0-0
62
2
370
-3
100
AcDbText
10
190.060
20
421.356
30
0.0
40
6.564
41
0.752
50
0.000
1
14
72
1
11
194.448
21
420.627
31
0.0
100
AcDbText
73
1
0
TEXT
5
8d7
100
AcDbEntity
8
0-0
62
2
370
-3
100
AcDbText
10
644.560
20
421.356
30
0.0
40
6.564
41
0.675
50
0.000
1
12
72
1
11
648.948
21
420.627
31
0.0
100
AcDbText
73
1
0
TEXT
5
8d8
100
AcDbEntity
8
0-0
62
2
370
-3
100
AcDbText
10
213.060
20
366.626
30
0.0
40
6.564
41
0.637
50
0.000
1
30
72
1
11
217.448
21
365.897
31
0.0
100
AcDbText
73
1
0
TEXT
5
8d9
100
AcDbEntity
8
0-0
62
2
370
-3
100
AcDbText
10
627.060
20
366.626
30
0.0
40
6.564
41
0.637
50
0.000
1
30
72
1
11
631.448
21
365.897
31
0.0
100
AcDbText
73
1
0
TEXT
5
8da
100
AcDbEntity
8
0-0
62
2
370
-3
100
AcDbText
10
274.764
20
276.923
30
0.0
40
6.564
41
0.664
50
90.000
1
32.5
72
1
11
275.493
21
285.698
31
0.0
100
AcDbText
73
1
0
TEXT
5
8db
100
AcDbEntity
8
0-0
62
2
370
-3
100
AcDbText
10
252.939
20
262.923
30
0.0
40
6.564
41
0.581
50
90.000
1
3
72
1
11
253.669
21
265.117
31
0.0
100
AcDbText
73
1
0
TEXT
5
8dc
100
AcDbEntity
8
0-0
62
2
370
-3
100
AcDbText
10
252.939
20
278.423
30
0.0
40
6.564
41
0.675
50
90.000
1
29.5
72
1
11
253.669
21
287.198
31
0.0
100
AcDbText
73
1
0
TEXT
5
8dd
100
AcDbEntity
8
0-0
62
2
370
-3
100
AcDbText
10
190.060
20
311.356
30
0.0
40
6.564
41
0.752
50
0.000
1
14
72
1
11
194.448
21
310.627
31
0.0
100
AcDbText
73
1
0
TEXT
5
8de
100
AcDbEntity
8
0-0
62
2
370
-3
100
AcDbText
10
644.560
20
311.356
30
0.0
40
6.564
41
0.675
50
0.000
1
12
72
1
11
648.948
21
310.627
31
0.0
100
AcDbText
73
1
0
TEXT
5
8df
100
AcDbEntity
8
0-0
62
2
370
-3
100
AcDbText
10
213.060
20
256.626
30
0.0
40
6.564
41
0.637
50
0.000
1
30
72
1
11
217.448
21
255.897
31
0.0
100
AcDbText
73
1
0
TEXT
5
8e0
100
AcDbEntity
8
0-0
62
2
370
-3
100
AcDbText
10
627.060
20
256.626
30
0.0
40
6.564
41
0.637
50
0.000
1
30
72
1
11
631.448
21
255.897
31
0.0
100
AcDbText
73
1
0
MTEXT
5
8e1
100
AcDbEntity
8
0-0
62
6
370
-3
100
AcDbMText
10
100.129
20
275.016
30
0.0
40
7.749
41
0.000
71
7
72
1
1
\W1.069;リ{\W0.770; }ブ{\W0.770; }付
7
STANDARD
11
1.00000
21
0.00000
31
0.0
0
TEXT
5
8e2
100
AcDbEntity
8
0-0
62
2
370
-3
100
AcDbText
10
393.306
20
284.456
30
0.0
40
6.564
41
0.801
50
0.000
1
31.7
72
1
11
402.081
21
283.727
31
0.0
100
AcDbText
73
1
0
TEXT
5
8e3
100
AcDbEntity
8
0-0
62
2
370
-3
100
AcDbText
10
418.656
20
284.456
30
0.0
40
6.564
41
0.816
50
0.000
1
10
72
1
11
423.043
21
283.727
31
0.0
100
AcDbText
73
1
0
TEXT
5
8e4
100
AcDbEntity
8
0-0
62
2
370
-3
100
AcDbText
10
476.706
20
284.456
30
0.0
40
6.564
41
0.817
50
0.000
1
41.7
72
1
11
485.481
21
283.727
31
0.0
100
AcDbText
73
1
0
MTEXT
5
8e5
100
AcDbEntity
8
0-0
62
6
370
-3
100
AcDbMText
10
44.928
20
474.053
30
0.0
40
7.749
41
0.000
71
7
72
1
1
\W1.069;嵌{\W0.770; }合{\W0.770; }図
7
STANDARD
11
1.00000
21
0.00000
31
0.0
0
TEXT
5
8e6
100
AcDbEntity
8
0-3
62
3
370
-3
100
AcDbText
10
471.006
20
55.437
30
0.0
40
4.923
1
又はゴムアス防水シート
41
0.999
50
0.000
100
AcDbText
0
MTEXT
5
8e7
100
AcDbEntity
8
0-3
62
3
370
-3
100
AcDbMText
10
464.762
20
62.694
30
0.0
40
4.649
41
0.000
71
7
72
1
1
\W1.134;アスファルトルーフィング{\W0.817;940}以上
7
STANDARD
11
1.00000
21
0.00000
31
0.0
0
TEXT
5
8e8
100
AcDbEntity
8
0-3
62
3
370
-3
100
AcDbText
10
589.460
20
112.356
30
0.0
40
4.923
1
シンワッシャー
41
0.999
50
0.000
100
AcDbText
0
MTEXT
5
8e9
100
AcDbEntity
8
0-3
62
3
370
-3
100
AcDbMText
10
342.672
20
61.368
30
0.0
40
4.649
41
0.000
71
7
72
1
1
\W1.134;野地板材{\W0.817;t=12mm}以上
7
STANDARD
11
1.00000
21
0.00000
31
0.0
0
MTEXT
5
8ea
100
AcDbEntity
8
0-3
62
3
370
-3
100
AcDbMText
10
603.696
20
61.368
30
0.0
40
4.649
41
0.000
71
7
72
1
1
\W1.134;野地板材{\W0.817;t=12mm}以上
7
STANDARD
11
1.00000
21
0.00000
31
0.0
0
TEXT
5
8eb
100
AcDbEntity
8
0-0
62
2
370
-3
100
AcDbText
10
578.838
20
386.123
30
0.0
40
6.564
41
0.746
50
90.000
1
30.9
72
1
11
579.568
21
394.898
31
0.0
100
AcDbText
73
1
0
TEXT
5
8ec
100
AcDbEntity
8
0-0
62
2
370
-3
100
AcDbText
10
578.838
20
276.123
30
0.0
40
6.564
41
0.746
50
90.000
1
30.9
72
1
11
579.568
21
284.898
31
0.0
100
AcDbText
73
1
0
TEXT
5
8ed
100
AcDbEntity
8
0-0
62
2
370
-3
100
AcDbText
10
600.663
20
372.923
30
0.0
40
6.564
41
0.581
50
90.000
1
3
72
1
11
601.392
21
375.117
31
0.0
100
AcDbText
73
1
0
TEXT
5
8ee
100
AcDbEntity
8
0-0
62
2
370
-3
100
AcDbText
10
600.663
20
387.623
30
0.0
40
6.564
41
0.691
50
90.000
1
27.9
72
1
11
601.392
21
396.398
31
0.0
100
AcDbText
73
1
0
TEXT
5
8ef
100
AcDbEntity
8
0-0
62
2
370
-3
100
AcDbText
10
600.663
20
262.923
30
0.0
40
6.564
41
0.581
50
90.000
1
3
72
1
11
601.392
21
265.117
31
0.0
100
AcDbText
73
1
0
TEXT
5
8f0
100
AcDbEntity
8
0-0
62
2
370
-3
100
AcDbText
10
600.663
20
277.623
30
0.0
40
6.564
41
0.691
50
90.000
1
27.9
72
1
11
601.392
21
286.398
31
0.0
100
AcDbText
73
1
0
TEXT
5
8f1
100
AcDbEntity
8
0-3
62
3
370
-3
100
AcDbText
10
306.444
20
233.856
30
0.0
40
4.923
1
止水材充填仕様（オプション）
41
0.999
50
0.000
100
AcDbText
0
TEXT
5
8f2
100
AcDbEntity
8
0-0
62
2
370
-3
100
AcDbText
10
209.966
20
517.813
30
0.0
40
6.564
1
止水材充填仕様（オプション）
41
0.963
50
0.000
100
AcDbText
0
TEXT
5
8f3
100
AcDbEntity
8
0-3
62
3
370
-3
100
AcDbText
10
570.322
20
151.789
30
0.0
40
4.923
1
止水材充填仕様（オプション）
41
0.999
50
0.000
100
AcDbText
0
TEXT
5
8f4
100
AcDbEntity
8
0-0
62
6
370
-3
100
AcDbText
10
206.645
20
609.381
30
0.0
40
8.205
1
標準仕様　ラジアルＲ＝３５００まで（サザナミ）・反りＲ＝６０００まで（サザナミ）
41
0.942
50
0.000
100
AcDbText
0
MTEXT
5
8f5
100
AcDbEntity
8
0-0
62
2
370
-3
100
AcDbMText
10
510.121
20
516.979
30
0.0
40
6.199
41
0.000
71
7
72
1
1
\W1.093;{\W0.787;KOIKE }立平４５５（Ｈ３１型）
7
STANDARD
11
1.00000
21
0.00000
31
0.0
0
MTEXT
5
8f6
100
AcDbEntity
8
0-3
62
3
370
-3
100
AcDbMText
10
187.029
20
231.970
30
0.0
40
4.649
41
0.000
71
7
72
1
1
\W1.134;{\W0.817;KOIKE }立平４５５（Ｈ３１型）
7
STANDARD
11
1.00000
21
0.00000
31
0.0
0
MTEXT
5
8f7
100
AcDbEntity
8
0-3
62
3
370
-3
100
AcDbMText
10
448.052
20
156.970
30
0.0
40
4.649
41
0.000
71
7
72
1
1
\W1.134;{\W0.817;KOIKE }立平４５５（Ｈ３１型）
7
STANDARD
11
1.00000
21
0.00000
31
0.0
0
TEXT
5
8f8
100
AcDbEntity
8
F-F
62
3
370
-3
100
AcDbText
10
658.923
20
17.145
30
0.0
40
3.282
1
コイケルーフ　立平４５５（Ｈ３１型）　本体図
41
0.963
50
0.000
100
AcDbText
0
TEXT
5
8f9
100
AcDbEntity
8
0-0
62
6
370
-3
100
AcDbText
10
136.138
20
542.023
30
0.0
40
8.205
41
0.942
50
0.000
1
＠４５５
72
1
11
157.588
21
541.112
31
0.0
100
AcDbText
73
1
0
TEXT
5
8fa
100
AcDbEntity
8
0-0
62
6
370
-3
100
AcDbText
10
405.138
20
542.023
30
0.0
40
8.205
41
0.942
50
0.000
1
４５５
72
1
11
421.226
21
541.112
31
0.0
100
AcDbText
73
1
0
TEXT
5
8fb
100
AcDbEntity
8
0-0
62
6
370
-3
100
AcDbText
10
664.138
20
542.023
30
0.0
40
8.205
41
0.942
50
0.000
1
＠４５５
72
1
11
685.588
21
541.112
31
0.0
100
AcDbText
73
1
0
TEXT
5
8fc
100
AcDbEntity
8
0-0
62
6
370
-3
100
AcDbText
10
384.888
20
443.218
30
0.0
40
8.205
41
0.942
50
0.000
1
働き巾　４５５
72
1
11
422.426
21
442.307
31
0.0
100
AcDbText
73
1
0
TEXT
5
8fd
100
AcDbEntity
8
0-0
62
6
370
-3
100
AcDbText
10
384.888
20
333.218
30
0.0
40
8.205
41
0.942
50
0.000
1
働き巾　４５５
72
1
11
422.426
21
332.307
31
0.0
100
AcDbText
73
1
0
TEXT
5
8fe
100
AcDbEntity
8
F-F
62
3
370
-3
100
AcDbText
10
611.358
20
15.783
30
0.0
40
2.461
1
MA 2015-05-21
41
0.670
50
0.000
100
AcDbText
0
TEXT
5
8ff
100
AcDbEntity
8
F-F
62
3
370
-3
100
AcDbText
10
774.417
20
30.593
30
0.0
40
4.102
1
KR-455(31)-01
41
0.651
50
0.000
100
AcDbText
0
POLYLINE
5
900
100
AcDbEntity
  8
0-0
6
CONTINUOUS
62
4
100
AcDb2dPolyline
66
1
10
0
20
0
70
1
40
0.400
41
0.400
0
VERTEX
5
901
100
AcDbEntity
  8
0-0
6
CONTINUOUS
62
4
100
AcDbVertex
100
AcDb2dVertex
10
267.261
20
379.111
30
0.0
42
1.000
0
VERTEX
5
902
100
AcDbEntity
  8
0-0
6
CONTINUOUS
62
4
100
AcDbVertex
100
AcDb2dVertex
10
267.661
20
379.111
30
0.0
42
1.000
0
SEQEND
5
903
100
AcDbEntity
  8
0-0
0
POLYLINE
5
904
100
AcDbEntity
  8
0-0
6
CONTINUOUS
62
4
100
AcDb2dPolyline
66
1
10
0
20
0
70
1
40
0.400
41
0.400
0
VERTEX
5
905
100
AcDbEntity
  8
0-0
6
CONTINUOUS
62
4
100
AcDbVertex
100
AcDb2dVertex
10
267.261
20
411.611
30
0.0
42
1.000
0
VERTEX
5
906
100
AcDbEntity
  8
0-0
6
CONTINUOUS
62
4
100
AcDbVertex
100
AcDb2dVertex
10
267.661
20
411.611
30
0.0
42
1.000
0
SEQEND
5
907
100
AcDbEntity
  8
0-0
0
POLYLINE
5
908
100
AcDbEntity
  8
0-0
6
CONTINUOUS
62
4
100
AcDb2dPolyline
66
1
10
0
20
0
70
1
40
0.400
41
0.400
0
VERTEX
5
909
100
AcDbEntity
  8
0-0
6
CONTINUOUS
62
4
100
AcDbVertex
100
AcDb2dVertex
10
245.437
20
379.111
30
0.0
42
1.000
0
VERTEX
5
90a
100
AcDbEntity
  8
0-0
6
CONTINUOUS
62
4
100
AcDbVertex
100
AcDb2dVertex
10
245.837
20
379.111
30
0.0
42
1.000
0
SEQEND
5
90b
100
AcDbEntity
  8
0-0
0
POLYLINE
5
90c
100
AcDbEntity
  8
0-0
6
CONTINUOUS
62
4
100
AcDb2dPolyline
66
1
10
0
20
0
70
1
40
0.400
41
0.400
0
VERTEX
5
90d
100
AcDbEntity
  8
0-0
6
CONTINUOUS
62
4
100
AcDbVertex
100
AcDb2dVertex
10
245.437
20
382.111
30
0.0
42
1.000
0
VERTEX
5
90e
100
AcDbEntity
  8
0-0
6
CONTINUOUS
62
4
100
AcDbVertex
100
AcDb2dVertex
10
245.837
20
382.111
30
0.0
42
1.000
0
SEQEND
5
90f
100
AcDbEntity
  8
0-0
0
POLYLINE
5
910
100
AcDbEntity
  8
0-0
6
CONTINUOUS
62
4
100
AcDb2dPolyline
66
1
10
0
20
0
70
1
40
0.400
41
0.400
0
VERTEX
5
911
100
AcDbEntity
  8
0-0
6
CONTINUOUS
62
4
100
AcDbVertex
100
AcDb2dVertex
10
245.437
20
411.611
30
0.0
42
1.000
0
VERTEX
5
912
100
AcDbEntity
  8
0-0
6
CONTINUOUS
62
4
100
AcDbVertex
100
AcDb2dVertex
10
245.837
20
411.611
30
0.0
42
1.000
0
SEQEND
5
913
100
AcDbEntity
  8
0-0
0
POLYLINE
5
914
100
AcDbEntity
  8
0-0
6
CONTINUOUS
62
4
100
AcDb2dPolyline
66
1
10
0
20
0
70
1
40
0.400
41
0.400
0
VERTEX
5
915
100
AcDbEntity
  8
0-0
6
CONTINUOUS
62
4
100
AcDbVertex
100
AcDb2dVertex
10
186.798
20
419.659
30
0.0
42
1.000
0
VERTEX
5
916
100
AcDbEntity
  8
0-0
6
CONTINUOUS
62
4
100
AcDbVertex
100
AcDb2dVertex
10
187.198
20
419.659
30
0.0
42
1.000
0
SEQEND
5
917
100
AcDbEntity
  8
0-0
0
POLYLINE
5
918
100
AcDbEntity
  8
0-0
6
CONTINUOUS
62
4
100
AcDb2dPolyline
66
1
10
0
20
0
70
1
40
0.400
41
0.400
0
VERTEX
5
919
100
AcDbEntity
  8
0-0
6
CONTINUOUS
62
4
100
AcDbVertex
100
AcDb2dVertex
10
200.798
20
419.659
30
0.0
42
1.000
0
VERTEX
5
91a
100
AcDbEntity
  8
0-0
6
CONTINUOUS
62
4
100
AcDbVertex
100
AcDb2dVertex
10
201.198
20
419.659
30
0.0
42
1.000
0
SEQEND
5
91b
100
AcDbEntity
  8
0-0
0
POLYLINE
5
91c
100
AcDbEntity
  8
0-0
6
CONTINUOUS
62
4
100
AcDb2dPolyline
66
1
10
0
20
0
70
1
40
0.400
41
0.400
0
VERTEX
5
91d
100
AcDbEntity
  8
0-0
6
CONTINUOUS
62
4
100
AcDbVertex
100
AcDb2dVertex
10
645.798
20
364.929
30
0.0
42
1.000
0
VERTEX
5
91e
100
AcDbEntity
  8
0-0
6
CONTINUOUS
62
4
100
AcDbVertex
100
AcDb2dVertex
10
646.198
20
364.929
30
0.0
42
1.000
0
SEQEND
5
91f
100
AcDbEntity
  8
0-0
0
POLYLINE
5
920
100
AcDbEntity
  8
0-0
6
CONTINUOUS
62
4
100
AcDb2dPolyline
66
1
10
0
20
0
70
1
40
0.400
41
0.400
0
VERTEX
5
921
100
AcDbEntity
  8
0-0
6
CONTINUOUS
62
4
100
AcDbVertex
100
AcDb2dVertex
10
615.798
20
364.929
30
0.0
42
1.000
0
VERTEX
5
922
100
AcDbEntity
  8
0-0
6
CONTINUOUS
62
4
100
AcDbVertex
100
AcDb2dVertex
10
616.198
20
364.929
30
0.0
42
1.000
0
SEQEND
5
923
100
AcDbEntity
  8
0-0
0
POLYLINE
5
924
100
AcDbEntity
  8
0-0
6
CONTINUOUS
62
4
100
AcDb2dPolyline
66
1
10
0
20
0
70
1
40
0.400
41
0.400
0
VERTEX
5
925
100
AcDbEntity
  8
0-0
6
CONTINUOUS
62
4
100
AcDbVertex
100
AcDb2dVertex
10
642.298
20
419.659
30
0.0
42
1.000
0
VERTEX
5
926
100
AcDbEntity
  8
0-0
6
CONTINUOUS
62
4
100
AcDbVertex
100
AcDb2dVertex
10
642.698
20
419.659
30
0.0
42
1.000
0
SEQEND
5
927
100
AcDbEntity
  8
0-0
0
POLYLINE
5
928
100
AcDbEntity
  8
0-0
6
CONTINUOUS
62
4
100
AcDb2dPolyline
66
1
10
0
20
0
70
1
40
0.400
41
0.400
0
VERTEX
5
929
100
AcDbEntity
  8
0-0
6
CONTINUOUS
62
4
100
AcDbVertex
100
AcDb2dVertex
10
654.298
20
419.659
30
0.0
42
1.000
0
VERTEX
5
92a
100
AcDbEntity
  8
0-0
6
CONTINUOUS
62
4
100
AcDbVertex
100
AcDb2dVertex
10
654.698
20
419.659
30
0.0
42
1.000
0
SEQEND
5
92b
100
AcDbEntity
  8
0-0
0
POLYLINE
5
92c
100
AcDbEntity
  8
0-0
6
CONTINUOUS
62
4
100
AcDb2dPolyline
66
1
10
0
20
0
70
1
40
0.400
41
0.400
0
VERTEX
5
92d
100
AcDbEntity
  8
0-0
6
CONTINUOUS
62
4
100
AcDbVertex
100
AcDb2dVertex
10
193.798
20
441.222
30
0.0
42
1.000
0
VERTEX
5
92e
100
AcDbEntity
  8
0-0
6
CONTINUOUS
62
4
100
AcDbVertex
100
AcDb2dVertex
10
194.198
20
441.222
30
0.0
42
1.000
0
SEQEND
5
92f
100
AcDbEntity
  8
0-0
0
POLYLINE
5
930
100
AcDbEntity
  8
0-0
6
CONTINUOUS
62
4
100
AcDb2dPolyline
66
1
10
0
20
0
70
1
40
0.400
41
0.400
0
VERTEX
5
931
100
AcDbEntity
  8
0-0
6
CONTINUOUS
62
4
100
AcDbVertex
100
AcDb2dVertex
10
648.298
20
441.222
30
0.0
42
1.000
0
VERTEX
5
932
100
AcDbEntity
  8
0-0
6
CONTINUOUS
62
4
100
AcDbVertex
100
AcDb2dVertex
10
648.698
20
441.222
30
0.0
42
1.000
0
SEQEND
5
933
100
AcDbEntity
  8
0-0
0
POLYLINE
5
934
100
AcDbEntity
  8
0-0
6
CONTINUOUS
62
4
100
AcDb2dPolyline
66
1
10
0
20
0
70
1
40
0.400
41
0.400
0
VERTEX
5
935
100
AcDbEntity
  8
0-0
6
CONTINUOUS
62
4
100
AcDbVertex
100
AcDb2dVertex
10
113.798
20
540.027
30
0.0
42
1.000
0
VERTEX
5
936
100
AcDbEntity
  8
0-0
6
CONTINUOUS
62
4
100
AcDbVertex
100
AcDb2dVertex
10
114.198
20
540.027
30
0.0
42
1.000
0
SEQEND
5
937
100
AcDbEntity
  8
0-0
0
POLYLINE
5
938
100
AcDbEntity
  8
0-0
6
CONTINUOUS
62
4
100
AcDb2dPolyline
66
1
10
0
20
0
70
1
40
0.400
41
0.400
0
VERTEX
5
939
100
AcDbEntity
  8
0-0
6
CONTINUOUS
62
4
100
AcDbVertex
100
AcDb2dVertex
10
193.798
20
540.027
30
0.0
42
1.000
0
VERTEX
5
93a
100
AcDbEntity
  8
0-0
6
CONTINUOUS
62
4
100
AcDbVertex
100
AcDb2dVertex
10
194.198
20
540.027
30
0.0
42
1.000
0
SEQEND
5
93b
100
AcDbEntity
  8
0-0
0
POLYLINE
5
93c
100
AcDbEntity
  8
0-0
6
CONTINUOUS
62
4
100
AcDb2dPolyline
66
1
10
0
20
0
70
1
40
0.400
41
0.400
0
VERTEX
5
93d
100
AcDbEntity
  8
0-0
6
CONTINUOUS
62
4
100
AcDbVertex
100
AcDb2dVertex
10
648.298
20
540.027
30
0.0
42
1.000
0
VERTEX
5
93e
100
AcDbEntity
  8
0-0
6
CONTINUOUS
62
4
100
AcDbVertex
100
AcDb2dVertex
10
648.698
20
540.027
30
0.0
42
1.000
0
SEQEND
5
93f
100
AcDbEntity
  8
0-0
0
POLYLINE
5
940
100
AcDbEntity
  8
0-0
6
CONTINUOUS
62
4
100
AcDb2dPolyline
66
1
10
0
20
0
70
1
40
0.400
41
0.400
0
VERTEX
5
941
100
AcDbEntity
  8
0-0
6
CONTINUOUS
62
4
100
AcDbVertex
100
AcDb2dVertex
10
728.298
20
540.027
30
0.0
42
1.000
0
VERTEX
5
942
100
AcDbEntity
  8
0-0
6
CONTINUOUS
62
4
100
AcDbVertex
100
AcDb2dVertex
10
728.698
20
540.027
30
0.0
42
1.000
0
SEQEND
5
943
100
AcDbEntity
  8
0-0
0
POLYLINE
5
944
100
AcDbEntity
  8
F-F
6
CONTINUOUS
62
3
100
AcDb2dPolyline
66
1
10
0
20
0
70
1
40
0.400
41
0.400
0
VERTEX
5
945
100
AcDbEntity
  8
F-F
6
CONTINUOUS
62
3
100
AcDbVertex
100
AcDb2dVertex
10
27.179
20
571.820
30
0.0
42
1.000
0
VERTEX
5
946
100
AcDbEntity
  8
F-F
6
CONTINUOUS
62
3
100
AcDbVertex
100
AcDb2dVertex
10
27.579
20
571.820
30
0.0
42
1.000
0
SEQEND
5
947
100
AcDbEntity
  8
F-F
0
POLYLINE
5
948
100
AcDbEntity
  8
0-0
6
CONTINUOUS
62
4
100
AcDb2dPolyline
66
1
10
0
20
0
70
1
40
0.400
41
0.400
0
VERTEX
5
949
100
AcDbEntity
  8
0-0
6
CONTINUOUS
62
4
100
AcDbVertex
100
AcDb2dVertex
10
201.798
20
364.929
30
0.0
42
1.000
0
VERTEX
5
94a
100
AcDbEntity
  8
0-0
6
CONTINUOUS
62
4
100
AcDbVertex
100
AcDb2dVertex
10
202.198
20
364.929
30
0.0
42
1.000
0
SEQEND
5
94b
100
AcDbEntity
  8
0-0
0
POLYLINE
5
94c
100
AcDbEntity
  8
0-0
6
CONTINUOUS
62
4
100
AcDb2dPolyline
66
1
10
0
20
0
70
1
40
0.400
41
0.400
0
VERTEX
5
94d
100
AcDbEntity
  8
0-0
6
CONTINUOUS
62
4
100
AcDbVertex
100
AcDb2dVertex
10
231.798
20
364.929
30
0.0
42
1.000
0
VERTEX
5
94e
100
AcDbEntity
  8
0-0
6
CONTINUOUS
62
4
100
AcDbVertex
100
AcDb2dVertex
10
232.198
20
364.929
30
0.0
42
1.000
0
SEQEND
5
94f
100
AcDbEntity
  8
0-0
0
POLYLINE
5
950
100
AcDbEntity
  8
0-0
6
CONTINUOUS
62
4
100
AcDb2dPolyline
66
1
10
0
20
0
70
1
40
0.400
41
0.400
0
VERTEX
5
951
100
AcDbEntity
  8
0-0
6
CONTINUOUS
62
4
100
AcDbVertex
100
AcDb2dVertex
10
267.261
20
269.111
30
0.0
42
1.000
0
VERTEX
5
952
100
AcDbEntity
  8
0-0
6
CONTINUOUS
62
4
100
AcDbVertex
100
AcDb2dVertex
10
267.661
20
269.111
30
0.0
42
1.000
0
SEQEND
5
953
100
AcDbEntity
  8
0-0
0
POLYLINE
5
954
100
AcDbEntity
  8
0-0
6
CONTINUOUS
62
4
100
AcDb2dPolyline
66
1
10
0
20
0
70
1
40
0.400
41
0.400
0
VERTEX
5
955
100
AcDbEntity
  8
0-0
6
CONTINUOUS
62
4
100
AcDbVertex
100
AcDb2dVertex
10
267.261
20
301.611
30
0.0
42
1.000
0
VERTEX
5
956
100
AcDbEntity
  8
0-0
6
CONTINUOUS
62
4
100
AcDbVertex
100
AcDb2dVertex
10
267.661
20
301.611
30
0.0
42
1.000
0
SEQEND
5
957
100
AcDbEntity
  8
0-0
0
POLYLINE
5
958
100
AcDbEntity
  8
0-0
6
CONTINUOUS
62
4
100
AcDb2dPolyline
66
1
10
0
20
0
70
1
40
0.400
41
0.400
0
VERTEX
5
959
100
AcDbEntity
  8
0-0
6
CONTINUOUS
62
4
100
AcDbVertex
100
AcDb2dVertex
10
245.437
20
269.111
30
0.0
42
1.000
0
VERTEX
5
95a
100
AcDbEntity
  8
0-0
6
CONTINUOUS
62
4
100
AcDbVertex
100
AcDb2dVertex
10
245.837
20
269.111
30
0.0
42
1.000
0
SEQEND
5
95b
100
AcDbEntity
  8
0-0
0
POLYLINE
5
95c
100
AcDbEntity
  8
0-0
6
CONTINUOUS
62
4
100
AcDb2dPolyline
66
1
10
0
20
0
70
1
40
0.400
41
0.400
0
VERTEX
5
95d
100
AcDbEntity
  8
0-0
6
CONTINUOUS
62
4
100
AcDbVertex
100
AcDb2dVertex
10
245.437
20
272.111
30
0.0
42
1.000
0
VERTEX
5
95e
100
AcDbEntity
  8
0-0
6
CONTINUOUS
62
4
100
AcDbVertex
100
AcDb2dVertex
10
245.837
20
272.111
30
0.0
42
1.000
0
SEQEND
5
95f
100
AcDbEntity
  8
0-0
0
POLYLINE
5
960
100
AcDbEntity
  8
0-0
6
CONTINUOUS
62
4
100
AcDb2dPolyline
66
1
10
0
20
0
70
1
40
0.400
41
0.400
0
VERTEX
5
961
100
AcDbEntity
  8
0-0
6
CONTINUOUS
62
4
100
AcDbVertex
100
AcDb2dVertex
10
245.437
20
301.611
30
0.0
42
1.000
0
VERTEX
5
962
100
AcDbEntity
  8
0-0
6
CONTINUOUS
62
4
100
AcDbVertex
100
AcDb2dVertex
10
245.837
20
301.611
30
0.0
42
1.000
0
SEQEND
5
963
100
AcDbEntity
  8
0-0
0
POLYLINE
5
964
100
AcDbEntity
  8
0-0
6
CONTINUOUS
62
4
100
AcDb2dPolyline
66
1
10
0
20
0
70
1
40
0.400
41
0.400
0
VERTEX
5
965
100
AcDbEntity
  8
0-0
6
CONTINUOUS
62
4
100
AcDbVertex
100
AcDb2dVertex
10
186.798
20
309.659
30
0.0
42
1.000
0
VERTEX
5
966
100
AcDbEntity
  8
0-0
6
CONTINUOUS
62
4
100
AcDbVertex
100
AcDb2dVertex
10
187.198
20
309.659
30
0.0
42
1.000
0
SEQEND
5
967
100
AcDbEntity
  8
0-0
0
POLYLINE
5
968
100
AcDbEntity
  8
0-0
6
CONTINUOUS
62
4
100
AcDb2dPolyline
66
1
10
0
20
0
70
1
40
0.400
41
0.400
0
VERTEX
5
969
100
AcDbEntity
  8
0-0
6
CONTINUOUS
62
4
100
AcDbVertex
100
AcDb2dVertex
10
200.798
20
309.659
30
0.0
42
1.000
0
VERTEX
5
96a
100
AcDbEntity
  8
0-0
6
CONTINUOUS
62
4
100
AcDbVertex
100
AcDb2dVertex
10
201.198
20
309.659
30
0.0
42
1.000
0
SEQEND
5
96b
100
AcDbEntity
  8
0-0
0
POLYLINE
5
96c
100
AcDbEntity
  8
0-0
6
CONTINUOUS
62
4
100
AcDb2dPolyline
66
1
10
0
20
0
70
1
40
0.400
41
0.400
0
VERTEX
5
96d
100
AcDbEntity
  8
0-0
6
CONTINUOUS
62
4
100
AcDbVertex
100
AcDb2dVertex
10
645.798
20
254.929
30
0.0
42
1.000
0
VERTEX
5
96e
100
AcDbEntity
  8
0-0
6
CONTINUOUS
62
4
100
AcDbVertex
100
AcDb2dVertex
10
646.198
20
254.929
30
0.0
42
1.000
0
SEQEND
5
96f
100
AcDbEntity
  8
0-0
0
POLYLINE
5
970
100
AcDbEntity
  8
0-0
6
CONTINUOUS
62
4
100
AcDb2dPolyline
66
1
10
0
20
0
70
1
40
0.400
41
0.400
0
VERTEX
5
971
100
AcDbEntity
  8
0-0
6
CONTINUOUS
62
4
100
AcDbVertex
100
AcDb2dVertex
10
615.798
20
254.929
30
0.0
42
1.000
0
VERTEX
5
972
100
AcDbEntity
  8
0-0
6
CONTINUOUS
62
4
100
AcDbVertex
100
AcDb2dVertex
10
616.198
20
254.929
30
0.0
42
1.000
0
SEQEND
5
973
100
AcDbEntity
  8
0-0
0
POLYLINE
5
974
100
AcDbEntity
  8
0-0
6
CONTINUOUS
62
4
100
AcDb2dPolyline
66
1
10
0
20
0
70
1
40
0.400
41
0.400
0
VERTEX
5
975
100
AcDbEntity
  8
0-0
6
CONTINUOUS
62
4
100
AcDbVertex
100
AcDb2dVertex
10
642.298
20
309.659
30
0.0
42
1.000
0
VERTEX
5
976
100
AcDbEntity
  8
0-0
6
CONTINUOUS
62
4
100
AcDbVertex
100
AcDb2dVertex
10
642.698
20
309.659
30
0.0
42
1.000
0
SEQEND
5
977
100
AcDbEntity
  8
0-0
0
POLYLINE
5
978
100
AcDbEntity
  8
0-0
6
CONTINUOUS
62
4
100
AcDb2dPolyline
66
1
10
0
20
0
70
1
40
0.400
41
0.400
0
VERTEX
5
979
100
AcDbEntity
  8
0-0
6
CONTINUOUS
62
4
100
AcDbVertex
100
AcDb2dVertex
10
654.298
20
309.659
30
0.0
42
1.000
0
VERTEX
5
97a
100
AcDbEntity
  8
0-0
6
CONTINUOUS
62
4
100
AcDbVertex
100
AcDb2dVertex
10
654.698
20
309.659
30
0.0
42
1.000
0
SEQEND
5
97b
100
AcDbEntity
  8
0-0
0
POLYLINE
5
97c
100
AcDbEntity
  8
0-0
6
CONTINUOUS
62
4
100
AcDb2dPolyline
66
1
10
0
20
0
70
1
40
0.400
41
0.400
0
VERTEX
5
97d
100
AcDbEntity
  8
0-0
6
CONTINUOUS
62
4
100
AcDbVertex
100
AcDb2dVertex
10
193.798
20
331.222
30
0.0
42
1.000
0
VERTEX
5
97e
100
AcDbEntity
  8
0-0
6
CONTINUOUS
62
4
100
AcDbVertex
100
AcDb2dVertex
10
194.198
20
331.222
30
0.0
42
1.000
0
SEQEND
5
97f
100
AcDbEntity
  8
0-0
0
POLYLINE
5
980
100
AcDbEntity
  8
0-0
6
CONTINUOUS
62
4
100
AcDb2dPolyline
66
1
10
0
20
0
70
1
40
0.400
41
0.400
0
VERTEX
5
981
100
AcDbEntity
  8
0-0
6
CONTINUOUS
62
4
100
AcDbVertex
100
AcDb2dVertex
10
648.298
20
331.222
30
0.0
42
1.000
0
VERTEX
5
982
100
AcDbEntity
  8
0-0
6
CONTINUOUS
62
4
100
AcDbVertex
100
AcDb2dVertex
10
648.698
20
331.222
30
0.0
42
1.000
0
SEQEND
5
983
100
AcDbEntity
  8
0-0
0
POLYLINE
5
984
100
AcDbEntity
  8
0-0
6
CONTINUOUS
62
4
100
AcDb2dPolyline
66
1
10
0
20
0
70
1
40
0.400
41
0.400
0
VERTEX
5
985
100
AcDbEntity
  8
0-0
6
CONTINUOUS
62
4
100
AcDbVertex
100
AcDb2dVertex
10
201.798
20
254.929
30
0.0
42
1.000
0
VERTEX
5
986
100
AcDbEntity
  8
0-0
6
CONTINUOUS
62
4
100
AcDbVertex
100
AcDb2dVertex
10
202.198
20
254.929
30
0.0
42
1.000
0
SEQEND
5
987
100
AcDbEntity
  8
0-0
0
POLYLINE
5
988
100
AcDbEntity
  8
0-0
6
CONTINUOUS
62
4
100
AcDb2dPolyline
66
1
10
0
20
0
70
1
40
0.400
41
0.400
0
VERTEX
5
989
100
AcDbEntity
  8
0-0
6
CONTINUOUS
62
4
100
AcDbVertex
100
AcDb2dVertex
10
231.798
20
254.929
30
0.0
42
1.000
0
VERTEX
5
98a
100
AcDbEntity
  8
0-0
6
CONTINUOUS
62
4
100
AcDbVertex
100
AcDb2dVertex
10
232.198
20
254.929
30
0.0
42
1.000
0
SEQEND
5
98b
100
AcDbEntity
  8
0-0
0
POLYLINE
5
98c
100
AcDbEntity
  8
0-0
6
CONTINUOUS
62
4
100
AcDb2dPolyline
66
1
10
0
20
0
70
1
40
0.400
41
0.400
0
VERTEX
5
98d
100
AcDbEntity
  8
0-0
6
CONTINUOUS
62
4
100
AcDbVertex
100
AcDb2dVertex
10
385.694
20
282.759
30
0.0
42
1.000
0
VERTEX
5
98e
100
AcDbEntity
  8
0-0
6
CONTINUOUS
62
4
100
AcDbVertex
100
AcDb2dVertex
10
386.094
20
282.759
30
0.0
42
1.000
0
SEQEND
5
98f
100
AcDbEntity
  8
0-0
0
POLYLINE
5
990
100
AcDbEntity
  8
0-0
6
CONTINUOUS
62
4
100
AcDb2dPolyline
66
1
10
0
20
0
70
1
40
0.400
41
0.400
0
VERTEX
5
991
100
AcDbEntity
  8
0-0
6
CONTINUOUS
62
4
100
AcDbVertex
100
AcDb2dVertex
10
417.394
20
282.759
30
0.0
42
1.000
0
VERTEX
5
992
100
AcDbEntity
  8
0-0
6
CONTINUOUS
62
4
100
AcDbVertex
100
AcDb2dVertex
10
417.794
20
282.759
30
0.0
42
1.000
0
SEQEND
5
993
100
AcDbEntity
  8
0-0
0
POLYLINE
5
994
100
AcDbEntity
  8
0-0
6
CONTINUOUS
62
4
100
AcDb2dPolyline
66
1
10
0
20
0
70
1
40
0.400
41
0.400
0
VERTEX
5
995
100
AcDbEntity
  8
0-0
6
CONTINUOUS
62
4
100
AcDbVertex
100
AcDb2dVertex
10
427.394
20
282.759
30
0.0
42
1.000
0
VERTEX
5
996
100
AcDbEntity
  8
0-0
6
CONTINUOUS
62
4
100
AcDbVertex
100
AcDb2dVertex
10
427.794
20
282.759
30
0.0
42
1.000
0
SEQEND
5
997
100
AcDbEntity
  8
0-0
0
POLYLINE
5
998
100
AcDbEntity
  8
0-0
6
CONTINUOUS
62
4
100
AcDb2dPolyline
66
1
10
0
20
0
70
1
40
0.400
41
0.400
0
VERTEX
5
999
100
AcDbEntity
  8
0-0
6
CONTINUOUS
62
4
100
AcDbVertex
100
AcDb2dVertex
10
464.094
20
282.759
30
0.0
42
1.000
0
VERTEX
5
99a
100
AcDbEntity
  8
0-0
6
CONTINUOUS
62
4
100
AcDbVertex
100
AcDb2dVertex
10
464.494
20
282.759
30
0.0
42
1.000
0
SEQEND
5
99b
100
AcDbEntity
  8
0-0
0
POLYLINE
5
99c
100
AcDbEntity
  8
0-0
6
CONTINUOUS
62
4
100
AcDb2dPolyline
66
1
10
0
20
0
70
1
40
0.400
41
0.400
0
VERTEX
5
99d
100
AcDbEntity
  8
0-0
6
CONTINUOUS
62
4
100
AcDbVertex
100
AcDb2dVertex
10
505.794
20
282.759
30
0.0
42
1.000
0
VERTEX
5
99e
100
AcDbEntity
  8
0-0
6
CONTINUOUS
62
4
100
AcDbVertex
100
AcDb2dVertex
10
506.194
20
282.759
30
0.0
42
1.000
0
SEQEND
5
99f
100
AcDbEntity
  8
0-0
0
POLYLINE
5
9a0
100
AcDbEntity
  8
0-0
6
CONTINUOUS
62
4
100
AcDb2dPolyline
66
1
10
0
20
0
70
1
40
0.400
41
0.400
0
VERTEX
5
9a1
100
AcDbEntity
  8
0-0
6
CONTINUOUS
62
4
100
AcDbVertex
100
AcDb2dVertex
10
194.143
20
509.190
30
0.0
42
1.000
0
VERTEX
5
9a2
100
AcDbEntity
  8
0-0
6
CONTINUOUS
62
4
100
AcDbVertex
100
AcDb2dVertex
10
194.543
20
509.190
30
0.0
42
1.000
0
SEQEND
5
9a3
100
AcDbEntity
  8
0-0
0
POLYLINE
5
9a4
100
AcDbEntity
  8
0-0
6
CONTINUOUS
62
4
100
AcDb2dPolyline
66
1
10
0
20
0
70
1
40
0.400
41
0.400
0
VERTEX
5
9a5
100
AcDbEntity
  8
0-0
6
CONTINUOUS
62
4
100
AcDbVertex
100
AcDb2dVertex
10
648.298
20
476.316
30
0.0
42
1.000
0
VERTEX
5
9a6
100
AcDbEntity
  8
0-0
6
CONTINUOUS
62
4
100
AcDbVertex
100
AcDb2dVertex
10
648.698
20
476.316
30
0.0
42
1.000
0
SEQEND
5
9a7
100
AcDbEntity
  8
0-0
0
POLYLINE
5
9a8
100
AcDbEntity
  8
0-0
6
CONTINUOUS
62
4
100
AcDb2dPolyline
66
1
10
0
20
0
70
1
40
0.400
41
0.400
0
VERTEX
5
9a9
100
AcDbEntity
  8
0-0
6
CONTINUOUS
62
4
100
AcDbVertex
100
AcDb2dVertex
10
193.798
20
476.316
30
0.0
42
1.000
0
VERTEX
5
9aa
100
AcDbEntity
  8
0-0
6
CONTINUOUS
62
4
100
AcDbVertex
100
AcDb2dVertex
10
194.198
20
476.316
30
0.0
42
1.000
0
SEQEND
5
9ab
100
AcDbEntity
  8
0-0
0
POLYLINE
5
9ac
100
AcDbEntity
  8
0-3
6
CONTINUOUS
62
4
100
AcDb2dPolyline
66
1
10
0
20
0
70
1
40
0.400
41
0.400
0
VERTEX
5
9ad
100
AcDbEntity
  8
0-3
6
CONTINUOUS
62
4
100
AcDbVertex
100
AcDb2dVertex
10
290.536
20
85.602
30
0.0
42
1.000
0
VERTEX
5
9ae
100
AcDbEntity
  8
0-3
6
CONTINUOUS
62
4
100
AcDbVertex
100
AcDb2dVertex
10
290.936
20
85.602
30
0.0
42
1.000
0
SEQEND
5
9af
100
AcDbEntity
  8
0-3
0
POLYLINE
5
9b0
100
AcDbEntity
  8
0-3
6
CONTINUOUS
62
4
100
AcDb2dPolyline
66
1
10
0
20
0
70
1
40
0.400
41
0.400
0
VERTEX
5
9b1
100
AcDbEntity
  8
0-3
6
CONTINUOUS
62
4
100
AcDbVertex
100
AcDb2dVertex
10
551.560
20
85.602
30
0.0
42
1.000
0
VERTEX
5
9b2
100
AcDbEntity
  8
0-3
6
CONTINUOUS
62
4
100
AcDbVertex
100
AcDb2dVertex
10
551.960
20
85.602
30
0.0
42
1.000
0
SEQEND
5
9b3
100
AcDbEntity
  8
0-3
0
POLYLINE
5
9b4
100
AcDbEntity
  8
0-3
6
CONTINUOUS
62
4
100
AcDb2dPolyline
66
1
10
0
20
0
70
1
40
0.400
41
0.400
0
VERTEX
5
9b5
100
AcDbEntity
  8
0-3
6
CONTINUOUS
62
4
100
AcDbVertex
100
AcDb2dVertex
10
530.274
20
86.602
30
0.0
42
1.000
0
VERTEX
5
9b6
100
AcDbEntity
  8
0-3
6
CONTINUOUS
62
4
100
AcDbVertex
100
AcDb2dVertex
10
530.674
20
86.602
30
0.0
42
1.000
0
SEQEND
5
9b7
100
AcDbEntity
  8
0-3
0
POLYLINE
5
9b8
100
AcDbEntity
  8
0-3
6
CONTINUOUS
62
4
100
AcDb2dPolyline
66
1
10
0
20
0
70
1
40
0.400
41
0.400
0
VERTEX
5
9b9
100
AcDbEntity
  8
0-3
6
CONTINUOUS
62
4
100
AcDbVertex
100
AcDb2dVertex
10
605.588
20
75.602
30
0.0
42
1.000
0
VERTEX
5
9ba
100
AcDbEntity
  8
0-3
6
CONTINUOUS
62
4
100
AcDbVertex
100
AcDb2dVertex
10
605.988
20
75.602
30
0.0
42
1.000
0
SEQEND
5
9bb
100
AcDbEntity
  8
0-3
0
POLYLINE
5
9bc
100
AcDbEntity
  8
0-3
6
CONTINUOUS
62
4
100
AcDb2dPolyline
66
1
10
0
20
0
70
1
40
0.400
41
0.400
0
VERTEX
5
9bd
100
AcDbEntity
  8
0-3
6
CONTINUOUS
62
4
100
AcDbVertex
100
AcDb2dVertex
10
591.559
20
89.902
30
0.0
42
1.000
0
VERTEX
5
9be
100
AcDbEntity
  8
0-3
6
CONTINUOUS
62
4
100
AcDbVertex
100
AcDb2dVertex
10
591.959
20
89.902
30
0.0
42
1.000
0
SEQEND
5
9bf
100
AcDbEntity
  8
0-3
0
POLYLINE
5
9c0
100
AcDbEntity
  8
0-3
6
CONTINUOUS
62
4
100
AcDb2dPolyline
66
1
10
0
20
0
70
1
40
0.400
41
0.400
0
VERTEX
5
9c1
100
AcDbEntity
  8
0-3
6
CONTINUOUS
62
4
100
AcDbVertex
100
AcDb2dVertex
10
557.979
20
149.357
30
0.0
42
1.000
0
VERTEX
5
9c2
100
AcDbEntity
  8
0-3
6
CONTINUOUS
62
4
100
AcDbVertex
100
AcDb2dVertex
10
558.379
20
149.357
30
0.0
42
1.000
0
SEQEND
5
9c3
100
AcDbEntity
  8
0-3
0
POLYLINE
5
9c4
100
AcDbEntity
  8
0-3
6
CONTINUOUS
62
4
100
AcDb2dPolyline
66
1
10
0
20
0
70
1
40
0.400
41
0.400
0
VERTEX
5
9c5
100
AcDbEntity
  8
0-3
6
CONTINUOUS
62
4
100
AcDbVertex
100
AcDb2dVertex
10
330.536
20
89.902
30
0.0
42
1.000
0
VERTEX
5
9c6
100
AcDbEntity
  8
0-3
6
CONTINUOUS
62
4
100
AcDbVertex
100
AcDb2dVertex
10
330.936
20
89.902
30
0.0
42
1.000
0
SEQEND
5
9c7
100
AcDbEntity
  8
0-3
0
POLYLINE
5
9c8
100
AcDbEntity
  8
0-3
6
CONTINUOUS
62
4
100
AcDb2dPolyline
66
1
10
0
20
0
70
1
40
0.400
41
0.400
0
VERTEX
5
9c9
100
AcDbEntity
  8
0-3
6
CONTINUOUS
62
4
100
AcDbVertex
100
AcDb2dVertex
10
344.564
20
75.602
30
0.0
42
1.000
0
VERTEX
5
9ca
100
AcDbEntity
  8
0-3
6
CONTINUOUS
62
4
100
AcDbVertex
100
AcDb2dVertex
10
344.964
20
75.602
30
0.0
42
1.000
0
SEQEND
5
9cb
100
AcDbEntity
  8
0-3
0
POLYLINE
5
9cc
100
AcDbEntity
  8
0-3
6
CONTINUOUS
62
4
100
AcDb2dPolyline
66
1
10
0
20
0
70
1
40
0.400
41
0.400
0
VERTEX
5
9cd
100
AcDbEntity
  8
0-3
6
CONTINUOUS
62
4
100
AcDbVertex
100
AcDb2dVertex
10
269.250
20
86.602
30
0.0
42
1.000
0
VERTEX
5
9ce
100
AcDbEntity
  8
0-3
6
CONTINUOUS
62
4
100
AcDbVertex
100
AcDb2dVertex
10
269.650
20
86.602
30
0.0
42
1.000
0
SEQEND
5
9cf
100
AcDbEntity
  8
0-3
0
POLYLINE
5
9d0
100
AcDbEntity
  8
0-3
6
CONTINUOUS
62
4
100
AcDb2dPolyline
66
1
10
0
20
0
70
1
40
0.400
41
0.400
0
VERTEX
5
9d1
100
AcDbEntity
  8
0-3
6
CONTINUOUS
62
4
100
AcDbVertex
100
AcDb2dVertex
10
280.089
20
210.745
30
0.0
42
1.000
0
VERTEX
5
9d2
100
AcDbEntity
  8
0-3
6
CONTINUOUS
62
4
100
AcDbVertex
100
AcDb2dVertex
10
280.489
20
210.745
30
0.0
42
1.000
0
SEQEND
5
9d3
100
AcDbEntity
  8
0-3
0
POLYLINE
5
9d4
100
AcDbEntity
  8
0-0
6
CONTINUOUS
62
4
100
AcDb2dPolyline
66
1
10
0
20
0
70
1
40
0.400
41
0.400
0
VERTEX
5
9d5
100
AcDbEntity
  8
0-0
6
CONTINUOUS
62
4
100
AcDbVertex
100
AcDb2dVertex
10
580.336
20
379.111
30
0.0
42
1.000
0
VERTEX
5
9d6
100
AcDbEntity
  8
0-0
6
CONTINUOUS
62
4
100
AcDbVertex
100
AcDb2dVertex
10
580.736
20
379.111
30
0.0
42
1.000
0
SEQEND
5
9d7
100
AcDbEntity
  8
0-0
0
POLYLINE
5
9d8
100
AcDbEntity
  8
0-0
6
CONTINUOUS
62
4
100
AcDb2dPolyline
66
1
10
0
20
0
70
1
40
0.400
41
0.400
0
VERTEX
5
9d9
100
AcDbEntity
  8
0-0
6
CONTINUOUS
62
4
100
AcDbVertex
100
AcDb2dVertex
10
580.336
20
410.011
30
0.0
42
1.000
0
VERTEX
5
9da
100
AcDbEntity
  8
0-0
6
CONTINUOUS
62
4
100
AcDbVertex
100
AcDb2dVertex
10
580.736
20
410.011
30
0.0
42
1.000
0
SEQEND
5
9db
100
AcDbEntity
  8
0-0
0
POLYLINE
5
9dc
100
AcDbEntity
  8
0-0
6
CONTINUOUS
62
4
100
AcDb2dPolyline
66
1
10
0
20
0
70
1
40
0.400
41
0.400
0
VERTEX
5
9dd
100
AcDbEntity
  8
0-0
6
CONTINUOUS
62
4
100
AcDbVertex
100
AcDb2dVertex
10
580.336
20
269.111
30
0.0
42
1.000
0
VERTEX
5
9de
100
AcDbEntity
  8
0-0
6
CONTINUOUS
62
4
100
AcDbVertex
100
AcDb2dVertex
10
580.736
20
269.111
30
0.0
42
1.000
0
SEQEND
5
9df
100
AcDbEntity
  8
0-0
0
POLYLINE
5
9e0
100
AcDbEntity
  8
0-0
6
CONTINUOUS
62
4
100
AcDb2dPolyline
66
1
10
0
20
0
70
1
40
0.400
41
0.400
0
VERTEX
5
9e1
100
AcDbEntity
  8
0-0
6
CONTINUOUS
62
4
100
AcDbVertex
100
AcDb2dVertex
10
580.336
20
300.011
30
0.0
42
1.000
0
VERTEX
5
9e2
100
AcDbEntity
  8
0-0
6
CONTINUOUS
62
4
100
AcDbVertex
100
AcDb2dVertex
10
580.736
20
300.011
30
0.0
42
1.000
0
SEQEND
5
9e3
100
AcDbEntity
  8
0-0
0
POLYLINE
5
9e4
100
AcDbEntity
  8
0-0
6
CONTINUOUS
62
4
100
AcDb2dPolyline
66
1
10
0
20
0
70
1
40
0.400
41
0.400
0
VERTEX
5
9e5
100
AcDbEntity
  8
0-0
6
CONTINUOUS
62
4
100
AcDbVertex
100
AcDb2dVertex
10
602.160
20
379.111
30
0.0
42
1.000
0
VERTEX
5
9e6
100
AcDbEntity
  8
0-0
6
CONTINUOUS
62
4
100
AcDbVertex
100
AcDb2dVertex
10
602.560
20
379.111
30
0.0
42
1.000
0
SEQEND
5
9e7
100
AcDbEntity
  8
0-0
0
POLYLINE
5
9e8
100
AcDbEntity
  8
0-0
6
CONTINUOUS
62
4
100
AcDb2dPolyline
66
1
10
0
20
0
70
1
40
0.400
41
0.400
0
VERTEX
5
9e9
100
AcDbEntity
  8
0-0
6
CONTINUOUS
62
4
100
AcDbVertex
100
AcDb2dVertex
10
602.160
20
382.111
30
0.0
42
1.000
0
VERTEX
5
9ea
100
AcDbEntity
  8
0-0
6
CONTINUOUS
62
4
100
AcDbVertex
100
AcDb2dVertex
10
602.560
20
382.111
30
0.0
42
1.000
0
SEQEND
5
9eb
100
AcDbEntity
  8
0-0
0
POLYLINE
5
9ec
100
AcDbEntity
  8
0-0
6
CONTINUOUS
62
4
100
AcDb2dPolyline
66
1
10
0
20
0
70
1
40
0.400
41
0.400
0
VERTEX
5
9ed
100
AcDbEntity
  8
0-0
6
CONTINUOUS
62
4
100
AcDbVertex
100
AcDb2dVertex
10
602.160
20
410.011
30
0.0
42
1.000
0
VERTEX
5
9ee
100
AcDbEntity
  8
0-0
6
CONTINUOUS
62
4
100
AcDbVertex
100
AcDb2dVertex
10
602.560
20
410.011
30
0.0
42
1.000
0
SEQEND
5
9ef
100
AcDbEntity
  8
0-0
0
POLYLINE
5
9f0
100
AcDbEntity
  8
0-0
6
CONTINUOUS
62
4
100
AcDb2dPolyline
66
1
10
0
20
0
70
1
40
0.400
41
0.400
0
VERTEX
5
9f1
100
AcDbEntity
  8
0-0
6
CONTINUOUS
62
4
100
AcDbVertex
100
AcDb2dVertex
10
602.160
20
269.111
30
0.0
42
1.000
0
VERTEX
5
9f2
100
AcDbEntity
  8
0-0
6
CONTINUOUS
62
4
100
AcDbVertex
100
AcDb2dVertex
10
602.560
20
269.111
30
0.0
42
1.000
0
SEQEND
5
9f3
100
AcDbEntity
  8
0-0
0
POLYLINE
5
9f4
100
AcDbEntity
  8
0-0
6
CONTINUOUS
62
4
100
AcDb2dPolyline
66
1
10
0
20
0
70
1
40
0.400
41
0.400
0
VERTEX
5
9f5
100
AcDbEntity
  8
0-0
6
CONTINUOUS
62
4
100
AcDbVertex
100
AcDb2dVertex
10
602.160
20
272.111
30
0.0
42
1.000
0
VERTEX
5
9f6
100
AcDbEntity
  8
0-0
6
CONTINUOUS
62
4
100
AcDbVertex
100
AcDb2dVertex
10
602.560
20
272.111
30
0.0
42
1.000
0
SEQEND
5
9f7
100
AcDbEntity
  8
0-0
0
POLYLINE
5
9f8
100
AcDbEntity
  8
0-0
6
CONTINUOUS
62
4
100
AcDb2dPolyline
66
1
10
0
20
0
70
1
40
0.400
41
0.400
0
VERTEX
5
9f9
100
AcDbEntity
  8
0-0
6
CONTINUOUS
62
4
100
AcDbVertex
100
AcDb2dVertex
10
602.160
20
300.011
30
0.0
42
1.000
0
VERTEX
5
9fa
100
AcDbEntity
  8
0-0
6
CONTINUOUS
62
4
100
AcDbVertex
100
AcDb2dVertex
10
602.560
20
300.011
30
0.0
42
1.000
0
SEQEND
5
9fb
100
AcDbEntity
  8
0-0
0
POLYLINE
5
9fc
100
AcDbEntity
  8
0-3
6
CONTINUOUS
62
4
100
AcDb2dPolyline
66
1
10
0
20
0
70
1
40
0.400
41
0.400
0
VERTEX
5
9fd
100
AcDbEntity
  8
0-3
6
CONTINUOUS
62
4
100
AcDbVertex
100
AcDb2dVertex
10
541.112
20
135.745
30
0.0
42
1.000
0
VERTEX
5
9fe
100
AcDbEntity
  8
0-3
6
CONTINUOUS
62
4
100
AcDbVertex
100
AcDb2dVertex
10
541.512
20
135.745
30
0.0
42
1.000
0
SEQEND
5
9ff
100
AcDbEntity
  8
0-3
0
POLYLINE
5
a00
100
AcDbEntity
  8
0-0
6
CONTINUOUS
62
4
100
AcDb2dPolyline
66
1
10
0
20
0
70
1
40
0.400
41
0.400
0
VERTEX
5
a01
100
AcDbEntity
  8
0-0
6
CONTINUOUS
62
4
100
AcDbVertex
100
AcDb2dVertex
10
644.140
20
508.816
30
0.0
42
1.000
0
VERTEX
5
a02
100
AcDbEntity
  8
0-0
6
CONTINUOUS
62
4
100
AcDbVertex
100
AcDb2dVertex
10
644.540
20
508.816
30
0.0
42
1.000
0
SEQEND
5
a03
100
AcDbEntity
  8
0-0
0
POLYLINE
5
a04
100
AcDbEntity
  8
0-3
6
CONTINUOUS
62
4
100
AcDb2dPolyline
66
1
10
0
20
0
70
1
40
0.400
41
0.400
0
VERTEX
5
a05
100
AcDbEntity
  8
0-3
6
CONTINUOUS
62
4
100
AcDbVertex
100
AcDb2dVertex
10
290.638
20
225.426
30
0.0
42
1.000
0
VERTEX
5
a06
100
AcDbEntity
  8
0-3
6
CONTINUOUS
62
4
100
AcDbVertex
100
AcDb2dVertex
10
291.038
20
225.426
30
0.0
42
1.000
0
SEQEND
5
a07
100
AcDbEntity
  8
0-3
0
ENDSEC
 0
SECTION
  2
OBJECTS
 0
DICTIONARY
  5
C
100
AcDbDictionary
  3
ACAD_GROUP
350
D
  3
ACAD_MLINESTYLE
350
E
 0
DICTIONARY
  5
D
102
{ACAD_REACTORS
102
}
100
AcDbDictionary
 0
DICTIONARY
  5
E
102
{ACAD_REACTORS
102
}
100
AcDbDictionary
  3
STANDARD
350
13
0
MLINESTYLE
  5
13
102
{ACAD_REACTORS
102
}
100
AcDbMlineStyle
  2
STANDARD
 70
    0
3

62
256
51
90.0
52
90.0
71
0
0
ACDBPLACEHOLDER
  5
14
102
{ACAD_REACTORS
102
}
0
ENDSEC
0
EOF
