0
SECTION
2
HEADER
9
$ACADVER
1
AC1009
9
$DWGCODEPAGE
3
ANSI_932
9
$EXTMIN
10
0.000
20
0.000
30
0.0
9
$EXTMAX
10
1682.000
20
1188.000
30
0.0
9
$LTSCALE
40
2.000
9
$PDMODE
70
0
9
$PDSIZE
40
40.0
0
ENDSEC
0
SECTION
2
TABLES
0
TABLE
2
LTYPE
70
9
0
LTYPE
5
1f4
2
CONTINUOUS
70
64
3
SolidLine
72
65
73
0
40
0.0
0
LTYPE
5
1f5
2
DOT
70
64
3
--  --  --  --  --  --  --  --     
72
65
73
2
40
3.000
49
1.000
49
-2.000
0
LTYPE
5
1f6
2
DASHED
70
64
3
----    ----    ----    ----    
72
65
73
2
40
5.000
49
2.000
49
-3.000
0
LTYPE
5
1f7
2
DASHED2
70
64
3
------  ------  ------  ------ 
72
65
73
2
40
10.000
49
4.000
49
-6.000
0
LTYPE
5
1f8
2
CENTER
70
64
3
----- - ----- - ----- - ----- - 
72
65
73
4
40
10.000
49
6.000
49
-3.000
49
1.000
49
-3.000
0
LTYPE
5
1f9
2
CENTER2
70
64
3
----------  --  ----------  -- 
72
65
73
4
40
17.000
49
12.000
49
-5.000
49
2.000
49
-5.000
0
LTYPE
5
1fa
2
PHANTOM
70
64
3
--- - - --- - - --- - - --- - -
72
65
73
6
40
13.000
49
5.000
49
-3.000
49
1.000
49
-3.000
49
1.000
49
-3.000
0
LTYPE
5
1fb
2
PHANTOM2
70
64
3
--------  -  -  --------  -  -
72
65
73
6
40
20.000
49
6.000
49
-5.000
49
2.000
49
-5.000
49
2.000
49
-5.000
0
LTYPE
5
1fc
2
HIDDEN
70
64
3
-   -   -   -   -   -   -   -   
72
65
73
2
40
3.000
49
0.500
49
-2.500
0
ENDTAB
0
TABLE
2
STYLE
70
1
0
STYLE
5
1fd
100
AcDbSymbolTableRecord
100
AcDbTextStyleTableRecord
2
STANDARD
70
0
40
0.0
41
1.0
50
0.0
71
0
42
0.0
3
txt.shx
4
extfont.shx
0
STYLE
5
1fe
100
AcDbSymbolTableRecord
100
AcDbTextStyleTableRecord
2
TATEGAKI
70
4
40
0.0
41
1.0
50
0.0
71
0
42
0.0
3
txt.shx
4
extfont.shx
0
STYLE
5
1ff
100
AcDbSymbolTableRecord
100
AcDbTextStyleTableRecord
2
DIM
70
0
40
0.0
41
0.75
50
0.0
71
0
42
0.0
3
txt.shx
4
extfont.shx
0
STYLE
5
200
100
AcDbSymbolTableRecord
100
AcDbTextStyleTableRecord
2
_Gothic__
70
0
40
0.0
41
1.0
50
0.0
71
0
42
0.0
3
MS Gothic
4

0
STYLE
5
201
100
AcDbSymbolTableRecord
100
AcDbTextStyleTableRecord
2
_TateGothic_
70
4
40
0.0
41
1.0
50
0.0
71
0
42
0.0
3
@MS Gothic
4

0
ENDTAB
0
TABLE
2
LAYER
5
403
100
AcDbSymbolTable
70
10
0
LAYER
5
404
100
AcDbSymbolTableRecord
100
AcDbLayerTableRecord
2
0-0
70
0
62
7
6
CONTINUOUS
0
LAYER
5
405
100
AcDbSymbolTableRecord
100
AcDbLayerTableRecord
2
F-E_J_ADD
70
0
62
-7
6
CONTINUOUS
0
LAYER
5
406
100
AcDbSymbolTableRecord
100
AcDbLayerTableRecord
2
F-F
70
0
62
7
6
CONTINUOUS
0
ENDTAB
0
ENDSEC
0
SECTION
2
ENTITIES
0
LINE
5
407
100
AcDbEntity
8
F-F
6
CONTINUOUS
62
2
100
AcDbLine
10
54.760000000000
20
23.630000000000
30
0.0
11
54.760000000000
21
1143.640000000000
31
0.0
0
LINE
5
408
100
AcDbEntity
8
F-F
6
CONTINUOUS
62
2
100
AcDbLine
10
1284.760000000000
20
82.890000000000
30
0.0
11
1284.760000000000
21
23.630000000000
31
0.0
0
LINE
5
409
100
AcDbEntity
8
F-F
6
CONTINUOUS
62
2
100
AcDbLine
10
1214.540000000000
20
82.890000000000
30
0.0
11
1214.540000000000
21
23.630000000000
31
0.0
0
LINE
5
40a
100
AcDbEntity
8
F-F
6
CONTINUOUS
62
2
100
AcDbLine
10
1537.120000000000
20
23.630000000000
30
0.0
11
1537.120000000000
21
82.890000000000
31
0.0
0
LINE
5
40b
100
AcDbEntity
8
F-F
6
CONTINUOUS
62
2
100
AcDbLine
10
806.890000000000
20
82.890000000000
30
0.0
11
806.890000000000
21
23.630000000000
31
0.0
0
LINE
5
40c
100
AcDbEntity
8
F-F
6
CONTINUOUS
62
2
100
AcDbLine
10
1009.740000000000
20
82.890000000000
30
0.0
11
1009.740000000000
21
23.630000000000
31
0.0
0
LINE
5
40d
100
AcDbEntity
8
F-F
6
CONTINUOUS
62
2
100
AcDbLine
10
806.890000000000
20
63.140000000000
30
0.0
11
369.760000000000
21
63.140000000000
31
0.0
0
LINE
5
40e
100
AcDbEntity
8
F-F
6
CONTINUOUS
62
2
100
AcDbLine
10
806.890000000000
20
43.390000000000
30
0.0
11
369.760000000000
21
43.390000000000
31
0.0
0
LINE
5
40f
100
AcDbEntity
8
F-F
6
CONTINUOUS
62
2
100
AcDbLine
10
806.890000000000
20
33.510000000000
30
0.0
11
369.760000000000
21
33.510000000000
31
0.0
0
LINE
5
410
100
AcDbEntity
8
F-F
6
CONTINUOUS
62
2
100
AcDbLine
10
806.890000000000
20
73.020000000000
30
0.0
11
369.760000000000
21
73.020000000000
31
0.0
0
LINE
5
411
100
AcDbEntity
8
F-F
6
CONTINUOUS
62
2
100
AcDbLine
10
422.420000000000
20
82.890000000000
30
0.0
11
422.420000000000
21
23.630000000000
31
0.0
0
LINE
5
412
100
AcDbEntity
8
F-F
6
CONTINUOUS
62
2
100
AcDbLine
10
369.760000000000
20
82.890000000000
30
0.0
11
369.760000000000
21
23.630000000000
31
0.0
0
LINE
5
413
100
AcDbEntity
8
F-F
6
CONTINUOUS
62
2
100
AcDbLine
10
1631.650000000000
20
23.630000000000
30
0.0
11
1631.650000000000
21
1143.640000000000
31
0.0
0
LINE
5
414
100
AcDbEntity
8
F-F
6
CONTINUOUS
62
2
100
AcDbLine
10
54.760000000000
20
1143.640000000000
30
0.0
11
1631.650000000000
21
1143.640000000000
31
0.0
0
LINE
5
415
100
AcDbEntity
8
F-F
6
CONTINUOUS
62
2
100
AcDbLine
10
54.760000000000
20
23.630000000000
30
0.0
11
1631.650000000000
21
23.630000000000
31
0.0
0
LINE
5
416
100
AcDbEntity
8
F-F
6
CONTINUOUS
62
2
100
AcDbLine
10
1631.650000000000
20
82.890000000000
30
0.0
11
54.760000000000
21
82.890000000000
31
0.0
0
LINE
5
417
100
AcDbEntity
8
F-F
6
CONTINUOUS
62
2
100
AcDbLine
10
369.760000000000
20
53.260000000000
30
0.0
11
1631.650000000000
21
53.260000000000
31
0.0
0
LINE
5
418
100
AcDbEntity
8
F-F
6
CONTINUOUS
62
3
100
AcDbLine
10
71.720000000000
20
59.100000000000
30
0.0
11
71.720000000000
21
75.100000000000
31
0.0
0
LINE
5
419
100
AcDbEntity
8
F-F
6
CONTINUOUS
62
3
100
AcDbLine
10
71.720000000000
20
75.100000000000
30
0.0
11
87.720000000000
21
75.100000000000
31
0.0
0
LINE
5
41a
100
AcDbEntity
8
F-F
6
CONTINUOUS
62
3
100
AcDbLine
10
87.720000000000
20
75.100000000000
30
0.0
11
87.720000000000
21
59.100000000000
31
0.0
0
LINE
5
41b
100
AcDbEntity
8
F-F
6
CONTINUOUS
62
3
100
AcDbLine
10
87.720000000000
20
59.100000000000
30
0.0
11
71.720000000000
21
59.100000000000
31
0.0
0
LINE
5
41c
100
AcDbEntity
8
F-F
6
CONTINUOUS
62
3
100
AcDbLine
10
73.320000000000
20
61.260000000000
30
0.0
11
73.320000000000
21
73.500000000000
31
0.0
0
LINE
5
41d
100
AcDbEntity
8
F-F
6
CONTINUOUS
62
3
100
AcDbLine
10
86.120000000000
20
60.700000000000
30
0.0
11
73.880000000000
21
60.700000000000
31
0.0
0
LINE
5
41e
100
AcDbEntity
8
F-F
6
CONTINUOUS
62
3
100
AcDbLine
10
73.320000000000
20
73.500000000000
30
0.0
11
85.550000000000
21
73.500000000000
31
0.0
0
LINE
5
41f
100
AcDbEntity
8
F-F
6
CONTINUOUS
62
3
100
AcDbLine
10
85.550000000000
20
73.500000000000
30
0.0
11
73.320000000000
21
61.260000000000
31
0.0
0
LINE
5
420
100
AcDbEntity
8
F-F
6
CONTINUOUS
62
3
100
AcDbLine
10
86.120000000000
20
72.930000000000
30
0.0
11
73.880000000000
21
60.700000000000
31
0.0
0
LINE
5
421
100
AcDbEntity
8
F-F
6
CONTINUOUS
62
3
100
AcDbLine
10
86.120000000000
20
72.930000000000
30
0.0
11
86.120000000000
21
60.700000000000
31
0.0
0
LINE
5
422
100
AcDbEntity
8
F-F
6
CONTINUOUS
62
4
100
AcDbLine
10
71.720000000000
20
74.940000000000
30
0.0
11
87.720000000000
21
74.940000000000
31
0.0
0
LINE
5
423
100
AcDbEntity
8
F-F
6
CONTINUOUS
62
4
100
AcDbLine
10
71.720000000000
20
74.620000000000
30
0.0
11
87.720000000000
21
74.620000000000
31
0.0
0
LINE
5
424
100
AcDbEntity
8
F-F
6
CONTINUOUS
62
4
100
AcDbLine
10
71.720000000000
20
74.300000000000
30
0.0
11
87.720000000000
21
74.300000000000
31
0.0
0
LINE
5
425
100
AcDbEntity
8
F-F
6
CONTINUOUS
62
4
100
AcDbLine
10
71.720000000000
20
73.980000000000
30
0.0
11
87.720000000000
21
73.980000000000
31
0.0
0
LINE
5
426
100
AcDbEntity
8
F-F
6
CONTINUOUS
62
4
100
AcDbLine
10
71.720000000000
20
73.660000000000
30
0.0
11
87.720000000000
21
73.660000000000
31
0.0
0
LINE
5
427
100
AcDbEntity
8
F-F
6
CONTINUOUS
62
4
100
AcDbLine
10
71.720000000000
20
60.540000000000
30
0.0
11
87.720000000000
21
60.540000000000
31
0.0
0
LINE
5
428
100
AcDbEntity
8
F-F
6
CONTINUOUS
62
4
100
AcDbLine
10
71.720000000000
20
60.220000000000
30
0.0
11
87.720000000000
21
60.220000000000
31
0.0
0
LINE
5
429
100
AcDbEntity
8
F-F
6
CONTINUOUS
62
4
100
AcDbLine
10
71.720000000000
20
59.900000000000
30
0.0
11
87.720000000000
21
59.900000000000
31
0.0
0
LINE
5
42a
100
AcDbEntity
8
F-F
6
CONTINUOUS
62
4
100
AcDbLine
10
71.720000000000
20
59.580000000000
30
0.0
11
87.720000000000
21
59.580000000000
31
0.0
0
LINE
5
42b
100
AcDbEntity
8
F-F
6
CONTINUOUS
62
4
100
AcDbLine
10
71.720000000000
20
59.260000000000
30
0.0
11
87.720000000000
21
59.260000000000
31
0.0
0
LINE
5
42c
100
AcDbEntity
8
F-F
6
CONTINUOUS
62
4
100
AcDbLine
10
71.720000000000
20
61.500000000000
30
0.0
11
73.320000000000
21
61.500000000000
31
0.0
0
LINE
5
42d
100
AcDbEntity
8
F-F
6
CONTINUOUS
62
4
100
AcDbLine
10
71.720000000000
20
61.820000000000
30
0.0
11
73.320000000000
21
61.820000000000
31
0.0
0
LINE
5
42e
100
AcDbEntity
8
F-F
6
CONTINUOUS
62
4
100
AcDbLine
10
71.720000000000
20
62.140000000000
30
0.0
11
73.320000000000
21
62.140000000000
31
0.0
0
LINE
5
42f
100
AcDbEntity
8
F-F
6
CONTINUOUS
62
4
100
AcDbLine
10
71.720000000000
20
62.460000000000
30
0.0
11
73.320000000000
21
62.460000000000
31
0.0
0
LINE
5
430
100
AcDbEntity
8
F-F
6
CONTINUOUS
62
4
100
AcDbLine
10
71.720000000000
20
62.780000000000
30
0.0
11
73.320000000000
21
62.780000000000
31
0.0
0
LINE
5
431
100
AcDbEntity
8
F-F
6
CONTINUOUS
62
4
100
AcDbLine
10
71.720000000000
20
63.100000000000
30
0.0
11
73.320000000000
21
63.100000000000
31
0.0
0
LINE
5
432
100
AcDbEntity
8
F-F
6
CONTINUOUS
62
4
100
AcDbLine
10
71.720000000000
20
63.420000000000
30
0.0
11
73.320000000000
21
63.420000000000
31
0.0
0
LINE
5
433
100
AcDbEntity
8
F-F
6
CONTINUOUS
62
4
100
AcDbLine
10
71.720000000000
20
63.740000000000
30
0.0
11
73.320000000000
21
63.740000000000
31
0.0
0
LINE
5
434
100
AcDbEntity
8
F-F
6
CONTINUOUS
62
4
100
AcDbLine
10
71.720000000000
20
64.060000000000
30
0.0
11
73.320000000000
21
64.060000000000
31
0.0
0
LINE
5
435
100
AcDbEntity
8
F-F
6
CONTINUOUS
62
4
100
AcDbLine
10
71.720000000000
20
64.380000000000
30
0.0
11
73.320000000000
21
64.380000000000
31
0.0
0
LINE
5
436
100
AcDbEntity
8
F-F
6
CONTINUOUS
62
4
100
AcDbLine
10
71.720000000000
20
64.700000000000
30
0.0
11
73.320000000000
21
64.700000000000
31
0.0
0
LINE
5
437
100
AcDbEntity
8
F-F
6
CONTINUOUS
62
4
100
AcDbLine
10
71.720000000000
20
65.020000000000
30
0.0
11
73.320000000000
21
65.020000000000
31
0.0
0
LINE
5
438
100
AcDbEntity
8
F-F
6
CONTINUOUS
62
4
100
AcDbLine
10
71.720000000000
20
65.340000000000
30
0.0
11
73.320000000000
21
65.340000000000
31
0.0
0
LINE
5
439
100
AcDbEntity
8
F-F
6
CONTINUOUS
62
4
100
AcDbLine
10
71.720000000000
20
65.660000000000
30
0.0
11
73.320000000000
21
65.660000000000
31
0.0
0
LINE
5
43a
100
AcDbEntity
8
F-F
6
CONTINUOUS
62
4
100
AcDbLine
10
71.720000000000
20
65.980000000000
30
0.0
11
73.320000000000
21
65.980000000000
31
0.0
0
LINE
5
43b
100
AcDbEntity
8
F-F
6
CONTINUOUS
62
4
100
AcDbLine
10
71.720000000000
20
66.300000000000
30
0.0
11
73.320000000000
21
66.300000000000
31
0.0
0
LINE
5
43c
100
AcDbEntity
8
F-F
6
CONTINUOUS
62
4
100
AcDbLine
10
71.720000000000
20
66.620000000000
30
0.0
11
73.320000000000
21
66.620000000000
31
0.0
0
LINE
5
43d
100
AcDbEntity
8
F-F
6
CONTINUOUS
62
4
100
AcDbLine
10
71.720000000000
20
66.940000000000
30
0.0
11
73.320000000000
21
66.940000000000
31
0.0
0
LINE
5
43e
100
AcDbEntity
8
F-F
6
CONTINUOUS
62
4
100
AcDbLine
10
71.720000000000
20
67.260000000000
30
0.0
11
73.320000000000
21
67.260000000000
31
0.0
0
LINE
5
43f
100
AcDbEntity
8
F-F
6
CONTINUOUS
62
4
100
AcDbLine
10
71.720000000000
20
67.580000000000
30
0.0
11
73.320000000000
21
67.580000000000
31
0.0
0
LINE
5
440
100
AcDbEntity
8
F-F
6
CONTINUOUS
62
4
100
AcDbLine
10
71.720000000000
20
67.900000000000
30
0.0
11
73.320000000000
21
67.900000000000
31
0.0
0
LINE
5
441
100
AcDbEntity
8
F-F
6
CONTINUOUS
62
4
100
AcDbLine
10
71.720000000000
20
68.220000000000
30
0.0
11
73.320000000000
21
68.220000000000
31
0.0
0
LINE
5
442
100
AcDbEntity
8
F-F
6
CONTINUOUS
62
4
100
AcDbLine
10
71.720000000000
20
68.540000000000
30
0.0
11
73.320000000000
21
68.540000000000
31
0.0
0
LINE
5
443
100
AcDbEntity
8
F-F
6
CONTINUOUS
62
4
100
AcDbLine
10
71.720000000000
20
68.860000000000
30
0.0
11
73.320000000000
21
68.860000000000
31
0.0
0
LINE
5
444
100
AcDbEntity
8
F-F
6
CONTINUOUS
62
4
100
AcDbLine
10
71.720000000000
20
69.820000000000
30
0.0
11
73.320000000000
21
69.820000000000
31
0.0
0
LINE
5
445
100
AcDbEntity
8
F-F
6
CONTINUOUS
62
4
100
AcDbLine
10
71.720000000000
20
70.780000000000
30
0.0
11
73.320000000000
21
70.780000000000
31
0.0
0
LINE
5
446
100
AcDbEntity
8
F-F
6
CONTINUOUS
62
4
100
AcDbLine
10
71.720000000000
20
71.100000000000
30
0.0
11
73.320000000000
21
71.100000000000
31
0.0
0
LINE
5
447
100
AcDbEntity
8
F-F
6
CONTINUOUS
62
4
100
AcDbLine
10
71.720000000000
20
71.420000000000
30
0.0
11
73.320000000000
21
71.420000000000
31
0.0
0
LINE
5
448
100
AcDbEntity
8
F-F
6
CONTINUOUS
62
4
100
AcDbLine
10
71.720000000000
20
71.740000000000
30
0.0
11
73.320000000000
21
71.740000000000
31
0.0
0
LINE
5
449
100
AcDbEntity
8
F-F
6
CONTINUOUS
62
4
100
AcDbLine
10
71.720000000000
20
73.340000000000
30
0.0
11
73.320000000000
21
73.340000000000
31
0.0
0
LINE
5
44a
100
AcDbEntity
8
F-F
6
CONTINUOUS
62
4
100
AcDbLine
10
71.720000000000
20
73.020000000000
30
0.0
11
73.320000000000
21
73.020000000000
31
0.0
0
LINE
5
44b
100
AcDbEntity
8
F-F
6
CONTINUOUS
62
4
100
AcDbLine
10
71.720000000000
20
72.700000000000
30
0.0
11
73.320000000000
21
72.700000000000
31
0.0
0
LINE
5
44c
100
AcDbEntity
8
F-F
6
CONTINUOUS
62
4
100
AcDbLine
10
71.720000000000
20
72.380000000000
30
0.0
11
73.320000000000
21
72.380000000000
31
0.0
0
LINE
5
44d
100
AcDbEntity
8
F-F
6
CONTINUOUS
62
4
100
AcDbLine
10
71.720000000000
20
72.060000000000
30
0.0
11
73.320000000000
21
72.060000000000
31
0.0
0
LINE
5
44e
100
AcDbEntity
8
F-F
6
CONTINUOUS
62
4
100
AcDbLine
10
71.720000000000
20
70.140000000000
30
0.0
11
73.320000000000
21
70.140000000000
31
0.0
0
LINE
5
44f
100
AcDbEntity
8
F-F
6
CONTINUOUS
62
4
100
AcDbLine
10
71.720000000000
20
70.460000000000
30
0.0
11
73.320000000000
21
70.460000000000
31
0.0
0
LINE
5
450
100
AcDbEntity
8
F-F
6
CONTINUOUS
62
4
100
AcDbLine
10
71.720000000000
20
69.500000000000
30
0.0
11
73.320000000000
21
69.500000000000
31
0.0
0
LINE
5
451
100
AcDbEntity
8
F-F
6
CONTINUOUS
62
4
100
AcDbLine
10
71.720000000000
20
69.180000000000
30
0.0
11
73.320000000000
21
69.180000000000
31
0.0
0
LINE
5
452
100
AcDbEntity
8
F-F
6
CONTINUOUS
62
4
100
AcDbLine
10
73.870000000000
20
61.820000000000
30
0.0
11
75.000000000000
21
61.820000000000
31
0.0
0
LINE
5
453
100
AcDbEntity
8
F-F
6
CONTINUOUS
62
4
100
AcDbLine
10
73.550000000000
20
61.500000000000
30
0.0
11
74.680000000000
21
61.500000000000
31
0.0
0
LINE
5
454
100
AcDbEntity
8
F-F
6
CONTINUOUS
62
4
100
AcDbLine
10
71.720000000000
20
61.180000000000
30
0.0
11
74.360000000000
21
61.180000000000
31
0.0
0
LINE
5
455
100
AcDbEntity
8
F-F
6
CONTINUOUS
62
4
100
AcDbLine
10
71.720000000000
20
60.860000000000
30
0.0
11
74.040000000000
21
60.860000000000
31
0.0
0
LINE
5
456
100
AcDbEntity
8
F-F
6
CONTINUOUS
62
4
100
AcDbLine
10
75.790000000000
20
63.740000000000
30
0.0
11
76.920000000000
21
63.740000000000
31
0.0
0
LINE
5
457
100
AcDbEntity
8
F-F
6
CONTINUOUS
62
4
100
AcDbLine
10
75.470000000000
20
63.420000000000
30
0.0
11
76.600000000000
21
63.420000000000
31
0.0
0
LINE
5
458
100
AcDbEntity
8
F-F
6
CONTINUOUS
62
4
100
AcDbLine
10
75.150000000000
20
63.100000000000
30
0.0
11
76.280000000000
21
63.100000000000
31
0.0
0
LINE
5
459
100
AcDbEntity
8
F-F
6
CONTINUOUS
62
4
100
AcDbLine
10
74.830000000000
20
62.780000000000
30
0.0
11
75.960000000000
21
62.780000000000
31
0.0
0
LINE
5
45a
100
AcDbEntity
8
F-F
6
CONTINUOUS
62
4
100
AcDbLine
10
74.510000000000
20
62.460000000000
30
0.0
11
75.640000000000
21
62.460000000000
31
0.0
0
LINE
5
45b
100
AcDbEntity
8
F-F
6
CONTINUOUS
62
4
100
AcDbLine
10
74.190000000000
20
62.140000000000
30
0.0
11
75.320000000000
21
62.140000000000
31
0.0
0
LINE
5
45c
100
AcDbEntity
8
F-F
6
CONTINUOUS
62
4
100
AcDbLine
10
73.320000000000
20
73.500000000000
30
0.0
11
73.320000000000
21
73.820000000000
31
0.0
0
LINE
5
45d
100
AcDbEntity
8
F-F
6
CONTINUOUS
62
4
100
AcDbLine
10
86.120000000000
20
61.500000000000
30
0.0
11
87.720000000000
21
61.500000000000
31
0.0
0
LINE
5
45e
100
AcDbEntity
8
F-F
6
CONTINUOUS
62
4
100
AcDbLine
10
86.120000000000
20
61.820000000000
30
0.0
11
87.720000000000
21
61.820000000000
31
0.0
0
LINE
5
45f
100
AcDbEntity
8
F-F
6
CONTINUOUS
62
4
100
AcDbLine
10
86.120000000000
20
62.140000000000
30
0.0
11
87.720000000000
21
62.140000000000
31
0.0
0
LINE
5
460
100
AcDbEntity
8
F-F
6
CONTINUOUS
62
4
100
AcDbLine
10
86.120000000000
20
62.460000000000
30
0.0
11
87.720000000000
21
62.460000000000
31
0.0
0
LINE
5
461
100
AcDbEntity
8
F-F
6
CONTINUOUS
62
4
100
AcDbLine
10
86.120000000000
20
62.780000000000
30
0.0
11
87.720000000000
21
62.780000000000
31
0.0
0
LINE
5
462
100
AcDbEntity
8
F-F
6
CONTINUOUS
62
4
100
AcDbLine
10
86.120000000000
20
63.100000000000
30
0.0
11
87.720000000000
21
63.100000000000
31
0.0
0
LINE
5
463
100
AcDbEntity
8
F-F
6
CONTINUOUS
62
4
100
AcDbLine
10
86.120000000000
20
63.420000000000
30
0.0
11
87.720000000000
21
63.420000000000
31
0.0
0
LINE
5
464
100
AcDbEntity
8
F-F
6
CONTINUOUS
62
4
100
AcDbLine
10
86.120000000000
20
63.740000000000
30
0.0
11
87.720000000000
21
63.740000000000
31
0.0
0
LINE
5
465
100
AcDbEntity
8
F-F
6
CONTINUOUS
62
4
100
AcDbLine
10
86.120000000000
20
64.060000000000
30
0.0
11
87.720000000000
21
64.060000000000
31
0.0
0
LINE
5
466
100
AcDbEntity
8
F-F
6
CONTINUOUS
62
4
100
AcDbLine
10
86.120000000000
20
64.380000000000
30
0.0
11
87.720000000000
21
64.380000000000
31
0.0
0
LINE
5
467
100
AcDbEntity
8
F-F
6
CONTINUOUS
62
4
100
AcDbLine
10
86.120000000000
20
64.700000000000
30
0.0
11
87.720000000000
21
64.700000000000
31
0.0
0
LINE
5
468
100
AcDbEntity
8
F-F
6
CONTINUOUS
62
4
100
AcDbLine
10
86.120000000000
20
65.020000000000
30
0.0
11
87.720000000000
21
65.020000000000
31
0.0
0
LINE
5
469
100
AcDbEntity
8
F-F
6
CONTINUOUS
62
4
100
AcDbLine
10
86.120000000000
20
65.340000000000
30
0.0
11
87.720000000000
21
65.340000000000
31
0.0
0
LINE
5
46a
100
AcDbEntity
8
F-F
6
CONTINUOUS
62
4
100
AcDbLine
10
86.120000000000
20
65.980000000000
30
0.0
11
87.720000000000
21
65.980000000000
31
0.0
0
LINE
5
46b
100
AcDbEntity
8
F-F
6
CONTINUOUS
62
4
100
AcDbLine
10
86.120000000000
20
66.300000000000
30
0.0
11
87.720000000000
21
66.300000000000
31
0.0
0
LINE
5
46c
100
AcDbEntity
8
F-F
6
CONTINUOUS
62
4
100
AcDbLine
10
86.120000000000
20
66.620000000000
30
0.0
11
87.720000000000
21
66.620000000000
31
0.0
0
LINE
5
46d
100
AcDbEntity
8
F-F
6
CONTINUOUS
62
4
100
AcDbLine
10
86.120000000000
20
66.940000000000
30
0.0
11
87.720000000000
21
66.940000000000
31
0.0
0
LINE
5
46e
100
AcDbEntity
8
F-F
6
CONTINUOUS
62
4
100
AcDbLine
10
86.120000000000
20
67.260000000000
30
0.0
11
87.720000000000
21
67.260000000000
31
0.0
0
LINE
5
46f
100
AcDbEntity
8
F-F
6
CONTINUOUS
62
4
100
AcDbLine
10
86.120000000000
20
67.580000000000
30
0.0
11
87.720000000000
21
67.580000000000
31
0.0
0
LINE
5
470
100
AcDbEntity
8
F-F
6
CONTINUOUS
62
4
100
AcDbLine
10
86.120000000000
20
67.900000000000
30
0.0
11
87.720000000000
21
67.900000000000
31
0.0
0
LINE
5
471
100
AcDbEntity
8
F-F
6
CONTINUOUS
62
4
100
AcDbLine
10
86.120000000000
20
68.220000000000
30
0.0
11
87.720000000000
21
68.220000000000
31
0.0
0
LINE
5
472
100
AcDbEntity
8
F-F
6
CONTINUOUS
62
4
100
AcDbLine
10
86.120000000000
20
68.540000000000
30
0.0
11
87.720000000000
21
68.540000000000
31
0.0
0
LINE
5
473
100
AcDbEntity
8
F-F
6
CONTINUOUS
62
4
100
AcDbLine
10
86.120000000000
20
68.860000000000
30
0.0
11
87.720000000000
21
68.860000000000
31
0.0
0
LINE
5
474
100
AcDbEntity
8
F-F
6
CONTINUOUS
62
4
100
AcDbLine
10
86.120000000000
20
69.820000000000
30
0.0
11
87.720000000000
21
69.820000000000
31
0.0
0
LINE
5
475
100
AcDbEntity
8
F-F
6
CONTINUOUS
62
4
100
AcDbLine
10
86.120000000000
20
70.780000000000
30
0.0
11
87.720000000000
21
70.780000000000
31
0.0
0
LINE
5
476
100
AcDbEntity
8
F-F
6
CONTINUOUS
62
4
100
AcDbLine
10
86.120000000000
20
71.100000000000
30
0.0
11
87.720000000000
21
71.100000000000
31
0.0
0
LINE
5
477
100
AcDbEntity
8
F-F
6
CONTINUOUS
62
4
100
AcDbLine
10
86.120000000000
20
71.420000000000
30
0.0
11
87.720000000000
21
71.420000000000
31
0.0
0
LINE
5
478
100
AcDbEntity
8
F-F
6
CONTINUOUS
62
4
100
AcDbLine
10
86.120000000000
20
71.740000000000
30
0.0
11
87.720000000000
21
71.740000000000
31
0.0
0
LINE
5
479
100
AcDbEntity
8
F-F
6
CONTINUOUS
62
4
100
AcDbLine
10
86.120000000000
20
72.700000000000
30
0.0
11
87.720000000000
21
72.700000000000
31
0.0
0
LINE
5
47a
100
AcDbEntity
8
F-F
6
CONTINUOUS
62
4
100
AcDbLine
10
86.120000000000
20
72.380000000000
30
0.0
11
87.720000000000
21
72.380000000000
31
0.0
0
LINE
5
47b
100
AcDbEntity
8
F-F
6
CONTINUOUS
62
4
100
AcDbLine
10
86.120000000000
20
72.060000000000
30
0.0
11
87.720000000000
21
72.060000000000
31
0.0
0
LINE
5
47c
100
AcDbEntity
8
F-F
6
CONTINUOUS
62
4
100
AcDbLine
10
86.120000000000
20
70.140000000000
30
0.0
11
87.720000000000
21
70.140000000000
31
0.0
0
LINE
5
47d
100
AcDbEntity
8
F-F
6
CONTINUOUS
62
4
100
AcDbLine
10
86.120000000000
20
70.460000000000
30
0.0
11
87.720000000000
21
70.460000000000
31
0.0
0
LINE
5
47e
100
AcDbEntity
8
F-F
6
CONTINUOUS
62
4
100
AcDbLine
10
86.120000000000
20
69.500000000000
30
0.0
11
87.720000000000
21
69.500000000000
31
0.0
0
LINE
5
47f
100
AcDbEntity
8
F-F
6
CONTINUOUS
62
4
100
AcDbLine
10
86.120000000000
20
69.180000000000
30
0.0
11
87.720000000000
21
69.180000000000
31
0.0
0
LINE
5
480
100
AcDbEntity
8
F-F
6
CONTINUOUS
62
4
100
AcDbLine
10
86.120000000000
20
60.860000000000
30
0.0
11
87.720000000000
21
60.860000000000
31
0.0
0
LINE
5
481
100
AcDbEntity
8
F-F
6
CONTINUOUS
62
4
100
AcDbLine
10
86.120000000000
20
61.180000000000
30
0.0
11
87.720000000000
21
61.180000000000
31
0.0
0
LINE
5
482
100
AcDbEntity
8
F-F
6
CONTINUOUS
62
4
100
AcDbLine
10
85.390000000000
20
73.340000000000
30
0.0
11
87.720000000000
21
73.340000000000
31
0.0
0
LINE
5
483
100
AcDbEntity
8
F-F
6
CONTINUOUS
62
4
100
AcDbLine
10
85.070000000000
20
73.020000000000
30
0.0
11
87.720000000000
21
73.020000000000
31
0.0
0
LINE
5
484
100
AcDbEntity
8
F-F
6
CONTINUOUS
62
4
100
AcDbLine
10
77.070000000000
20
65.020000000000
30
0.0
11
78.200000000000
21
65.020000000000
31
0.0
0
LINE
5
485
100
AcDbEntity
8
F-F
6
CONTINUOUS
62
4
100
AcDbLine
10
76.750000000000
20
64.700000000000
30
0.0
11
77.880000000000
21
64.700000000000
31
0.0
0
LINE
5
486
100
AcDbEntity
8
F-F
6
CONTINUOUS
62
4
100
AcDbLine
10
76.430000000000
20
64.380000000000
30
0.0
11
77.560000000000
21
64.380000000000
31
0.0
0
LINE
5
487
100
AcDbEntity
8
F-F
6
CONTINUOUS
62
4
100
AcDbLine
10
76.110000000000
20
64.060000000000
30
0.0
11
77.240000000000
21
64.060000000000
31
0.0
0
LINE
5
488
100
AcDbEntity
8
F-F
6
CONTINUOUS
62
4
100
AcDbLine
10
78.350000000000
20
66.300000000000
30
0.0
11
79.480000000000
21
66.300000000000
31
0.0
0
LINE
5
489
100
AcDbEntity
8
F-F
6
CONTINUOUS
62
4
100
AcDbLine
10
78.030000000000
20
65.980000000000
30
0.0
11
79.160000000000
21
65.980000000000
31
0.0
0
LINE
5
48a
100
AcDbEntity
8
F-F
6
CONTINUOUS
62
4
100
AcDbLine
10
77.710000000000
20
65.660000000000
30
0.0
11
78.840000000000
21
65.660000000000
31
0.0
0
LINE
5
48b
100
AcDbEntity
8
F-F
6
CONTINUOUS
62
4
100
AcDbLine
10
77.390000000000
20
65.340000000000
30
0.0
11
78.520000000000
21
65.340000000000
31
0.0
0
LINE
5
48c
100
AcDbEntity
8
F-F
6
CONTINUOUS
62
4
100
AcDbLine
10
79.630000000000
20
67.580000000000
30
0.0
11
80.760000000000
21
67.580000000000
31
0.0
0
LINE
5
48d
100
AcDbEntity
8
F-F
6
CONTINUOUS
62
4
100
AcDbLine
10
79.310000000000
20
67.260000000000
30
0.0
11
80.440000000000
21
67.260000000000
31
0.0
0
LINE
5
48e
100
AcDbEntity
8
F-F
6
CONTINUOUS
62
4
100
AcDbLine
10
78.990000000000
20
66.940000000000
30
0.0
11
80.120000000000
21
66.940000000000
31
0.0
0
LINE
5
48f
100
AcDbEntity
8
F-F
6
CONTINUOUS
62
4
100
AcDbLine
10
78.670000000000
20
66.620000000000
30
0.0
11
79.800000000000
21
66.620000000000
31
0.0
0
LINE
5
490
100
AcDbEntity
8
F-F
6
CONTINUOUS
62
4
100
AcDbLine
10
80.910000000000
20
68.860000000000
30
0.0
11
82.040000000000
21
68.860000000000
31
0.0
0
LINE
5
491
100
AcDbEntity
8
F-F
6
CONTINUOUS
62
4
100
AcDbLine
10
80.590000000000
20
68.540000000000
30
0.0
11
81.720000000000
21
68.540000000000
31
0.0
0
LINE
5
492
100
AcDbEntity
8
F-F
6
CONTINUOUS
62
4
100
AcDbLine
10
80.270000000000
20
68.220000000000
30
0.0
11
81.400000000000
21
68.220000000000
31
0.0
0
LINE
5
493
100
AcDbEntity
8
F-F
6
CONTINUOUS
62
4
100
AcDbLine
10
79.950000000000
20
67.900000000000
30
0.0
11
81.080000000000
21
67.900000000000
31
0.0
0
LINE
5
494
100
AcDbEntity
8
F-F
6
CONTINUOUS
62
4
100
AcDbLine
10
82.190000000000
20
70.140000000000
30
0.0
11
83.320000000000
21
70.140000000000
31
0.0
0
LINE
5
495
100
AcDbEntity
8
F-F
6
CONTINUOUS
62
4
100
AcDbLine
10
81.870000000000
20
69.820000000000
30
0.0
11
83.000000000000
21
69.820000000000
31
0.0
0
LINE
5
496
100
AcDbEntity
8
F-F
6
CONTINUOUS
62
4
100
AcDbLine
10
81.550000000000
20
69.500000000000
30
0.0
11
82.680000000000
21
69.500000000000
31
0.0
0
LINE
5
497
100
AcDbEntity
8
F-F
6
CONTINUOUS
62
4
100
AcDbLine
10
81.230000000000
20
69.180000000000
30
0.0
11
82.360000000000
21
69.180000000000
31
0.0
0
LINE
5
498
100
AcDbEntity
8
F-F
6
CONTINUOUS
62
4
100
AcDbLine
10
83.470000000000
20
71.420000000000
30
0.0
11
84.600000000000
21
71.420000000000
31
0.0
0
LINE
5
499
100
AcDbEntity
8
F-F
6
CONTINUOUS
62
4
100
AcDbLine
10
83.150000000000
20
71.100000000000
30
0.0
11
84.280000000000
21
71.100000000000
31
0.0
0
LINE
5
49a
100
AcDbEntity
8
F-F
6
CONTINUOUS
62
4
100
AcDbLine
10
82.830000000000
20
70.780000000000
30
0.0
11
83.960000000000
21
70.780000000000
31
0.0
0
LINE
5
49b
100
AcDbEntity
8
F-F
6
CONTINUOUS
62
4
100
AcDbLine
10
82.510000000000
20
70.460000000000
30
0.0
11
83.640000000000
21
70.460000000000
31
0.0
0
LINE
5
49c
100
AcDbEntity
8
F-F
6
CONTINUOUS
62
4
100
AcDbLine
10
84.750000000000
20
72.700000000000
30
0.0
11
85.880000000000
21
72.700000000000
31
0.0
0
LINE
5
49d
100
AcDbEntity
8
F-F
6
CONTINUOUS
62
4
100
AcDbLine
10
84.430000000000
20
72.380000000000
30
0.0
11
85.560000000000
21
72.380000000000
31
0.0
0
LINE
5
49e
100
AcDbEntity
8
F-F
6
CONTINUOUS
62
4
100
AcDbLine
10
84.110000000000
20
72.060000000000
30
0.0
11
85.240000000000
21
72.060000000000
31
0.0
0
LINE
5
49f
100
AcDbEntity
8
F-F
6
CONTINUOUS
62
4
100
AcDbLine
10
83.790000000000
20
71.740000000000
30
0.0
11
84.920000000000
21
71.740000000000
31
0.0
0
LINE
5
4a0
100
AcDbEntity
8
F-F
6
CONTINUOUS
62
4
100
AcDbLine
10
86.120000000000
20
65.660000000000
30
0.0
11
87.720000000000
21
65.660000000000
31
0.0
0
LINE
5
4a1
100
AcDbEntity
8
0-0
6
CONTINUOUS
62
7
100
AcDbLine
10
431.000000000000
20
624.530000000000
30
0.0
11
411.000000000000
21
624.530000000000
31
0.0
0
LINE
5
4a2
100
AcDbEntity
8
0-0
6
CONTINUOUS
62
7
100
AcDbLine
10
465.000000000000
20
594.530000000000
30
0.0
11
465.000000000000
21
564.530000000000
31
0.0
0
LINE
5
4a3
100
AcDbEntity
8
0-0
6
CONTINUOUS
62
7
100
AcDbLine
10
431.000000000000
20
633.530000000000
30
0.0
11
411.000000000000
21
633.530000000000
31
0.0
0
LINE
5
4a4
100
AcDbEntity
8
0-0
6
CONTINUOUS
62
7
100
AcDbLine
10
411.000000000000
20
624.530000000000
30
0.0
11
411.000000000000
21
633.530000000000
31
0.0
0
LINE
5
4a5
100
AcDbEntity
8
0-0
6
CONTINUOUS
62
7
100
AcDbLine
10
465.000000000000
20
688.530000000000
30
0.0
11
465.000000000000
21
658.530000000000
31
0.0
0
LINE
5
4a6
100
AcDbEntity
8
0-0
6
CONTINUOUS
62
7
100
AcDbLine
10
496.700000000000
20
688.530000000000
30
0.0
11
496.700000000000
21
658.530000000000
31
0.0
0
LINE
5
4a7
100
AcDbEntity
8
0-0
6
CONTINUOUS
62
7
100
AcDbLine
10
1221.000000000000
20
718.530000000000
30
0.0
11
1221.000000000000
21
658.530000000000
31
0.0
0
LINE
5
4a8
100
AcDbEntity
8
0-0
6
CONTINUOUS
62
7
100
AcDbLine
10
465.000000000000
20
688.530000000000
30
0.0
11
496.500000000000
21
688.530000000000
31
0.0
0
LINE
5
4a9
100
AcDbEntity
8
0-0
6
CONTINUOUS
62
7
100
AcDbLine
10
496.500000000000
20
688.530000000000
30
0.0
11
528.000000000000
21
688.530000000000
31
0.0
0
LINE
5
4aa
100
AcDbEntity
8
0-0
6
CONTINUOUS
62
7
100
AcDbLine
10
452.000000000000
20
718.530000000000
30
0.0
11
452.000000000000
21
658.530000000000
31
0.0
0
LINE
5
4ab
100
AcDbEntity
8
0-0
6
CONTINUOUS
62
7
100
AcDbLine
10
465.000000000000
20
564.530000000000
30
0.0
11
465.000000000000
21
534.530000000000
31
0.0
0
LINE
5
4ac
100
AcDbEntity
8
0-0
6
CONTINUOUS
62
7
100
AcDbLine
10
1162.400000000000
20
594.530000000000
30
0.0
11
1162.400000000000
21
564.530000000000
31
0.0
0
LINE
5
4ad
100
AcDbEntity
8
0-0
6
CONTINUOUS
62
7
100
AcDbLine
10
1194.100000000000
20
564.530000000000
30
0.0
11
1194.100000000000
21
534.530000000000
31
0.0
0
LINE
5
4ae
100
AcDbEntity
8
0-0
6
CONTINUOUS
62
7
100
AcDbLine
10
528.400000000000
20
688.530000000000
30
0.0
11
528.400000000000
21
658.530000000000
31
0.0
0
LINE
5
4af
100
AcDbEntity
8
0-0
6
CONTINUOUS
62
7
100
AcDbLine
10
528.200000000000
20
688.530000000000
30
0.0
11
559.700000000000
21
688.530000000000
31
0.0
0
LINE
5
4b0
100
AcDbEntity
8
0-0
6
CONTINUOUS
62
7
100
AcDbLine
10
560.100000000000
20
688.530000000000
30
0.0
11
560.100000000000
21
658.530000000000
31
0.0
0
LINE
5
4b1
100
AcDbEntity
8
0-0
6
CONTINUOUS
62
7
100
AcDbLine
10
559.900000000000
20
688.530000000000
30
0.0
11
591.400000000000
21
688.530000000000
31
0.0
0
LINE
5
4b2
100
AcDbEntity
8
0-0
6
CONTINUOUS
62
7
100
AcDbLine
10
591.800000000000
20
688.530000000000
30
0.0
11
591.800000000000
21
658.530000000000
31
0.0
0
LINE
5
4b3
100
AcDbEntity
8
0-0
6
CONTINUOUS
62
7
100
AcDbLine
10
591.600000000000
20
688.530000000000
30
0.0
11
623.100000000000
21
688.530000000000
31
0.0
0
LINE
5
4b4
100
AcDbEntity
8
0-0
6
CONTINUOUS
62
7
100
AcDbLine
10
623.500000000000
20
688.530000000000
30
0.0
11
623.500000000000
21
658.530000000000
31
0.0
0
LINE
5
4b5
100
AcDbEntity
8
0-0
6
CONTINUOUS
62
7
100
AcDbLine
10
623.300000000000
20
688.530000000000
30
0.0
11
654.800000000000
21
688.530000000000
31
0.0
0
LINE
5
4b6
100
AcDbEntity
8
0-0
6
CONTINUOUS
62
7
100
AcDbLine
10
655.200000000000
20
688.530000000000
30
0.0
11
655.200000000000
21
658.530000000000
31
0.0
0
LINE
5
4b7
100
AcDbEntity
8
0-0
6
CONTINUOUS
62
7
100
AcDbLine
10
655.000000000000
20
688.530000000000
30
0.0
11
686.500000000000
21
688.530000000000
31
0.0
0
LINE
5
4b8
100
AcDbEntity
8
0-0
6
CONTINUOUS
62
7
100
AcDbLine
10
686.900000000000
20
688.530000000000
30
0.0
11
686.900000000000
21
658.530000000000
31
0.0
0
LINE
5
4b9
100
AcDbEntity
8
0-0
6
CONTINUOUS
62
7
100
AcDbLine
10
686.700000000000
20
688.530000000000
30
0.0
11
718.200000000000
21
688.530000000000
31
0.0
0
LINE
5
4ba
100
AcDbEntity
8
0-0
6
CONTINUOUS
62
7
100
AcDbLine
10
718.600000000000
20
688.530000000000
30
0.0
11
718.600000000000
21
658.530000000000
31
0.0
0
LINE
5
4bb
100
AcDbEntity
8
0-0
6
CONTINUOUS
62
7
100
AcDbLine
10
718.400000000000
20
688.530000000000
30
0.0
11
749.900000000000
21
688.530000000000
31
0.0
0
LINE
5
4bc
100
AcDbEntity
8
0-0
6
CONTINUOUS
62
7
100
AcDbLine
10
750.300000000000
20
688.530000000000
30
0.0
11
750.300000000000
21
658.530000000000
31
0.0
0
LINE
5
4bd
100
AcDbEntity
8
0-0
6
CONTINUOUS
62
7
100
AcDbLine
10
782.000000000000
20
688.530000000000
30
0.0
11
782.000000000000
21
658.530000000000
31
0.0
0
LINE
5
4be
100
AcDbEntity
8
0-0
6
CONTINUOUS
62
7
100
AcDbLine
10
750.100000000000
20
688.530000000000
30
0.0
11
782.000000000000
21
688.530000000000
31
0.0
0
LINE
5
4bf
100
AcDbEntity
8
0-0
6
CONTINUOUS
62
7
100
AcDbLine
10
813.700000000000
20
688.530000000000
30
0.0
11
813.700000000000
21
658.530000000000
31
0.0
0
LINE
5
4c0
100
AcDbEntity
8
0-0
6
CONTINUOUS
62
7
100
AcDbLine
10
781.800000000000
20
688.530000000000
30
0.0
11
813.700000000000
21
688.530000000000
31
0.0
0
LINE
5
4c1
100
AcDbEntity
8
0-0
6
CONTINUOUS
62
7
100
AcDbLine
10
845.400000000000
20
688.530000000000
30
0.0
11
845.400000000000
21
658.530000000000
31
0.0
0
LINE
5
4c2
100
AcDbEntity
8
0-0
6
CONTINUOUS
62
7
100
AcDbLine
10
813.500000000000
20
688.530000000000
30
0.0
11
845.400000000000
21
688.530000000000
31
0.0
0
LINE
5
4c3
100
AcDbEntity
8
0-0
6
CONTINUOUS
62
7
100
AcDbLine
10
877.100000000000
20
688.530000000000
30
0.0
11
877.100000000000
21
658.530000000000
31
0.0
0
LINE
5
4c4
100
AcDbEntity
8
0-0
6
CONTINUOUS
62
7
100
AcDbLine
10
845.200000000000
20
688.530000000000
30
0.0
11
877.100000000000
21
688.530000000000
31
0.0
0
LINE
5
4c5
100
AcDbEntity
8
0-0
6
CONTINUOUS
62
7
100
AcDbLine
10
908.800000000000
20
688.530000000000
30
0.0
11
908.800000000000
21
658.530000000000
31
0.0
0
LINE
5
4c6
100
AcDbEntity
8
0-0
6
CONTINUOUS
62
7
100
AcDbLine
10
876.900000000000
20
688.530000000000
30
0.0
11
908.800000000000
21
688.530000000000
31
0.0
0
LINE
5
4c7
100
AcDbEntity
8
0-0
6
CONTINUOUS
62
7
100
AcDbLine
10
940.500000000000
20
688.530000000000
30
0.0
11
940.500000000000
21
658.530000000000
31
0.0
0
LINE
5
4c8
100
AcDbEntity
8
0-0
6
CONTINUOUS
62
7
100
AcDbLine
10
908.600000000000
20
688.530000000000
30
0.0
11
940.500000000000
21
688.530000000000
31
0.0
0
LINE
5
4c9
100
AcDbEntity
8
0-0
6
CONTINUOUS
62
7
100
AcDbLine
10
972.200000000000
20
688.530000000000
30
0.0
11
972.200000000000
21
658.530000000000
31
0.0
0
LINE
5
4ca
100
AcDbEntity
8
0-0
6
CONTINUOUS
62
7
100
AcDbLine
10
940.300000000000
20
688.530000000000
30
0.0
11
972.200000000000
21
688.530000000000
31
0.0
0
LINE
5
4cb
100
AcDbEntity
8
0-0
6
CONTINUOUS
62
7
100
AcDbLine
10
1003.900000000000
20
688.530000000000
30
0.0
11
1003.900000000000
21
658.530000000000
31
0.0
0
LINE
5
4cc
100
AcDbEntity
8
0-0
6
CONTINUOUS
62
7
100
AcDbLine
10
972.000000000000
20
688.530000000000
30
0.0
11
1003.900000000000
21
688.530000000000
31
0.0
0
LINE
5
4cd
100
AcDbEntity
8
0-0
6
CONTINUOUS
62
7
100
AcDbLine
10
1035.600000000000
20
688.530000000000
30
0.0
11
1035.600000000000
21
658.530000000000
31
0.0
0
LINE
5
4ce
100
AcDbEntity
8
0-0
6
CONTINUOUS
62
7
100
AcDbLine
10
1003.700000000000
20
688.530000000000
30
0.0
11
1035.600000000000
21
688.530000000000
31
0.0
0
LINE
5
4cf
100
AcDbEntity
8
0-0
6
CONTINUOUS
62
7
100
AcDbLine
10
1067.300000000000
20
688.530000000000
30
0.0
11
1067.300000000000
21
658.530000000000
31
0.0
0
LINE
5
4d0
100
AcDbEntity
8
0-0
6
CONTINUOUS
62
7
100
AcDbLine
10
1035.400000000000
20
688.530000000000
30
0.0
11
1067.300000000000
21
688.530000000000
31
0.0
0
LINE
5
4d1
100
AcDbEntity
8
0-0
6
CONTINUOUS
62
7
100
AcDbLine
10
1099.000000000000
20
688.530000000000
30
0.0
11
1099.000000000000
21
658.530000000000
31
0.0
0
LINE
5
4d2
100
AcDbEntity
8
0-0
6
CONTINUOUS
62
7
100
AcDbLine
10
1067.100000000000
20
688.530000000000
30
0.0
11
1099.000000000000
21
688.530000000000
31
0.0
0
LINE
5
4d3
100
AcDbEntity
8
0-0
6
CONTINUOUS
62
7
100
AcDbLine
10
1130.700000000000
20
688.530000000000
30
0.0
11
1130.700000000000
21
658.530000000000
31
0.0
0
LINE
5
4d4
100
AcDbEntity
8
0-0
6
CONTINUOUS
62
7
100
AcDbLine
10
1098.800000000000
20
688.530000000000
30
0.0
11
1130.700000000000
21
688.530000000000
31
0.0
0
LINE
5
4d5
100
AcDbEntity
8
0-0
6
CONTINUOUS
62
7
100
AcDbLine
10
1162.400000000000
20
688.530000000000
30
0.0
11
1162.400000000000
21
658.530000000000
31
0.0
0
LINE
5
4d6
100
AcDbEntity
8
0-0
6
CONTINUOUS
62
7
100
AcDbLine
10
1130.500000000000
20
688.530000000000
30
0.0
11
1162.400000000000
21
688.530000000000
31
0.0
0
LINE
5
4d7
100
AcDbEntity
8
0-0
6
CONTINUOUS
62
7
100
AcDbLine
10
1194.100000000000
20
688.530000000000
30
0.0
11
1194.100000000000
21
658.530000000000
31
0.0
0
LINE
5
4d8
100
AcDbEntity
8
0-0
6
CONTINUOUS
62
7
100
AcDbLine
10
1162.200000000000
20
688.530000000000
30
0.0
11
1194.100000000000
21
688.530000000000
31
0.0
0
LINE
5
4d9
100
AcDbEntity
8
0-0
6
CONTINUOUS
62
7
100
AcDbLine
10
1189.500000000000
20
688.530000000000
30
0.0
11
1221.000000000000
21
688.530000000000
31
0.0
0
LINE
5
4da
100
AcDbEntity
8
0-0
6
CONTINUOUS
62
3
100
AcDbLine
10
452.000000000000
20
625.550000000000
30
0.0
11
452.130000000000
21
625.060000000000
31
0.0
0
LINE
5
4db
100
AcDbEntity
8
0-0
6
CONTINUOUS
62
7
100
AcDbLine
10
452.000000000000
20
688.530000000000
30
0.0
11
465.000000000000
21
688.530000000000
31
0.0
0
LINE
5
4dc
100
AcDbEntity
8
0-0
6
CONTINUOUS
62
3
100
AcDbLine
10
1221.000000000000
20
632.860000000000
30
0.0
11
1221.240000000000
21
632.420000000000
31
0.0
0
LINE
5
4dd
100
AcDbEntity
8
0-0
6
CONTINUOUS
62
7
100
AcDbLine
10
452.000000000000
20
718.530000000000
30
0.0
11
1221.000000000000
21
718.530000000000
31
0.0
0
LINE
5
4de
100
AcDbEntity
8
0-0
6
CONTINUOUS
62
7
100
AcDbLine
10
465.000000000000
20
564.530000000000
30
0.0
11
1162.400000000000
21
564.530000000000
31
0.0
0
LINE
5
4df
100
AcDbEntity
8
0-0
6
CONTINUOUS
62
7
100
AcDbLine
10
465.000000000000
20
534.530000000000
30
0.0
11
1194.100000000000
21
534.530000000000
31
0.0
0
CIRCLE
5
4e0
100
AcDbEntity
8
F-F
6
CONTINUOUS
62
3
100
AcDbCircle
10
79.720000000000
20
67.100000000000
30
0.0
40
11.313709759210
0
CIRCLE
5
4e1
100
AcDbEntity
8
F-F
6
CONTINUOUS
62
3
100
AcDbCircle
10
79.720000000000
20
67.100000000000
30
0.0
40
12.913709270428
0
CIRCLE
5
4e2
100
AcDbEntity
8
F-F
6
CONTINUOUS
62
4
100
AcDbCircle
10
79.720000000000
20
67.100000000000
30
0.0
40
11.473710561919
0
CIRCLE
5
4e3
100
AcDbEntity
8
F-F
6
CONTINUOUS
62
4
100
AcDbCircle
10
79.720000000000
20
67.100000000000
30
0.0
40
11.793707522317
0
CIRCLE
5
4e4
100
AcDbEntity
8
F-F
6
CONTINUOUS
62
4
100
AcDbCircle
10
79.720000000000
20
67.100000000000
30
0.0
40
12.113709127734
0
CIRCLE
5
4e5
100
AcDbEntity
8
F-F
6
CONTINUOUS
62
4
100
AcDbCircle
10
79.720000000000
20
67.100000000000
30
0.0
40
12.433706862302
0
CIRCLE
5
4e6
100
AcDbEntity
8
F-F
6
CONTINUOUS
62
4
100
AcDbCircle
10
79.720000000000
20
67.100000000000
30
0.0
40
12.753706145210
0
ARC
5
4e7
100
AcDbEntity
8
0-0
6
CONTINUOUS
62
3
100
AcDbCircle
10
465.200000000000
20
624.390000000000
30
0.0
40
9.640599959299
100
AcDbArc
50
30.510482788086
51
91.188552856445
0
ARC
5
4e8
100
AcDbEntity
8
0-0
6
CONTINUOUS
62
3
100
AcDbCircle
10
465.200000000000
20
624.390000000000
30
0.0
40
9.140599966887
100
AcDbArc
50
30.510482788086
51
91.253570556641
0
ARC
5
4e9
100
AcDbEntity
8
0-0
6
CONTINUOUS
62
3
100
AcDbCircle
10
512.650000000000
20
633.670000000000
30
0.0
40
9.140599966887
100
AcDbArc
50
210.510223388672
51
270.000000000000
0
ARC
5
4ea
100
AcDbEntity
8
0-0
6
CONTINUOUS
62
3
100
AcDbCircle
10
480.750000000000
20
633.670000000000
30
0.0
40
8.640599974474
100
AcDbArc
50
270.663024902344
51
329.489776611328
0
ARC
5
4eb
100
AcDbEntity
8
0-0
6
CONTINUOUS
62
3
100
AcDbCircle
10
480.750000000000
20
633.670000000000
30
0.0
40
9.140599966887
100
AcDbArc
50
270.626754760742
51
329.489776611328
0
ARC
5
4ec
100
AcDbEntity
8
0-0
6
CONTINUOUS
62
3
100
AcDbCircle
10
480.950000000000
20
633.670000000000
30
0.0
40
8.640599974474
100
AcDbArc
50
210.510223388672
51
269.336975097656
0
ARC
5
4ed
100
AcDbEntity
8
0-0
6
CONTINUOUS
62
3
100
AcDbCircle
10
480.950000000000
20
633.670000000000
30
0.0
40
9.140599966887
100
AcDbArc
50
210.510223388672
51
269.373245239258
0
ARC
5
4ee
100
AcDbEntity
8
0-0
6
CONTINUOUS
62
3
100
AcDbCircle
10
464.800000000000
20
624.390000000000
30
0.0
40
9.640599959299
100
AcDbArc
50
88.811447143555
51
149.489517211914
0
ARC
5
4ef
100
AcDbEntity
8
0-0
6
CONTINUOUS
62
3
100
AcDbCircle
10
464.800000000000
20
624.390000000000
30
0.0
40
9.140599966887
100
AcDbArc
50
88.746429443359
51
149.489517211914
0
ARC
5
4f0
100
AcDbEntity
8
0-0
6
CONTINUOUS
62
3
100
AcDbCircle
10
449.050000000000
20
633.670000000000
30
0.0
40
9.140599966887
100
AcDbArc
50
289.669174194336
51
329.489776611328
0
ARC
5
4f1
100
AcDbEntity
8
0-0
6
CONTINUOUS
62
3
100
AcDbCircle
10
449.050000000000
20
633.670000000000
30
0.0
40
8.640599974474
100
AcDbArc
50
289.962707519531
51
329.489776611328
0
ARC
5
4f2
100
AcDbEntity
8
0-0
6
CONTINUOUS
62
3
100
AcDbCircle
10
496.500000000000
20
624.390000000000
30
0.0
40
9.640599959299
100
AcDbArc
50
88.811447143555
51
149.489517211914
0
ARC
5
4f3
100
AcDbEntity
8
0-0
6
CONTINUOUS
62
3
100
AcDbCircle
10
496.500000000000
20
624.390000000000
30
0.0
40
9.140599966887
100
AcDbArc
50
88.746429443359
51
149.489517211914
0
ARC
5
4f4
100
AcDbEntity
8
0-0
6
CONTINUOUS
62
3
100
AcDbCircle
10
496.900000000000
20
624.390000000000
30
0.0
40
9.640599959299
100
AcDbArc
50
30.510482788086
51
91.188552856445
0
ARC
5
4f5
100
AcDbEntity
8
0-0
6
CONTINUOUS
62
3
100
AcDbCircle
10
496.900000000000
20
624.390000000000
30
0.0
40
9.140599966887
100
AcDbArc
50
30.510482788086
51
91.253570556641
0
ARC
5
4f6
100
AcDbEntity
8
0-0
6
CONTINUOUS
62
3
100
AcDbCircle
10
512.650000000000
20
633.670000000000
30
0.0
40
8.640599974474
100
AcDbArc
50
210.510223388672
51
269.336975097656
0
ARC
5
4f7
100
AcDbEntity
8
0-0
6
CONTINUOUS
62
3
100
AcDbCircle
10
512.450000000000
20
633.670000000000
30
0.0
40
8.640599974474
100
AcDbArc
50
270.663024902344
51
329.489776611328
0
ARC
5
4f8
100
AcDbEntity
8
0-0
6
CONTINUOUS
62
3
100
AcDbCircle
10
512.450000000000
20
633.670000000000
30
0.0
40
9.140599966887
100
AcDbArc
50
270.626754760742
51
329.489776611328
0
ARC
5
4f9
100
AcDbEntity
8
0-0
6
CONTINUOUS
62
3
100
AcDbCircle
10
528.200000000000
20
624.390000000000
30
0.0
40
9.640599959299
100
AcDbArc
50
88.811447143555
51
149.489517211914
0
ARC
5
4fa
100
AcDbEntity
8
0-0
6
CONTINUOUS
62
3
100
AcDbCircle
10
528.200000000000
20
624.390000000000
30
0.0
40
9.140599966887
100
AcDbArc
50
88.746429443359
51
149.489517211914
0
ARC
5
4fb
100
AcDbEntity
8
0-0
6
CONTINUOUS
62
3
100
AcDbCircle
10
544.350000000000
20
633.670000000000
30
0.0
40
9.140599966887
100
AcDbArc
50
210.510223388672
51
270.000000000000
0
ARC
5
4fc
100
AcDbEntity
8
0-0
6
CONTINUOUS
62
3
100
AcDbCircle
10
528.600000000000
20
624.390000000000
30
0.0
40
9.640599959299
100
AcDbArc
50
30.510482788086
51
91.188552856445
0
ARC
5
4fd
100
AcDbEntity
8
0-0
6
CONTINUOUS
62
3
100
AcDbCircle
10
528.600000000000
20
624.390000000000
30
0.0
40
9.140599966887
100
AcDbArc
50
30.510482788086
51
91.253570556641
0
ARC
5
4fe
100
AcDbEntity
8
0-0
6
CONTINUOUS
62
3
100
AcDbCircle
10
544.350000000000
20
633.670000000000
30
0.0
40
8.640599974474
100
AcDbArc
50
210.510223388672
51
269.336975097656
0
ARC
5
4ff
100
AcDbEntity
8
0-0
6
CONTINUOUS
62
3
100
AcDbCircle
10
544.150000000000
20
633.670000000000
30
0.0
40
8.640599974474
100
AcDbArc
50
270.663024902344
51
329.489776611328
0
ARC
5
500
100
AcDbEntity
8
0-0
6
CONTINUOUS
62
3
100
AcDbCircle
10
544.150000000000
20
633.670000000000
30
0.0
40
9.140599966887
100
AcDbArc
50
270.626754760742
51
329.489776611328
0
ARC
5
501
100
AcDbEntity
8
0-0
6
CONTINUOUS
62
3
100
AcDbCircle
10
559.900000000000
20
624.390000000000
30
0.0
40
9.640599959299
100
AcDbArc
50
88.811447143555
51
149.489517211914
0
ARC
5
502
100
AcDbEntity
8
0-0
6
CONTINUOUS
62
3
100
AcDbCircle
10
559.900000000000
20
624.390000000000
30
0.0
40
9.140599966887
100
AcDbArc
50
88.746429443359
51
149.489517211914
0
ARC
5
503
100
AcDbEntity
8
0-0
6
CONTINUOUS
62
3
100
AcDbCircle
10
576.050000000000
20
633.670000000000
30
0.0
40
9.140599966887
100
AcDbArc
50
210.510223388672
51
270.000000000000
0
ARC
5
504
100
AcDbEntity
8
0-0
6
CONTINUOUS
62
3
100
AcDbCircle
10
560.300000000000
20
624.390000000000
30
0.0
40
9.640599959299
100
AcDbArc
50
30.510482788086
51
91.188552856445
0
ARC
5
505
100
AcDbEntity
8
0-0
6
CONTINUOUS
62
3
100
AcDbCircle
10
560.300000000000
20
624.390000000000
30
0.0
40
9.140599966887
100
AcDbArc
50
30.510482788086
51
91.253570556641
0
ARC
5
506
100
AcDbEntity
8
0-0
6
CONTINUOUS
62
3
100
AcDbCircle
10
576.050000000000
20
633.670000000000
30
0.0
40
8.640599974474
100
AcDbArc
50
210.510223388672
51
269.336975097656
0
ARC
5
507
100
AcDbEntity
8
0-0
6
CONTINUOUS
62
3
100
AcDbCircle
10
575.850000000000
20
633.670000000000
30
0.0
40
8.640599974474
100
AcDbArc
50
270.663024902344
51
329.489776611328
0
ARC
5
508
100
AcDbEntity
8
0-0
6
CONTINUOUS
62
3
100
AcDbCircle
10
575.850000000000
20
633.670000000000
30
0.0
40
9.140599966887
100
AcDbArc
50
270.626754760742
51
329.489776611328
0
ARC
5
509
100
AcDbEntity
8
0-0
6
CONTINUOUS
62
3
100
AcDbCircle
10
591.600000000000
20
624.390000000000
30
0.0
40
9.640599959299
100
AcDbArc
50
88.811447143555
51
149.489517211914
0
ARC
5
50a
100
AcDbEntity
8
0-0
6
CONTINUOUS
62
3
100
AcDbCircle
10
591.600000000000
20
624.390000000000
30
0.0
40
9.140599966887
100
AcDbArc
50
88.746429443359
51
149.489517211914
0
ARC
5
50b
100
AcDbEntity
8
0-0
6
CONTINUOUS
62
3
100
AcDbCircle
10
607.750000000000
20
633.670000000000
30
0.0
40
9.140599966887
100
AcDbArc
50
210.510223388672
51
270.000000000000
0
ARC
5
50c
100
AcDbEntity
8
0-0
6
CONTINUOUS
62
3
100
AcDbCircle
10
592.000000000000
20
624.390000000000
30
0.0
40
9.640599959299
100
AcDbArc
50
30.510482788086
51
91.188552856445
0
ARC
5
50d
100
AcDbEntity
8
0-0
6
CONTINUOUS
62
3
100
AcDbCircle
10
592.000000000000
20
624.390000000000
30
0.0
40
9.140599966887
100
AcDbArc
50
30.510482788086
51
91.253570556641
0
ARC
5
50e
100
AcDbEntity
8
0-0
6
CONTINUOUS
62
3
100
AcDbCircle
10
607.750000000000
20
633.670000000000
30
0.0
40
8.640599974474
100
AcDbArc
50
210.510223388672
51
269.336975097656
0
ARC
5
50f
100
AcDbEntity
8
0-0
6
CONTINUOUS
62
3
100
AcDbCircle
10
607.550000000000
20
633.670000000000
30
0.0
40
8.640599974474
100
AcDbArc
50
270.663024902344
51
329.489776611328
0
ARC
5
510
100
AcDbEntity
8
0-0
6
CONTINUOUS
62
3
100
AcDbCircle
10
607.550000000000
20
633.670000000000
30
0.0
40
9.140599966887
100
AcDbArc
50
270.626754760742
51
329.489776611328
0
ARC
5
511
100
AcDbEntity
8
0-0
6
CONTINUOUS
62
3
100
AcDbCircle
10
623.300000000000
20
624.390000000000
30
0.0
40
9.640599959299
100
AcDbArc
50
88.811447143555
51
149.489517211914
0
ARC
5
512
100
AcDbEntity
8
0-0
6
CONTINUOUS
62
3
100
AcDbCircle
10
623.300000000000
20
624.390000000000
30
0.0
40
9.140599966887
100
AcDbArc
50
88.746429443359
51
149.489517211914
0
ARC
5
513
100
AcDbEntity
8
0-0
6
CONTINUOUS
62
3
100
AcDbCircle
10
639.450000000000
20
633.670000000000
30
0.0
40
9.140599966887
100
AcDbArc
50
210.510223388672
51
270.000000000000
0
ARC
5
514
100
AcDbEntity
8
0-0
6
CONTINUOUS
62
3
100
AcDbCircle
10
623.700000000000
20
624.390000000000
30
0.0
40
9.640599959299
100
AcDbArc
50
30.510482788086
51
91.188552856445
0
ARC
5
515
100
AcDbEntity
8
0-0
6
CONTINUOUS
62
3
100
AcDbCircle
10
623.700000000000
20
624.390000000000
30
0.0
40
9.140599966887
100
AcDbArc
50
30.510482788086
51
91.253570556641
0
ARC
5
516
100
AcDbEntity
8
0-0
6
CONTINUOUS
62
3
100
AcDbCircle
10
639.450000000000
20
633.670000000000
30
0.0
40
8.640599974474
100
AcDbArc
50
210.510223388672
51
269.336975097656
0
ARC
5
517
100
AcDbEntity
8
0-0
6
CONTINUOUS
62
3
100
AcDbCircle
10
639.250000000000
20
633.670000000000
30
0.0
40
8.640599974474
100
AcDbArc
50
270.663024902344
51
329.489776611328
0
ARC
5
518
100
AcDbEntity
8
0-0
6
CONTINUOUS
62
3
100
AcDbCircle
10
639.250000000000
20
633.670000000000
30
0.0
40
9.140599966887
100
AcDbArc
50
270.626754760742
51
329.489776611328
0
ARC
5
519
100
AcDbEntity
8
0-0
6
CONTINUOUS
62
3
100
AcDbCircle
10
655.000000000000
20
624.390000000000
30
0.0
40
9.640599959299
100
AcDbArc
50
88.811447143555
51
149.489517211914
0
ARC
5
51a
100
AcDbEntity
8
0-0
6
CONTINUOUS
62
3
100
AcDbCircle
10
655.000000000000
20
624.390000000000
30
0.0
40
9.140599966887
100
AcDbArc
50
88.746429443359
51
149.489517211914
0
ARC
5
51b
100
AcDbEntity
8
0-0
6
CONTINUOUS
62
3
100
AcDbCircle
10
671.150000000000
20
633.670000000000
30
0.0
40
9.140599966887
100
AcDbArc
50
210.510223388672
51
270.000000000000
0
ARC
5
51c
100
AcDbEntity
8
0-0
6
CONTINUOUS
62
3
100
AcDbCircle
10
655.400000000000
20
624.390000000000
30
0.0
40
9.640599959299
100
AcDbArc
50
30.510482788086
51
91.188552856445
0
ARC
5
51d
100
AcDbEntity
8
0-0
6
CONTINUOUS
62
3
100
AcDbCircle
10
655.400000000000
20
624.390000000000
30
0.0
40
9.140599966887
100
AcDbArc
50
30.510482788086
51
91.253570556641
0
ARC
5
51e
100
AcDbEntity
8
0-0
6
CONTINUOUS
62
3
100
AcDbCircle
10
671.150000000000
20
633.670000000000
30
0.0
40
8.640599974474
100
AcDbArc
50
210.510223388672
51
269.336975097656
0
ARC
5
51f
100
AcDbEntity
8
0-0
6
CONTINUOUS
62
3
100
AcDbCircle
10
670.950000000000
20
633.670000000000
30
0.0
40
8.640599974474
100
AcDbArc
50
270.663024902344
51
329.489776611328
0
ARC
5
520
100
AcDbEntity
8
0-0
6
CONTINUOUS
62
3
100
AcDbCircle
10
670.950000000000
20
633.670000000000
30
0.0
40
9.140599966887
100
AcDbArc
50
270.626754760742
51
329.489776611328
0
ARC
5
521
100
AcDbEntity
8
0-0
6
CONTINUOUS
62
3
100
AcDbCircle
10
686.700000000000
20
624.390000000000
30
0.0
40
9.640599959299
100
AcDbArc
50
88.811447143555
51
149.489517211914
0
ARC
5
522
100
AcDbEntity
8
0-0
6
CONTINUOUS
62
3
100
AcDbCircle
10
686.700000000000
20
624.390000000000
30
0.0
40
9.140599966887
100
AcDbArc
50
88.746429443359
51
149.489517211914
0
ARC
5
523
100
AcDbEntity
8
0-0
6
CONTINUOUS
62
3
100
AcDbCircle
10
702.850000000000
20
633.670000000000
30
0.0
40
9.140599966887
100
AcDbArc
50
210.510223388672
51
270.000000000000
0
ARC
5
524
100
AcDbEntity
8
0-0
6
CONTINUOUS
62
3
100
AcDbCircle
10
687.100000000000
20
624.390000000000
30
0.0
40
9.640599959299
100
AcDbArc
50
30.510482788086
51
91.188552856445
0
ARC
5
525
100
AcDbEntity
8
0-0
6
CONTINUOUS
62
3
100
AcDbCircle
10
687.100000000000
20
624.390000000000
30
0.0
40
9.140599966887
100
AcDbArc
50
30.510482788086
51
91.253570556641
0
ARC
5
526
100
AcDbEntity
8
0-0
6
CONTINUOUS
62
3
100
AcDbCircle
10
702.850000000000
20
633.670000000000
30
0.0
40
8.640599974474
100
AcDbArc
50
210.510223388672
51
269.336975097656
0
ARC
5
527
100
AcDbEntity
8
0-0
6
CONTINUOUS
62
3
100
AcDbCircle
10
702.650000000000
20
633.670000000000
30
0.0
40
8.640599974474
100
AcDbArc
50
270.663024902344
51
329.489776611328
0
ARC
5
528
100
AcDbEntity
8
0-0
6
CONTINUOUS
62
3
100
AcDbCircle
10
702.650000000000
20
633.670000000000
30
0.0
40
9.140599966887
100
AcDbArc
50
270.626754760742
51
329.489776611328
0
ARC
5
529
100
AcDbEntity
8
0-0
6
CONTINUOUS
62
3
100
AcDbCircle
10
718.400000000000
20
624.390000000000
30
0.0
40
9.640599959299
100
AcDbArc
50
88.811447143555
51
149.489517211914
0
ARC
5
52a
100
AcDbEntity
8
0-0
6
CONTINUOUS
62
3
100
AcDbCircle
10
718.400000000000
20
624.390000000000
30
0.0
40
9.140599966887
100
AcDbArc
50
88.746429443359
51
149.489517211914
0
ARC
5
52b
100
AcDbEntity
8
0-0
6
CONTINUOUS
62
3
100
AcDbCircle
10
734.550000000000
20
633.670000000000
30
0.0
40
9.140599966887
100
AcDbArc
50
210.510223388672
51
270.000000000000
0
ARC
5
52c
100
AcDbEntity
8
0-0
6
CONTINUOUS
62
3
100
AcDbCircle
10
718.800000000000
20
624.390000000000
30
0.0
40
9.640599959299
100
AcDbArc
50
30.510482788086
51
91.188552856445
0
ARC
5
52d
100
AcDbEntity
8
0-0
6
CONTINUOUS
62
3
100
AcDbCircle
10
718.800000000000
20
624.390000000000
30
0.0
40
9.140599966887
100
AcDbArc
50
30.510482788086
51
91.253570556641
0
ARC
5
52e
100
AcDbEntity
8
0-0
6
CONTINUOUS
62
3
100
AcDbCircle
10
734.550000000000
20
633.670000000000
30
0.0
40
8.640599974474
100
AcDbArc
50
210.510223388672
51
269.336975097656
0
ARC
5
52f
100
AcDbEntity
8
0-0
6
CONTINUOUS
62
3
100
AcDbCircle
10
734.350000000000
20
633.670000000000
30
0.0
40
8.640599974474
100
AcDbArc
50
270.663024902344
51
329.489776611328
0
ARC
5
530
100
AcDbEntity
8
0-0
6
CONTINUOUS
62
3
100
AcDbCircle
10
734.350000000000
20
633.670000000000
30
0.0
40
9.140599966887
100
AcDbArc
50
270.626754760742
51
329.489776611328
0
ARC
5
531
100
AcDbEntity
8
0-0
6
CONTINUOUS
62
3
100
AcDbCircle
10
750.100000000000
20
624.390000000000
30
0.0
40
9.640599959299
100
AcDbArc
50
88.811447143555
51
149.489517211914
0
ARC
5
532
100
AcDbEntity
8
0-0
6
CONTINUOUS
62
3
100
AcDbCircle
10
750.100000000000
20
624.390000000000
30
0.0
40
9.140599966887
100
AcDbArc
50
88.746429443359
51
149.489517211914
0
ARC
5
533
100
AcDbEntity
8
0-0
6
CONTINUOUS
62
3
100
AcDbCircle
10
766.250000000000
20
633.670000000000
30
0.0
40
9.140599966887
100
AcDbArc
50
210.510223388672
51
270.000000000000
0
ARC
5
534
100
AcDbEntity
8
0-0
6
CONTINUOUS
62
3
100
AcDbCircle
10
750.500000000000
20
624.390000000000
30
0.0
40
9.640599959299
100
AcDbArc
50
30.510482788086
51
91.188552856445
0
ARC
5
535
100
AcDbEntity
8
0-0
6
CONTINUOUS
62
3
100
AcDbCircle
10
750.500000000000
20
624.390000000000
30
0.0
40
9.140599966887
100
AcDbArc
50
30.510482788086
51
91.253570556641
0
ARC
5
536
100
AcDbEntity
8
0-0
6
CONTINUOUS
62
3
100
AcDbCircle
10
766.250000000000
20
633.670000000000
30
0.0
40
8.640599974474
100
AcDbArc
50
210.510223388672
51
269.336975097656
0
ARC
5
537
100
AcDbEntity
8
0-0
6
CONTINUOUS
62
3
100
AcDbCircle
10
766.050000000000
20
633.670000000000
30
0.0
40
8.640599974474
100
AcDbArc
50
270.663024902344
51
329.489776611328
0
ARC
5
538
100
AcDbEntity
8
0-0
6
CONTINUOUS
62
3
100
AcDbCircle
10
766.050000000000
20
633.670000000000
30
0.0
40
9.140599966887
100
AcDbArc
50
270.626754760742
51
329.489776611328
0
ARC
5
539
100
AcDbEntity
8
0-0
6
CONTINUOUS
62
3
100
AcDbCircle
10
781.800000000000
20
624.390000000000
30
0.0
40
9.640599959299
100
AcDbArc
50
88.811447143555
51
149.489517211914
0
ARC
5
53a
100
AcDbEntity
8
0-0
6
CONTINUOUS
62
3
100
AcDbCircle
10
781.800000000000
20
624.390000000000
30
0.0
40
9.140599966887
100
AcDbArc
50
88.746429443359
51
149.489517211914
0
ARC
5
53b
100
AcDbEntity
8
0-0
6
CONTINUOUS
62
3
100
AcDbCircle
10
797.950000000000
20
633.670000000000
30
0.0
40
9.140599966887
100
AcDbArc
50
210.510223388672
51
270.000000000000
0
ARC
5
53c
100
AcDbEntity
8
0-0
6
CONTINUOUS
62
3
100
AcDbCircle
10
782.200000000000
20
624.390000000000
30
0.0
40
9.640599959299
100
AcDbArc
50
30.510482788086
51
91.188552856445
0
ARC
5
53d
100
AcDbEntity
8
0-0
6
CONTINUOUS
62
3
100
AcDbCircle
10
782.200000000000
20
624.390000000000
30
0.0
40
9.140599966887
100
AcDbArc
50
30.510482788086
51
91.253570556641
0
ARC
5
53e
100
AcDbEntity
8
0-0
6
CONTINUOUS
62
3
100
AcDbCircle
10
797.950000000000
20
633.670000000000
30
0.0
40
8.640599974474
100
AcDbArc
50
210.510223388672
51
269.336975097656
0
ARC
5
53f
100
AcDbEntity
8
0-0
6
CONTINUOUS
62
3
100
AcDbCircle
10
797.750000000000
20
633.670000000000
30
0.0
40
8.640599974474
100
AcDbArc
50
270.663024902344
51
329.489776611328
0
ARC
5
540
100
AcDbEntity
8
0-0
6
CONTINUOUS
62
3
100
AcDbCircle
10
797.750000000000
20
633.670000000000
30
0.0
40
9.140599966887
100
AcDbArc
50
270.626754760742
51
329.489776611328
0
ARC
5
541
100
AcDbEntity
8
0-0
6
CONTINUOUS
62
3
100
AcDbCircle
10
813.500000000000
20
624.390000000000
30
0.0
40
9.640599959299
100
AcDbArc
50
88.811447143555
51
149.489517211914
0
ARC
5
542
100
AcDbEntity
8
0-0
6
CONTINUOUS
62
3
100
AcDbCircle
10
813.500000000000
20
624.390000000000
30
0.0
40
9.140599966887
100
AcDbArc
50
88.746429443359
51
149.489517211914
0
ARC
5
543
100
AcDbEntity
8
0-0
6
CONTINUOUS
62
3
100
AcDbCircle
10
829.650000000000
20
633.670000000000
30
0.0
40
9.140599966887
100
AcDbArc
50
210.510223388672
51
270.000000000000
0
ARC
5
544
100
AcDbEntity
8
0-0
6
CONTINUOUS
62
3
100
AcDbCircle
10
813.900000000000
20
624.390000000000
30
0.0
40
9.640599959299
100
AcDbArc
50
30.510482788086
51
91.188552856445
0
ARC
5
545
100
AcDbEntity
8
0-0
6
CONTINUOUS
62
3
100
AcDbCircle
10
813.900000000000
20
624.390000000000
30
0.0
40
9.140599966887
100
AcDbArc
50
30.510482788086
51
91.253570556641
0
ARC
5
546
100
AcDbEntity
8
0-0
6
CONTINUOUS
62
3
100
AcDbCircle
10
829.650000000000
20
633.670000000000
30
0.0
40
8.640599974474
100
AcDbArc
50
210.510223388672
51
269.336975097656
0
ARC
5
547
100
AcDbEntity
8
0-0
6
CONTINUOUS
62
3
100
AcDbCircle
10
829.450000000000
20
633.670000000000
30
0.0
40
8.640599974474
100
AcDbArc
50
270.663024902344
51
329.489776611328
0
ARC
5
548
100
AcDbEntity
8
0-0
6
CONTINUOUS
62
3
100
AcDbCircle
10
829.450000000000
20
633.670000000000
30
0.0
40
9.140599966887
100
AcDbArc
50
270.626754760742
51
329.489776611328
0
ARC
5
549
100
AcDbEntity
8
0-0
6
CONTINUOUS
62
3
100
AcDbCircle
10
845.200000000000
20
624.390000000000
30
0.0
40
9.640599959299
100
AcDbArc
50
88.811447143555
51
149.489517211914
0
ARC
5
54a
100
AcDbEntity
8
0-0
6
CONTINUOUS
62
3
100
AcDbCircle
10
845.200000000000
20
624.390000000000
30
0.0
40
9.140599966887
100
AcDbArc
50
88.746429443359
51
149.489517211914
0
ARC
5
54b
100
AcDbEntity
8
0-0
6
CONTINUOUS
62
3
100
AcDbCircle
10
861.350000000000
20
633.670000000000
30
0.0
40
9.140599966887
100
AcDbArc
50
210.510223388672
51
270.000000000000
0
ARC
5
54c
100
AcDbEntity
8
0-0
6
CONTINUOUS
62
3
100
AcDbCircle
10
845.600000000000
20
624.390000000000
30
0.0
40
9.640599959299
100
AcDbArc
50
30.510482788086
51
91.188552856445
0
ARC
5
54d
100
AcDbEntity
8
0-0
6
CONTINUOUS
62
3
100
AcDbCircle
10
845.600000000000
20
624.390000000000
30
0.0
40
9.140599966887
100
AcDbArc
50
30.510482788086
51
91.253570556641
0
ARC
5
54e
100
AcDbEntity
8
0-0
6
CONTINUOUS
62
3
100
AcDbCircle
10
861.350000000000
20
633.670000000000
30
0.0
40
8.640599974474
100
AcDbArc
50
210.510223388672
51
269.336975097656
0
ARC
5
54f
100
AcDbEntity
8
0-0
6
CONTINUOUS
62
3
100
AcDbCircle
10
861.150000000000
20
633.670000000000
30
0.0
40
8.640599974474
100
AcDbArc
50
270.663024902344
51
329.489776611328
0
ARC
5
550
100
AcDbEntity
8
0-0
6
CONTINUOUS
62
3
100
AcDbCircle
10
861.150000000000
20
633.670000000000
30
0.0
40
9.140599966887
100
AcDbArc
50
270.626754760742
51
329.489776611328
0
ARC
5
551
100
AcDbEntity
8
0-0
6
CONTINUOUS
62
3
100
AcDbCircle
10
876.900000000000
20
624.390000000000
30
0.0
40
9.640599959299
100
AcDbArc
50
88.811447143555
51
149.489517211914
0
ARC
5
552
100
AcDbEntity
8
0-0
6
CONTINUOUS
62
3
100
AcDbCircle
10
876.900000000000
20
624.390000000000
30
0.0
40
9.140599966887
100
AcDbArc
50
88.746429443359
51
149.489517211914
0
ARC
5
553
100
AcDbEntity
8
0-0
6
CONTINUOUS
62
3
100
AcDbCircle
10
893.050000000000
20
633.670000000000
30
0.0
40
9.140599966887
100
AcDbArc
50
210.510223388672
51
270.000000000000
0
ARC
5
554
100
AcDbEntity
8
0-0
6
CONTINUOUS
62
3
100
AcDbCircle
10
877.300000000000
20
624.390000000000
30
0.0
40
9.640599959299
100
AcDbArc
50
30.510482788086
51
91.188552856445
0
ARC
5
555
100
AcDbEntity
8
0-0
6
CONTINUOUS
62
3
100
AcDbCircle
10
877.300000000000
20
624.390000000000
30
0.0
40
9.140599966887
100
AcDbArc
50
30.510482788086
51
91.253570556641
0
ARC
5
556
100
AcDbEntity
8
0-0
6
CONTINUOUS
62
3
100
AcDbCircle
10
893.050000000000
20
633.670000000000
30
0.0
40
8.640599974474
100
AcDbArc
50
210.510223388672
51
269.336975097656
0
ARC
5
557
100
AcDbEntity
8
0-0
6
CONTINUOUS
62
3
100
AcDbCircle
10
892.850000000000
20
633.670000000000
30
0.0
40
8.640599974474
100
AcDbArc
50
270.663024902344
51
329.489776611328
0
ARC
5
558
100
AcDbEntity
8
0-0
6
CONTINUOUS
62
3
100
AcDbCircle
10
892.850000000000
20
633.670000000000
30
0.0
40
9.140599966887
100
AcDbArc
50
270.626754760742
51
329.489776611328
0
ARC
5
559
100
AcDbEntity
8
0-0
6
CONTINUOUS
62
3
100
AcDbCircle
10
908.600000000000
20
624.390000000000
30
0.0
40
9.640599959299
100
AcDbArc
50
88.811447143555
51
149.489517211914
0
ARC
5
55a
100
AcDbEntity
8
0-0
6
CONTINUOUS
62
3
100
AcDbCircle
10
908.600000000000
20
624.390000000000
30
0.0
40
9.140599966887
100
AcDbArc
50
88.746429443359
51
149.489517211914
0
ARC
5
55b
100
AcDbEntity
8
0-0
6
CONTINUOUS
62
3
100
AcDbCircle
10
924.750000000000
20
633.670000000000
30
0.0
40
9.140599966887
100
AcDbArc
50
210.510223388672
51
270.000000000000
0
ARC
5
55c
100
AcDbEntity
8
0-0
6
CONTINUOUS
62
3
100
AcDbCircle
10
909.000000000000
20
624.390000000000
30
0.0
40
9.640599959299
100
AcDbArc
50
30.510482788086
51
91.188552856445
0
ARC
5
55d
100
AcDbEntity
8
0-0
6
CONTINUOUS
62
3
100
AcDbCircle
10
909.000000000000
20
624.390000000000
30
0.0
40
9.140599966887
100
AcDbArc
50
30.510482788086
51
91.253570556641
0
ARC
5
55e
100
AcDbEntity
8
0-0
6
CONTINUOUS
62
3
100
AcDbCircle
10
924.750000000000
20
633.670000000000
30
0.0
40
8.640599974474
100
AcDbArc
50
210.510223388672
51
269.336975097656
0
ARC
5
55f
100
AcDbEntity
8
0-0
6
CONTINUOUS
62
3
100
AcDbCircle
10
924.550000000000
20
633.670000000000
30
0.0
40
8.640599974474
100
AcDbArc
50
270.663024902344
51
329.489776611328
0
ARC
5
560
100
AcDbEntity
8
0-0
6
CONTINUOUS
62
3
100
AcDbCircle
10
924.550000000000
20
633.670000000000
30
0.0
40
9.140599966887
100
AcDbArc
50
270.626754760742
51
329.489776611328
0
ARC
5
561
100
AcDbEntity
8
0-0
6
CONTINUOUS
62
3
100
AcDbCircle
10
940.300000000000
20
624.390000000000
30
0.0
40
9.640599959299
100
AcDbArc
50
88.811447143555
51
149.489517211914
0
ARC
5
562
100
AcDbEntity
8
0-0
6
CONTINUOUS
62
3
100
AcDbCircle
10
940.300000000000
20
624.390000000000
30
0.0
40
9.140599966887
100
AcDbArc
50
88.746429443359
51
149.489517211914
0
ARC
5
563
100
AcDbEntity
8
0-0
6
CONTINUOUS
62
3
100
AcDbCircle
10
956.450000000000
20
633.670000000000
30
0.0
40
9.140599966887
100
AcDbArc
50
210.510223388672
51
270.000000000000
0
ARC
5
564
100
AcDbEntity
8
0-0
6
CONTINUOUS
62
3
100
AcDbCircle
10
940.700000000000
20
624.390000000000
30
0.0
40
9.640599959299
100
AcDbArc
50
30.510482788086
51
91.188552856445
0
ARC
5
565
100
AcDbEntity
8
0-0
6
CONTINUOUS
62
3
100
AcDbCircle
10
940.700000000000
20
624.390000000000
30
0.0
40
9.140599966887
100
AcDbArc
50
30.510482788086
51
91.253570556641
0
ARC
5
566
100
AcDbEntity
8
0-0
6
CONTINUOUS
62
3
100
AcDbCircle
10
956.450000000000
20
633.670000000000
30
0.0
40
8.640599974474
100
AcDbArc
50
210.510223388672
51
269.336975097656
0
ARC
5
567
100
AcDbEntity
8
0-0
6
CONTINUOUS
62
3
100
AcDbCircle
10
956.250000000000
20
633.670000000000
30
0.0
40
8.640599974474
100
AcDbArc
50
270.663024902344
51
329.489776611328
0
ARC
5
568
100
AcDbEntity
8
0-0
6
CONTINUOUS
62
3
100
AcDbCircle
10
956.250000000000
20
633.670000000000
30
0.0
40
9.140599966887
100
AcDbArc
50
270.626754760742
51
329.489776611328
0
ARC
5
569
100
AcDbEntity
8
0-0
6
CONTINUOUS
62
3
100
AcDbCircle
10
972.000000000000
20
624.390000000000
30
0.0
40
9.640599959299
100
AcDbArc
50
88.811447143555
51
149.489517211914
0
ARC
5
56a
100
AcDbEntity
8
0-0
6
CONTINUOUS
62
3
100
AcDbCircle
10
972.000000000000
20
624.390000000000
30
0.0
40
9.140599966887
100
AcDbArc
50
88.746429443359
51
149.489517211914
0
ARC
5
56b
100
AcDbEntity
8
0-0
6
CONTINUOUS
62
3
100
AcDbCircle
10
988.150000000000
20
633.670000000000
30
0.0
40
9.140599966887
100
AcDbArc
50
210.510223388672
51
270.000000000000
0
ARC
5
56c
100
AcDbEntity
8
0-0
6
CONTINUOUS
62
3
100
AcDbCircle
10
972.400000000000
20
624.390000000000
30
0.0
40
9.640599959299
100
AcDbArc
50
30.510482788086
51
91.188552856445
0
ARC
5
56d
100
AcDbEntity
8
0-0
6
CONTINUOUS
62
3
100
AcDbCircle
10
972.400000000000
20
624.390000000000
30
0.0
40
9.140599966887
100
AcDbArc
50
30.510482788086
51
91.253570556641
0
ARC
5
56e
100
AcDbEntity
8
0-0
6
CONTINUOUS
62
3
100
AcDbCircle
10
988.150000000000
20
633.670000000000
30
0.0
40
8.640599974474
100
AcDbArc
50
210.510223388672
51
269.336975097656
0
ARC
5
56f
100
AcDbEntity
8
0-0
6
CONTINUOUS
62
3
100
AcDbCircle
10
987.950000000000
20
633.670000000000
30
0.0
40
8.640599974474
100
AcDbArc
50
270.663024902344
51
329.489776611328
0
ARC
5
570
100
AcDbEntity
8
0-0
6
CONTINUOUS
62
3
100
AcDbCircle
10
987.950000000000
20
633.670000000000
30
0.0
40
9.140599966887
100
AcDbArc
50
270.626754760742
51
329.489776611328
0
ARC
5
571
100
AcDbEntity
8
0-0
6
CONTINUOUS
62
3
100
AcDbCircle
10
1003.700000000000
20
624.390000000000
30
0.0
40
9.640599959299
100
AcDbArc
50
88.811447143555
51
149.489517211914
0
ARC
5
572
100
AcDbEntity
8
0-0
6
CONTINUOUS
62
3
100
AcDbCircle
10
1003.700000000000
20
624.390000000000
30
0.0
40
9.140599966887
100
AcDbArc
50
88.746429443359
51
149.489517211914
0
ARC
5
573
100
AcDbEntity
8
0-0
6
CONTINUOUS
62
3
100
AcDbCircle
10
1019.850000000000
20
633.670000000000
30
0.0
40
9.140599966887
100
AcDbArc
50
210.510223388672
51
270.000000000000
0
ARC
5
574
100
AcDbEntity
8
0-0
6
CONTINUOUS
62
3
100
AcDbCircle
10
1004.100000000000
20
624.390000000000
30
0.0
40
9.640599959299
100
AcDbArc
50
30.510482788086
51
91.188552856445
0
ARC
5
575
100
AcDbEntity
8
0-0
6
CONTINUOUS
62
3
100
AcDbCircle
10
1004.100000000000
20
624.390000000000
30
0.0
40
9.140599966887
100
AcDbArc
50
30.510482788086
51
91.253570556641
0
ARC
5
576
100
AcDbEntity
8
0-0
6
CONTINUOUS
62
3
100
AcDbCircle
10
1019.850000000000
20
633.670000000000
30
0.0
40
8.640599974474
100
AcDbArc
50
210.510223388672
51
269.336975097656
0
ARC
5
577
100
AcDbEntity
8
0-0
6
CONTINUOUS
62
3
100
AcDbCircle
10
1019.650000000000
20
633.670000000000
30
0.0
40
8.640599974474
100
AcDbArc
50
270.663024902344
51
329.489776611328
0
ARC
5
578
100
AcDbEntity
8
0-0
6
CONTINUOUS
62
3
100
AcDbCircle
10
1019.650000000000
20
633.670000000000
30
0.0
40
9.140599966887
100
AcDbArc
50
270.626754760742
51
329.489776611328
0
ARC
5
579
100
AcDbEntity
8
0-0
6
CONTINUOUS
62
3
100
AcDbCircle
10
1035.400000000000
20
624.390000000000
30
0.0
40
9.640599959299
100
AcDbArc
50
88.811447143555
51
149.489517211914
0
ARC
5
57a
100
AcDbEntity
8
0-0
6
CONTINUOUS
62
3
100
AcDbCircle
10
1035.400000000000
20
624.390000000000
30
0.0
40
9.140599966887
100
AcDbArc
50
88.746429443359
51
149.489517211914
0
ARC
5
57b
100
AcDbEntity
8
0-0
6
CONTINUOUS
62
3
100
AcDbCircle
10
1051.550000000000
20
633.670000000000
30
0.0
40
9.140599966887
100
AcDbArc
50
210.510223388672
51
270.000000000000
0
ARC
5
57c
100
AcDbEntity
8
0-0
6
CONTINUOUS
62
3
100
AcDbCircle
10
1035.800000000000
20
624.390000000000
30
0.0
40
9.640599959299
100
AcDbArc
50
30.510482788086
51
91.188552856445
0
ARC
5
57d
100
AcDbEntity
8
0-0
6
CONTINUOUS
62
3
100
AcDbCircle
10
1035.800000000000
20
624.390000000000
30
0.0
40
9.140599966887
100
AcDbArc
50
30.510482788086
51
91.253570556641
0
ARC
5
57e
100
AcDbEntity
8
0-0
6
CONTINUOUS
62
3
100
AcDbCircle
10
1051.550000000000
20
633.670000000000
30
0.0
40
8.640599974474
100
AcDbArc
50
210.510223388672
51
269.336975097656
0
ARC
5
57f
100
AcDbEntity
8
0-0
6
CONTINUOUS
62
3
100
AcDbCircle
10
1051.350000000000
20
633.670000000000
30
0.0
40
8.640599974474
100
AcDbArc
50
270.663024902344
51
329.489776611328
0
ARC
5
580
100
AcDbEntity
8
0-0
6
CONTINUOUS
62
3
100
AcDbCircle
10
1051.350000000000
20
633.670000000000
30
0.0
40
9.140599966887
100
AcDbArc
50
270.626754760742
51
329.489776611328
0
ARC
5
581
100
AcDbEntity
8
0-0
6
CONTINUOUS
62
3
100
AcDbCircle
10
1067.100000000000
20
624.390000000000
30
0.0
40
9.640599959299
100
AcDbArc
50
88.811447143555
51
149.489517211914
0
ARC
5
582
100
AcDbEntity
8
0-0
6
CONTINUOUS
62
3
100
AcDbCircle
10
1067.100000000000
20
624.390000000000
30
0.0
40
9.140599966887
100
AcDbArc
50
88.746429443359
51
149.489517211914
0
ARC
5
583
100
AcDbEntity
8
0-0
6
CONTINUOUS
62
3
100
AcDbCircle
10
1083.250000000000
20
633.670000000000
30
0.0
40
9.140599966887
100
AcDbArc
50
210.510223388672
51
270.000000000000
0
ARC
5
584
100
AcDbEntity
8
0-0
6
CONTINUOUS
62
3
100
AcDbCircle
10
1067.500000000000
20
624.390000000000
30
0.0
40
9.640599959299
100
AcDbArc
50
30.510482788086
51
91.188552856445
0
ARC
5
585
100
AcDbEntity
8
0-0
6
CONTINUOUS
62
3
100
AcDbCircle
10
1067.500000000000
20
624.390000000000
30
0.0
40
9.140599966887
100
AcDbArc
50
30.510482788086
51
91.253570556641
0
ARC
5
586
100
AcDbEntity
8
0-0
6
CONTINUOUS
62
3
100
AcDbCircle
10
1083.250000000000
20
633.670000000000
30
0.0
40
8.640599974474
100
AcDbArc
50
210.510223388672
51
269.336975097656
0
ARC
5
587
100
AcDbEntity
8
0-0
6
CONTINUOUS
62
3
100
AcDbCircle
10
1083.050000000000
20
633.670000000000
30
0.0
40
8.640599974474
100
AcDbArc
50
270.663024902344
51
329.489776611328
0
ARC
5
588
100
AcDbEntity
8
0-0
6
CONTINUOUS
62
3
100
AcDbCircle
10
1083.050000000000
20
633.670000000000
30
0.0
40
9.140599966887
100
AcDbArc
50
270.626754760742
51
329.489776611328
0
ARC
5
589
100
AcDbEntity
8
0-0
6
CONTINUOUS
62
3
100
AcDbCircle
10
1098.800000000000
20
624.390000000000
30
0.0
40
9.640599959299
100
AcDbArc
50
88.811447143555
51
149.489517211914
0
ARC
5
58a
100
AcDbEntity
8
0-0
6
CONTINUOUS
62
3
100
AcDbCircle
10
1098.800000000000
20
624.390000000000
30
0.0
40
9.140599966887
100
AcDbArc
50
88.746429443359
51
149.489517211914
0
ARC
5
58b
100
AcDbEntity
8
0-0
6
CONTINUOUS
62
3
100
AcDbCircle
10
1114.950000000000
20
633.670000000000
30
0.0
40
9.140599966887
100
AcDbArc
50
210.510223388672
51
270.000000000000
0
ARC
5
58c
100
AcDbEntity
8
0-0
6
CONTINUOUS
62
3
100
AcDbCircle
10
1099.200000000000
20
624.390000000000
30
0.0
40
9.640599959299
100
AcDbArc
50
30.510482788086
51
91.188552856445
0
ARC
5
58d
100
AcDbEntity
8
0-0
6
CONTINUOUS
62
3
100
AcDbCircle
10
1099.200000000000
20
624.390000000000
30
0.0
40
9.140599966887
100
AcDbArc
50
30.510482788086
51
91.253570556641
0
ARC
5
58e
100
AcDbEntity
8
0-0
6
CONTINUOUS
62
3
100
AcDbCircle
10
1114.950000000000
20
633.670000000000
30
0.0
40
8.640599974474
100
AcDbArc
50
210.510223388672
51
269.336975097656
0
ARC
5
58f
100
AcDbEntity
8
0-0
6
CONTINUOUS
62
3
100
AcDbCircle
10
1114.750000000000
20
633.670000000000
30
0.0
40
8.640599974474
100
AcDbArc
50
270.663024902344
51
329.489776611328
0
ARC
5
590
100
AcDbEntity
8
0-0
6
CONTINUOUS
62
3
100
AcDbCircle
10
1114.750000000000
20
633.670000000000
30
0.0
40
9.140599966887
100
AcDbArc
50
270.626754760742
51
329.489776611328
0
ARC
5
591
100
AcDbEntity
8
0-0
6
CONTINUOUS
62
3
100
AcDbCircle
10
1130.500000000000
20
624.390000000000
30
0.0
40
9.640599959299
100
AcDbArc
50
88.811447143555
51
149.489517211914
0
ARC
5
592
100
AcDbEntity
8
0-0
6
CONTINUOUS
62
3
100
AcDbCircle
10
1130.500000000000
20
624.390000000000
30
0.0
40
9.140599966887
100
AcDbArc
50
88.746429443359
51
149.489517211914
0
ARC
5
593
100
AcDbEntity
8
0-0
6
CONTINUOUS
62
3
100
AcDbCircle
10
1146.650000000000
20
633.670000000000
30
0.0
40
9.140599966887
100
AcDbArc
50
210.510223388672
51
270.000000000000
0
ARC
5
594
100
AcDbEntity
8
0-0
6
CONTINUOUS
62
3
100
AcDbCircle
10
1130.900000000000
20
624.390000000000
30
0.0
40
9.640599959299
100
AcDbArc
50
30.510482788086
51
91.188552856445
0
ARC
5
595
100
AcDbEntity
8
0-0
6
CONTINUOUS
62
3
100
AcDbCircle
10
1130.900000000000
20
624.390000000000
30
0.0
40
9.140599966887
100
AcDbArc
50
30.510482788086
51
91.253570556641
0
ARC
5
596
100
AcDbEntity
8
0-0
6
CONTINUOUS
62
3
100
AcDbCircle
10
1146.650000000000
20
633.670000000000
30
0.0
40
8.640599974474
100
AcDbArc
50
210.510223388672
51
269.336975097656
0
ARC
5
597
100
AcDbEntity
8
0-0
6
CONTINUOUS
62
3
100
AcDbCircle
10
1146.450000000000
20
633.670000000000
30
0.0
40
8.640599974474
100
AcDbArc
50
270.663024902344
51
329.489776611328
0
ARC
5
598
100
AcDbEntity
8
0-0
6
CONTINUOUS
62
3
100
AcDbCircle
10
1146.450000000000
20
633.670000000000
30
0.0
40
9.140599966887
100
AcDbArc
50
270.626754760742
51
329.489776611328
0
ARC
5
599
100
AcDbEntity
8
0-0
6
CONTINUOUS
62
3
100
AcDbCircle
10
1162.200000000000
20
624.390000000000
30
0.0
40
9.640599959299
100
AcDbArc
50
88.811447143555
51
149.489517211914
0
ARC
5
59a
100
AcDbEntity
8
0-0
6
CONTINUOUS
62
3
100
AcDbCircle
10
1162.200000000000
20
624.390000000000
30
0.0
40
9.140599966887
100
AcDbArc
50
88.746429443359
51
149.489517211914
0
ARC
5
59b
100
AcDbEntity
8
0-0
6
CONTINUOUS
62
3
100
AcDbCircle
10
1178.350000000000
20
633.670000000000
30
0.0
40
9.140599966887
100
AcDbArc
50
210.510223388672
51
270.000000000000
0
ARC
5
59c
100
AcDbEntity
8
0-0
6
CONTINUOUS
62
3
100
AcDbCircle
10
1162.600000000000
20
624.390000000000
30
0.0
40
9.640599959299
100
AcDbArc
50
30.510482788086
51
91.188552856445
0
ARC
5
59d
100
AcDbEntity
8
0-0
6
CONTINUOUS
62
3
100
AcDbCircle
10
1162.600000000000
20
624.390000000000
30
0.0
40
9.140599966887
100
AcDbArc
50
30.510482788086
51
91.253570556641
0
ARC
5
59e
100
AcDbEntity
8
0-0
6
CONTINUOUS
62
3
100
AcDbCircle
10
1178.350000000000
20
633.670000000000
30
0.0
40
8.640599974474
100
AcDbArc
50
210.510223388672
51
269.336975097656
0
ARC
5
59f
100
AcDbEntity
8
0-0
6
CONTINUOUS
62
3
100
AcDbCircle
10
1178.150000000000
20
633.670000000000
30
0.0
40
8.640599974474
100
AcDbArc
50
270.663024902344
51
329.489776611328
0
ARC
5
5a0
100
AcDbEntity
8
0-0
6
CONTINUOUS
62
3
100
AcDbCircle
10
1178.150000000000
20
633.670000000000
30
0.0
40
9.140599966887
100
AcDbArc
50
270.626754760742
51
329.489776611328
0
ARC
5
5a1
100
AcDbEntity
8
0-0
6
CONTINUOUS
62
3
100
AcDbCircle
10
1193.900000000000
20
624.390000000000
30
0.0
40
9.640599959299
100
AcDbArc
50
88.811447143555
51
149.489517211914
0
ARC
5
5a2
100
AcDbEntity
8
0-0
6
CONTINUOUS
62
3
100
AcDbCircle
10
1193.900000000000
20
624.390000000000
30
0.0
40
9.140599966887
100
AcDbArc
50
88.746429443359
51
149.489517211914
0
ARC
5
5a3
100
AcDbEntity
8
0-0
6
CONTINUOUS
62
3
100
AcDbCircle
10
1210.050000000000
20
633.670000000000
30
0.0
40
9.140599966887
100
AcDbArc
50
210.510223388672
51
270.000000000000
0
ARC
5
5a4
100
AcDbEntity
8
0-0
6
CONTINUOUS
62
3
100
AcDbCircle
10
1194.300000000000
20
624.390000000000
30
0.0
40
9.640599959299
100
AcDbArc
50
30.510482788086
51
91.188552856445
0
ARC
5
5a5
100
AcDbEntity
8
0-0
6
CONTINUOUS
62
3
100
AcDbCircle
10
1194.300000000000
20
624.390000000000
30
0.0
40
9.140599966887
100
AcDbArc
50
30.510482788086
51
91.253570556641
0
ARC
5
5a6
100
AcDbEntity
8
0-0
6
CONTINUOUS
62
3
100
AcDbCircle
10
1210.050000000000
20
633.670000000000
30
0.0
40
8.640599974474
100
AcDbArc
50
210.510223388672
51
269.336975097656
0
ARC
5
5a7
100
AcDbEntity
8
0-0
6
CONTINUOUS
62
3
100
AcDbCircle
10
1209.850000000000
20
633.670000000000
30
0.0
40
8.640599974474
100
AcDbArc
50
270.663024902344
51
329.489776611328
0
ARC
5
5a8
100
AcDbEntity
8
0-0
6
CONTINUOUS
62
3
100
AcDbCircle
10
1209.850000000000
20
633.670000000000
30
0.0
40
9.140599966887
100
AcDbArc
50
270.626754760742
51
329.489776611328
0
ARC
5
5a9
100
AcDbEntity
8
0-0
6
CONTINUOUS
62
3
100
AcDbCircle
10
1225.600000000000
20
624.390000000000
30
0.0
40
9.640599959299
100
AcDbArc
50
118.498870849609
51
149.489517211914
0
ARC
5
5aa
100
AcDbEntity
8
0-0
6
CONTINUOUS
62
3
100
AcDbCircle
10
1225.600000000000
20
624.390000000000
30
0.0
40
9.140599966887
100
AcDbArc
50
118.498672485352
51
149.489517211914
0
TEXT
5
5ab
100
AcDbEntity
8
F-F
62
3
100
AcDbText
10
531.856
20
74.854
30
0.0
40
5.850
1
変　　　　　　更　　　　　　記　　　　　　事
41
1.067
50
0.000
100
AcDbText
0
TEXT
5
5ac
100
AcDbEntity
8
F-F
62
3
100
AcDbText
10
815.591
20
74.054
30
0.0
40
5.850
1
受領　　日附
41
1.067
50
0.000
100
AcDbText
0
TEXT
5
5ad
100
AcDbEntity
8
F-F
62
3
100
AcDbText
10
1013.808
20
44.622
30
0.0
40
5.850
1
施工者
41
1.067
50
0.000
100
AcDbText
0
TEXT
5
5ae
100
AcDbEntity
8
F-F
62
3
100
AcDbText
10
1013.808
20
74.252
30
0.0
40
5.850
1
設計者
41
1.067
50
0.000
100
AcDbText
0
TEXT
5
5af
100
AcDbEntity
8
F-F
62
3
100
AcDbText
10
1219.291
20
44.079
30
0.0
40
5.850
1
作図
41
1.067
50
0.000
100
AcDbText
0
TEXT
5
5b0
100
AcDbEntity
8
F-F
62
3
100
AcDbText
10
1291.118
20
44.610
30
0.0
40
5.850
1
図面名
41
1.067
50
0.000
100
AcDbText
0
TEXT
5
5b1
100
AcDbEntity
8
F-F
62
3
100
AcDbText
10
1219.291
20
73.709
30
0.0
40
5.850
1
日附
41
1.067
50
0.000
100
AcDbText
0
TEXT
5
5b2
100
AcDbEntity
8
F-F
62
3
100
AcDbText
10
1291.118
20
74.239
30
0.0
40
5.850
1
工事件名
41
1.067
50
0.000
100
AcDbText
0
TEXT
5
5b3
100
AcDbEntity
8
F-F
62
3
100
AcDbText
10
1241.427
20
73.457
30
0.0
40
5.850
1
年　月　日
41
1.067
50
0.000
100
AcDbText
0
TEXT
5
5b4
100
AcDbEntity
8
F-F
62
3
100
AcDbText
10
1241.427
20
43.828
30
0.0
40
5.850
1
年　月　日
41
1.067
50
0.000
100
AcDbText
0
TEXT
5
5b5
100
AcDbEntity
8
F-F
62
3
100
AcDbText
10
1543.461
20
74.239
30
0.0
40
5.850
1
設計番号
41
1.067
50
0.000
100
AcDbText
0
TEXT
5
5b6
100
AcDbEntity
8
F-F
62
3
100
AcDbText
10
386.778
20
67.470
30
0.0
40
5.850
1
. 　.　 
41
1.067
50
0.000
100
AcDbText
0
TEXT
5
5b7
100
AcDbEntity
8
F-F
62
3
100
AcDbText
10
386.778
20
57.594
30
0.0
40
5.850
1
. 　.　 
41
1.067
50
0.000
100
AcDbText
0
TEXT
5
5b8
100
AcDbEntity
8
F-F
62
3
100
AcDbText
10
386.778
20
47.717
30
0.0
40
5.850
1
. 　.　 
41
1.067
50
0.000
100
AcDbText
0
TEXT
5
5b9
100
AcDbEntity
8
F-F
62
3
100
AcDbText
10
386.778
20
37.840
30
0.0
40
5.850
1
. 　.　 
41
1.067
50
0.000
100
AcDbText
0
TEXT
5
5ba
100
AcDbEntity
8
F-F
62
3
100
AcDbText
10
386.778
20
27.963
30
0.0
40
5.850
1
. 　.　 
41
1.067
50
0.000
100
AcDbText
0
TEXT
5
5bb
100
AcDbEntity
8
F-F
62
3
100
AcDbText
10
1034.071
20
61.176
30
0.0
40
7.800
1
　　　　　　　　　　
41
1.075
50
0.000
100
AcDbText
0
TEXT
5
5bc
100
AcDbEntity
8
F-F
62
3
100
AcDbText
10
1034.071
20
31.546
30
0.0
40
7.800
1
　　　　　　　　　　
41
1.075
50
0.000
100
AcDbText
0
TEXT
5
5bd
100
AcDbEntity
8
F-F
62
3
100
AcDbText
10
1317.534
20
62.723
30
0.0
40
7.800
1
　　　　　　　　　　　　　
41
1.075
50
0.000
100
AcDbText
0
TEXT
5
5be
100
AcDbEntity
8
F-F
62
3
100
AcDbText
10
377.806
20
74.789
30
0.0
40
5.850
1
年　月　日
41
1.067
50
0.000
100
AcDbText
0
TEXT
5
5bf
100
AcDbEntity
8
F-F
62
3
100
AcDbText
10
872.762
20
73.470
30
0.0
40
5.850
1
年　　月　　日
41
1.067
50
0.000
100
AcDbText
0
TEXT
5
5c0
100
AcDbEntity
8
F-F
62
3
100
AcDbText
10
885.314
20
63.047
30
0.0
40
5.850
1
.　 　.
41
1.067
50
0.000
100
AcDbText
0
TEXT
5
5c1
100
AcDbEntity
8
F-F
62
3
100
AcDbText
10
815.591
20
44.425
30
0.0
40
5.850
1
受領　　日附
41
1.067
50
0.000
100
AcDbText
0
TEXT
5
5c2
100
AcDbEntity
8
F-F
62
3
100
AcDbText
10
872.762
20
43.840
30
0.0
40
5.850
1
年　　月　　日
41
1.067
50
0.000
100
AcDbText
0
TEXT
5
5c3
100
AcDbEntity
8
F-F
62
3
100
AcDbText
10
885.314
20
33.418
30
0.0
40
5.850
1
.　 　.
41
1.067
50
0.000
100
AcDbText
0
TEXT
5
5c4
100
AcDbEntity
8
F-F
62
3
100
AcDbText
10
1248.199
20
61.334
30
0.0
40
5.850
1
.　　.　
41
1.067
50
0.000
100
AcDbText
0
TEXT
5
5c5
100
AcDbEntity
8
F-F
62
3
100
AcDbText
10
1543.461
20
44.610
30
0.0
40
5.850
1
縮　尺
41
1.067
50
0.000
100
AcDbText
0
TEXT
5
5c6
100
AcDbEntity
8
F-F
62
3
100
AcDbText
10
1566.700
20
40.449
30
0.0
40
7.800
1
Ａ１－１／２　
41
1.075
50
0.000
100
AcDbText
0
TEXT
5
5c7
100
AcDbEntity
8
F-F
62
3
100
AcDbText
10
1566.700
20
25.634
30
0.0
40
7.800
1
Ａ３－１／４　
41
1.075
50
0.000
100
AcDbText
0
TEXT
5
5c8
100
AcDbEntity
8
F-F
62
3
100
AcDbText
10
1557.078
20
59.689
30
0.0
40
9.750
1
K-NAMI-01
41
1.080
50
0.000
100
AcDbText
0
TEXT
5
5c9
100
AcDbEntity
8
F-F
62
3
100
AcDbText
10
166.356
20
27.570
30
0.0
40
7.800
1
電話（０５４）２６３－２２８０（代表）
41
1.075
50
0.000
100
AcDbText
0
TEXT
5
5ca
100
AcDbEntity
8
F-F
62
3
100
AcDbText
10
122.146
20
58.763
30
0.0
40
15.600
1
小　池　弥　太　郎　商　店
41
1.125
50
0.000
100
AcDbText
0
TEXT
5
5cb
100
AcDbEntity
8
F-F
62
3
100
AcDbText
10
166.352
20
42.403
30
0.0
40
7.800
1
静岡県静岡市葵区流通センター１６番
41
1.075
50
0.000
100
AcDbText
0
TEXT
5
5cc
100
AcDbEntity
8
F-F
62
3
100
AcDbText
10
99.901
20
67.352
30
0.0
40
5.850
1
株
41
1.067
50
0.000
100
AcDbText
0
TEXT
5
5cd
100
AcDbEntity
8
F-F
62
3
100
AcDbText
10
107.051
20
60.102
30
0.0
40
5.850
1
社
41
1.067
50
0.000
100
AcDbText
0
TEXT
5
5ce
100
AcDbEntity
8
F-F
62
3
100
AcDbText
10
99.851
20
60.102
30
0.0
40
5.850
1
会
41
1.067
50
0.000
100
AcDbText
0
TEXT
5
5cf
100
AcDbEntity
8
F-F
62
3
100
AcDbText
10
106.651
20
67.151
30
0.0
40
5.850
1
式
41
1.067
50
0.000
100
AcDbText
0
TEXT
5
5d0
100
AcDbEntity
8
F-F
62
3
100
AcDbText
10
1317.534
20
33.093
30
0.0
40
7.800
1
コイケ　成形鉄板小波　断面図
41
1.075
50
0.000
100
AcDbText
0
TEXT
5
5d1
100
AcDbEntity
8
0-0
62
3
100
AcDbText
10
221.749
20
617.016
30
0.0
40
19.500
1
成型鉄板小波
41
1.100
50
0.000
100
AcDbText
0
TEXT
5
5d2
100
AcDbEntity
8
0-0
62
3
100
AcDbText
10
395.483
20
622.980
30
0.0
40
15.600
1
9
41
1.125
50
0.000
100
AcDbText
0
TEXT
5
5d3
100
AcDbEntity
8
0-0
62
3
100
AcDbText
10
507.921
20
690.934
30
0.0
40
7.800
1
〃
41
1.075
50
0.000
100
AcDbText
0
TEXT
5
5d4
100
AcDbEntity
8
0-0
62
3
100
AcDbText
10
718.800
20
566.527
30
0.0
40
15.600
1
697（屋根用途働き巾）
41
1.125
50
0.000
100
AcDbText
0
TEXT
5
5d5
100
AcDbEntity
8
0-0
62
3
100
AcDbText
10
432.500
20
670.527
30
0.0
40
15.600
1
13
41
1.125
50
0.000
100
AcDbText
0
TEXT
5
5d6
100
AcDbEntity
8
0-0
62
3
100
AcDbText
10
539.621
20
690.934
30
0.0
40
7.800
1
〃
41
1.075
50
0.000
100
AcDbText
0
TEXT
5
5d7
100
AcDbEntity
8
0-0
62
3
100
AcDbText
10
571.321
20
690.934
30
0.0
40
7.800
1
〃
41
1.075
50
0.000
100
AcDbText
0
TEXT
5
5d8
100
AcDbEntity
8
0-0
62
3
100
AcDbText
10
603.021
20
690.934
30
0.0
40
7.800
1
〃
41
1.075
50
0.000
100
AcDbText
0
TEXT
5
5d9
100
AcDbEntity
8
0-0
62
3
100
AcDbText
10
634.721
20
690.934
30
0.0
40
7.800
1
〃
41
1.075
50
0.000
100
AcDbText
0
TEXT
5
5da
100
AcDbEntity
8
0-0
62
3
100
AcDbText
10
666.421
20
690.934
30
0.0
40
7.800
1
〃
41
1.075
50
0.000
100
AcDbText
0
TEXT
5
5db
100
AcDbEntity
8
0-0
62
3
100
AcDbText
10
698.121
20
690.934
30
0.0
40
7.800
1
〃
41
1.075
50
0.000
100
AcDbText
0
TEXT
5
5dc
100
AcDbEntity
8
0-0
62
3
100
AcDbText
10
729.821
20
690.934
30
0.0
40
7.800
1
〃
41
1.075
50
0.000
100
AcDbText
0
TEXT
5
5dd
100
AcDbEntity
8
0-0
62
3
100
AcDbText
10
761.521
20
690.934
30
0.0
40
7.800
1
〃
41
1.075
50
0.000
100
AcDbText
0
TEXT
5
5de
100
AcDbEntity
8
0-0
62
3
100
AcDbText
10
793.221
20
690.934
30
0.0
40
7.800
1
〃
41
1.075
50
0.000
100
AcDbText
0
TEXT
5
5df
100
AcDbEntity
8
0-0
62
3
100
AcDbText
10
824.921
20
690.934
30
0.0
40
7.800
1
〃
41
1.075
50
0.000
100
AcDbText
0
TEXT
5
5e0
100
AcDbEntity
8
0-0
62
3
100
AcDbText
10
856.621
20
690.934
30
0.0
40
7.800
1
〃
41
1.075
50
0.000
100
AcDbText
0
TEXT
5
5e1
100
AcDbEntity
8
0-0
62
3
100
AcDbText
10
888.321
20
690.934
30
0.0
40
7.800
1
〃
41
1.075
50
0.000
100
AcDbText
0
TEXT
5
5e2
100
AcDbEntity
8
0-0
62
3
100
AcDbText
10
920.021
20
690.934
30
0.0
40
7.800
1
〃
41
1.075
50
0.000
100
AcDbText
0
TEXT
5
5e3
100
AcDbEntity
8
0-0
62
3
100
AcDbText
10
951.721
20
690.934
30
0.0
40
7.800
1
〃
41
1.075
50
0.000
100
AcDbText
0
TEXT
5
5e4
100
AcDbEntity
8
0-0
62
3
100
AcDbText
10
983.421
20
690.934
30
0.0
40
7.800
1
〃
41
1.075
50
0.000
100
AcDbText
0
TEXT
5
5e5
100
AcDbEntity
8
0-0
62
3
100
AcDbText
10
1015.121
20
690.934
30
0.0
40
7.800
1
〃
41
1.075
50
0.000
100
AcDbText
0
TEXT
5
5e6
100
AcDbEntity
8
0-0
62
3
100
AcDbText
10
1046.821
20
690.934
30
0.0
40
7.800
1
〃
41
1.075
50
0.000
100
AcDbText
0
TEXT
5
5e7
100
AcDbEntity
8
0-0
62
3
100
AcDbText
10
1078.521
20
690.934
30
0.0
40
7.800
1
〃
41
1.075
50
0.000
100
AcDbText
0
TEXT
5
5e8
100
AcDbEntity
8
0-0
62
3
100
AcDbText
10
1110.221
20
690.934
30
0.0
40
7.800
1
〃
41
1.075
50
0.000
100
AcDbText
0
TEXT
5
5e9
100
AcDbEntity
8
0-0
62
3
100
AcDbText
10
1141.921
20
690.934
30
0.0
40
7.800
1
〃
41
1.075
50
0.000
100
AcDbText
0
TEXT
5
5ea
100
AcDbEntity
8
0-0
62
3
100
AcDbText
10
1163.037
20
693.776
30
0.0
40
15.600
1
31.7
41
1.125
50
0.000
100
AcDbText
0
TEXT
5
5eb
100
AcDbEntity
8
0-0
62
3
100
AcDbText
10
1199.049
20
671.527
30
0.0
40
15.600
1
28
41
1.125
50
0.000
100
AcDbText
0
TEXT
5
5ec
100
AcDbEntity
8
0-0
62
3
100
AcDbText
10
823.500
20
719.527
30
0.0
40
15.600
1
770
41
1.125
50
0.000
100
AcDbText
0
TEXT
5
5ed
100
AcDbEntity
8
0-0
62
3
100
AcDbText
10
734.700
20
536.527
30
0.0
40
15.600
1
729（壁用途働き巾）
41
1.125
50
0.000
100
AcDbText
0
TEXT
5
5ee
100
AcDbEntity
8
0-0
62
3
100
AcDbText
10
465.638
20
693.776
30
0.0
40
15.600
1
31.7
41
1.125
50
0.000
100
AcDbText
0
TEXT
5
5ef
100
AcDbEntity
8
F-F
62
3
100
AcDbText
10
1222.482
20
30.668
30
0.0
40
5.850
1
MA 2021-08-24
41
1.067
50
0.000
100
AcDbText
0
POINT
5
5f0
100
AcDbEntity
8
F-F
62
3
100
AcDbPoint
10
54.760000000000
20
1143.640000000000
30
0.0
0
POINT
5
5f1
100
AcDbEntity
8
0-0
62
3
100
AcDbPoint
10
411.000000000000
20
624.530000000000
30
0.0
0
POINT
5
5f2
100
AcDbEntity
8
0-0
62
3
100
AcDbPoint
10
411.000000000000
20
633.530000000000
30
0.0
0
POINT
5
5f3
100
AcDbEntity
8
0-0
62
3
100
AcDbPoint
10
452.000000000000
20
718.530000000000
30
0.0
0
POINT
5
5f4
100
AcDbEntity
8
0-0
62
3
100
AcDbPoint
10
452.000000000000
20
688.530000000000
30
0.0
0
POINT
5
5f5
100
AcDbEntity
8
0-0
62
3
100
AcDbPoint
10
465.000000000000
20
688.530000000000
30
0.0
0
POINT
5
5f6
100
AcDbEntity
8
0-0
62
3
100
AcDbPoint
10
496.700000000000
20
688.530000000000
30
0.0
0
POINT
5
5f7
100
AcDbEntity
8
0-0
62
3
100
AcDbPoint
10
465.000000000000
20
564.530000000000
30
0.0
0
POINT
5
5f8
100
AcDbEntity
8
0-0
62
3
100
AcDbPoint
10
465.000000000000
20
534.530000000000
30
0.0
0
POINT
5
5f9
100
AcDbEntity
8
0-0
62
3
100
AcDbPoint
10
1162.400000000000
20
564.530000000000
30
0.0
0
POINT
5
5fa
100
AcDbEntity
8
0-0
62
3
100
AcDbPoint
10
1194.100000000000
20
534.530000000000
30
0.0
0
POINT
5
5fb
100
AcDbEntity
8
0-0
62
3
100
AcDbPoint
10
1194.100000000000
20
534.530000000000
30
0.0
0
POINT
5
5fc
100
AcDbEntity
8
0-0
62
3
100
AcDbPoint
10
1221.000000000000
20
718.530000000000
30
0.0
0
POINT
5
5fd
100
AcDbEntity
8
0-0
62
3
100
AcDbPoint
10
1221.000000000000
20
688.530000000000
30
0.0
0
POINT
5
5fe
100
AcDbEntity
8
0-0
62
3
100
AcDbPoint
10
528.400000000000
20
688.530000000000
30
0.0
0
POINT
5
5ff
100
AcDbEntity
8
0-0
62
3
100
AcDbPoint
10
560.100000000000
20
688.530000000000
30
0.0
0
POINT
5
600
100
AcDbEntity
8
0-0
62
3
100
AcDbPoint
10
591.800000000000
20
688.530000000000
30
0.0
0
POINT
5
601
100
AcDbEntity
8
0-0
62
3
100
AcDbPoint
10
623.500000000000
20
688.530000000000
30
0.0
0
POINT
5
602
100
AcDbEntity
8
0-0
62
3
100
AcDbPoint
10
655.200000000000
20
688.530000000000
30
0.0
0
POINT
5
603
100
AcDbEntity
8
0-0
62
3
100
AcDbPoint
10
686.900000000000
20
688.530000000000
30
0.0
0
POINT
5
604
100
AcDbEntity
8
0-0
62
3
100
AcDbPoint
10
718.600000000000
20
688.530000000000
30
0.0
0
POINT
5
605
100
AcDbEntity
8
0-0
62
3
100
AcDbPoint
10
750.300000000000
20
688.530000000000
30
0.0
0
POINT
5
606
100
AcDbEntity
8
0-0
62
3
100
AcDbPoint
10
782.000000000000
20
688.530000000000
30
0.0
0
POINT
5
607
100
AcDbEntity
8
0-0
62
3
100
AcDbPoint
10
782.000000000000
20
688.530000000000
30
0.0
0
POINT
5
608
100
AcDbEntity
8
0-0
62
3
100
AcDbPoint
10
813.700000000000
20
688.530000000000
30
0.0
0
POINT
5
609
100
AcDbEntity
8
0-0
62
3
100
AcDbPoint
10
813.700000000000
20
688.530000000000
30
0.0
0
POINT
5
60a
100
AcDbEntity
8
0-0
62
3
100
AcDbPoint
10
845.400000000000
20
688.530000000000
30
0.0
0
POINT
5
60b
100
AcDbEntity
8
0-0
62
3
100
AcDbPoint
10
845.400000000000
20
688.530000000000
30
0.0
0
POINT
5
60c
100
AcDbEntity
8
0-0
62
3
100
AcDbPoint
10
877.100000000000
20
688.530000000000
30
0.0
0
POINT
5
60d
100
AcDbEntity
8
0-0
62
3
100
AcDbPoint
10
877.100000000000
20
688.530000000000
30
0.0
0
POINT
5
60e
100
AcDbEntity
8
0-0
62
3
100
AcDbPoint
10
908.800000000000
20
688.530000000000
30
0.0
0
POINT
5
60f
100
AcDbEntity
8
0-0
62
3
100
AcDbPoint
10
908.800000000000
20
688.530000000000
30
0.0
0
POINT
5
610
100
AcDbEntity
8
0-0
62
3
100
AcDbPoint
10
940.500000000000
20
688.530000000000
30
0.0
0
POINT
5
611
100
AcDbEntity
8
0-0
62
3
100
AcDbPoint
10
940.500000000000
20
688.530000000000
30
0.0
0
POINT
5
612
100
AcDbEntity
8
0-0
62
3
100
AcDbPoint
10
972.200000000000
20
688.530000000000
30
0.0
0
POINT
5
613
100
AcDbEntity
8
0-0
62
3
100
AcDbPoint
10
972.200000000000
20
688.530000000000
30
0.0
0
POINT
5
614
100
AcDbEntity
8
0-0
62
3
100
AcDbPoint
10
1003.900000000000
20
688.530000000000
30
0.0
0
POINT
5
615
100
AcDbEntity
8
0-0
62
3
100
AcDbPoint
10
1003.900000000000
20
688.530000000000
30
0.0
0
POINT
5
616
100
AcDbEntity
8
0-0
62
3
100
AcDbPoint
10
1035.600000000000
20
688.530000000000
30
0.0
0
POINT
5
617
100
AcDbEntity
8
0-0
62
3
100
AcDbPoint
10
1035.600000000000
20
688.530000000000
30
0.0
0
POINT
5
618
100
AcDbEntity
8
0-0
62
3
100
AcDbPoint
10
1067.300000000000
20
688.530000000000
30
0.0
0
POINT
5
619
100
AcDbEntity
8
0-0
62
3
100
AcDbPoint
10
1067.300000000000
20
688.530000000000
30
0.0
0
POINT
5
61a
100
AcDbEntity
8
0-0
62
3
100
AcDbPoint
10
1099.000000000000
20
688.530000000000
30
0.0
0
POINT
5
61b
100
AcDbEntity
8
0-0
62
3
100
AcDbPoint
10
1099.000000000000
20
688.530000000000
30
0.0
0
POINT
5
61c
100
AcDbEntity
8
0-0
62
3
100
AcDbPoint
10
1130.700000000000
20
688.530000000000
30
0.0
0
POINT
5
61d
100
AcDbEntity
8
0-0
62
3
100
AcDbPoint
10
1130.700000000000
20
688.530000000000
30
0.0
0
POINT
5
61e
100
AcDbEntity
8
0-0
62
3
100
AcDbPoint
10
1162.400000000000
20
688.530000000000
30
0.0
0
POINT
5
61f
100
AcDbEntity
8
0-0
62
3
100
AcDbPoint
10
1162.400000000000
20
688.530000000000
30
0.0
0
POINT
5
620
100
AcDbEntity
8
0-0
62
3
100
AcDbPoint
10
1194.100000000000
20
688.530000000000
30
0.0
0
ENDSEC
0
EOF
