0
SECTION
2
HEADER
9
$ACADVER
1
AC1015
9
$ACADMAINTVER
 70
6
9
$DWGCODEPAGE
3
ANSI_932
9
$EXTMIN
10
0.000
20
0.000
30
0.0
9
$EXTMAX
10
841.000
20
594.000
30
0.0
9
$LIMMIN
10
0.000
20
0.000
9
$LIMMAX
10
841.000
20
594.000
9
$DIMSCALE
40
1.000000
9
$LTSCALE
40
2.000
9
$PDMODE
70
0
9
$PDSIZE
40
40.0
9
$HANDSEED
5
61bf0
9
$UNITMODE
70
0
9
$VISRETAIN
70
0
9
$PLINEGEN
70
0
9
$PSLTSCALE
70
1
9
$TREEDEPTH
70
3020
9
$CMLSTYLE
2
STANDARD
9
$CMLJUST
70
0
9
$CMLSCALE
40
1.0
9
$PROXYGRAPHICS
70
1
9
$MEASUREMENT
70
0
9
$CELWEIGHT
370
-1
9
$ENDCAPS
280
0
9
$JOINSTYLE
280
0
9
$LWDISPLAY
290
0
9
$INSUNITS
70
0
9
$HYPERLINKBASE
1

9
$STYLESHEET
1

9
$XEDIT
290
1
9
$CEPSNTYPE
380
0
9
$PSTYLEMODE
290
1
9
$FINGERPRINTGUID
2
{5F082321-0195-11D3-BDFB-0060B0CD5109}
9
$VERSIONGUID
2
{12943756-294D-11D3-98C2-0060B087942D}
9
$EXTNAMES
290
1
9
$PSVPSCALE
40
0.0
9
$OLESTARTUP
290
0
0
ENDSEC
0
SECTION
  2
CLASSES
0
ENDSEC
0
SECTION
2
TABLES
0
TABLE
2
VPORT
5
190
100
AcDbSymbolTable
70
2
0
VPORT
5
191
100
AcDbSymbolTableRecord
100
AcDbViewportTableRecord
2
*ACTIVE
70
0
10
0.0
20
0.0
11
1.0
21
1.0
12
420.500
22
297.000
13
0.0
23
0.0
14
1.0
24
1.0
15
0.0
25
0.0
16
0.0
26
0.0
36
1.0
17
0.0
27
0.0
37
0.0
40
609.420
41
2.0
42
50.0
43
0.0
44
0.0
50
0.0
51
0.0
71
0
72
1000
73
1
74
1
75
0
76
0
77
0
78
0
0
ENDTAB
0
TABLE
2
LTYPE
5
1f4
100
AcDbSymbolTable
70
9
0
LTYPE
5
1f5
100
AcDbSymbolTableRecord
100
AcDbLinetypeTableRecord
2
BYBLOCK
70
 64
3

72
 65
73
  0
40
0.0
0
LTYPE
5
1f6
100
AcDbSymbolTableRecord
100
AcDbLinetypeTableRecord
2
BYLAYER
70
 64
3

72
 65
73
  0
40
0.0
0
LTYPE
5
1f7
100
AcDbSymbolTableRecord
100
AcDbLinetypeTableRecord
2
CONTINUOUS
70
64
3
SolidLine
72
65
73
0
40
0.0
0
LTYPE
5
1f8
100
AcDbSymbolTableRecord
100
AcDbLinetypeTableRecord
2
DOT
70
64
3
--  --  --  --  --  --  --  --     
72
65
73
2
40
3.000
49
1.000
74
0
49
-2.000
74
0
0
LTYPE
5
1f9
100
AcDbSymbolTableRecord
100
AcDbLinetypeTableRecord
2
DASHED
70
64
3
----    ----    ----    ----    
72
65
73
2
40
5.000
49
2.000
74
0
49
-3.000
74
0
0
LTYPE
5
1fa
100
AcDbSymbolTableRecord
100
AcDbLinetypeTableRecord
2
DASHED2
70
64
3
------  ------  ------  ------ 
72
65
73
2
40
10.000
49
4.000
74
0
49
-6.000
74
0
0
LTYPE
5
1fb
100
AcDbSymbolTableRecord
100
AcDbLinetypeTableRecord
2
CENTER
70
64
3
----- - ----- - ----- - ----- - 
72
65
73
4
40
10.000
49
6.000
74
0
49
-3.000
74
0
49
1.000
74
0
49
-3.000
74
0
0
LTYPE
5
1fc
100
AcDbSymbolTableRecord
100
AcDbLinetypeTableRecord
2
CENTER2
70
64
3
----------  --  ----------  -- 
72
65
73
4
40
17.000
49
12.000
74
0
49
-5.000
74
0
49
2.000
74
0
49
-5.000
74
0
0
LTYPE
5
1fd
100
AcDbSymbolTableRecord
100
AcDbLinetypeTableRecord
2
PHANTOM
70
64
3
--- - - --- - - --- - - --- - -
72
65
73
6
40
13.000
49
5.000
74
0
49
-3.000
74
0
49
1.000
74
0
49
-3.000
74
0
49
1.000
74
0
49
-3.000
74
0
0
LTYPE
5
1fe
100
AcDbSymbolTableRecord
100
AcDbLinetypeTableRecord
2
PHANTOM2
70
64
3
--------  -  -  --------  -  -
72
65
73
6
40
20.000
49
6.000
74
0
49
-5.000
74
0
49
2.000
74
0
49
-5.000
74
0
49
2.000
74
0
49
-5.000
74
0
0
LTYPE
5
1ff
100
AcDbSymbolTableRecord
100
AcDbLinetypeTableRecord
2
HIDDEN
70
64
3
-   -   -   -   -   -   -   -   
72
65
73
2
40
3.000
49
0.500
74
0
49
-2.500
74
0
0
ENDTAB
0
TABLE
2
STYLE
5
200
100
AcDbSymbolTable
70
1
0
STYLE
5
201
100
AcDbSymbolTableRecord
100
AcDbTextStyleTableRecord
2
STANDARD
70
0
40
0.0
41
1.0
50
0.0
71
0
42
0.0
3
txt.shx
4
extfont.shx
0
STYLE
5
202
100
AcDbSymbolTableRecord
100
AcDbTextStyleTableRecord
2
TATEGAKI
70
4
40
0.0
41
1.0
50
0.0
71
0
42
0.0
3
txt.shx
4
extfont.shx
0
STYLE
5
203
100
AcDbSymbolTableRecord
100
AcDbTextStyleTableRecord
2
DIM
70
0
40
0.0
41
0.75
50
0.0
71
0
42
0.0
3
txt.shx
4
extfont.shx
0
STYLE
5
204
100
AcDbSymbolTableRecord
100
AcDbTextStyleTableRecord
2
_Gothic_
70
0
40
1.0
41
1.0
50
0.0
71
0
42
10.0
3

4

1001
ACAD
1000
MS Gothic
1071
32817
0
STYLE
5
205
100
AcDbSymbolTableRecord
100
AcDbTextStyleTableRecord
2
_TateGothic_
70
4
40
0.0
41
1.0
50
0.0
71
0
42
0.0
3
@MS Gothic
4

0
ENDTAB
0
TABLE
2
VIEW
5
206
100
AcDbSymbolTable
70
0
0
ENDTAB
0
TABLE
2
UCS
5
207
100
AcDbSymbolTable
70
0
0
ENDTAB
0
TABLE
2
APPID
5
208
100
AcDbSymbolTable
70
1
0
APPID
5
209
100
AcDbSymbolTableRecord
100
AcDbRegAppTableRecord
2
ACAD
70
0
0
ENDTAB
0
TABLE
2
DIMSTYLE
5
403
330
0
100
AcDbSymbolTable
70
1
100
AcDbDimStyleTable
71
0
0
DIMSTYLE
105
404
330
402
100
AcDbSymbolTableRecord
100
AcDbDimStyleTableRecord
2
JAC_DIM
70
0
41
2.000
42
0.000
44
0.0
73
0
74
0
77
1
78
8
79
2
140
0.000
170
0
171
2
172
0
173
0
174
0
175
0
176
0
177
0
178
0
270
2
271
0
272
0
273
2
274
2
340
201
275
0
280
0
281
0
282
0
283
0
284
0
285
0
286
0
287
3
288
0
0
ENDTAB
0
TABLE
2
BLOCK_RECORD
5
405
100
AcDbSymbolTable
70
0
0
BLOCK_RECORD
5
406
100
AcDbSymbolTableRecord
100
AcDbBlockTableRecord
2
*MODEL_SPACE
0
BLOCK_RECORD
5
407
100
AcDbSymbolTableRecord
100
AcDbBlockTableRecord
2
*PAPER_SPACE
0
BLOCK_RECORD
5
408
100
AcDbSymbolTableRecord
100
AcDbBlockTableRecord
2
_JACCONVERT_
0
ENDTAB
0
TABLE
2
LAYER
5
409
100
AcDbSymbolTable
70
10
0
LAYER
5
40a
100
AcDbSymbolTableRecord
100
AcDbLayerTableRecord
2
0
70
0
62
7
6
CONTINUOUS
370
-3
390
14
0
LAYER
5
40b
100
AcDbSymbolTableRecord
100
AcDbLayerTableRecord
2
0-0
70
0
62
7
6
CONTINUOUS
370
-3
390
14
0
LAYER
5
40c
100
AcDbSymbolTableRecord
100
AcDbLayerTableRecord
2
F-E_J_ADD
70
0
62
-7
6
CONTINUOUS
290
0
370
-3
390
14
0
LAYER
5
40d
100
AcDbSymbolTableRecord
100
AcDbLayerTableRecord
2
F-F
70
0
62
7
6
CONTINUOUS
370
-3
390
14
0
ENDTAB
0
ENDSEC
0
SECTION
2
BLOCKS
0
BLOCK
5
40e
100
AcDbEntity
67
1
8
0
100
AcDbBlockBegin
2
*MODEL_SPACE
70
0
10
0.0
20
0.0
30
0.0
3
*MODEL_SPACE
1

0
ENDBLK
5
40f
100
AcDbEntity
8
0
100
AcDbBlockEnd
0
BLOCK
5
410
100
AcDbEntity
67
1
8
0
100
AcDbBlockBegin
2
*PAPER_SPACE
70
0
10
0.0
20
0.0
30
0.0
3
*PAPER_SPACE
1

0
ENDBLK
5
411
100
AcDbEntity
67
1
8
0
100
AcDbBlockEnd
0
BLOCK
5
412
100
AcDbEntity
8
0
100
AcDbBlockBegin
2
_JACCONVERT_
70
2
10
0.0
20
0.0
30
0.0
3
_JACCONVERT_
1
_JACCONVERT_
0
ATTDEF
5
413
100
AcDbEntity
8
0
62
0
100
AcDbText
10
0.0
20
0.0
30
0.0
40
1.0
1
User:460950EB0890EC0964308A
100
AcDbAttributeDefinition
3

2
USER
70
8
0
ATTDEF
5
414
100
AcDbEntity
8
0
62
0
100
AcDbText
10
0.0
20
2.0
30
0.0
40
1.0
1
Date:15/06/15 16:28
100
AcDbAttributeDefinition
3

2
REVDATE
70
8
0
ATTDEF
5
415
100
AcDbEntity
8
0
62
0
100
AcDbText
10
0.0
20
4.0
30
0.0
40
1.0
1
File:リブ波W415.dxf
100
AcDbAttributeDefinition
3

2
FNAME
70
8
0
ATTDEF
5
416
100
AcDbEntity
8
0
62
0
100
AcDbText
10
0.0
20
6.0
30
0.0
40
1.0
1
JacConvert Version3.09 copyright (c) 2001-2013 K.Nakahara
100
AcDbAttributeDefinition
3

2
VER
70
8
0
ENDBLK
5
417
100
AcDbEntity
67
1
8
0
100
AcDbBlockEnd
0
ENDSEC
0
SECTION
2
ENTITIES
0
LINE
5
418
100
AcDbEntity
8
F-F
6
CONTINUOUS
62
2
100
AcDbLine
10
27.380000000000
20
11.820000000000
30
0.0
11
27.380000000000
21
571.820000000000
31
0.0
0
LINE
5
419
100
AcDbEntity
8
F-F
6
CONTINUOUS
62
2
100
AcDbLine
10
642.380000000000
20
41.450000000000
30
0.0
11
642.380000000000
21
11.820000000000
31
0.0
0
LINE
5
41a
100
AcDbEntity
8
F-F
6
CONTINUOUS
62
2
100
AcDbLine
10
607.270000000000
20
41.450000000000
30
0.0
11
607.270000000000
21
11.820000000000
31
0.0
0
LINE
5
41b
100
AcDbEntity
8
F-F
6
CONTINUOUS
62
2
100
AcDbLine
10
768.560000000000
20
11.820000000000
30
0.0
11
768.560000000000
21
41.450000000000
31
0.0
0
LINE
5
41c
100
AcDbEntity
8
F-F
6
CONTINUOUS
62
2
100
AcDbLine
10
403.450000000000
20
41.450000000000
30
0.0
11
403.450000000000
21
11.820000000000
31
0.0
0
LINE
5
41d
100
AcDbEntity
8
F-F
6
CONTINUOUS
62
2
100
AcDbLine
10
504.870000000000
20
41.450000000000
30
0.0
11
504.870000000000
21
11.820000000000
31
0.0
0
LINE
5
41e
100
AcDbEntity
8
F-F
6
CONTINUOUS
62
2
100
AcDbLine
10
403.450000000000
20
31.570000000000
30
0.0
11
184.880000000000
21
31.570000000000
31
0.0
0
LINE
5
41f
100
AcDbEntity
8
F-F
6
CONTINUOUS
62
2
100
AcDbLine
10
403.450000000000
20
21.690000000000
30
0.0
11
184.880000000000
21
21.690000000000
31
0.0
0
LINE
5
420
100
AcDbEntity
8
F-F
6
CONTINUOUS
62
2
100
AcDbLine
10
403.450000000000
20
16.760000000000
30
0.0
11
184.880000000000
21
16.760000000000
31
0.0
0
LINE
5
421
100
AcDbEntity
8
F-F
6
CONTINUOUS
62
2
100
AcDbLine
10
403.450000000000
20
36.510000000000
30
0.0
11
184.880000000000
21
36.510000000000
31
0.0
0
LINE
5
422
100
AcDbEntity
8
F-F
6
CONTINUOUS
62
2
100
AcDbLine
10
211.210000000000
20
41.450000000000
30
0.0
11
211.210000000000
21
11.820000000000
31
0.0
0
LINE
5
423
100
AcDbEntity
8
F-F
6
CONTINUOUS
62
2
100
AcDbLine
10
184.880000000000
20
41.450000000000
30
0.0
11
184.880000000000
21
11.820000000000
31
0.0
0
LINE
5
424
100
AcDbEntity
8
F-F
6
CONTINUOUS
62
2
100
AcDbLine
10
815.820000000000
20
11.820000000000
30
0.0
11
815.820000000000
21
571.820000000000
31
0.0
0
LINE
5
425
100
AcDbEntity
8
F-F
6
CONTINUOUS
62
2
100
AcDbLine
10
27.380000000000
20
571.820000000000
30
0.0
11
815.820000000000
21
571.820000000000
31
0.0
0
LINE
5
426
100
AcDbEntity
8
F-F
6
CONTINUOUS
62
2
100
AcDbLine
10
27.380000000000
20
11.820000000000
30
0.0
11
815.820000000000
21
11.820000000000
31
0.0
0
LINE
5
427
100
AcDbEntity
8
F-F
6
CONTINUOUS
62
2
100
AcDbLine
10
815.820000000000
20
41.450000000000
30
0.0
11
27.380000000000
21
41.450000000000
31
0.0
0
LINE
5
428
100
AcDbEntity
8
F-F
6
CONTINUOUS
62
2
100
AcDbLine
10
184.880000000000
20
26.630000000000
30
0.0
11
815.820000000000
21
26.630000000000
31
0.0
0
POLYLINE
5
429
100
AcDbEntity
8
F-F
6
CONTINUOUS
62
  3
100
AcDb2dPolyline
66
1
10
0.0
20
0.0
30
0.0
70
0
0
VERTEX
5
42a
100
AcDbEntity
8
F-F
6
CONTINUOUS
62
  3
100
AcDbVertex
100
AcDb2dVertex
10
40.420000000000
20
29.050000000000
30
0.0
0
VERTEX
5
42b
100
AcDbEntity
8
F-F
6
CONTINUOUS
62
  3
100
AcDbVertex
100
AcDb2dVertex
10
40.420000000000
20
37.050000000000
30
0.0
0
VERTEX
5
42c
100
AcDbEntity
8
F-F
6
CONTINUOUS
62
  3
100
AcDbVertex
100
AcDb2dVertex
10
48.420000000000
20
37.050000000000
30
0.0
0
VERTEX
5
42d
100
AcDbEntity
8
F-F
6
CONTINUOUS
62
  3
100
AcDbVertex
100
AcDb2dVertex
10
48.420000000000
20
29.050000000000
30
0.0
0
VERTEX
5
42e
100
AcDbEntity
8
F-F
6
CONTINUOUS
62
  3
100
AcDbVertex
100
AcDb2dVertex
10
40.420000000000
20
29.050000000000
30
0.0
0
SEQEND
5
42f
100
AcDbEntity
8
F-F
0
LINE
5
430
100
AcDbEntity
8
F-F
6
CONTINUOUS
62
3
100
AcDbLine
10
41.220000000000
20
30.130000000000
30
0.0
11
41.220000000000
21
36.250000000000
31
0.0
0
LINE
5
431
100
AcDbEntity
8
F-F
6
CONTINUOUS
62
3
100
AcDbLine
10
47.620000000000
20
29.850000000000
30
0.0
11
41.500000000000
21
29.850000000000
31
0.0
0
POLYLINE
5
432
100
AcDbEntity
8
F-F
6
CONTINUOUS
62
  3
100
AcDb2dPolyline
66
1
10
0.0
20
0.0
30
0.0
70
0
0
VERTEX
5
433
100
AcDbEntity
8
F-F
6
CONTINUOUS
62
  3
100
AcDbVertex
100
AcDb2dVertex
10
41.220000000000
20
36.250000000000
30
0.0
0
VERTEX
5
434
100
AcDbEntity
8
F-F
6
CONTINUOUS
62
  3
100
AcDbVertex
100
AcDb2dVertex
10
47.340000000000
20
36.250000000000
30
0.0
0
VERTEX
5
435
100
AcDbEntity
8
F-F
6
CONTINUOUS
62
  3
100
AcDbVertex
100
AcDb2dVertex
10
41.220000000000
20
30.130000000000
30
0.0
0
SEQEND
5
436
100
AcDbEntity
8
F-F
0
LINE
5
437
100
AcDbEntity
8
F-F
6
CONTINUOUS
62
3
100
AcDbLine
10
47.620000000000
20
35.960000000000
30
0.0
11
41.500000000000
21
29.850000000000
31
0.0
0
LINE
5
438
100
AcDbEntity
8
F-F
6
CONTINUOUS
62
3
100
AcDbLine
10
47.620000000000
20
35.960000000000
30
0.0
11
47.620000000000
21
29.850000000000
31
0.0
0
LINE
5
439
100
AcDbEntity
8
F-F
6
CONTINUOUS
62
4
100
AcDbLine
10
40.420000000000
20
36.970000000000
30
0.0
11
48.420000000000
21
36.970000000000
31
0.0
0
LINE
5
43a
100
AcDbEntity
8
F-F
6
CONTINUOUS
62
4
100
AcDbLine
10
40.420000000000
20
36.810000000000
30
0.0
11
48.420000000000
21
36.810000000000
31
0.0
0
LINE
5
43b
100
AcDbEntity
8
F-F
6
CONTINUOUS
62
4
100
AcDbLine
10
40.420000000000
20
36.650000000000
30
0.0
11
48.420000000000
21
36.650000000000
31
0.0
0
LINE
5
43c
100
AcDbEntity
8
F-F
6
CONTINUOUS
62
4
100
AcDbLine
10
40.420000000000
20
36.490000000000
30
0.0
11
48.420000000000
21
36.490000000000
31
0.0
0
LINE
5
43d
100
AcDbEntity
8
F-F
6
CONTINUOUS
62
4
100
AcDbLine
10
40.420000000000
20
36.330000000000
30
0.0
11
48.420000000000
21
36.330000000000
31
0.0
0
LINE
5
43e
100
AcDbEntity
8
F-F
6
CONTINUOUS
62
4
100
AcDbLine
10
40.420000000000
20
29.770000000000
30
0.0
11
48.420000000000
21
29.770000000000
31
0.0
0
LINE
5
43f
100
AcDbEntity
8
F-F
6
CONTINUOUS
62
4
100
AcDbLine
10
40.420000000000
20
29.610000000000
30
0.0
11
48.420000000000
21
29.610000000000
31
0.0
0
LINE
5
440
100
AcDbEntity
8
F-F
6
CONTINUOUS
62
4
100
AcDbLine
10
40.420000000000
20
29.450000000000
30
0.0
11
48.420000000000
21
29.450000000000
31
0.0
0
LINE
5
441
100
AcDbEntity
8
F-F
6
CONTINUOUS
62
4
100
AcDbLine
10
40.420000000000
20
29.290000000000
30
0.0
11
48.420000000000
21
29.290000000000
31
0.0
0
LINE
5
442
100
AcDbEntity
8
F-F
6
CONTINUOUS
62
4
100
AcDbLine
10
40.420000000000
20
29.130000000000
30
0.0
11
48.420000000000
21
29.130000000000
31
0.0
0
LINE
5
443
100
AcDbEntity
8
F-F
6
CONTINUOUS
62
4
100
AcDbLine
10
40.420000000000
20
30.250000000000
30
0.0
11
41.220000000000
21
30.250000000000
31
0.0
0
LINE
5
444
100
AcDbEntity
8
F-F
6
CONTINUOUS
62
4
100
AcDbLine
10
40.420000000000
20
30.410000000000
30
0.0
11
41.220000000000
21
30.410000000000
31
0.0
0
LINE
5
445
100
AcDbEntity
8
F-F
6
CONTINUOUS
62
4
100
AcDbLine
10
40.420000000000
20
30.570000000000
30
0.0
11
41.220000000000
21
30.570000000000
31
0.0
0
LINE
5
446
100
AcDbEntity
8
F-F
6
CONTINUOUS
62
4
100
AcDbLine
10
40.420000000000
20
30.730000000000
30
0.0
11
41.220000000000
21
30.730000000000
31
0.0
0
LINE
5
447
100
AcDbEntity
8
F-F
6
CONTINUOUS
62
4
100
AcDbLine
10
40.420000000000
20
30.890000000000
30
0.0
11
41.220000000000
21
30.890000000000
31
0.0
0
LINE
5
448
100
AcDbEntity
8
F-F
6
CONTINUOUS
62
4
100
AcDbLine
10
40.420000000000
20
31.050000000000
30
0.0
11
41.220000000000
21
31.050000000000
31
0.0
0
LINE
5
449
100
AcDbEntity
8
F-F
6
CONTINUOUS
62
4
100
AcDbLine
10
40.420000000000
20
31.210000000000
30
0.0
11
41.220000000000
21
31.210000000000
31
0.0
0
LINE
5
44a
100
AcDbEntity
8
F-F
6
CONTINUOUS
62
4
100
AcDbLine
10
40.420000000000
20
31.370000000000
30
0.0
11
41.220000000000
21
31.370000000000
31
0.0
0
LINE
5
44b
100
AcDbEntity
8
F-F
6
CONTINUOUS
62
4
100
AcDbLine
10
40.420000000000
20
31.530000000000
30
0.0
11
41.220000000000
21
31.530000000000
31
0.0
0
LINE
5
44c
100
AcDbEntity
8
F-F
6
CONTINUOUS
62
4
100
AcDbLine
10
40.420000000000
20
31.690000000000
30
0.0
11
41.220000000000
21
31.690000000000
31
0.0
0
LINE
5
44d
100
AcDbEntity
8
F-F
6
CONTINUOUS
62
4
100
AcDbLine
10
40.420000000000
20
31.850000000000
30
0.0
11
41.220000000000
21
31.850000000000
31
0.0
0
LINE
5
44e
100
AcDbEntity
8
F-F
6
CONTINUOUS
62
4
100
AcDbLine
10
40.420000000000
20
32.010000000000
30
0.0
11
41.220000000000
21
32.010000000000
31
0.0
0
LINE
5
44f
100
AcDbEntity
8
F-F
6
CONTINUOUS
62
4
100
AcDbLine
10
40.420000000000
20
32.170000000000
30
0.0
11
41.220000000000
21
32.170000000000
31
0.0
0
LINE
5
450
100
AcDbEntity
8
F-F
6
CONTINUOUS
62
4
100
AcDbLine
10
40.420000000000
20
32.330000000000
30
0.0
11
41.220000000000
21
32.330000000000
31
0.0
0
LINE
5
451
100
AcDbEntity
8
F-F
6
CONTINUOUS
62
4
100
AcDbLine
10
40.420000000000
20
32.490000000000
30
0.0
11
41.220000000000
21
32.490000000000
31
0.0
0
LINE
5
452
100
AcDbEntity
8
F-F
6
CONTINUOUS
62
4
100
AcDbLine
10
40.420000000000
20
32.650000000000
30
0.0
11
41.220000000000
21
32.650000000000
31
0.0
0
LINE
5
453
100
AcDbEntity
8
F-F
6
CONTINUOUS
62
4
100
AcDbLine
10
40.420000000000
20
32.810000000000
30
0.0
11
41.220000000000
21
32.810000000000
31
0.0
0
LINE
5
454
100
AcDbEntity
8
F-F
6
CONTINUOUS
62
4
100
AcDbLine
10
40.420000000000
20
32.970000000000
30
0.0
11
41.220000000000
21
32.970000000000
31
0.0
0
LINE
5
455
100
AcDbEntity
8
F-F
6
CONTINUOUS
62
4
100
AcDbLine
10
40.420000000000
20
33.130000000000
30
0.0
11
41.220000000000
21
33.130000000000
31
0.0
0
LINE
5
456
100
AcDbEntity
8
F-F
6
CONTINUOUS
62
4
100
AcDbLine
10
40.420000000000
20
33.290000000000
30
0.0
11
41.220000000000
21
33.290000000000
31
0.0
0
LINE
5
457
100
AcDbEntity
8
F-F
6
CONTINUOUS
62
4
100
AcDbLine
10
40.420000000000
20
33.450000000000
30
0.0
11
41.220000000000
21
33.450000000000
31
0.0
0
LINE
5
458
100
AcDbEntity
8
F-F
6
CONTINUOUS
62
4
100
AcDbLine
10
40.420000000000
20
33.610000000000
30
0.0
11
41.220000000000
21
33.610000000000
31
0.0
0
LINE
5
459
100
AcDbEntity
8
F-F
6
CONTINUOUS
62
4
100
AcDbLine
10
40.420000000000
20
33.770000000000
30
0.0
11
41.220000000000
21
33.770000000000
31
0.0
0
LINE
5
45a
100
AcDbEntity
8
F-F
6
CONTINUOUS
62
4
100
AcDbLine
10
40.420000000000
20
33.930000000000
30
0.0
11
41.220000000000
21
33.930000000000
31
0.0
0
LINE
5
45b
100
AcDbEntity
8
F-F
6
CONTINUOUS
62
4
100
AcDbLine
10
40.420000000000
20
34.410000000000
30
0.0
11
41.220000000000
21
34.410000000000
31
0.0
0
LINE
5
45c
100
AcDbEntity
8
F-F
6
CONTINUOUS
62
4
100
AcDbLine
10
40.420000000000
20
34.890000000000
30
0.0
11
41.220000000000
21
34.890000000000
31
0.0
0
LINE
5
45d
100
AcDbEntity
8
F-F
6
CONTINUOUS
62
4
100
AcDbLine
10
40.420000000000
20
35.050000000000
30
0.0
11
41.220000000000
21
35.050000000000
31
0.0
0
LINE
5
45e
100
AcDbEntity
8
F-F
6
CONTINUOUS
62
4
100
AcDbLine
10
40.420000000000
20
35.210000000000
30
0.0
11
41.220000000000
21
35.210000000000
31
0.0
0
LINE
5
45f
100
AcDbEntity
8
F-F
6
CONTINUOUS
62
4
100
AcDbLine
10
40.420000000000
20
35.370000000000
30
0.0
11
41.220000000000
21
35.370000000000
31
0.0
0
LINE
5
460
100
AcDbEntity
8
F-F
6
CONTINUOUS
62
4
100
AcDbLine
10
40.420000000000
20
36.170000000000
30
0.0
11
41.220000000000
21
36.170000000000
31
0.0
0
LINE
5
461
100
AcDbEntity
8
F-F
6
CONTINUOUS
62
4
100
AcDbLine
10
40.420000000000
20
36.010000000000
30
0.0
11
41.220000000000
21
36.010000000000
31
0.0
0
LINE
5
462
100
AcDbEntity
8
F-F
6
CONTINUOUS
62
4
100
AcDbLine
10
40.420000000000
20
35.850000000000
30
0.0
11
41.220000000000
21
35.850000000000
31
0.0
0
LINE
5
463
100
AcDbEntity
8
F-F
6
CONTINUOUS
62
4
100
AcDbLine
10
40.420000000000
20
35.690000000000
30
0.0
11
41.220000000000
21
35.690000000000
31
0.0
0
LINE
5
464
100
AcDbEntity
8
F-F
6
CONTINUOUS
62
4
100
AcDbLine
10
40.420000000000
20
35.530000000000
30
0.0
11
41.220000000000
21
35.530000000000
31
0.0
0
LINE
5
465
100
AcDbEntity
8
F-F
6
CONTINUOUS
62
4
100
AcDbLine
10
40.420000000000
20
34.570000000000
30
0.0
11
41.220000000000
21
34.570000000000
31
0.0
0
LINE
5
466
100
AcDbEntity
8
F-F
6
CONTINUOUS
62
4
100
AcDbLine
10
40.420000000000
20
34.730000000000
30
0.0
11
41.220000000000
21
34.730000000000
31
0.0
0
LINE
5
467
100
AcDbEntity
8
F-F
6
CONTINUOUS
62
4
100
AcDbLine
10
40.420000000000
20
34.250000000000
30
0.0
11
41.220000000000
21
34.250000000000
31
0.0
0
LINE
5
468
100
AcDbEntity
8
F-F
6
CONTINUOUS
62
4
100
AcDbLine
10
40.420000000000
20
34.090000000000
30
0.0
11
41.220000000000
21
34.090000000000
31
0.0
0
LINE
5
469
100
AcDbEntity
8
F-F
6
CONTINUOUS
62
4
100
AcDbLine
10
41.500000000000
20
30.410000000000
30
0.0
11
42.060000000000
21
30.410000000000
31
0.0
0
LINE
5
46a
100
AcDbEntity
8
F-F
6
CONTINUOUS
62
4
100
AcDbLine
10
41.340000000000
20
30.250000000000
30
0.0
11
41.900000000000
21
30.250000000000
31
0.0
0
LINE
5
46b
100
AcDbEntity
8
F-F
6
CONTINUOUS
62
4
100
AcDbLine
10
40.420000000000
20
30.090000000000
30
0.0
11
41.740000000000
21
30.090000000000
31
0.0
0
LINE
5
46c
100
AcDbEntity
8
F-F
6
CONTINUOUS
62
4
100
AcDbLine
10
40.420000000000
20
29.930000000000
30
0.0
11
41.580000000000
21
29.930000000000
31
0.0
0
LINE
5
46d
100
AcDbEntity
8
F-F
6
CONTINUOUS
62
4
100
AcDbLine
10
42.460000000000
20
31.370000000000
30
0.0
11
43.020000000000
21
31.370000000000
31
0.0
0
LINE
5
46e
100
AcDbEntity
8
F-F
6
CONTINUOUS
62
4
100
AcDbLine
10
42.300000000000
20
31.210000000000
30
0.0
11
42.860000000000
21
31.210000000000
31
0.0
0
LINE
5
46f
100
AcDbEntity
8
F-F
6
CONTINUOUS
62
4
100
AcDbLine
10
42.140000000000
20
31.050000000000
30
0.0
11
42.700000000000
21
31.050000000000
31
0.0
0
LINE
5
470
100
AcDbEntity
8
F-F
6
CONTINUOUS
62
4
100
AcDbLine
10
41.980000000000
20
30.890000000000
30
0.0
11
42.540000000000
21
30.890000000000
31
0.0
0
LINE
5
471
100
AcDbEntity
8
F-F
6
CONTINUOUS
62
4
100
AcDbLine
10
41.820000000000
20
30.730000000000
30
0.0
11
42.380000000000
21
30.730000000000
31
0.0
0
LINE
5
472
100
AcDbEntity
8
F-F
6
CONTINUOUS
62
4
100
AcDbLine
10
41.660000000000
20
30.570000000000
30
0.0
11
42.220000000000
21
30.570000000000
31
0.0
0
LINE
5
473
100
AcDbEntity
8
F-F
6
CONTINUOUS
62
4
100
AcDbLine
10
41.220000000000
20
36.250000000000
30
0.0
11
41.220000000000
21
36.410000000000
31
0.0
0
LINE
5
474
100
AcDbEntity
8
F-F
6
CONTINUOUS
62
4
100
AcDbLine
10
47.620000000000
20
30.250000000000
30
0.0
11
48.420000000000
21
30.250000000000
31
0.0
0
LINE
5
475
100
AcDbEntity
8
F-F
6
CONTINUOUS
62
4
100
AcDbLine
10
47.620000000000
20
30.410000000000
30
0.0
11
48.420000000000
21
30.410000000000
31
0.0
0
LINE
5
476
100
AcDbEntity
8
F-F
6
CONTINUOUS
62
4
100
AcDbLine
10
47.620000000000
20
30.570000000000
30
0.0
11
48.420000000000
21
30.570000000000
31
0.0
0
LINE
5
477
100
AcDbEntity
8
F-F
6
CONTINUOUS
62
4
100
AcDbLine
10
47.620000000000
20
30.730000000000
30
0.0
11
48.420000000000
21
30.730000000000
31
0.0
0
LINE
5
478
100
AcDbEntity
8
F-F
6
CONTINUOUS
62
4
100
AcDbLine
10
47.620000000000
20
30.890000000000
30
0.0
11
48.420000000000
21
30.890000000000
31
0.0
0
LINE
5
479
100
AcDbEntity
8
F-F
6
CONTINUOUS
62
4
100
AcDbLine
10
47.620000000000
20
31.050000000000
30
0.0
11
48.420000000000
21
31.050000000000
31
0.0
0
LINE
5
47a
100
AcDbEntity
8
F-F
6
CONTINUOUS
62
4
100
AcDbLine
10
47.620000000000
20
31.210000000000
30
0.0
11
48.420000000000
21
31.210000000000
31
0.0
0
LINE
5
47b
100
AcDbEntity
8
F-F
6
CONTINUOUS
62
4
100
AcDbLine
10
47.620000000000
20
31.370000000000
30
0.0
11
48.420000000000
21
31.370000000000
31
0.0
0
LINE
5
47c
100
AcDbEntity
8
F-F
6
CONTINUOUS
62
4
100
AcDbLine
10
47.620000000000
20
31.530000000000
30
0.0
11
48.420000000000
21
31.530000000000
31
0.0
0
LINE
5
47d
100
AcDbEntity
8
F-F
6
CONTINUOUS
62
4
100
AcDbLine
10
47.620000000000
20
31.690000000000
30
0.0
11
48.420000000000
21
31.690000000000
31
0.0
0
LINE
5
47e
100
AcDbEntity
8
F-F
6
CONTINUOUS
62
4
100
AcDbLine
10
47.620000000000
20
31.850000000000
30
0.0
11
48.420000000000
21
31.850000000000
31
0.0
0
LINE
5
47f
100
AcDbEntity
8
F-F
6
CONTINUOUS
62
4
100
AcDbLine
10
47.620000000000
20
32.010000000000
30
0.0
11
48.420000000000
21
32.010000000000
31
0.0
0
LINE
5
480
100
AcDbEntity
8
F-F
6
CONTINUOUS
62
4
100
AcDbLine
10
47.620000000000
20
32.170000000000
30
0.0
11
48.420000000000
21
32.170000000000
31
0.0
0
LINE
5
481
100
AcDbEntity
8
F-F
6
CONTINUOUS
62
4
100
AcDbLine
10
47.620000000000
20
32.490000000000
30
0.0
11
48.420000000000
21
32.490000000000
31
0.0
0
LINE
5
482
100
AcDbEntity
8
F-F
6
CONTINUOUS
62
4
100
AcDbLine
10
47.620000000000
20
32.650000000000
30
0.0
11
48.420000000000
21
32.650000000000
31
0.0
0
LINE
5
483
100
AcDbEntity
8
F-F
6
CONTINUOUS
62
4
100
AcDbLine
10
47.620000000000
20
32.810000000000
30
0.0
11
48.420000000000
21
32.810000000000
31
0.0
0
LINE
5
484
100
AcDbEntity
8
F-F
6
CONTINUOUS
62
4
100
AcDbLine
10
47.620000000000
20
32.970000000000
30
0.0
11
48.420000000000
21
32.970000000000
31
0.0
0
LINE
5
485
100
AcDbEntity
8
F-F
6
CONTINUOUS
62
4
100
AcDbLine
10
47.620000000000
20
33.130000000000
30
0.0
11
48.420000000000
21
33.130000000000
31
0.0
0
LINE
5
486
100
AcDbEntity
8
F-F
6
CONTINUOUS
62
4
100
AcDbLine
10
47.620000000000
20
33.290000000000
30
0.0
11
48.420000000000
21
33.290000000000
31
0.0
0
LINE
5
487
100
AcDbEntity
8
F-F
6
CONTINUOUS
62
4
100
AcDbLine
10
47.620000000000
20
33.450000000000
30
0.0
11
48.420000000000
21
33.450000000000
31
0.0
0
LINE
5
488
100
AcDbEntity
8
F-F
6
CONTINUOUS
62
4
100
AcDbLine
10
47.620000000000
20
33.610000000000
30
0.0
11
48.420000000000
21
33.610000000000
31
0.0
0
LINE
5
489
100
AcDbEntity
8
F-F
6
CONTINUOUS
62
4
100
AcDbLine
10
47.620000000000
20
33.770000000000
30
0.0
11
48.420000000000
21
33.770000000000
31
0.0
0
LINE
5
48a
100
AcDbEntity
8
F-F
6
CONTINUOUS
62
4
100
AcDbLine
10
47.620000000000
20
33.930000000000
30
0.0
11
48.420000000000
21
33.930000000000
31
0.0
0
LINE
5
48b
100
AcDbEntity
8
F-F
6
CONTINUOUS
62
4
100
AcDbLine
10
47.620000000000
20
34.410000000000
30
0.0
11
48.420000000000
21
34.410000000000
31
0.0
0
LINE
5
48c
100
AcDbEntity
8
F-F
6
CONTINUOUS
62
4
100
AcDbLine
10
47.620000000000
20
34.890000000000
30
0.0
11
48.420000000000
21
34.890000000000
31
0.0
0
LINE
5
48d
100
AcDbEntity
8
F-F
6
CONTINUOUS
62
4
100
AcDbLine
10
47.620000000000
20
35.050000000000
30
0.0
11
48.420000000000
21
35.050000000000
31
0.0
0
LINE
5
48e
100
AcDbEntity
8
F-F
6
CONTINUOUS
62
4
100
AcDbLine
10
47.620000000000
20
35.210000000000
30
0.0
11
48.420000000000
21
35.210000000000
31
0.0
0
LINE
5
48f
100
AcDbEntity
8
F-F
6
CONTINUOUS
62
4
100
AcDbLine
10
47.620000000000
20
35.370000000000
30
0.0
11
48.420000000000
21
35.370000000000
31
0.0
0
LINE
5
490
100
AcDbEntity
8
F-F
6
CONTINUOUS
62
4
100
AcDbLine
10
47.620000000000
20
35.850000000000
30
0.0
11
48.420000000000
21
35.850000000000
31
0.0
0
LINE
5
491
100
AcDbEntity
8
F-F
6
CONTINUOUS
62
4
100
AcDbLine
10
47.620000000000
20
35.690000000000
30
0.0
11
48.420000000000
21
35.690000000000
31
0.0
0
LINE
5
492
100
AcDbEntity
8
F-F
6
CONTINUOUS
62
4
100
AcDbLine
10
47.620000000000
20
35.530000000000
30
0.0
11
48.420000000000
21
35.530000000000
31
0.0
0
LINE
5
493
100
AcDbEntity
8
F-F
6
CONTINUOUS
62
4
100
AcDbLine
10
47.620000000000
20
34.570000000000
30
0.0
11
48.420000000000
21
34.570000000000
31
0.0
0
LINE
5
494
100
AcDbEntity
8
F-F
6
CONTINUOUS
62
4
100
AcDbLine
10
47.620000000000
20
34.730000000000
30
0.0
11
48.420000000000
21
34.730000000000
31
0.0
0
LINE
5
495
100
AcDbEntity
8
F-F
6
CONTINUOUS
62
4
100
AcDbLine
10
47.620000000000
20
34.250000000000
30
0.0
11
48.420000000000
21
34.250000000000
31
0.0
0
LINE
5
496
100
AcDbEntity
8
F-F
6
CONTINUOUS
62
4
100
AcDbLine
10
47.620000000000
20
34.090000000000
30
0.0
11
48.420000000000
21
34.090000000000
31
0.0
0
LINE
5
497
100
AcDbEntity
8
F-F
6
CONTINUOUS
62
4
100
AcDbLine
10
47.620000000000
20
29.930000000000
30
0.0
11
48.420000000000
21
29.930000000000
31
0.0
0
LINE
5
498
100
AcDbEntity
8
F-F
6
CONTINUOUS
62
4
100
AcDbLine
10
47.620000000000
20
30.090000000000
30
0.0
11
48.420000000000
21
30.090000000000
31
0.0
0
LINE
5
499
100
AcDbEntity
8
F-F
6
CONTINUOUS
62
4
100
AcDbLine
10
47.260000000000
20
36.170000000000
30
0.0
11
48.420000000000
21
36.170000000000
31
0.0
0
LINE
5
49a
100
AcDbEntity
8
F-F
6
CONTINUOUS
62
4
100
AcDbLine
10
47.100000000000
20
36.010000000000
30
0.0
11
48.420000000000
21
36.010000000000
31
0.0
0
LINE
5
49b
100
AcDbEntity
8
F-F
6
CONTINUOUS
62
4
100
AcDbLine
10
43.100000000000
20
32.010000000000
30
0.0
11
43.660000000000
21
32.010000000000
31
0.0
0
LINE
5
49c
100
AcDbEntity
8
F-F
6
CONTINUOUS
62
4
100
AcDbLine
10
42.940000000000
20
31.850000000000
30
0.0
11
43.500000000000
21
31.850000000000
31
0.0
0
LINE
5
49d
100
AcDbEntity
8
F-F
6
CONTINUOUS
62
4
100
AcDbLine
10
42.780000000000
20
31.690000000000
30
0.0
11
43.340000000000
21
31.690000000000
31
0.0
0
LINE
5
49e
100
AcDbEntity
8
F-F
6
CONTINUOUS
62
4
100
AcDbLine
10
42.620000000000
20
31.530000000000
30
0.0
11
43.180000000000
21
31.530000000000
31
0.0
0
LINE
5
49f
100
AcDbEntity
8
F-F
6
CONTINUOUS
62
4
100
AcDbLine
10
43.740000000000
20
32.650000000000
30
0.0
11
44.300000000000
21
32.650000000000
31
0.0
0
LINE
5
4a0
100
AcDbEntity
8
F-F
6
CONTINUOUS
62
4
100
AcDbLine
10
43.580000000000
20
32.490000000000
30
0.0
11
44.140000000000
21
32.490000000000
31
0.0
0
LINE
5
4a1
100
AcDbEntity
8
F-F
6
CONTINUOUS
62
4
100
AcDbLine
10
43.420000000000
20
32.330000000000
30
0.0
11
43.980000000000
21
32.330000000000
31
0.0
0
LINE
5
4a2
100
AcDbEntity
8
F-F
6
CONTINUOUS
62
4
100
AcDbLine
10
43.260000000000
20
32.170000000000
30
0.0
11
43.820000000000
21
32.170000000000
31
0.0
0
LINE
5
4a3
100
AcDbEntity
8
F-F
6
CONTINUOUS
62
4
100
AcDbLine
10
44.380000000000
20
33.290000000000
30
0.0
11
44.940000000000
21
33.290000000000
31
0.0
0
LINE
5
4a4
100
AcDbEntity
8
F-F
6
CONTINUOUS
62
4
100
AcDbLine
10
44.220000000000
20
33.130000000000
30
0.0
11
44.780000000000
21
33.130000000000
31
0.0
0
LINE
5
4a5
100
AcDbEntity
8
F-F
6
CONTINUOUS
62
4
100
AcDbLine
10
44.060000000000
20
32.970000000000
30
0.0
11
44.620000000000
21
32.970000000000
31
0.0
0
LINE
5
4a6
100
AcDbEntity
8
F-F
6
CONTINUOUS
62
4
100
AcDbLine
10
43.900000000000
20
32.810000000000
30
0.0
11
44.460000000000
21
32.810000000000
31
0.0
0
LINE
5
4a7
100
AcDbEntity
8
F-F
6
CONTINUOUS
62
4
100
AcDbLine
10
45.020000000000
20
33.930000000000
30
0.0
11
45.580000000000
21
33.930000000000
31
0.0
0
LINE
5
4a8
100
AcDbEntity
8
F-F
6
CONTINUOUS
62
4
100
AcDbLine
10
44.860000000000
20
33.770000000000
30
0.0
11
45.420000000000
21
33.770000000000
31
0.0
0
LINE
5
4a9
100
AcDbEntity
8
F-F
6
CONTINUOUS
62
4
100
AcDbLine
10
44.700000000000
20
33.610000000000
30
0.0
11
45.260000000000
21
33.610000000000
31
0.0
0
LINE
5
4aa
100
AcDbEntity
8
F-F
6
CONTINUOUS
62
4
100
AcDbLine
10
44.540000000000
20
33.450000000000
30
0.0
11
45.100000000000
21
33.450000000000
31
0.0
0
LINE
5
4ab
100
AcDbEntity
8
F-F
6
CONTINUOUS
62
4
100
AcDbLine
10
45.660000000000
20
34.570000000000
30
0.0
11
46.220000000000
21
34.570000000000
31
0.0
0
LINE
5
4ac
100
AcDbEntity
8
F-F
6
CONTINUOUS
62
4
100
AcDbLine
10
45.500000000000
20
34.410000000000
30
0.0
11
46.060000000000
21
34.410000000000
31
0.0
0
LINE
5
4ad
100
AcDbEntity
8
F-F
6
CONTINUOUS
62
4
100
AcDbLine
10
45.340000000000
20
34.250000000000
30
0.0
11
45.900000000000
21
34.250000000000
31
0.0
0
LINE
5
4ae
100
AcDbEntity
8
F-F
6
CONTINUOUS
62
4
100
AcDbLine
10
45.180000000000
20
34.090000000000
30
0.0
11
45.740000000000
21
34.090000000000
31
0.0
0
LINE
5
4af
100
AcDbEntity
8
F-F
6
CONTINUOUS
62
4
100
AcDbLine
10
46.300000000000
20
35.210000000000
30
0.0
11
46.860000000000
21
35.210000000000
31
0.0
0
LINE
5
4b0
100
AcDbEntity
8
F-F
6
CONTINUOUS
62
4
100
AcDbLine
10
46.140000000000
20
35.050000000000
30
0.0
11
46.700000000000
21
35.050000000000
31
0.0
0
LINE
5
4b1
100
AcDbEntity
8
F-F
6
CONTINUOUS
62
4
100
AcDbLine
10
45.980000000000
20
34.890000000000
30
0.0
11
46.540000000000
21
34.890000000000
31
0.0
0
LINE
5
4b2
100
AcDbEntity
8
F-F
6
CONTINUOUS
62
4
100
AcDbLine
10
45.820000000000
20
34.730000000000
30
0.0
11
46.380000000000
21
34.730000000000
31
0.0
0
LINE
5
4b3
100
AcDbEntity
8
F-F
6
CONTINUOUS
62
4
100
AcDbLine
10
46.940000000000
20
35.850000000000
30
0.0
11
47.500000000000
21
35.850000000000
31
0.0
0
LINE
5
4b4
100
AcDbEntity
8
F-F
6
CONTINUOUS
62
4
100
AcDbLine
10
46.780000000000
20
35.690000000000
30
0.0
11
47.340000000000
21
35.690000000000
31
0.0
0
LINE
5
4b5
100
AcDbEntity
8
F-F
6
CONTINUOUS
62
4
100
AcDbLine
10
46.620000000000
20
35.530000000000
30
0.0
11
47.180000000000
21
35.530000000000
31
0.0
0
LINE
5
4b6
100
AcDbEntity
8
F-F
6
CONTINUOUS
62
4
100
AcDbLine
10
46.460000000000
20
35.370000000000
30
0.0
11
47.020000000000
21
35.370000000000
31
0.0
0
LINE
5
4b7
100
AcDbEntity
8
F-F
6
CONTINUOUS
62
4
100
AcDbLine
10
47.620000000000
20
32.330000000000
30
0.0
11
48.420000000000
21
32.330000000000
31
0.0
0
LINE
5
4b8
100
AcDbEntity
8
F-F
6
CONTINUOUS
62
2
100
AcDbLine
10
612.110000000000
20
476.210000000000
30
0.0
11
815.820000000000
21
476.210000000000
31
0.0
0
LINE
5
4b9
100
AcDbEntity
8
F-F
6
CONTINUOUS
62
2
100
AcDbLine
10
612.110000000000
20
571.820000000000
30
0.0
11
612.110000000000
21
476.210000000000
31
0.0
0
LINE
5
4ba
100
AcDbEntity
8
0-0
6
CONTINUOUS
62
3
100
AcDbLine
10
390.260000000000
20
367.430000000000
30
0.0
11
453.250000000000
21
367.430000000000
31
0.0
0
LINE
5
4bb
100
AcDbEntity
8
0-0
6
CONTINUOUS
62
3
100
AcDbLine
10
386.930000000000
20
372.430000000000
30
0.0
11
384.100000000000
21
372.430000000000
31
0.0
0
LINE
5
4bc
100
AcDbEntity
8
0-0
6
CONTINUOUS
62
3
100
AcDbLine
10
453.250000000000
20
366.930000000000
30
0.0
11
390.260000000000
21
366.930000000000
31
0.0
0
LINE
5
4bd
100
AcDbEntity
8
0-0
6
CONTINUOUS
62
3
100
AcDbLine
10
387.900000000000
20
371.670000000000
30
0.0
11
388.800000000000
21
368.070000000000
31
0.0
0
LINE
5
4be
100
AcDbEntity
8
0-0
6
CONTINUOUS
62
3
100
AcDbLine
10
384.100000000000
20
372.930000000000
30
0.0
11
386.930000000000
21
372.930000000000
31
0.0
0
LINE
5
4bf
100
AcDbEntity
8
0-0
6
CONTINUOUS
62
3
100
AcDbLine
10
389.290000000000
20
368.190000000000
30
0.0
11
388.380000000000
21
371.790000000000
31
0.0
0
LINE
5
4c0
100
AcDbEntity
8
0-0
6
CONTINUOUS
62
3
100
AcDbLine
10
377.950000000000
20
367.430000000000
30
0.0
11
314.950000000000
21
367.430000000000
31
0.0
0
LINE
5
4c1
100
AcDbEntity
8
0-0
6
CONTINUOUS
62
3
100
AcDbLine
10
381.270000000000
20
372.430000000000
30
0.0
11
384.100000000000
21
372.430000000000
31
0.0
0
LINE
5
4c2
100
AcDbEntity
8
0-0
6
CONTINUOUS
62
3
100
AcDbLine
10
314.950000000000
20
366.930000000000
30
0.0
11
377.950000000000
21
366.930000000000
31
0.0
0
LINE
5
4c3
100
AcDbEntity
8
0-0
6
CONTINUOUS
62
3
100
AcDbLine
10
380.300000000000
20
371.670000000000
30
0.0
11
379.400000000000
21
368.070000000000
31
0.0
0
LINE
5
4c4
100
AcDbEntity
8
0-0
6
CONTINUOUS
62
3
100
AcDbLine
10
384.100000000000
20
372.930000000000
30
0.0
11
381.270000000000
21
372.930000000000
31
0.0
0
LINE
5
4c5
100
AcDbEntity
8
0-0
6
CONTINUOUS
62
3
100
AcDbLine
10
378.920000000000
20
368.190000000000
30
0.0
11
379.820000000000
21
371.790000000000
31
0.0
0
LINE
5
4c6
100
AcDbEntity
8
0-0
6
CONTINUOUS
62
3
100
AcDbLine
10
242.970000000000
20
372.430000000000
30
0.0
11
245.800000000000
21
372.430000000000
31
0.0
0
LINE
5
4c7
100
AcDbEntity
8
0-0
6
CONTINUOUS
62
3
100
AcDbLine
10
242.000000000000
20
371.670000000000
30
0.0
11
241.100000000000
21
368.070000000000
31
0.0
0
LINE
5
4c8
100
AcDbEntity
8
0-0
6
CONTINUOUS
62
3
100
AcDbLine
10
245.800000000000
20
372.930000000000
30
0.0
11
242.970000000000
21
372.930000000000
31
0.0
0
LINE
5
4c9
100
AcDbEntity
8
0-0
6
CONTINUOUS
62
3
100
AcDbLine
10
240.620000000000
20
368.190000000000
30
0.0
11
241.520000000000
21
371.790000000000
31
0.0
0
LINE
5
4ca
100
AcDbEntity
8
0-0
6
CONTINUOUS
62
3
100
AcDbLine
10
251.960000000000
20
367.430000000000
30
0.0
11
314.950000000000
21
367.430000000000
31
0.0
0
LINE
5
4cb
100
AcDbEntity
8
0-0
6
CONTINUOUS
62
3
100
AcDbLine
10
248.630000000000
20
372.430000000000
30
0.0
11
245.800000000000
21
372.430000000000
31
0.0
0
LINE
5
4cc
100
AcDbEntity
8
0-0
6
CONTINUOUS
62
3
100
AcDbLine
10
314.950000000000
20
366.930000000000
30
0.0
11
251.960000000000
21
366.930000000000
31
0.0
0
LINE
5
4cd
100
AcDbEntity
8
0-0
6
CONTINUOUS
62
3
100
AcDbLine
10
249.600000000000
20
371.670000000000
30
0.0
11
250.500000000000
21
368.070000000000
31
0.0
0
LINE
5
4ce
100
AcDbEntity
8
0-0
6
CONTINUOUS
62
3
100
AcDbLine
10
245.800000000000
20
372.930000000000
30
0.0
11
248.630000000000
21
372.930000000000
31
0.0
0
LINE
5
4cf
100
AcDbEntity
8
0-0
6
CONTINUOUS
62
3
100
AcDbLine
10
250.990000000000
20
368.190000000000
30
0.0
11
250.080000000000
21
371.790000000000
31
0.0
0
LINE
5
4d0
100
AcDbEntity
8
0-0
6
CONTINUOUS
62
7
100
AcDbLine
10
240.200000000000
20
341.930000000000
30
0.0
11
251.200000000000
21
341.930000000000
31
0.0
0
LINE
5
4d1
100
AcDbEntity
8
0-0
6
CONTINUOUS
62
7
100
AcDbLine
10
240.200000000000
20
356.930000000000
30
0.0
11
240.200000000000
21
341.930000000000
31
0.0
0
LINE
5
4d2
100
AcDbEntity
8
0-0
6
CONTINUOUS
62
7
100
AcDbLine
10
251.200000000000
20
356.930000000000
30
0.0
11
251.200000000000
21
341.930000000000
31
0.0
0
LINE
5
4d3
100
AcDbEntity
8
0-0
6
CONTINUOUS
62
7
100
AcDbLine
10
241.700000000000
20
397.930000000000
30
0.0
11
249.700000000000
21
397.930000000000
31
0.0
0
LINE
5
4d4
100
AcDbEntity
8
0-0
6
CONTINUOUS
62
7
100
AcDbLine
10
241.700000000000
20
382.930000000000
30
0.0
11
241.700000000000
21
397.930000000000
31
0.0
0
POLYLINE
5
4d5
100
AcDbEntity
8
0-0
6
CONTINUOUS
62
  7
100
AcDb2dPolyline
66
1
10
0.0
20
0.0
30
0.0
70
0
0
VERTEX
5
4d6
100
AcDbEntity
8
0-0
6
CONTINUOUS
62
  7
100
AcDbVertex
100
AcDb2dVertex
10
249.700000000000
20
382.930000000000
30
0.0
0
VERTEX
5
4d7
100
AcDbEntity
8
0-0
6
CONTINUOUS
62
  7
100
AcDbVertex
100
AcDb2dVertex
10
249.700000000000
20
397.930000000000
30
0.0
0
VERTEX
5
4d8
100
AcDbEntity
8
0-0
6
CONTINUOUS
62
  7
100
AcDbVertex
100
AcDb2dVertex
10
380.000000000000
20
397.930000000000
30
0.0
0
SEQEND
5
4d9
100
AcDbEntity
8
0-0
0
LINE
5
4da
100
AcDbEntity
8
0-0
6
CONTINUOUS
62
7
100
AcDbLine
10
380.000000000000
20
382.930000000000
30
0.0
11
380.000000000000
21
397.930000000000
31
0.0
0
LINE
5
4db
100
AcDbEntity
8
0-0
6
CONTINUOUS
62
7
100
AcDbLine
10
314.900000000000
20
372.930000000000
30
0.0
11
314.900000000000
21
367.430000000000
31
0.0
0
LINE
5
4dc
100
AcDbEntity
8
0-0
6
CONTINUOUS
62
7
100
AcDbLine
10
293.760000000000
20
372.930000000000
30
0.0
11
314.900000000000
21
372.930000000000
31
0.0
0
POLYLINE
5
4dd
100
AcDbEntity
8
0-0
6
CONTINUOUS
62
  7
100
AcDb2dPolyline
66
1
10
0.0
20
0.0
30
0.0
70
0
0
VERTEX
5
4de
100
AcDbEntity
8
0-0
6
CONTINUOUS
62
  7
100
AcDbVertex
100
AcDb2dVertex
10
107.400000000000
20
422.930000000000
30
0.0
0
VERTEX
5
4df
100
AcDbEntity
8
0-0
6
CONTINUOUS
62
  7
100
AcDbVertex
100
AcDb2dVertex
10
245.700000000000
20
422.930000000000
30
0.0
0
VERTEX
5
4e0
100
AcDbEntity
8
0-0
6
CONTINUOUS
62
  7
100
AcDbVertex
100
AcDb2dVertex
10
384.100000000000
20
422.930000000000
30
0.0
0
VERTEX
5
4e1
100
AcDbEntity
8
0-0
6
CONTINUOUS
62
  7
100
AcDbVertex
100
AcDb2dVertex
10
522.400000000000
20
422.930000000000
30
0.0
0
SEQEND
5
4e2
100
AcDbEntity
8
0-0
0
LINE
5
4e3
100
AcDbEntity
8
0-0
6
CONTINUOUS
62
7
100
AcDbLine
10
522.400000000000
20
407.930000000000
30
0.0
11
522.400000000000
21
422.930000000000
31
0.0
0
LINE
5
4e4
100
AcDbEntity
8
0-0
6
CONTINUOUS
62
7
100
AcDbLine
10
107.400000000000
20
437.930000000000
30
0.0
11
522.400000000000
21
437.930000000000
31
0.0
0
LINE
5
4e5
100
AcDbEntity
8
0-0
6
CONTINUOUS
62
7
100
AcDbLine
10
107.400000000000
20
422.930000000000
30
0.0
11
107.400000000000
21
437.930000000000
31
0.0
0
LINE
5
4e6
100
AcDbEntity
8
0-0
6
CONTINUOUS
62
7
100
AcDbLine
10
522.400000000000
20
422.930000000000
30
0.0
11
522.400000000000
21
437.930000000000
31
0.0
0
LINE
5
4e7
100
AcDbEntity
8
0-0
6
CONTINUOUS
62
7
100
AcDbLine
10
245.700000000000
20
407.930000000000
30
0.0
11
245.700000000000
21
422.930000000000
31
0.0
0
LINE
5
4e8
100
AcDbEntity
8
0-0
6
CONTINUOUS
62
7
100
AcDbLine
10
384.100000000000
20
407.930000000000
30
0.0
11
384.100000000000
21
422.930000000000
31
0.0
0
LINE
5
4e9
100
AcDbEntity
8
0-0
6
CONTINUOUS
62
7
100
AcDbLine
10
107.400000000000
20
407.930000000000
30
0.0
11
107.400000000000
21
422.930000000000
31
0.0
0
LINE
5
4ea
100
AcDbEntity
8
0-0
6
CONTINUOUS
62
3
100
AcDbLine
10
516.250000000000
20
367.430000000000
30
0.0
11
453.250000000000
21
367.430000000000
31
0.0
0
LINE
5
4eb
100
AcDbEntity
8
0-0
6
CONTINUOUS
62
3
100
AcDbLine
10
519.570000000000
20
372.430000000000
30
0.0
11
522.400000000000
21
372.430000000000
31
0.0
0
LINE
5
4ec
100
AcDbEntity
8
0-0
6
CONTINUOUS
62
3
100
AcDbLine
10
453.250000000000
20
366.930000000000
30
0.0
11
516.250000000000
21
366.930000000000
31
0.0
0
LINE
5
4ed
100
AcDbEntity
8
0-0
6
CONTINUOUS
62
3
100
AcDbLine
10
518.600000000000
20
371.670000000000
30
0.0
11
517.700000000000
21
368.070000000000
31
0.0
0
LINE
5
4ee
100
AcDbEntity
8
0-0
6
CONTINUOUS
62
3
100
AcDbLine
10
522.400000000000
20
372.930000000000
30
0.0
11
519.570000000000
21
372.930000000000
31
0.0
0
LINE
5
4ef
100
AcDbEntity
8
0-0
6
CONTINUOUS
62
3
100
AcDbLine
10
517.220000000000
20
368.190000000000
30
0.0
11
518.120000000000
21
371.790000000000
31
0.0
0
LINE
5
4f0
100
AcDbEntity
8
0-0
6
CONTINUOUS
62
3
100
AcDbLine
10
528.070000000000
20
368.190000000000
30
0.0
11
527.170000000000
21
371.790000000000
31
0.0
0
LINE
5
4f1
100
AcDbEntity
8
0-0
6
CONTINUOUS
62
3
100
AcDbLine
10
528.070000000000
20
368.190000000000
30
0.0
11
527.590000000000
21
368.070000000000
31
0.0
0
LINE
5
4f2
100
AcDbEntity
8
0-0
6
CONTINUOUS
62
3
100
AcDbLine
10
526.680000000000
20
371.670000000000
30
0.0
11
527.590000000000
21
368.070000000000
31
0.0
0
LINE
5
4f3
100
AcDbEntity
8
0-0
6
CONTINUOUS
62
3
100
AcDbLine
10
525.710000000000
20
372.430000000000
30
0.0
11
522.400000000000
21
372.430000000000
31
0.0
0
LINE
5
4f4
100
AcDbEntity
8
0-0
6
CONTINUOUS
62
3
100
AcDbLine
10
522.400000000000
20
372.930000000000
30
0.0
11
525.710000000000
21
372.930000000000
31
0.0
0
LINE
5
4f5
100
AcDbEntity
8
0-0
6
CONTINUOUS
62
3
100
AcDbLine
10
113.660000000000
20
366.930000000000
30
0.0
11
176.650000000000
21
366.930000000000
31
0.0
0
LINE
5
4f6
100
AcDbEntity
8
0-0
6
CONTINUOUS
62
3
100
AcDbLine
10
110.330000000000
20
371.930000000000
30
0.0
11
107.500000000000
21
371.930000000000
31
0.0
0
LINE
5
4f7
100
AcDbEntity
8
0-0
6
CONTINUOUS
62
3
100
AcDbLine
10
176.650000000000
20
366.430000000000
30
0.0
11
113.660000000000
21
366.430000000000
31
0.0
0
LINE
5
4f8
100
AcDbEntity
8
0-0
6
CONTINUOUS
62
3
100
AcDbLine
10
111.300000000000
20
371.170000000000
30
0.0
11
112.200000000000
21
367.570000000000
31
0.0
0
LINE
5
4f9
100
AcDbEntity
8
0-0
6
CONTINUOUS
62
3
100
AcDbLine
10
107.500000000000
20
372.430000000000
30
0.0
11
110.330000000000
21
372.430000000000
31
0.0
0
LINE
5
4fa
100
AcDbEntity
8
0-0
6
CONTINUOUS
62
3
100
AcDbLine
10
112.690000000000
20
367.690000000000
30
0.0
11
111.780000000000
21
371.290000000000
31
0.0
0
LINE
5
4fb
100
AcDbEntity
8
0-0
6
CONTINUOUS
62
3
100
AcDbLine
10
103.990000000000
20
371.170000000000
30
0.0
11
103.090000000000
21
367.570000000000
31
0.0
0
LINE
5
4fc
100
AcDbEntity
8
0-0
6
CONTINUOUS
62
3
100
AcDbLine
10
102.610000000000
20
367.690000000000
30
0.0
11
103.510000000000
21
371.290000000000
31
0.0
0
LINE
5
4fd
100
AcDbEntity
8
0-0
6
CONTINUOUS
62
3
100
AcDbLine
10
83.400000000000
20
366.930000000000
30
0.0
11
83.400000000000
21
366.430000000000
31
0.0
0
LINE
5
4fe
100
AcDbEntity
8
0-0
6
CONTINUOUS
62
3
100
AcDbLine
10
104.960000000000
20
371.930000000000
30
0.0
11
107.500000000000
21
371.930000000000
31
0.0
0
LINE
5
4ff
100
AcDbEntity
8
0-0
6
CONTINUOUS
62
3
100
AcDbLine
10
107.500000000000
20
372.430000000000
30
0.0
11
104.960000000000
21
372.430000000000
31
0.0
0
LINE
5
500
100
AcDbEntity
8
0-0
6
CONTINUOUS
62
3
100
AcDbLine
10
101.640000000000
20
366.930000000000
30
0.0
11
83.400000000000
21
366.930000000000
31
0.0
0
LINE
5
501
100
AcDbEntity
8
0-0
6
CONTINUOUS
62
3
100
AcDbLine
10
83.400000000000
20
366.430000000000
30
0.0
11
101.640000000000
21
366.430000000000
31
0.0
0
LINE
5
502
100
AcDbEntity
8
0-0
6
CONTINUOUS
62
3
100
AcDbLine
10
176.650000000000
20
366.430000000000
30
0.0
11
239.650000000000
21
366.930000000000
31
0.0
0
LINE
5
503
100
AcDbEntity
8
0-0
6
CONTINUOUS
62
3
100
AcDbLine
10
239.650000000000
20
367.430000000000
30
0.0
11
176.650000000000
21
366.930000000000
31
0.0
0
LINE
5
504
100
AcDbEntity
8
0-0
6
CONTINUOUS
62
3
100
AcDbLine
10
653.190000000000
20
304.740000000000
30
0.0
11
656.020000000000
21
304.740000000000
31
0.0
0
LINE
5
505
100
AcDbEntity
8
0-0
6
CONTINUOUS
62
3
100
AcDbLine
10
652.220000000000
20
303.980000000000
30
0.0
11
651.320000000000
21
300.370000000000
31
0.0
0
LINE
5
506
100
AcDbEntity
8
0-0
6
CONTINUOUS
62
3
100
AcDbLine
10
656.020000000000
20
305.240000000000
30
0.0
11
653.190000000000
21
305.240000000000
31
0.0
0
LINE
5
507
100
AcDbEntity
8
0-0
6
CONTINUOUS
62
3
100
AcDbLine
10
650.830000000000
20
300.490000000000
30
0.0
11
651.730000000000
21
304.100000000000
31
0.0
0
LINE
5
508
100
AcDbEntity
8
0-0
6
CONTINUOUS
62
3
100
AcDbLine
10
661.690000000000
20
300.490000000000
30
0.0
11
660.790000000000
21
304.100000000000
31
0.0
0
LINE
5
509
100
AcDbEntity
8
0-0
6
CONTINUOUS
62
3
100
AcDbLine
10
661.690000000000
20
300.490000000000
30
0.0
11
661.200000000000
21
300.370000000000
31
0.0
0
LINE
5
50a
100
AcDbEntity
8
0-0
6
CONTINUOUS
62
3
100
AcDbLine
10
660.300000000000
20
303.980000000000
30
0.0
11
661.200000000000
21
300.370000000000
31
0.0
0
LINE
5
50b
100
AcDbEntity
8
0-0
6
CONTINUOUS
62
3
100
AcDbLine
10
659.330000000000
20
304.740000000000
30
0.0
11
656.020000000000
21
304.740000000000
31
0.0
0
LINE
5
50c
100
AcDbEntity
8
0-0
6
CONTINUOUS
62
3
100
AcDbLine
10
656.020000000000
20
305.240000000000
30
0.0
11
659.330000000000
21
305.240000000000
31
0.0
0
LINE
5
50d
100
AcDbEntity
8
0-0
6
CONTINUOUS
62
3
100
AcDbLine
10
658.950000000000
20
304.240000000000
30
0.0
11
656.120000000000
21
304.240000000000
31
0.0
0
LINE
5
50e
100
AcDbEntity
8
0-0
6
CONTINUOUS
62
3
100
AcDbLine
10
659.920000000000
20
303.480000000000
30
0.0
11
660.820000000000
21
299.870000000000
31
0.0
0
LINE
5
50f
100
AcDbEntity
8
0-0
6
CONTINUOUS
62
3
100
AcDbLine
10
656.120000000000
20
304.740000000000
30
0.0
11
658.950000000000
21
304.740000000000
31
0.0
0
LINE
5
510
100
AcDbEntity
8
0-0
6
CONTINUOUS
62
3
100
AcDbLine
10
661.300000000000
20
299.990000000000
30
0.0
11
660.400000000000
21
303.600000000000
31
0.0
0
LINE
5
511
100
AcDbEntity
8
0-0
6
CONTINUOUS
62
3
100
AcDbLine
10
652.610000000000
20
303.480000000000
30
0.0
11
651.710000000000
21
299.870000000000
31
0.0
0
LINE
5
512
100
AcDbEntity
8
0-0
6
CONTINUOUS
62
3
100
AcDbLine
10
651.220000000000
20
299.990000000000
30
0.0
11
652.130000000000
21
303.600000000000
31
0.0
0
LINE
5
513
100
AcDbEntity
8
0-0
6
CONTINUOUS
62
3
100
AcDbLine
10
632.020000000000
20
299.240000000000
30
0.0
11
632.020000000000
21
298.740000000000
31
0.0
0
LINE
5
514
100
AcDbEntity
8
0-0
6
CONTINUOUS
62
3
100
AcDbLine
10
653.580000000000
20
304.240000000000
30
0.0
11
656.120000000000
21
304.240000000000
31
0.0
0
LINE
5
515
100
AcDbEntity
8
0-0
6
CONTINUOUS
62
3
100
AcDbLine
10
656.120000000000
20
304.740000000000
30
0.0
11
653.580000000000
21
304.740000000000
31
0.0
0
LINE
5
516
100
AcDbEntity
8
0-0
6
CONTINUOUS
62
3
100
AcDbLine
10
650.250000000000
20
299.240000000000
30
0.0
11
632.020000000000
21
299.240000000000
31
0.0
0
LINE
5
517
100
AcDbEntity
8
0-0
6
CONTINUOUS
62
3
100
AcDbLine
10
632.020000000000
20
298.740000000000
30
0.0
11
650.250000000000
21
298.740000000000
31
0.0
0
LINE
5
518
100
AcDbEntity
8
0-0
6
CONTINUOUS
62
7
100
AcDbLine
10
652.020000000000
20
330.240000000000
30
0.0
11
660.020000000000
21
330.240000000000
31
0.0
0
LINE
5
519
100
AcDbEntity
8
0-0
6
CONTINUOUS
62
7
100
AcDbLine
10
652.020000000000
20
315.240000000000
30
0.0
11
652.020000000000
21
330.240000000000
31
0.0
0
LINE
5
51a
100
AcDbEntity
8
0-0
6
CONTINUOUS
62
7
100
AcDbLine
10
660.020000000000
20
315.240000000000
30
0.0
11
660.020000000000
21
330.240000000000
31
0.0
0
LINE
5
51b
100
AcDbEntity
8
0-0
6
CONTINUOUS
62
3
100
AcDbLine
10
649.860000000000
20
299.740000000000
30
0.0
11
618.400000000000
21
299.740000000000
31
0.0
0
LINE
5
51c
100
AcDbEntity
8
0-0
6
CONTINUOUS
62
3
100
AcDbLine
10
618.400000000000
20
299.240000000000
30
0.0
11
649.860000000000
21
299.240000000000
31
0.0
0
LINE
5
51d
100
AcDbEntity
8
0-0
6
CONTINUOUS
62
3
100
AcDbLine
10
662.270000000000
20
299.240000000000
30
0.0
11
693.630000000000
21
299.240000000000
31
0.0
0
LINE
5
51e
100
AcDbEntity
8
0-0
6
CONTINUOUS
62
3
100
AcDbLine
10
693.630000000000
20
298.740000000000
30
0.0
11
662.270000000000
21
298.740000000000
31
0.0
0
CIRCLE
5
51f
100
AcDbEntity
8
F-F
6
CONTINUOUS
62
3
100
AcDbCircle
10
44.420000000000
20
33.050000000000
30
0.0
40
5.656855653775
0
CIRCLE
5
520
100
AcDbEntity
8
F-F
6
CONTINUOUS
62
3
100
AcDbCircle
10
44.420000000000
20
33.050000000000
30
0.0
40
6.456854248129
0
CIRCLE
5
521
100
AcDbEntity
8
F-F
6
CONTINUOUS
62
4
100
AcDbCircle
10
44.420000000000
20
33.050000000000
30
0.0
40
5.736854893875
0
CIRCLE
5
522
100
AcDbEntity
8
F-F
6
CONTINUOUS
62
4
100
AcDbCircle
10
44.420000000000
20
33.050000000000
30
0.0
40
5.896853374073
0
CIRCLE
5
523
100
AcDbEntity
8
F-F
6
CONTINUOUS
62
4
100
AcDbCircle
10
44.420000000000
20
33.050000000000
30
0.0
40
6.056854176782
0
CIRCLE
5
524
100
AcDbEntity
8
F-F
6
CONTINUOUS
62
4
100
AcDbCircle
10
44.420000000000
20
33.050000000000
30
0.0
40
6.216852656981
0
CIRCLE
5
525
100
AcDbEntity
8
F-F
6
CONTINUOUS
62
4
100
AcDbCircle
10
44.420000000000
20
33.050000000000
30
0.0
40
6.376852298435
0
ARC
5
526
100
AcDbEntity
8
0-0
6
CONTINUOUS
62
3
100
AcDbCircle
10
390.260000000000
20
368.430000000000
30
0.0
40
0.999999984825
100
AcDbArc
50
194.035903930664
51
270.000000000000
0
ARC
5
527
100
AcDbEntity
8
0-0
6
CONTINUOUS
62
3
100
AcDbCircle
10
386.930000000000
20
371.430000000000
30
0.0
40
0.999999984825
100
AcDbArc
50
14.035903930664
51
90.000000000000
0
ARC
5
528
100
AcDbEntity
8
0-0
6
CONTINUOUS
62
3
100
AcDbCircle
10
386.930000000000
20
371.430000000000
30
0.0
40
1.499999880466
100
AcDbArc
50
14.035903930664
51
90.000000000000
0
ARC
5
529
100
AcDbEntity
8
0-0
6
CONTINUOUS
62
3
100
AcDbCircle
10
390.260000000000
20
368.430000000000
30
0.0
40
1.499999880466
100
AcDbArc
50
194.035903930664
51
270.000000000000
0
ARC
5
52a
100
AcDbEntity
8
0-0
6
CONTINUOUS
62
3
100
AcDbCircle
10
377.950000000000
20
368.430000000000
30
0.0
40
0.999999984825
100
AcDbArc
50
270.000000000000
51
345.964096069336
0
ARC
5
52b
100
AcDbEntity
8
0-0
6
CONTINUOUS
62
3
100
AcDbCircle
10
381.270000000000
20
371.430000000000
30
0.0
40
0.999999984825
100
AcDbArc
50
90.000000000000
51
165.964096069336
0
ARC
5
52c
100
AcDbEntity
8
0-0
6
CONTINUOUS
62
3
100
AcDbCircle
10
381.270000000000
20
371.430000000000
30
0.0
40
1.499999880466
100
AcDbArc
50
90.000000000000
51
165.964096069336
0
ARC
5
52d
100
AcDbEntity
8
0-0
6
CONTINUOUS
62
3
100
AcDbCircle
10
377.950000000000
20
368.430000000000
30
0.0
40
1.499999880466
100
AcDbArc
50
270.000000000000
51
345.964096069336
0
ARC
5
52e
100
AcDbEntity
8
0-0
6
CONTINUOUS
62
3
100
AcDbCircle
10
239.650000000000
20
368.430000000000
30
0.0
40
0.999999984825
100
AcDbArc
50
270.000000000000
51
345.964096069336
0
ARC
5
52f
100
AcDbEntity
8
0-0
6
CONTINUOUS
62
3
100
AcDbCircle
10
242.970000000000
20
371.430000000000
30
0.0
40
0.999999984825
100
AcDbArc
50
90.000000000000
51
165.964096069336
0
ARC
5
530
100
AcDbEntity
8
0-0
6
CONTINUOUS
62
3
100
AcDbCircle
10
242.970000000000
20
371.430000000000
30
0.0
40
1.499999880466
100
AcDbArc
50
90.000000000000
51
165.964096069336
0
ARC
5
531
100
AcDbEntity
8
0-0
6
CONTINUOUS
62
3
100
AcDbCircle
10
239.650000000000
20
368.430000000000
30
0.0
40
1.499999880466
100
AcDbArc
50
270.000000000000
51
345.964096069336
0
ARC
5
532
100
AcDbEntity
8
0-0
6
CONTINUOUS
62
3
100
AcDbCircle
10
251.960000000000
20
368.430000000000
30
0.0
40
0.999999984825
100
AcDbArc
50
194.035903930664
51
270.000000000000
0
ARC
5
533
100
AcDbEntity
8
0-0
6
CONTINUOUS
62
3
100
AcDbCircle
10
248.630000000000
20
371.430000000000
30
0.0
40
0.999999984825
100
AcDbArc
50
14.035903930664
51
90.000000000000
0
ARC
5
534
100
AcDbEntity
8
0-0
6
CONTINUOUS
62
3
100
AcDbCircle
10
248.630000000000
20
371.430000000000
30
0.0
40
1.499999880466
100
AcDbArc
50
14.035903930664
51
90.000000000000
0
ARC
5
535
100
AcDbEntity
8
0-0
6
CONTINUOUS
62
3
100
AcDbCircle
10
251.960000000000
20
368.430000000000
30
0.0
40
1.499999880466
100
AcDbArc
50
194.035903930664
51
270.000000000000
0
ARC
5
536
100
AcDbEntity
8
0-0
6
CONTINUOUS
62
3
100
AcDbCircle
10
516.250000000000
20
368.430000000000
30
0.0
40
0.999999984825
100
AcDbArc
50
270.000000000000
51
345.964096069336
0
ARC
5
537
100
AcDbEntity
8
0-0
6
CONTINUOUS
62
3
100
AcDbCircle
10
519.570000000000
20
371.430000000000
30
0.0
40
0.999999984825
100
AcDbArc
50
90.000000000000
51
165.964096069336
0
ARC
5
538
100
AcDbEntity
8
0-0
6
CONTINUOUS
62
3
100
AcDbCircle
10
519.570000000000
20
371.430000000000
30
0.0
40
1.499999880466
100
AcDbArc
50
90.000000000000
51
165.964096069336
0
ARC
5
539
100
AcDbEntity
8
0-0
6
CONTINUOUS
62
3
100
AcDbCircle
10
516.250000000000
20
368.430000000000
30
0.0
40
1.499999880466
100
AcDbArc
50
270.000000000000
51
345.964096069336
0
ARC
5
53a
100
AcDbEntity
8
0-0
6
CONTINUOUS
62
3
100
AcDbCircle
10
525.710000000000
20
371.430000000000
30
0.0
40
0.999999984825
100
AcDbArc
50
14.035903930664
51
90.000000000000
0
ARC
5
53b
100
AcDbEntity
8
0-0
6
CONTINUOUS
62
3
100
AcDbCircle
10
525.710000000000
20
371.430000000000
30
0.0
40
1.499999880466
100
AcDbArc
50
14.035903930664
51
90.000000000000
0
ARC
5
53c
100
AcDbEntity
8
0-0
6
CONTINUOUS
62
3
100
AcDbCircle
10
113.660000000000
20
367.930000000000
30
0.0
40
0.999999984825
100
AcDbArc
50
194.035903930664
51
270.000000000000
0
ARC
5
53d
100
AcDbEntity
8
0-0
6
CONTINUOUS
62
3
100
AcDbCircle
10
110.330000000000
20
370.930000000000
30
0.0
40
0.999999984825
100
AcDbArc
50
14.035903930664
51
90.000000000000
0
ARC
5
53e
100
AcDbEntity
8
0-0
6
CONTINUOUS
62
3
100
AcDbCircle
10
110.330000000000
20
370.930000000000
30
0.0
40
1.499999880466
100
AcDbArc
50
14.035903930664
51
90.000000000000
0
ARC
5
53f
100
AcDbEntity
8
0-0
6
CONTINUOUS
62
3
100
AcDbCircle
10
113.660000000000
20
367.930000000000
30
0.0
40
1.499999880466
100
AcDbArc
50
194.035903930664
51
270.000000000000
0
ARC
5
540
100
AcDbEntity
8
0-0
6
CONTINUOUS
62
3
100
AcDbCircle
10
101.640000000000
20
367.930000000000
30
0.0
40
0.999999984825
100
AcDbArc
50
270.000000000000
51
345.964096069336
0
ARC
5
541
100
AcDbEntity
8
0-0
6
CONTINUOUS
62
3
100
AcDbCircle
10
104.960000000000
20
370.930000000000
30
0.0
40
0.999999984825
100
AcDbArc
50
90.000000000000
51
165.964096069336
0
ARC
5
542
100
AcDbEntity
8
0-0
6
CONTINUOUS
62
3
100
AcDbCircle
10
104.960000000000
20
370.930000000000
30
0.0
40
1.499999880466
100
AcDbArc
50
90.000000000000
51
165.964096069336
0
ARC
5
543
100
AcDbEntity
8
0-0
6
CONTINUOUS
62
3
100
AcDbCircle
10
101.640000000000
20
367.930000000000
30
0.0
40
1.499999880466
100
AcDbArc
50
270.000000000000
51
345.964096069336
0
ARC
5
544
100
AcDbEntity
8
0-0
6
CONTINUOUS
62
3
100
AcDbCircle
10
649.860000000000
20
300.740000000000
30
0.0
40
0.999999984825
100
AcDbArc
50
270.000000000000
51
345.964096069336
0
ARC
5
545
100
AcDbEntity
8
0-0
6
CONTINUOUS
62
3
100
AcDbCircle
10
653.190000000000
20
303.740000000000
30
0.0
40
0.999999984825
100
AcDbArc
50
90.000000000000
51
165.964096069336
0
ARC
5
546
100
AcDbEntity
8
0-0
6
CONTINUOUS
62
3
100
AcDbCircle
10
653.190000000000
20
303.740000000000
30
0.0
40
1.499999880466
100
AcDbArc
50
90.000000000000
51
165.964096069336
0
ARC
5
547
100
AcDbEntity
8
0-0
6
CONTINUOUS
62
3
100
AcDbCircle
10
649.860000000000
20
300.740000000000
30
0.0
40
1.499999880466
100
AcDbArc
50
270.000000000000
51
345.964096069336
0
ARC
5
548
100
AcDbEntity
8
0-0
6
CONTINUOUS
62
3
100
AcDbCircle
10
659.330000000000
20
303.740000000000
30
0.0
40
0.999999984825
100
AcDbArc
50
14.035903930664
51
90.000000000000
0
ARC
5
549
100
AcDbEntity
8
0-0
6
CONTINUOUS
62
3
100
AcDbCircle
10
659.330000000000
20
303.740000000000
30
0.0
40
1.499999880466
100
AcDbArc
50
14.035903930664
51
90.000000000000
0
ARC
5
54a
100
AcDbEntity
8
0-0
6
CONTINUOUS
62
3
100
AcDbCircle
10
662.270000000000
20
300.240000000000
30
0.0
40
0.999999984825
100
AcDbArc
50
194.035903930664
51
270.000000000000
0
ARC
5
54b
100
AcDbEntity
8
0-0
6
CONTINUOUS
62
3
100
AcDbCircle
10
658.950000000000
20
303.240000000000
30
0.0
40
0.999999984825
100
AcDbArc
50
14.035903930664
51
90.000000000000
0
ARC
5
54c
100
AcDbEntity
8
0-0
6
CONTINUOUS
62
3
100
AcDbCircle
10
658.950000000000
20
303.240000000000
30
0.0
40
1.499999880466
100
AcDbArc
50
14.035903930664
51
90.000000000000
0
ARC
5
54d
100
AcDbEntity
8
0-0
6
CONTINUOUS
62
3
100
AcDbCircle
10
662.270000000000
20
300.240000000000
30
0.0
40
1.499999880466
100
AcDbArc
50
194.035903930664
51
270.000000000000
0
ARC
5
54e
100
AcDbEntity
8
0-0
6
CONTINUOUS
62
3
100
AcDbCircle
10
650.250000000000
20
300.240000000000
30
0.0
40
0.999999984825
100
AcDbArc
50
270.000000000000
51
345.964096069336
0
ARC
5
54f
100
AcDbEntity
8
0-0
6
CONTINUOUS
62
3
100
AcDbCircle
10
653.580000000000
20
303.240000000000
30
0.0
40
0.999999984825
100
AcDbArc
50
90.000000000000
51
165.964096069336
0
ARC
5
550
100
AcDbEntity
8
0-0
6
CONTINUOUS
62
3
100
AcDbCircle
10
653.580000000000
20
303.240000000000
30
0.0
40
1.499999880466
100
AcDbArc
50
90.000000000000
51
165.964096069336
0
ARC
5
551
100
AcDbEntity
8
0-0
6
CONTINUOUS
62
3
100
AcDbCircle
10
650.250000000000
20
300.240000000000
30
0.0
40
1.499999880466
100
AcDbArc
50
270.000000000000
51
345.964096069336
0
TEXT
5
552
100
AcDbEntity
8
F-F
62
3
370
-3
100
AcDbText
10
83.332
20
21.800
30
0.0
40
3.282
1
静岡県静岡市流通センター１６番
41
0.921
50
0.000
100
AcDbText
0
TEXT
5
553
100
AcDbEntity
8
F-F
62
3
370
-3
100
AcDbText
10
83.334
20
14.383
30
0.0
40
3.282
1
電話（０５４）２６３－２２８０（代表）
41
0.921
50
0.000
100
AcDbText
0
TEXT
5
554
100
AcDbEntity
8
F-F
62
3
370
-3
100
AcDbText
10
266.045
20
37.876
30
0.0
40
2.461
1
変　　　　　　更　　　　　　記　　　　　　事
41
0.914
50
0.000
100
AcDbText
0
TEXT
5
555
100
AcDbEntity
8
F-F
62
3
370
-3
100
AcDbText
10
407.912
20
37.476
30
0.0
40
2.461
1
受領　　日附
41
0.914
50
0.000
100
AcDbText
0
TEXT
5
556
100
AcDbEntity
8
F-F
62
3
370
-3
100
AcDbText
10
507.021
20
22.760
30
0.0
40
2.461
1
施工者
41
0.914
50
0.000
100
AcDbText
0
TEXT
5
557
100
AcDbEntity
8
F-F
62
3
370
-3
100
AcDbText
10
507.021
20
37.575
30
0.0
40
2.461
1
設計者
41
0.914
50
0.000
100
AcDbText
0
TEXT
5
558
100
AcDbEntity
8
F-F
62
3
370
-3
100
AcDbText
10
609.763
20
22.489
30
0.0
40
2.461
1
作図
41
0.914
50
0.000
100
AcDbText
0
TEXT
5
559
100
AcDbEntity
8
F-F
62
3
370
-3
100
AcDbText
10
645.676
20
22.754
30
0.0
40
2.461
1
図面名
41
0.914
50
0.000
100
AcDbText
0
TEXT
5
55a
100
AcDbEntity
8
F-F
62
3
370
-3
100
AcDbText
10
609.763
20
37.303
30
0.0
40
2.461
1
日附
41
0.914
50
0.000
100
AcDbText
0
TEXT
5
55b
100
AcDbEntity
8
F-F
62
3
370
-3
100
AcDbText
10
645.676
20
37.569
30
0.0
40
2.461
1
工事件名
41
0.914
50
0.000
100
AcDbText
0
TEXT
5
55c
100
AcDbEntity
8
F-F
62
3
370
-3
100
AcDbText
10
620.831
20
37.178
30
0.0
40
2.461
1
年　月　日
41
0.914
50
0.000
100
AcDbText
0
TEXT
5
55d
100
AcDbEntity
8
F-F
62
3
370
-3
100
AcDbText
10
620.831
20
22.363
30
0.0
40
2.461
1
年　月　日
41
0.914
50
0.000
100
AcDbText
0
TEXT
5
55e
100
AcDbEntity
8
F-F
62
3
370
-3
100
AcDbText
10
771.848
20
37.569
30
0.0
40
2.461
1
設計番号
41
0.914
50
0.000
100
AcDbText
0
MTEXT
5
55f
100
AcDbEntity
8
F-F
62
3
370
-3
100
AcDbMText
10
193.506
20
33.911
30
0.0
40
2.325
41
0.000
71
7
72
1
1
\W1.037;{\W0.747;. }　{\W0.747;.}　{\W0.747; }
7
STANDARD
11
1.00000
21
0.00000
31
0.0
0
MTEXT
5
560
100
AcDbEntity
8
F-F
62
3
370
-3
100
AcDbMText
10
193.506
20
28.972
30
0.0
40
2.325
41
0.000
71
7
72
1
1
\W1.037;{\W0.747;. }　{\W0.747;.}　{\W0.747; }
7
STANDARD
11
1.00000
21
0.00000
31
0.0
0
MTEXT
5
561
100
AcDbEntity
8
F-F
62
3
370
-3
100
AcDbMText
10
193.506
20
24.034
30
0.0
40
2.325
41
0.000
71
7
72
1
1
\W1.037;{\W0.747;. }　{\W0.747;.}　{\W0.747; }
7
STANDARD
11
1.00000
21
0.00000
31
0.0
0
MTEXT
5
562
100
AcDbEntity
8
F-F
62
3
370
-3
100
AcDbMText
10
193.506
20
19.096
30
0.0
40
2.325
41
0.000
71
7
72
1
1
\W1.037;{\W0.747;. }　{\W0.747;.}　{\W0.747; }
7
STANDARD
11
1.00000
21
0.00000
31
0.0
0
MTEXT
5
563
100
AcDbEntity
8
F-F
62
3
370
-3
100
AcDbMText
10
193.506
20
14.157
30
0.0
40
2.325
41
0.000
71
7
72
1
1
\W1.037;{\W0.747;. }　{\W0.747;.}　{\W0.747; }
7
STANDARD
11
1.00000
21
0.00000
31
0.0
0
TEXT
5
564
100
AcDbEntity
8
F-F
62
3
370
-3
100
AcDbText
10
517.191
20
31.187
30
0.0
40
3.282
1
　　　　　　　　　　
41
0.921
50
0.000
100
AcDbText
0
TEXT
5
565
100
AcDbEntity
8
F-F
62
3
370
-3
100
AcDbText
10
517.191
20
16.371
30
0.0
40
3.282
1
　　　　　　　　　　
41
0.921
50
0.000
100
AcDbText
0
TEXT
5
566
100
AcDbEntity
8
F-F
62
3
370
-3
100
AcDbText
10
658.923
20
31.960
30
0.0
40
3.282
1
　　　　　　　　　　　　　
41
0.921
50
0.000
100
AcDbText
0
TEXT
5
567
100
AcDbEntity
8
F-F
62
3
370
-3
100
AcDbText
10
189.020
20
37.844
30
0.0
40
2.461
1
年　月　日
41
0.914
50
0.000
100
AcDbText
0
TEXT
5
568
100
AcDbEntity
8
F-F
62
3
370
-3
100
AcDbText
10
436.498
20
37.184
30
0.0
40
2.461
1
年　　月　　日
41
0.914
50
0.000
100
AcDbText
0
MTEXT
5
569
100
AcDbEntity
8
F-F
62
3
370
-3
100
AcDbMText
10
442.774
20
31.699
30
0.0
40
2.325
41
0.000
71
7
72
1
1
\W1.037;{\W0.747;.}　{\W0.747; }　{\W0.747;.}
7
STANDARD
11
1.00000
21
0.00000
31
0.0
0
TEXT
5
56a
100
AcDbEntity
8
F-F
62
3
370
-3
100
AcDbText
10
407.912
20
22.661
30
0.0
40
2.461
1
受領　　日附
41
0.914
50
0.000
100
AcDbText
0
TEXT
5
56b
100
AcDbEntity
8
F-F
62
3
370
-3
100
AcDbText
10
436.498
20
22.369
30
0.0
40
2.461
1
年　　月　　日
41
0.914
50
0.000
100
AcDbText
0
MTEXT
5
56c
100
AcDbEntity
8
F-F
62
3
370
-3
100
AcDbMText
10
442.774
20
16.884
30
0.0
40
2.325
41
0.000
71
7
72
1
1
\W1.037;{\W0.747;.}　{\W0.747; }　{\W0.747;.}
7
STANDARD
11
1.00000
21
0.00000
31
0.0
0
MTEXT
5
56d
100
AcDbEntity
8
F-F
62
3
370
-3
100
AcDbMText
10
624.217
20
30.842
30
0.0
40
2.325
41
0.000
71
7
72
1
1
\W1.037;{\W0.747;.}　　{\W0.747;.}　
7
STANDARD
11
1.00000
21
0.00000
31
0.0
0
TEXT
5
56e
100
AcDbEntity
8
F-F
62
3
370
-3
100
AcDbText
10
57.385
20
30.579
30
0.0
40
6.564
1
小　池　弥　太　郎　商　店
41
0.963
50
0.000
100
AcDbText
0
TEXT
5
56f
100
AcDbEntity
8
F-F
62
3
370
-3
100
AcDbText
10
771.848
20
22.754
30
0.0
40
2.461
1
縮　尺
41
0.914
50
0.000
100
AcDbText
0
TEXT
5
570
100
AcDbEntity
8
F-F
62
3
370
-3
100
AcDbText
10
783.506
20
20.823
30
0.0
40
3.282
1
Ａ１－１／１　
41
0.921
50
0.000
100
AcDbText
0
TEXT
5
571
100
AcDbEntity
8
F-F
62
3
370
-3
100
AcDbText
10
783.506
20
13.416
30
0.0
40
3.282
1
Ａ３－１／２　
41
0.921
50
0.000
100
AcDbText
0
TEXT
5
572
100
AcDbEntity
8
0-0
62
3
370
-3
100
AcDbText
10
639.275
20
346.334
30
0.0
40
6.564
1
重ね部分
41
0.963
50
0.000
100
AcDbText
0
TEXT
5
573
100
AcDbEntity
8
F-F
62
3
370
-3
100
AcDbText
10
637.422
20
556.464
30
0.0
40
6.564
1
製　品　名
41
0.963
50
0.000
100
AcDbText
0
MTEXT
5
574
100
AcDbEntity
8
F-F
62
3
370
-3
100
AcDbMText
10
637.422
20
505.735
30
0.0
40
6.199
41
0.000
71
7
72
1
1
\W1.093;各種鋼板　０{\W0.787;.}２７ｍｍ{\W0.787; }～{\W0.787; }０{\W0.787;.}４ｍｍ
7
STANDARD
11
1.00000
21
0.00000
31
0.0
0
TEXT
5
575
100
AcDbEntity
8
F-F
62
3
370
-3
100
AcDbText
10
637.422
20
493.964
30
0.0
40
6.564
1
板幅　：　４５５ｍｍ
41
0.963
50
0.000
100
AcDbText
0
TEXT
5
576
100
AcDbEntity
8
F-F
62
3
370
-3
100
AcDbText
10
611.358
20
15.783
30
0.0
40
2.461
1
MA 2015-06-15
41
0.618
50
0.000
100
AcDbText
0
TEXT
5
577
100
AcDbEntity
8
F-F
62
3
370
-3
100
AcDbText
10
637.422
20
531.464
30
0.0
40
6.564
1
リブ波　Ｗ４１５
41
0.963
50
0.000
100
AcDbText
0
TEXT
5
578
100
AcDbEntity
8
0-0
62
3
370
-3
100
AcDbText
10
241.763
20
344.128
30
0.0
40
6.564
41
0.968
50
0.000
1
11
72
1
11
246.150
21
343.398
31
0.0
100
AcDbText
73
1
0
TEXT
5
579
100
AcDbEntity
8
0-0
62
3
370
-3
100
AcDbText
10
244.013
20
400.128
30
0.0
40
6.564
41
0.554
50
0.000
1
8
72
1
11
246.207
21
399.398
31
0.0
100
AcDbText
73
1
0
TEXT
5
57a
100
AcDbEntity
8
0-0
62
3
370
-3
100
AcDbText
10
304.163
20
400.128
30
0.0
40
6.564
41
0.770
50
0.000
1
130.3
72
1
11
315.132
21
399.398
31
0.0
100
AcDbText
73
1
0
TEXT
5
57b
100
AcDbEntity
8
0-0
62
3
370
-3
100
AcDbText
10
317.948
20
369.277
30
0.0
40
6.564
41
0.568
50
0.000
1
6
72
1
11
320.141
21
368.548
31
0.0
100
AcDbText
73
1
0
TEXT
5
57c
100
AcDbEntity
8
0-0
62
3
370
-3
100
AcDbText
10
165.863
20
425.128
30
0.0
40
6.564
41
0.727
50
0.000
1
138.3
72
1
11
176.832
21
424.398
31
0.0
100
AcDbText
73
1
0
TEXT
5
57d
100
AcDbEntity
8
0-0
62
3
370
-3
100
AcDbText
10
304.213
20
425.128
30
0.0
40
6.564
41
0.737
50
0.000
1
138.4
72
1
11
315.182
21
424.398
31
0.0
100
AcDbText
73
1
0
TEXT
5
57e
100
AcDbEntity
8
0-0
62
3
370
-3
100
AcDbText
10
442.563
20
425.128
30
0.0
40
6.564
41
0.727
50
0.000
1
138.3
72
1
11
453.532
21
424.398
31
0.0
100
AcDbText
73
1
0
TEXT
5
57f
100
AcDbEntity
8
0-0
62
3
370
-3
100
AcDbText
10
308.713
20
440.128
30
0.0
40
6.564
41
0.677
50
0.000
1
415
72
1
11
315.294
21
439.398
31
0.0
100
AcDbText
73
1
0
TEXT
5
580
100
AcDbEntity
8
0-0
62
3
370
-3
100
AcDbText
10
654.331
20
332.434
30
0.0
40
6.564
41
0.554
50
0.000
1
8
72
1
11
656.524
21
331.705
31
0.0
100
AcDbText
73
1
0
TEXT
5
581
100
AcDbEntity
8
F-F
62
3
370
-3
100
AcDbText
10
658.923
20
17.145
30
0.0
40
3.282
1
リブ波　Ｗ４１５　角波　断面図
41
0.921
50
0.000
100
AcDbText
0
TEXT
5
582
100
AcDbEntity
8
F-F
62
3
370
-3
100
AcDbText
10
778.734
20
30.593
30
0.0
40
4.102
1
HAN-R-01
41
0.601
50
0.000
100
AcDbText
0
TEXT
5
583
100
AcDbEntity
8
0-0
62
3
370
-3
100
AcDbText
10
107.856
20
460.152
30
0.0
40
6.564
1
リブ波Ｗ４１５（有効巾　４１５ｍｍ）
41
0.963
50
0.000
100
AcDbText
0
POLYLINE
5
584
100
AcDbEntity
  8
F-F
6
CONTINUOUS
62
3
100
AcDb2dPolyline
66
1
10
0
20
0
70
1
40
0.400
41
0.400
0
VERTEX
5
585
100
AcDbEntity
  8
F-F
6
CONTINUOUS
62
3
100
AcDbVertex
100
AcDb2dVertex
10
27.179
20
571.820
30
0.0
42
1.000
0
VERTEX
5
586
100
AcDbEntity
  8
F-F
6
CONTINUOUS
62
3
100
AcDbVertex
100
AcDb2dVertex
10
27.579
20
571.820
30
0.0
42
1.000
0
SEQEND
5
587
100
AcDbEntity
  8
F-F
0
POLYLINE
5
588
100
AcDbEntity
  8
0-0
6
CONTINUOUS
62
3
100
AcDb2dPolyline
66
1
10
0
20
0
70
1
40
0.400
41
0.400
0
VERTEX
5
589
100
AcDbEntity
  8
0-0
6
CONTINUOUS
62
3
100
AcDbVertex
100
AcDb2dVertex
10
240.001
20
341.930
30
0.0
42
1.000
0
VERTEX
5
58a
100
AcDbEntity
  8
0-0
6
CONTINUOUS
62
3
100
AcDbVertex
100
AcDb2dVertex
10
240.401
20
341.930
30
0.0
42
1.000
0
SEQEND
5
58b
100
AcDbEntity
  8
0-0
0
POLYLINE
5
58c
100
AcDbEntity
  8
0-0
6
CONTINUOUS
62
3
100
AcDb2dPolyline
66
1
10
0
20
0
70
1
40
0.400
41
0.400
0
VERTEX
5
58d
100
AcDbEntity
  8
0-0
6
CONTINUOUS
62
3
100
AcDbVertex
100
AcDb2dVertex
10
251.001
20
341.930
30
0.0
42
1.000
0
VERTEX
5
58e
100
AcDbEntity
  8
0-0
6
CONTINUOUS
62
3
100
AcDbVertex
100
AcDb2dVertex
10
251.401
20
341.930
30
0.0
42
1.000
0
SEQEND
5
58f
100
AcDbEntity
  8
0-0
0
POLYLINE
5
590
100
AcDbEntity
  8
0-0
6
CONTINUOUS
62
3
100
AcDb2dPolyline
66
1
10
0
20
0
70
1
40
0.400
41
0.400
0
VERTEX
5
591
100
AcDbEntity
  8
0-0
6
CONTINUOUS
62
3
100
AcDbVertex
100
AcDb2dVertex
10
241.501
20
397.930
30
0.0
42
1.000
0
VERTEX
5
592
100
AcDbEntity
  8
0-0
6
CONTINUOUS
62
3
100
AcDbVertex
100
AcDb2dVertex
10
241.901
20
397.930
30
0.0
42
1.000
0
SEQEND
5
593
100
AcDbEntity
  8
0-0
0
POLYLINE
5
594
100
AcDbEntity
  8
0-0
6
CONTINUOUS
62
3
100
AcDb2dPolyline
66
1
10
0
20
0
70
1
40
0.400
41
0.400
0
VERTEX
5
595
100
AcDbEntity
  8
0-0
6
CONTINUOUS
62
3
100
AcDbVertex
100
AcDb2dVertex
10
249.501
20
397.930
30
0.0
42
1.000
0
VERTEX
5
596
100
AcDbEntity
  8
0-0
6
CONTINUOUS
62
3
100
AcDbVertex
100
AcDb2dVertex
10
249.901
20
397.930
30
0.0
42
1.000
0
SEQEND
5
597
100
AcDbEntity
  8
0-0
0
POLYLINE
5
598
100
AcDbEntity
  8
0-0
6
CONTINUOUS
62
3
100
AcDb2dPolyline
66
1
10
0
20
0
70
1
40
0.400
41
0.400
0
VERTEX
5
599
100
AcDbEntity
  8
0-0
6
CONTINUOUS
62
3
100
AcDbVertex
100
AcDb2dVertex
10
379.801
20
397.930
30
0.0
42
1.000
0
VERTEX
5
59a
100
AcDbEntity
  8
0-0
6
CONTINUOUS
62
3
100
AcDbVertex
100
AcDb2dVertex
10
380.201
20
397.930
30
0.0
42
1.000
0
SEQEND
5
59b
100
AcDbEntity
  8
0-0
0
POLYLINE
5
59c
100
AcDbEntity
  8
0-0
6
CONTINUOUS
62
3
100
AcDb2dPolyline
66
1
10
0
20
0
70
1
40
0.400
41
0.400
0
VERTEX
5
59d
100
AcDbEntity
  8
0-0
6
CONTINUOUS
62
3
100
AcDbVertex
100
AcDb2dVertex
10
314.701
20
372.930
30
0.0
42
1.000
0
VERTEX
5
59e
100
AcDbEntity
  8
0-0
6
CONTINUOUS
62
3
100
AcDbVertex
100
AcDb2dVertex
10
315.101
20
372.930
30
0.0
42
1.000
0
SEQEND
5
59f
100
AcDbEntity
  8
0-0
0
POLYLINE
5
5a0
100
AcDbEntity
  8
0-0
6
CONTINUOUS
62
3
100
AcDb2dPolyline
66
1
10
0
20
0
70
1
40
0.400
41
0.400
0
VERTEX
5
5a1
100
AcDbEntity
  8
0-0
6
CONTINUOUS
62
3
100
AcDbVertex
100
AcDb2dVertex
10
314.701
20
367.430
30
0.0
42
1.000
0
VERTEX
5
5a2
100
AcDbEntity
  8
0-0
6
CONTINUOUS
62
3
100
AcDbVertex
100
AcDb2dVertex
10
315.101
20
367.430
30
0.0
42
1.000
0
SEQEND
5
5a3
100
AcDbEntity
  8
0-0
0
POLYLINE
5
5a4
100
AcDbEntity
  8
0-0
6
CONTINUOUS
62
3
100
AcDb2dPolyline
66
1
10
0
20
0
70
1
40
0.400
41
0.400
0
VERTEX
5
5a5
100
AcDbEntity
  8
0-0
6
CONTINUOUS
62
3
100
AcDbVertex
100
AcDb2dVertex
10
107.201
20
422.930
30
0.0
42
1.000
0
VERTEX
5
5a6
100
AcDbEntity
  8
0-0
6
CONTINUOUS
62
3
100
AcDbVertex
100
AcDb2dVertex
10
107.601
20
422.930
30
0.0
42
1.000
0
SEQEND
5
5a7
100
AcDbEntity
  8
0-0
0
POLYLINE
5
5a8
100
AcDbEntity
  8
0-0
6
CONTINUOUS
62
3
100
AcDb2dPolyline
66
1
10
0
20
0
70
1
40
0.400
41
0.400
0
VERTEX
5
5a9
100
AcDbEntity
  8
0-0
6
CONTINUOUS
62
3
100
AcDbVertex
100
AcDb2dVertex
10
245.501
20
422.930
30
0.0
42
1.000
0
VERTEX
5
5aa
100
AcDbEntity
  8
0-0
6
CONTINUOUS
62
3
100
AcDbVertex
100
AcDb2dVertex
10
245.901
20
422.930
30
0.0
42
1.000
0
SEQEND
5
5ab
100
AcDbEntity
  8
0-0
0
POLYLINE
5
5ac
100
AcDbEntity
  8
0-0
6
CONTINUOUS
62
3
100
AcDb2dPolyline
66
1
10
0
20
0
70
1
40
0.400
41
0.400
0
VERTEX
5
5ad
100
AcDbEntity
  8
0-0
6
CONTINUOUS
62
3
100
AcDbVertex
100
AcDb2dVertex
10
383.901
20
422.930
30
0.0
42
1.000
0
VERTEX
5
5ae
100
AcDbEntity
  8
0-0
6
CONTINUOUS
62
3
100
AcDbVertex
100
AcDb2dVertex
10
384.301
20
422.930
30
0.0
42
1.000
0
SEQEND
5
5af
100
AcDbEntity
  8
0-0
0
POLYLINE
5
5b0
100
AcDbEntity
  8
0-0
6
CONTINUOUS
62
3
100
AcDb2dPolyline
66
1
10
0
20
0
70
1
40
0.400
41
0.400
0
VERTEX
5
5b1
100
AcDbEntity
  8
0-0
6
CONTINUOUS
62
3
100
AcDbVertex
100
AcDb2dVertex
10
522.201
20
422.930
30
0.0
42
1.000
0
VERTEX
5
5b2
100
AcDbEntity
  8
0-0
6
CONTINUOUS
62
3
100
AcDbVertex
100
AcDb2dVertex
10
522.601
20
422.930
30
0.0
42
1.000
0
SEQEND
5
5b3
100
AcDbEntity
  8
0-0
0
POLYLINE
5
5b4
100
AcDbEntity
  8
0-0
6
CONTINUOUS
62
3
100
AcDb2dPolyline
66
1
10
0
20
0
70
1
40
0.400
41
0.400
0
VERTEX
5
5b5
100
AcDbEntity
  8
0-0
6
CONTINUOUS
62
3
100
AcDbVertex
100
AcDb2dVertex
10
107.201
20
437.930
30
0.0
42
1.000
0
VERTEX
5
5b6
100
AcDbEntity
  8
0-0
6
CONTINUOUS
62
3
100
AcDbVertex
100
AcDb2dVertex
10
107.601
20
437.930
30
0.0
42
1.000
0
SEQEND
5
5b7
100
AcDbEntity
  8
0-0
0
POLYLINE
5
5b8
100
AcDbEntity
  8
0-0
6
CONTINUOUS
62
3
100
AcDb2dPolyline
66
1
10
0
20
0
70
1
40
0.400
41
0.400
0
VERTEX
5
5b9
100
AcDbEntity
  8
0-0
6
CONTINUOUS
62
3
100
AcDbVertex
100
AcDb2dVertex
10
522.201
20
437.930
30
0.0
42
1.000
0
VERTEX
5
5ba
100
AcDbEntity
  8
0-0
6
CONTINUOUS
62
3
100
AcDbVertex
100
AcDb2dVertex
10
522.601
20
437.930
30
0.0
42
1.000
0
SEQEND
5
5bb
100
AcDbEntity
  8
0-0
0
POLYLINE
5
5bc
100
AcDbEntity
  8
0-0
6
CONTINUOUS
62
3
100
AcDb2dPolyline
66
1
10
0
20
0
70
1
40
0.400
41
0.400
0
VERTEX
5
5bd
100
AcDbEntity
  8
0-0
6
CONTINUOUS
62
3
100
AcDbVertex
100
AcDb2dVertex
10
651.819
20
330.237
30
0.0
42
1.000
0
VERTEX
5
5be
100
AcDbEntity
  8
0-0
6
CONTINUOUS
62
3
100
AcDbVertex
100
AcDb2dVertex
10
652.219
20
330.237
30
0.0
42
1.000
0
SEQEND
5
5bf
100
AcDbEntity
  8
0-0
0
POLYLINE
5
5c0
100
AcDbEntity
  8
0-0
6
CONTINUOUS
62
3
100
AcDb2dPolyline
66
1
10
0
20
0
70
1
40
0.400
41
0.400
0
VERTEX
5
5c1
100
AcDbEntity
  8
0-0
6
CONTINUOUS
62
3
100
AcDbVertex
100
AcDb2dVertex
10
659.819
20
330.237
30
0.0
42
1.000
0
VERTEX
5
5c2
100
AcDbEntity
  8
0-0
6
CONTINUOUS
62
3
100
AcDbVertex
100
AcDb2dVertex
10
660.219
20
330.237
30
0.0
42
1.000
0
SEQEND
5
5c3
100
AcDbEntity
  8
0-0
0
ENDSEC
 0
SECTION
  2
OBJECTS
 0
DICTIONARY
  5
C
100
AcDbDictionary
  3
ACAD_GROUP
350
D
  3
ACAD_MLINESTYLE
350
E
 0
DICTIONARY
  5
D
102
{ACAD_REACTORS
102
}
100
AcDbDictionary
 0
DICTIONARY
  5
E
102
{ACAD_REACTORS
102
}
100
AcDbDictionary
  3
STANDARD
350
13
0
MLINESTYLE
  5
13
102
{ACAD_REACTORS
102
}
100
AcDbMlineStyle
  2
STANDARD
 70
    0
3

62
256
51
90.0
52
90.0
71
0
0
ACDBPLACEHOLDER
  5
14
102
{ACAD_REACTORS
102
}
0
ENDSEC
0
EOF
