0
SECTION
2
HEADER
9
$ACADVER
1
AC1009
9
$DWGCODEPAGE
3
ANSI_932
9
$EXTMIN
10
0.000
20
0.000
30
0.0
9
$EXTMAX
10
841.000
20
594.000
30
0.0
9
$LTSCALE
40
2.000
9
$PDMODE
70
0
9
$PDSIZE
40
40.0
0
ENDSEC
0
SECTION
2
TABLES
0
TABLE
2
LTYPE
70
9
0
LTYPE
5
1f4
2
CONTINUOUS
70
64
3
SolidLine
72
65
73
0
40
0.0
0
LTYPE
5
1f5
2
DOT
70
64
3
--  --  --  --  --  --  --  --     
72
65
73
2
40
3.000
49
1.000
49
-2.000
0
LTYPE
5
1f6
2
DASHED
70
64
3
----    ----    ----    ----    
72
65
73
2
40
5.000
49
2.000
49
-3.000
0
LTYPE
5
1f7
2
DASHED2
70
64
3
------  ------  ------  ------ 
72
65
73
2
40
10.000
49
4.000
49
-6.000
0
LTYPE
5
1f8
2
CENTER
70
64
3
----- - ----- - ----- - ----- - 
72
65
73
4
40
10.000
49
6.000
49
-3.000
49
1.000
49
-3.000
0
LTYPE
5
1f9
2
CENTER2
70
64
3
----------  --  ----------  -- 
72
65
73
4
40
17.000
49
12.000
49
-5.000
49
2.000
49
-5.000
0
LTYPE
5
1fa
2
PHANTOM
70
64
3
--- - - --- - - --- - - --- - -
72
65
73
6
40
13.000
49
5.000
49
-3.000
49
1.000
49
-3.000
49
1.000
49
-3.000
0
LTYPE
5
1fb
2
PHANTOM2
70
64
3
--------  -  -  --------  -  -
72
65
73
6
40
20.000
49
6.000
49
-5.000
49
2.000
49
-5.000
49
2.000
49
-5.000
0
LTYPE
5
1fc
2
HIDDEN
70
64
3
-   -   -   -   -   -   -   -   
72
65
73
2
40
3.000
49
0.500
49
-2.500
0
ENDTAB
0
TABLE
2
STYLE
70
1
0
STYLE
5
1fd
100
AcDbSymbolTableRecord
100
AcDbTextStyleTableRecord
2
STANDARD
70
0
40
0.0
41
1.0
50
0.0
71
0
42
0.0
3
txt.shx
4
extfont.shx
0
STYLE
5
1fe
100
AcDbSymbolTableRecord
100
AcDbTextStyleTableRecord
2
TATEGAKI
70
4
40
0.0
41
1.0
50
0.0
71
0
42
0.0
3
txt.shx
4
extfont.shx
0
STYLE
5
1ff
100
AcDbSymbolTableRecord
100
AcDbTextStyleTableRecord
2
DIM
70
0
40
0.0
41
0.75
50
0.0
71
0
42
0.0
3
txt.shx
4
extfont.shx
0
STYLE
5
200
100
AcDbSymbolTableRecord
100
AcDbTextStyleTableRecord
2
_Gothic__
70
0
40
0.0
41
1.0
50
0.0
71
0
42
0.0
3
MS Gothic
4

0
STYLE
5
201
100
AcDbSymbolTableRecord
100
AcDbTextStyleTableRecord
2
_TateGothic_
70
4
40
0.0
41
1.0
50
0.0
71
0
42
0.0
3
@MS Gothic
4

0
ENDTAB
0
TABLE
2
LAYER
5
403
100
AcDbSymbolTable
70
10
0
LAYER
5
404
100
AcDbSymbolTableRecord
100
AcDbLayerTableRecord
2
0-000
70
0
62
7
6
CONTINUOUS
0
LAYER
5
405
100
AcDbSymbolTableRecord
100
AcDbLayerTableRecord
2
F-0
70
0
62
7
6
CONTINUOUS
0
LAYER
5
406
100
AcDbSymbolTableRecord
100
AcDbLayerTableRecord
2
F-E_J_ADD
70
0
62
-7
6
CONTINUOUS
0
LAYER
5
407
100
AcDbSymbolTableRecord
100
AcDbLayerTableRecord
2
F-F_J_ADDF
70
0
62
7
6
CONTINUOUS
0
ENDTAB
0
ENDSEC
0
SECTION
2
ENTITIES
0
LINE
5
408
100
AcDbEntity
8
F-F_J_ADDF
6
CONTINUOUS
62
2
100
AcDbLine
10
27.380000000000
20
11.820000000000
30
0.0
11
27.380000000000
21
571.820000000000
31
0.0
0
LINE
5
409
100
AcDbEntity
8
F-F_J_ADDF
6
CONTINUOUS
62
2
100
AcDbLine
10
642.380000000000
20
41.450000000000
30
0.0
11
642.380000000000
21
11.820000000000
31
0.0
0
LINE
5
40a
100
AcDbEntity
8
F-F_J_ADDF
6
CONTINUOUS
62
2
100
AcDbLine
10
607.270000000000
20
41.450000000000
30
0.0
11
607.270000000000
21
11.820000000000
31
0.0
0
LINE
5
40b
100
AcDbEntity
8
F-F_J_ADDF
6
CONTINUOUS
62
2
100
AcDbLine
10
768.560000000000
20
11.820000000000
30
0.0
11
768.560000000000
21
41.450000000000
31
0.0
0
LINE
5
40c
100
AcDbEntity
8
F-F_J_ADDF
6
CONTINUOUS
62
2
100
AcDbLine
10
403.450000000000
20
41.450000000000
30
0.0
11
403.450000000000
21
11.820000000000
31
0.0
0
LINE
5
40d
100
AcDbEntity
8
F-F_J_ADDF
6
CONTINUOUS
62
2
100
AcDbLine
10
504.870000000000
20
41.450000000000
30
0.0
11
504.870000000000
21
11.820000000000
31
0.0
0
LINE
5
40e
100
AcDbEntity
8
F-F_J_ADDF
6
CONTINUOUS
62
2
100
AcDbLine
10
403.450000000000
20
31.570000000000
30
0.0
11
184.880000000000
21
31.570000000000
31
0.0
0
LINE
5
40f
100
AcDbEntity
8
F-F_J_ADDF
6
CONTINUOUS
62
2
100
AcDbLine
10
403.450000000000
20
21.690000000000
30
0.0
11
184.880000000000
21
21.690000000000
31
0.0
0
LINE
5
410
100
AcDbEntity
8
F-F_J_ADDF
6
CONTINUOUS
62
2
100
AcDbLine
10
403.450000000000
20
16.760000000000
30
0.0
11
184.880000000000
21
16.760000000000
31
0.0
0
LINE
5
411
100
AcDbEntity
8
F-F_J_ADDF
6
CONTINUOUS
62
2
100
AcDbLine
10
403.450000000000
20
36.510000000000
30
0.0
11
184.880000000000
21
36.510000000000
31
0.0
0
LINE
5
412
100
AcDbEntity
8
F-F_J_ADDF
6
CONTINUOUS
62
2
100
AcDbLine
10
211.210000000000
20
41.450000000000
30
0.0
11
211.210000000000
21
11.820000000000
31
0.0
0
LINE
5
413
100
AcDbEntity
8
F-F_J_ADDF
6
CONTINUOUS
62
2
100
AcDbLine
10
184.880000000000
20
41.450000000000
30
0.0
11
184.880000000000
21
11.820000000000
31
0.0
0
LINE
5
414
100
AcDbEntity
8
F-F_J_ADDF
6
CONTINUOUS
62
2
100
AcDbLine
10
815.820000000000
20
11.820000000000
30
0.0
11
815.820000000000
21
571.820000000000
31
0.0
0
LINE
5
415
100
AcDbEntity
8
F-F_J_ADDF
6
CONTINUOUS
62
2
100
AcDbLine
10
27.380000000000
20
571.820000000000
30
0.0
11
815.820000000000
21
571.820000000000
31
0.0
0
LINE
5
416
100
AcDbEntity
8
F-F_J_ADDF
6
CONTINUOUS
62
2
100
AcDbLine
10
27.380000000000
20
11.820000000000
30
0.0
11
815.820000000000
21
11.820000000000
31
0.0
0
LINE
5
417
100
AcDbEntity
8
F-F_J_ADDF
6
CONTINUOUS
62
2
100
AcDbLine
10
815.820000000000
20
41.450000000000
30
0.0
11
27.380000000000
21
41.450000000000
31
0.0
0
LINE
5
418
100
AcDbEntity
8
F-F_J_ADDF
6
CONTINUOUS
62
2
100
AcDbLine
10
184.880000000000
20
26.630000000000
30
0.0
11
815.820000000000
21
26.630000000000
31
0.0
0
LINE
5
419
100
AcDbEntity
8
F-F_J_ADDF
6
CONTINUOUS
62
3
100
AcDbLine
10
35.860000000000
20
29.550000000000
30
0.0
11
35.860000000000
21
37.550000000000
31
0.0
0
LINE
5
41a
100
AcDbEntity
8
F-F_J_ADDF
6
CONTINUOUS
62
3
100
AcDbLine
10
35.860000000000
20
37.550000000000
30
0.0
11
43.860000000000
21
37.550000000000
31
0.0
0
LINE
5
41b
100
AcDbEntity
8
F-F_J_ADDF
6
CONTINUOUS
62
3
100
AcDbLine
10
43.860000000000
20
37.550000000000
30
0.0
11
43.860000000000
21
29.550000000000
31
0.0
0
LINE
5
41c
100
AcDbEntity
8
F-F_J_ADDF
6
CONTINUOUS
62
3
100
AcDbLine
10
43.860000000000
20
29.550000000000
30
0.0
11
35.860000000000
21
29.550000000000
31
0.0
0
LINE
5
41d
100
AcDbEntity
8
F-F_J_ADDF
6
CONTINUOUS
62
3
100
AcDbLine
10
36.660000000000
20
30.630000000000
30
0.0
11
36.660000000000
21
36.750000000000
31
0.0
0
LINE
5
41e
100
AcDbEntity
8
F-F_J_ADDF
6
CONTINUOUS
62
3
100
AcDbLine
10
43.060000000000
20
30.350000000000
30
0.0
11
36.940000000000
21
30.350000000000
31
0.0
0
LINE
5
41f
100
AcDbEntity
8
F-F_J_ADDF
6
CONTINUOUS
62
3
100
AcDbLine
10
36.660000000000
20
36.750000000000
30
0.0
11
42.770000000000
21
36.750000000000
31
0.0
0
LINE
5
420
100
AcDbEntity
8
F-F_J_ADDF
6
CONTINUOUS
62
3
100
AcDbLine
10
42.770000000000
20
36.750000000000
30
0.0
11
36.660000000000
21
30.630000000000
31
0.0
0
LINE
5
421
100
AcDbEntity
8
F-F_J_ADDF
6
CONTINUOUS
62
3
100
AcDbLine
10
43.060000000000
20
36.470000000000
30
0.0
11
36.940000000000
21
30.350000000000
31
0.0
0
LINE
5
422
100
AcDbEntity
8
F-F_J_ADDF
6
CONTINUOUS
62
3
100
AcDbLine
10
43.060000000000
20
36.470000000000
30
0.0
11
43.060000000000
21
30.350000000000
31
0.0
0
LINE
5
423
100
AcDbEntity
8
F-F_J_ADDF
6
CONTINUOUS
62
4
100
AcDbLine
10
35.860000000000
20
37.470000000000
30
0.0
11
43.860000000000
21
37.470000000000
31
0.0
0
LINE
5
424
100
AcDbEntity
8
F-F_J_ADDF
6
CONTINUOUS
62
4
100
AcDbLine
10
35.860000000000
20
37.310000000000
30
0.0
11
43.860000000000
21
37.310000000000
31
0.0
0
LINE
5
425
100
AcDbEntity
8
F-F_J_ADDF
6
CONTINUOUS
62
4
100
AcDbLine
10
35.860000000000
20
37.150000000000
30
0.0
11
43.860000000000
21
37.150000000000
31
0.0
0
LINE
5
426
100
AcDbEntity
8
F-F_J_ADDF
6
CONTINUOUS
62
4
100
AcDbLine
10
35.860000000000
20
36.990000000000
30
0.0
11
43.860000000000
21
36.990000000000
31
0.0
0
LINE
5
427
100
AcDbEntity
8
F-F_J_ADDF
6
CONTINUOUS
62
4
100
AcDbLine
10
35.860000000000
20
36.830000000000
30
0.0
11
43.860000000000
21
36.830000000000
31
0.0
0
LINE
5
428
100
AcDbEntity
8
F-F_J_ADDF
6
CONTINUOUS
62
4
100
AcDbLine
10
35.860000000000
20
30.270000000000
30
0.0
11
43.860000000000
21
30.270000000000
31
0.0
0
LINE
5
429
100
AcDbEntity
8
F-F_J_ADDF
6
CONTINUOUS
62
4
100
AcDbLine
10
35.860000000000
20
30.110000000000
30
0.0
11
43.860000000000
21
30.110000000000
31
0.0
0
LINE
5
42a
100
AcDbEntity
8
F-F_J_ADDF
6
CONTINUOUS
62
4
100
AcDbLine
10
35.860000000000
20
29.950000000000
30
0.0
11
43.860000000000
21
29.950000000000
31
0.0
0
LINE
5
42b
100
AcDbEntity
8
F-F_J_ADDF
6
CONTINUOUS
62
4
100
AcDbLine
10
35.860000000000
20
29.790000000000
30
0.0
11
43.860000000000
21
29.790000000000
31
0.0
0
LINE
5
42c
100
AcDbEntity
8
F-F_J_ADDF
6
CONTINUOUS
62
4
100
AcDbLine
10
35.860000000000
20
29.630000000000
30
0.0
11
43.860000000000
21
29.630000000000
31
0.0
0
LINE
5
42d
100
AcDbEntity
8
F-F_J_ADDF
6
CONTINUOUS
62
4
100
AcDbLine
10
35.860000000000
20
30.750000000000
30
0.0
11
36.660000000000
21
30.750000000000
31
0.0
0
LINE
5
42e
100
AcDbEntity
8
F-F_J_ADDF
6
CONTINUOUS
62
4
100
AcDbLine
10
35.860000000000
20
30.910000000000
30
0.0
11
36.660000000000
21
30.910000000000
31
0.0
0
LINE
5
42f
100
AcDbEntity
8
F-F_J_ADDF
6
CONTINUOUS
62
4
100
AcDbLine
10
35.860000000000
20
31.070000000000
30
0.0
11
36.660000000000
21
31.070000000000
31
0.0
0
LINE
5
430
100
AcDbEntity
8
F-F_J_ADDF
6
CONTINUOUS
62
4
100
AcDbLine
10
35.860000000000
20
31.230000000000
30
0.0
11
36.660000000000
21
31.230000000000
31
0.0
0
LINE
5
431
100
AcDbEntity
8
F-F_J_ADDF
6
CONTINUOUS
62
4
100
AcDbLine
10
35.860000000000
20
31.390000000000
30
0.0
11
36.660000000000
21
31.390000000000
31
0.0
0
LINE
5
432
100
AcDbEntity
8
F-F_J_ADDF
6
CONTINUOUS
62
4
100
AcDbLine
10
35.860000000000
20
31.550000000000
30
0.0
11
36.660000000000
21
31.550000000000
31
0.0
0
LINE
5
433
100
AcDbEntity
8
F-F_J_ADDF
6
CONTINUOUS
62
4
100
AcDbLine
10
35.860000000000
20
31.710000000000
30
0.0
11
36.660000000000
21
31.710000000000
31
0.0
0
LINE
5
434
100
AcDbEntity
8
F-F_J_ADDF
6
CONTINUOUS
62
4
100
AcDbLine
10
35.860000000000
20
31.870000000000
30
0.0
11
36.660000000000
21
31.870000000000
31
0.0
0
LINE
5
435
100
AcDbEntity
8
F-F_J_ADDF
6
CONTINUOUS
62
4
100
AcDbLine
10
35.860000000000
20
32.030000000000
30
0.0
11
36.660000000000
21
32.030000000000
31
0.0
0
LINE
5
436
100
AcDbEntity
8
F-F_J_ADDF
6
CONTINUOUS
62
4
100
AcDbLine
10
35.860000000000
20
32.190000000000
30
0.0
11
36.660000000000
21
32.190000000000
31
0.0
0
LINE
5
437
100
AcDbEntity
8
F-F_J_ADDF
6
CONTINUOUS
62
4
100
AcDbLine
10
35.860000000000
20
32.350000000000
30
0.0
11
36.660000000000
21
32.350000000000
31
0.0
0
LINE
5
438
100
AcDbEntity
8
F-F_J_ADDF
6
CONTINUOUS
62
4
100
AcDbLine
10
35.860000000000
20
32.510000000000
30
0.0
11
36.660000000000
21
32.510000000000
31
0.0
0
LINE
5
439
100
AcDbEntity
8
F-F_J_ADDF
6
CONTINUOUS
62
4
100
AcDbLine
10
35.860000000000
20
32.670000000000
30
0.0
11
36.660000000000
21
32.670000000000
31
0.0
0
LINE
5
43a
100
AcDbEntity
8
F-F_J_ADDF
6
CONTINUOUS
62
4
100
AcDbLine
10
35.860000000000
20
32.830000000000
30
0.0
11
36.660000000000
21
32.830000000000
31
0.0
0
LINE
5
43b
100
AcDbEntity
8
F-F_J_ADDF
6
CONTINUOUS
62
4
100
AcDbLine
10
35.860000000000
20
32.990000000000
30
0.0
11
36.660000000000
21
32.990000000000
31
0.0
0
LINE
5
43c
100
AcDbEntity
8
F-F_J_ADDF
6
CONTINUOUS
62
4
100
AcDbLine
10
35.860000000000
20
33.150000000000
30
0.0
11
36.660000000000
21
33.150000000000
31
0.0
0
LINE
5
43d
100
AcDbEntity
8
F-F_J_ADDF
6
CONTINUOUS
62
4
100
AcDbLine
10
35.860000000000
20
33.310000000000
30
0.0
11
36.660000000000
21
33.310000000000
31
0.0
0
LINE
5
43e
100
AcDbEntity
8
F-F_J_ADDF
6
CONTINUOUS
62
4
100
AcDbLine
10
35.860000000000
20
33.470000000000
30
0.0
11
36.660000000000
21
33.470000000000
31
0.0
0
LINE
5
43f
100
AcDbEntity
8
F-F_J_ADDF
6
CONTINUOUS
62
4
100
AcDbLine
10
35.860000000000
20
33.630000000000
30
0.0
11
36.660000000000
21
33.630000000000
31
0.0
0
LINE
5
440
100
AcDbEntity
8
F-F_J_ADDF
6
CONTINUOUS
62
4
100
AcDbLine
10
35.860000000000
20
33.790000000000
30
0.0
11
36.660000000000
21
33.790000000000
31
0.0
0
LINE
5
441
100
AcDbEntity
8
F-F_J_ADDF
6
CONTINUOUS
62
4
100
AcDbLine
10
35.860000000000
20
33.950000000000
30
0.0
11
36.660000000000
21
33.950000000000
31
0.0
0
LINE
5
442
100
AcDbEntity
8
F-F_J_ADDF
6
CONTINUOUS
62
4
100
AcDbLine
10
35.860000000000
20
34.110000000000
30
0.0
11
36.660000000000
21
34.110000000000
31
0.0
0
LINE
5
443
100
AcDbEntity
8
F-F_J_ADDF
6
CONTINUOUS
62
4
100
AcDbLine
10
35.860000000000
20
34.270000000000
30
0.0
11
36.660000000000
21
34.270000000000
31
0.0
0
LINE
5
444
100
AcDbEntity
8
F-F_J_ADDF
6
CONTINUOUS
62
4
100
AcDbLine
10
35.860000000000
20
34.430000000000
30
0.0
11
36.660000000000
21
34.430000000000
31
0.0
0
LINE
5
445
100
AcDbEntity
8
F-F_J_ADDF
6
CONTINUOUS
62
4
100
AcDbLine
10
35.860000000000
20
34.910000000000
30
0.0
11
36.660000000000
21
34.910000000000
31
0.0
0
LINE
5
446
100
AcDbEntity
8
F-F_J_ADDF
6
CONTINUOUS
62
4
100
AcDbLine
10
35.860000000000
20
35.390000000000
30
0.0
11
36.660000000000
21
35.390000000000
31
0.0
0
LINE
5
447
100
AcDbEntity
8
F-F_J_ADDF
6
CONTINUOUS
62
4
100
AcDbLine
10
35.860000000000
20
35.550000000000
30
0.0
11
36.660000000000
21
35.550000000000
31
0.0
0
LINE
5
448
100
AcDbEntity
8
F-F_J_ADDF
6
CONTINUOUS
62
4
100
AcDbLine
10
35.860000000000
20
35.710000000000
30
0.0
11
36.660000000000
21
35.710000000000
31
0.0
0
LINE
5
449
100
AcDbEntity
8
F-F_J_ADDF
6
CONTINUOUS
62
4
100
AcDbLine
10
35.860000000000
20
35.870000000000
30
0.0
11
36.660000000000
21
35.870000000000
31
0.0
0
LINE
5
44a
100
AcDbEntity
8
F-F_J_ADDF
6
CONTINUOUS
62
4
100
AcDbLine
10
35.860000000000
20
36.670000000000
30
0.0
11
36.660000000000
21
36.670000000000
31
0.0
0
LINE
5
44b
100
AcDbEntity
8
F-F_J_ADDF
6
CONTINUOUS
62
4
100
AcDbLine
10
35.860000000000
20
36.510000000000
30
0.0
11
36.660000000000
21
36.510000000000
31
0.0
0
LINE
5
44c
100
AcDbEntity
8
F-F_J_ADDF
6
CONTINUOUS
62
4
100
AcDbLine
10
35.860000000000
20
36.350000000000
30
0.0
11
36.660000000000
21
36.350000000000
31
0.0
0
LINE
5
44d
100
AcDbEntity
8
F-F_J_ADDF
6
CONTINUOUS
62
4
100
AcDbLine
10
35.860000000000
20
36.190000000000
30
0.0
11
36.660000000000
21
36.190000000000
31
0.0
0
LINE
5
44e
100
AcDbEntity
8
F-F_J_ADDF
6
CONTINUOUS
62
4
100
AcDbLine
10
35.860000000000
20
36.030000000000
30
0.0
11
36.660000000000
21
36.030000000000
31
0.0
0
LINE
5
44f
100
AcDbEntity
8
F-F_J_ADDF
6
CONTINUOUS
62
4
100
AcDbLine
10
35.860000000000
20
35.070000000000
30
0.0
11
36.660000000000
21
35.070000000000
31
0.0
0
LINE
5
450
100
AcDbEntity
8
F-F_J_ADDF
6
CONTINUOUS
62
4
100
AcDbLine
10
35.860000000000
20
35.230000000000
30
0.0
11
36.660000000000
21
35.230000000000
31
0.0
0
LINE
5
451
100
AcDbEntity
8
F-F_J_ADDF
6
CONTINUOUS
62
4
100
AcDbLine
10
35.860000000000
20
34.750000000000
30
0.0
11
36.660000000000
21
34.750000000000
31
0.0
0
LINE
5
452
100
AcDbEntity
8
F-F_J_ADDF
6
CONTINUOUS
62
4
100
AcDbLine
10
35.860000000000
20
34.590000000000
30
0.0
11
36.660000000000
21
34.590000000000
31
0.0
0
LINE
5
453
100
AcDbEntity
8
F-F_J_ADDF
6
CONTINUOUS
62
4
100
AcDbLine
10
36.930000000000
20
30.910000000000
30
0.0
11
37.500000000000
21
30.910000000000
31
0.0
0
LINE
5
454
100
AcDbEntity
8
F-F_J_ADDF
6
CONTINUOUS
62
4
100
AcDbLine
10
36.770000000000
20
30.750000000000
30
0.0
11
37.340000000000
21
30.750000000000
31
0.0
0
LINE
5
455
100
AcDbEntity
8
F-F_J_ADDF
6
CONTINUOUS
62
4
100
AcDbLine
10
35.860000000000
20
30.590000000000
30
0.0
11
37.180000000000
21
30.590000000000
31
0.0
0
LINE
5
456
100
AcDbEntity
8
F-F_J_ADDF
6
CONTINUOUS
62
4
100
AcDbLine
10
35.860000000000
20
30.430000000000
30
0.0
11
37.020000000000
21
30.430000000000
31
0.0
0
LINE
5
457
100
AcDbEntity
8
F-F_J_ADDF
6
CONTINUOUS
62
4
100
AcDbLine
10
37.900000000000
20
31.870000000000
30
0.0
11
38.460000000000
21
31.870000000000
31
0.0
0
LINE
5
458
100
AcDbEntity
8
F-F_J_ADDF
6
CONTINUOUS
62
4
100
AcDbLine
10
37.730000000000
20
31.710000000000
30
0.0
11
38.300000000000
21
31.710000000000
31
0.0
0
LINE
5
459
100
AcDbEntity
8
F-F_J_ADDF
6
CONTINUOUS
62
4
100
AcDbLine
10
37.570000000000
20
31.550000000000
30
0.0
11
38.140000000000
21
31.550000000000
31
0.0
0
LINE
5
45a
100
AcDbEntity
8
F-F_J_ADDF
6
CONTINUOUS
62
4
100
AcDbLine
10
37.410000000000
20
31.390000000000
30
0.0
11
37.980000000000
21
31.390000000000
31
0.0
0
LINE
5
45b
100
AcDbEntity
8
F-F_J_ADDF
6
CONTINUOUS
62
4
100
AcDbLine
10
37.260000000000
20
31.230000000000
30
0.0
11
37.820000000000
21
31.230000000000
31
0.0
0
LINE
5
45c
100
AcDbEntity
8
F-F_J_ADDF
6
CONTINUOUS
62
4
100
AcDbLine
10
37.090000000000
20
31.070000000000
30
0.0
11
37.660000000000
21
31.070000000000
31
0.0
0
LINE
5
45d
100
AcDbEntity
8
F-F_J_ADDF
6
CONTINUOUS
62
4
100
AcDbLine
10
36.660000000000
20
36.750000000000
30
0.0
11
36.660000000000
21
36.910000000000
31
0.0
0
LINE
5
45e
100
AcDbEntity
8
F-F_J_ADDF
6
CONTINUOUS
62
4
100
AcDbLine
10
43.060000000000
20
30.750000000000
30
0.0
11
43.860000000000
21
30.750000000000
31
0.0
0
LINE
5
45f
100
AcDbEntity
8
F-F_J_ADDF
6
CONTINUOUS
62
4
100
AcDbLine
10
43.060000000000
20
30.910000000000
30
0.0
11
43.860000000000
21
30.910000000000
31
0.0
0
LINE
5
460
100
AcDbEntity
8
F-F_J_ADDF
6
CONTINUOUS
62
4
100
AcDbLine
10
43.060000000000
20
31.070000000000
30
0.0
11
43.860000000000
21
31.070000000000
31
0.0
0
LINE
5
461
100
AcDbEntity
8
F-F_J_ADDF
6
CONTINUOUS
62
4
100
AcDbLine
10
43.060000000000
20
31.230000000000
30
0.0
11
43.860000000000
21
31.230000000000
31
0.0
0
LINE
5
462
100
AcDbEntity
8
F-F_J_ADDF
6
CONTINUOUS
62
4
100
AcDbLine
10
43.060000000000
20
31.390000000000
30
0.0
11
43.860000000000
21
31.390000000000
31
0.0
0
LINE
5
463
100
AcDbEntity
8
F-F_J_ADDF
6
CONTINUOUS
62
4
100
AcDbLine
10
43.060000000000
20
31.550000000000
30
0.0
11
43.860000000000
21
31.550000000000
31
0.0
0
LINE
5
464
100
AcDbEntity
8
F-F_J_ADDF
6
CONTINUOUS
62
4
100
AcDbLine
10
43.060000000000
20
31.710000000000
30
0.0
11
43.860000000000
21
31.710000000000
31
0.0
0
LINE
5
465
100
AcDbEntity
8
F-F_J_ADDF
6
CONTINUOUS
62
4
100
AcDbLine
10
43.060000000000
20
31.870000000000
30
0.0
11
43.860000000000
21
31.870000000000
31
0.0
0
LINE
5
466
100
AcDbEntity
8
F-F_J_ADDF
6
CONTINUOUS
62
4
100
AcDbLine
10
43.060000000000
20
32.030000000000
30
0.0
11
43.860000000000
21
32.030000000000
31
0.0
0
LINE
5
467
100
AcDbEntity
8
F-F_J_ADDF
6
CONTINUOUS
62
4
100
AcDbLine
10
43.060000000000
20
32.190000000000
30
0.0
11
43.860000000000
21
32.190000000000
31
0.0
0
LINE
5
468
100
AcDbEntity
8
F-F_J_ADDF
6
CONTINUOUS
62
4
100
AcDbLine
10
43.060000000000
20
32.350000000000
30
0.0
11
43.860000000000
21
32.350000000000
31
0.0
0
LINE
5
469
100
AcDbEntity
8
F-F_J_ADDF
6
CONTINUOUS
62
4
100
AcDbLine
10
43.060000000000
20
32.510000000000
30
0.0
11
43.860000000000
21
32.510000000000
31
0.0
0
LINE
5
46a
100
AcDbEntity
8
F-F_J_ADDF
6
CONTINUOUS
62
4
100
AcDbLine
10
43.060000000000
20
32.670000000000
30
0.0
11
43.860000000000
21
32.670000000000
31
0.0
0
LINE
5
46b
100
AcDbEntity
8
F-F_J_ADDF
6
CONTINUOUS
62
4
100
AcDbLine
10
43.060000000000
20
32.990000000000
30
0.0
11
43.860000000000
21
32.990000000000
31
0.0
0
LINE
5
46c
100
AcDbEntity
8
F-F_J_ADDF
6
CONTINUOUS
62
4
100
AcDbLine
10
43.060000000000
20
33.150000000000
30
0.0
11
43.860000000000
21
33.150000000000
31
0.0
0
LINE
5
46d
100
AcDbEntity
8
F-F_J_ADDF
6
CONTINUOUS
62
4
100
AcDbLine
10
43.060000000000
20
33.310000000000
30
0.0
11
43.860000000000
21
33.310000000000
31
0.0
0
LINE
5
46e
100
AcDbEntity
8
F-F_J_ADDF
6
CONTINUOUS
62
4
100
AcDbLine
10
43.060000000000
20
33.470000000000
30
0.0
11
43.860000000000
21
33.470000000000
31
0.0
0
LINE
5
46f
100
AcDbEntity
8
F-F_J_ADDF
6
CONTINUOUS
62
4
100
AcDbLine
10
43.060000000000
20
33.630000000000
30
0.0
11
43.860000000000
21
33.630000000000
31
0.0
0
LINE
5
470
100
AcDbEntity
8
F-F_J_ADDF
6
CONTINUOUS
62
4
100
AcDbLine
10
43.060000000000
20
33.790000000000
30
0.0
11
43.860000000000
21
33.790000000000
31
0.0
0
LINE
5
471
100
AcDbEntity
8
F-F_J_ADDF
6
CONTINUOUS
62
4
100
AcDbLine
10
43.060000000000
20
33.950000000000
30
0.0
11
43.860000000000
21
33.950000000000
31
0.0
0
LINE
5
472
100
AcDbEntity
8
F-F_J_ADDF
6
CONTINUOUS
62
4
100
AcDbLine
10
43.060000000000
20
34.110000000000
30
0.0
11
43.860000000000
21
34.110000000000
31
0.0
0
LINE
5
473
100
AcDbEntity
8
F-F_J_ADDF
6
CONTINUOUS
62
4
100
AcDbLine
10
43.060000000000
20
34.270000000000
30
0.0
11
43.860000000000
21
34.270000000000
31
0.0
0
LINE
5
474
100
AcDbEntity
8
F-F_J_ADDF
6
CONTINUOUS
62
4
100
AcDbLine
10
43.060000000000
20
34.430000000000
30
0.0
11
43.860000000000
21
34.430000000000
31
0.0
0
LINE
5
475
100
AcDbEntity
8
F-F_J_ADDF
6
CONTINUOUS
62
4
100
AcDbLine
10
43.060000000000
20
34.910000000000
30
0.0
11
43.860000000000
21
34.910000000000
31
0.0
0
LINE
5
476
100
AcDbEntity
8
F-F_J_ADDF
6
CONTINUOUS
62
4
100
AcDbLine
10
43.060000000000
20
35.390000000000
30
0.0
11
43.860000000000
21
35.390000000000
31
0.0
0
LINE
5
477
100
AcDbEntity
8
F-F_J_ADDF
6
CONTINUOUS
62
4
100
AcDbLine
10
43.060000000000
20
35.550000000000
30
0.0
11
43.860000000000
21
35.550000000000
31
0.0
0
LINE
5
478
100
AcDbEntity
8
F-F_J_ADDF
6
CONTINUOUS
62
4
100
AcDbLine
10
43.060000000000
20
35.710000000000
30
0.0
11
43.860000000000
21
35.710000000000
31
0.0
0
LINE
5
479
100
AcDbEntity
8
F-F_J_ADDF
6
CONTINUOUS
62
4
100
AcDbLine
10
43.060000000000
20
35.870000000000
30
0.0
11
43.860000000000
21
35.870000000000
31
0.0
0
LINE
5
47a
100
AcDbEntity
8
F-F_J_ADDF
6
CONTINUOUS
62
4
100
AcDbLine
10
43.060000000000
20
36.350000000000
30
0.0
11
43.860000000000
21
36.350000000000
31
0.0
0
LINE
5
47b
100
AcDbEntity
8
F-F_J_ADDF
6
CONTINUOUS
62
4
100
AcDbLine
10
43.060000000000
20
36.190000000000
30
0.0
11
43.860000000000
21
36.190000000000
31
0.0
0
LINE
5
47c
100
AcDbEntity
8
F-F_J_ADDF
6
CONTINUOUS
62
4
100
AcDbLine
10
43.060000000000
20
36.030000000000
30
0.0
11
43.860000000000
21
36.030000000000
31
0.0
0
LINE
5
47d
100
AcDbEntity
8
F-F_J_ADDF
6
CONTINUOUS
62
4
100
AcDbLine
10
43.060000000000
20
35.070000000000
30
0.0
11
43.860000000000
21
35.070000000000
31
0.0
0
LINE
5
47e
100
AcDbEntity
8
F-F_J_ADDF
6
CONTINUOUS
62
4
100
AcDbLine
10
43.060000000000
20
35.230000000000
30
0.0
11
43.860000000000
21
35.230000000000
31
0.0
0
LINE
5
47f
100
AcDbEntity
8
F-F_J_ADDF
6
CONTINUOUS
62
4
100
AcDbLine
10
43.060000000000
20
34.750000000000
30
0.0
11
43.860000000000
21
34.750000000000
31
0.0
0
LINE
5
480
100
AcDbEntity
8
F-F_J_ADDF
6
CONTINUOUS
62
4
100
AcDbLine
10
43.060000000000
20
34.590000000000
30
0.0
11
43.860000000000
21
34.590000000000
31
0.0
0
LINE
5
481
100
AcDbEntity
8
F-F_J_ADDF
6
CONTINUOUS
62
4
100
AcDbLine
10
43.060000000000
20
30.430000000000
30
0.0
11
43.860000000000
21
30.430000000000
31
0.0
0
LINE
5
482
100
AcDbEntity
8
F-F_J_ADDF
6
CONTINUOUS
62
4
100
AcDbLine
10
43.060000000000
20
30.590000000000
30
0.0
11
43.860000000000
21
30.590000000000
31
0.0
0
LINE
5
483
100
AcDbEntity
8
F-F_J_ADDF
6
CONTINUOUS
62
4
100
AcDbLine
10
42.690000000000
20
36.670000000000
30
0.0
11
43.860000000000
21
36.670000000000
31
0.0
0
LINE
5
484
100
AcDbEntity
8
F-F_J_ADDF
6
CONTINUOUS
62
4
100
AcDbLine
10
42.530000000000
20
36.510000000000
30
0.0
11
43.860000000000
21
36.510000000000
31
0.0
0
LINE
5
485
100
AcDbEntity
8
F-F_J_ADDF
6
CONTINUOUS
62
4
100
AcDbLine
10
38.540000000000
20
32.510000000000
30
0.0
11
39.100000000000
21
32.510000000000
31
0.0
0
LINE
5
486
100
AcDbEntity
8
F-F_J_ADDF
6
CONTINUOUS
62
4
100
AcDbLine
10
38.370000000000
20
32.350000000000
30
0.0
11
38.940000000000
21
32.350000000000
31
0.0
0
LINE
5
487
100
AcDbEntity
8
F-F_J_ADDF
6
CONTINUOUS
62
4
100
AcDbLine
10
38.210000000000
20
32.190000000000
30
0.0
11
38.780000000000
21
32.190000000000
31
0.0
0
LINE
5
488
100
AcDbEntity
8
F-F_J_ADDF
6
CONTINUOUS
62
4
100
AcDbLine
10
38.050000000000
20
32.030000000000
30
0.0
11
38.620000000000
21
32.030000000000
31
0.0
0
LINE
5
489
100
AcDbEntity
8
F-F_J_ADDF
6
CONTINUOUS
62
4
100
AcDbLine
10
39.180000000000
20
33.150000000000
30
0.0
11
39.740000000000
21
33.150000000000
31
0.0
0
LINE
5
48a
100
AcDbEntity
8
F-F_J_ADDF
6
CONTINUOUS
62
4
100
AcDbLine
10
39.010000000000
20
32.990000000000
30
0.0
11
39.580000000000
21
32.990000000000
31
0.0
0
LINE
5
48b
100
AcDbEntity
8
F-F_J_ADDF
6
CONTINUOUS
62
4
100
AcDbLine
10
38.850000000000
20
32.830000000000
30
0.0
11
39.420000000000
21
32.830000000000
31
0.0
0
LINE
5
48c
100
AcDbEntity
8
F-F_J_ADDF
6
CONTINUOUS
62
4
100
AcDbLine
10
38.690000000000
20
32.670000000000
30
0.0
11
39.260000000000
21
32.670000000000
31
0.0
0
LINE
5
48d
100
AcDbEntity
8
F-F_J_ADDF
6
CONTINUOUS
62
4
100
AcDbLine
10
39.810000000000
20
33.790000000000
30
0.0
11
40.380000000000
21
33.790000000000
31
0.0
0
LINE
5
48e
100
AcDbEntity
8
F-F_J_ADDF
6
CONTINUOUS
62
4
100
AcDbLine
10
39.650000000000
20
33.630000000000
30
0.0
11
40.220000000000
21
33.630000000000
31
0.0
0
LINE
5
48f
100
AcDbEntity
8
F-F_J_ADDF
6
CONTINUOUS
62
4
100
AcDbLine
10
39.490000000000
20
33.470000000000
30
0.0
11
40.060000000000
21
33.470000000000
31
0.0
0
LINE
5
490
100
AcDbEntity
8
F-F_J_ADDF
6
CONTINUOUS
62
4
100
AcDbLine
10
39.330000000000
20
33.310000000000
30
0.0
11
39.900000000000
21
33.310000000000
31
0.0
0
LINE
5
491
100
AcDbEntity
8
F-F_J_ADDF
6
CONTINUOUS
62
4
100
AcDbLine
10
40.450000000000
20
34.430000000000
30
0.0
11
41.020000000000
21
34.430000000000
31
0.0
0
LINE
5
492
100
AcDbEntity
8
F-F_J_ADDF
6
CONTINUOUS
62
4
100
AcDbLine
10
40.290000000000
20
34.270000000000
30
0.0
11
40.860000000000
21
34.270000000000
31
0.0
0
LINE
5
493
100
AcDbEntity
8
F-F_J_ADDF
6
CONTINUOUS
62
4
100
AcDbLine
10
40.130000000000
20
34.110000000000
30
0.0
11
40.700000000000
21
34.110000000000
31
0.0
0
LINE
5
494
100
AcDbEntity
8
F-F_J_ADDF
6
CONTINUOUS
62
4
100
AcDbLine
10
39.970000000000
20
33.950000000000
30
0.0
11
40.540000000000
21
33.950000000000
31
0.0
0
LINE
5
495
100
AcDbEntity
8
F-F_J_ADDF
6
CONTINUOUS
62
4
100
AcDbLine
10
41.090000000000
20
35.070000000000
30
0.0
11
41.660000000000
21
35.070000000000
31
0.0
0
LINE
5
496
100
AcDbEntity
8
F-F_J_ADDF
6
CONTINUOUS
62
4
100
AcDbLine
10
40.930000000000
20
34.910000000000
30
0.0
11
41.500000000000
21
34.910000000000
31
0.0
0
LINE
5
497
100
AcDbEntity
8
F-F_J_ADDF
6
CONTINUOUS
62
4
100
AcDbLine
10
40.770000000000
20
34.750000000000
30
0.0
11
41.340000000000
21
34.750000000000
31
0.0
0
LINE
5
498
100
AcDbEntity
8
F-F_J_ADDF
6
CONTINUOUS
62
4
100
AcDbLine
10
40.620000000000
20
34.590000000000
30
0.0
11
41.180000000000
21
34.590000000000
31
0.0
0
LINE
5
499
100
AcDbEntity
8
F-F_J_ADDF
6
CONTINUOUS
62
4
100
AcDbLine
10
41.730000000000
20
35.710000000000
30
0.0
11
42.300000000000
21
35.710000000000
31
0.0
0
LINE
5
49a
100
AcDbEntity
8
F-F_J_ADDF
6
CONTINUOUS
62
4
100
AcDbLine
10
41.570000000000
20
35.550000000000
30
0.0
11
42.140000000000
21
35.550000000000
31
0.0
0
LINE
5
49b
100
AcDbEntity
8
F-F_J_ADDF
6
CONTINUOUS
62
4
100
AcDbLine
10
41.410000000000
20
35.390000000000
30
0.0
11
41.980000000000
21
35.390000000000
31
0.0
0
LINE
5
49c
100
AcDbEntity
8
F-F_J_ADDF
6
CONTINUOUS
62
4
100
AcDbLine
10
41.260000000000
20
35.230000000000
30
0.0
11
41.820000000000
21
35.230000000000
31
0.0
0
LINE
5
49d
100
AcDbEntity
8
F-F_J_ADDF
6
CONTINUOUS
62
4
100
AcDbLine
10
42.370000000000
20
36.350000000000
30
0.0
11
42.940000000000
21
36.350000000000
31
0.0
0
LINE
5
49e
100
AcDbEntity
8
F-F_J_ADDF
6
CONTINUOUS
62
4
100
AcDbLine
10
42.210000000000
20
36.190000000000
30
0.0
11
42.780000000000
21
36.190000000000
31
0.0
0
LINE
5
49f
100
AcDbEntity
8
F-F_J_ADDF
6
CONTINUOUS
62
4
100
AcDbLine
10
42.050000000000
20
36.030000000000
30
0.0
11
42.620000000000
21
36.030000000000
31
0.0
0
LINE
5
4a0
100
AcDbEntity
8
F-F_J_ADDF
6
CONTINUOUS
62
4
100
AcDbLine
10
41.890000000000
20
35.870000000000
30
0.0
11
42.460000000000
21
35.870000000000
31
0.0
0
LINE
5
4a1
100
AcDbEntity
8
F-F_J_ADDF
6
CONTINUOUS
62
4
100
AcDbLine
10
43.060000000000
20
32.830000000000
30
0.0
11
43.860000000000
21
32.830000000000
31
0.0
0
LINE
5
4a2
100
AcDbEntity
8
F-0
6
CONTINUOUS
62
3
100
AcDbLine
10
27.380000000000
20
551.820000000000
30
0.0
11
815.820000000000
21
551.820000000000
31
0.0
0
LINE
5
4a3
100
AcDbEntity
8
F-0
6
CONTINUOUS
62
3
100
AcDbLine
10
27.380000000000
20
286.630000000000
30
0.0
11
815.820000000000
21
286.630000000000
31
0.0
0
LINE
5
4a4
100
AcDbEntity
8
F-0
6
CONTINUOUS
62
3
100
AcDbLine
10
27.380000000000
20
306.630000000000
30
0.0
11
815.820000000000
21
306.630000000000
31
0.0
0
LINE
5
4a5
100
AcDbEntity
8
0-000
6
CONTINUOUS
62
3
100
AcDbLine
10
126.800000000000
20
353.820000000000
30
0.0
11
121.560000000000
21
358.210000000000
31
0.0
0
LINE
5
4a6
100
AcDbEntity
8
0-000
6
CONTINUOUS
62
3
100
AcDbLine
10
126.610000000000
20
353.330000000000
30
0.0
11
121.170000000000
21
357.890000000000
31
0.0
0
LINE
5
4a7
100
AcDbEntity
8
0-000
6
CONTINUOUS
62
3
100
AcDbLine
10
66.600000000000
20
394.890000000000
30
0.0
11
83.100000000000
21
394.890000000000
31
0.0
0
LINE
5
4a8
100
AcDbEntity
8
0-000
6
CONTINUOUS
62
3
100
AcDbLine
10
98.420000000000
20
394.890000000000
30
0.0
11
83.100000000000
21
394.890000000000
31
0.0
0
LINE
5
4a9
100
AcDbEntity
8
0-000
6
CONTINUOUS
62
3
100
AcDbLine
10
98.420000000000
20
394.890000000000
30
0.0
11
121.560000000000
21
358.210000000000
31
0.0
0
LINE
5
4aa
100
AcDbEntity
8
0-000
6
CONTINUOUS
62
3
100
AcDbLine
10
98.140000000000
20
394.390000000000
30
0.0
11
66.880000000000
21
394.390000000000
31
0.0
0
LINE
5
4ab
100
AcDbEntity
8
0-000
6
CONTINUOUS
62
3
100
AcDbLine
10
98.140000000000
20
394.390000000000
30
0.0
11
121.140000000000
21
357.950000000000
31
0.0
0
LINE
5
4ac
100
AcDbEntity
8
0-000
6
CONTINUOUS
62
3
100
AcDbLine
10
56.330000000000
20
378.570000000000
30
0.0
11
67.020000000000
21
394.610000000000
31
0.0
0
LINE
5
4ad
100
AcDbEntity
8
0-000
6
CONTINUOUS
62
3
100
AcDbLine
10
59.240000000000
20
382.940000000000
30
0.0
11
56.700000000000
21
378.340000000000
31
0.0
0
LINE
5
4ae
100
AcDbEntity
8
0-000
6
CONTINUOUS
62
3
100
AcDbLine
10
55.910000000000
20
378.840000000000
30
0.0
11
66.600000000000
21
394.890000000000
31
0.0
0
LINE
5
4af
100
AcDbEntity
8
0-000
6
CONTINUOUS
62
3
100
AcDbLine
10
59.680000000000
20
382.700000000000
30
0.0
11
57.120000000000
21
378.070000000000
31
0.0
0
LINE
5
4b0
100
AcDbEntity
8
0-000
6
CONTINUOUS
62
3
100
AcDbLine
10
714.400000000000
20
353.820000000000
30
0.0
11
719.640000000000
21
358.210000000000
31
0.0
0
LINE
5
4b1
100
AcDbEntity
8
0-000
6
CONTINUOUS
62
3
100
AcDbLine
10
714.720000000000
20
353.430000000000
30
0.0
11
720.030000000000
21
357.890000000000
31
0.0
0
LINE
5
4b2
100
AcDbEntity
8
0-000
6
CONTINUOUS
62
3
100
AcDbLine
10
742.430000000000
20
393.380000000000
30
0.0
11
720.060000000000
21
357.950000000000
31
0.0
0
LINE
5
4b3
100
AcDbEntity
8
0-000
6
CONTINUOUS
62
3
100
AcDbLine
10
742.150000000000
20
393.890000000000
30
0.0
11
719.640000000000
21
358.210000000000
31
0.0
0
LINE
5
4b4
100
AcDbEntity
8
0-000
6
CONTINUOUS
62
3
100
AcDbLine
10
801.280000000000
20
352.940000000000
30
0.0
11
800.960000000000
21
352.560000000000
31
0.0
0
LINE
5
4b5
100
AcDbEntity
8
0-000
6
CONTINUOUS
62
3
100
AcDbLine
10
801.280000000000
20
352.940000000000
30
0.0
11
795.800000000000
21
357.550000000000
31
0.0
0
LINE
5
4b6
100
AcDbEntity
8
0-000
6
CONTINUOUS
62
3
100
AcDbLine
10
800.960000000000
20
352.560000000000
30
0.0
11
795.420000000000
21
357.210000000000
31
0.0
0
LINE
5
4b7
100
AcDbEntity
8
0-000
6
CONTINUOUS
62
3
100
AcDbLine
10
772.590000000000
20
393.380000000000
30
0.0
11
742.430000000000
21
393.380000000000
31
0.0
0
LINE
5
4b8
100
AcDbEntity
8
0-000
6
CONTINUOUS
62
3
100
AcDbLine
10
772.590000000000
20
393.380000000000
30
0.0
11
795.420000000000
21
357.210000000000
31
0.0
0
LINE
5
4b9
100
AcDbEntity
8
0-000
6
CONTINUOUS
62
3
100
AcDbLine
10
772.860000000000
20
393.890000000000
30
0.0
11
742.150000000000
21
393.890000000000
31
0.0
0
LINE
5
4ba
100
AcDbEntity
8
0-000
6
CONTINUOUS
62
3
100
AcDbLine
10
772.860000000000
20
393.890000000000
30
0.0
11
795.800000000000
21
357.550000000000
31
0.0
0
LINE
5
4bb
100
AcDbEntity
8
0-000
6
CONTINUOUS
62
3
100
AcDbLine
10
126.610000000000
20
353.330000000000
30
0.0
11
196.600000000000
21
347.220000000000
31
0.0
0
LINE
5
4bc
100
AcDbEntity
8
0-000
6
CONTINUOUS
62
3
100
AcDbLine
10
196.600000000000
20
347.720000000000
30
0.0
11
126.800000000000
21
353.820000000000
31
0.0
0
LINE
5
4bd
100
AcDbEntity
8
0-000
6
CONTINUOUS
62
3
100
AcDbLine
10
549.100000000000
20
394.130000000000
30
0.0
11
572.560000000000
21
356.960000000000
31
0.0
0
LINE
5
4be
100
AcDbEntity
8
0-000
6
CONTINUOUS
62
3
100
AcDbLine
10
548.830000000000
20
393.640000000000
30
0.0
11
572.140000000000
21
356.700000000000
31
0.0
0
LINE
5
4bf
100
AcDbEntity
8
0-000
6
CONTINUOUS
62
3
100
AcDbLine
10
577.680000000000
20
352.670000000000
30
0.0
11
572.560000000000
21
356.960000000000
31
0.0
0
LINE
5
4c0
100
AcDbEntity
8
0-000
6
CONTINUOUS
62
3
100
AcDbLine
10
577.480000000000
20
352.180000000000
30
0.0
11
572.170000000000
21
356.640000000000
31
0.0
0
LINE
5
4c1
100
AcDbEntity
8
0-000
6
CONTINUOUS
62
3
100
AcDbLine
10
549.100000000000
20
394.130000000000
30
0.0
11
534.100000000000
21
394.130000000000
31
0.0
0
LINE
5
4c2
100
AcDbEntity
8
0-000
6
CONTINUOUS
62
3
100
AcDbLine
10
548.830000000000
20
393.640000000000
30
0.0
11
534.100000000000
21
393.640000000000
31
0.0
0
LINE
5
4c3
100
AcDbEntity
8
0-000
6
CONTINUOUS
62
3
100
AcDbLine
10
519.100000000000
20
394.130000000000
30
0.0
11
495.640000000000
21
356.960000000000
31
0.0
0
LINE
5
4c4
100
AcDbEntity
8
0-000
6
CONTINUOUS
62
3
100
AcDbLine
10
519.380000000000
20
393.640000000000
30
0.0
11
496.060000000000
21
356.700000000000
31
0.0
0
LINE
5
4c5
100
AcDbEntity
8
0-000
6
CONTINUOUS
62
3
100
AcDbLine
10
421.570000000000
20
347.720000000000
30
0.0
11
490.520000000000
21
352.670000000000
31
0.0
0
LINE
5
4c6
100
AcDbEntity
8
0-000
6
CONTINUOUS
62
3
100
AcDbLine
10
490.520000000000
20
352.670000000000
30
0.0
11
495.640000000000
21
356.960000000000
31
0.0
0
LINE
5
4c7
100
AcDbEntity
8
0-000
6
CONTINUOUS
62
3
100
AcDbLine
10
421.600000000000
20
347.220000000000
30
0.0
11
490.720000000000
21
352.180000000000
31
0.0
0
LINE
5
4c8
100
AcDbEntity
8
0-000
6
CONTINUOUS
62
3
100
AcDbLine
10
490.720000000000
20
352.180000000000
30
0.0
11
496.030000000000
21
356.640000000000
31
0.0
0
LINE
5
4c9
100
AcDbEntity
8
0-000
6
CONTINUOUS
62
3
100
AcDbLine
10
519.100000000000
20
394.130000000000
30
0.0
11
534.100000000000
21
394.130000000000
31
0.0
0
LINE
5
4ca
100
AcDbEntity
8
0-000
6
CONTINUOUS
62
3
100
AcDbLine
10
519.380000000000
20
393.640000000000
30
0.0
11
534.100000000000
21
393.640000000000
31
0.0
0
LINE
5
4cb
100
AcDbEntity
8
0-000
6
CONTINUOUS
62
3
100
AcDbLine
10
294.100000000000
20
394.130000000000
30
0.0
11
270.640000000000
21
356.960000000000
31
0.0
0
LINE
5
4cc
100
AcDbEntity
8
0-000
6
CONTINUOUS
62
3
100
AcDbLine
10
294.380000000000
20
393.640000000000
30
0.0
11
271.060000000000
21
356.700000000000
31
0.0
0
LINE
5
4cd
100
AcDbEntity
8
0-000
6
CONTINUOUS
62
3
100
AcDbLine
10
196.570000000000
20
347.720000000000
30
0.0
11
265.530000000000
21
352.670000000000
31
0.0
0
LINE
5
4ce
100
AcDbEntity
8
0-000
6
CONTINUOUS
62
3
100
AcDbLine
10
265.530000000000
20
352.670000000000
30
0.0
11
270.640000000000
21
356.960000000000
31
0.0
0
LINE
5
4cf
100
AcDbEntity
8
0-000
6
CONTINUOUS
62
3
100
AcDbLine
10
196.600000000000
20
347.220000000000
30
0.0
11
265.720000000000
21
352.180000000000
31
0.0
0
LINE
5
4d0
100
AcDbEntity
8
0-000
6
CONTINUOUS
62
3
100
AcDbLine
10
265.720000000000
20
352.180000000000
30
0.0
11
271.030000000000
21
356.640000000000
31
0.0
0
LINE
5
4d1
100
AcDbEntity
8
0-000
6
CONTINUOUS
62
3
100
AcDbLine
10
294.100000000000
20
394.130000000000
30
0.0
11
309.100000000000
21
394.130000000000
31
0.0
0
LINE
5
4d2
100
AcDbEntity
8
0-000
6
CONTINUOUS
62
3
100
AcDbLine
10
294.380000000000
20
393.640000000000
30
0.0
11
309.100000000000
21
393.640000000000
31
0.0
0
LINE
5
4d3
100
AcDbEntity
8
0-000
6
CONTINUOUS
62
3
100
AcDbLine
10
324.100000000000
20
394.130000000000
30
0.0
11
347.560000000000
21
356.960000000000
31
0.0
0
LINE
5
4d4
100
AcDbEntity
8
0-000
6
CONTINUOUS
62
3
100
AcDbLine
10
323.830000000000
20
393.640000000000
30
0.0
11
347.140000000000
21
356.700000000000
31
0.0
0
LINE
5
4d5
100
AcDbEntity
8
0-000
6
CONTINUOUS
62
3
100
AcDbLine
10
421.640000000000
20
347.720000000000
30
0.0
11
352.680000000000
21
352.670000000000
31
0.0
0
LINE
5
4d6
100
AcDbEntity
8
0-000
6
CONTINUOUS
62
3
100
AcDbLine
10
352.680000000000
20
352.670000000000
30
0.0
11
347.560000000000
21
356.960000000000
31
0.0
0
LINE
5
4d7
100
AcDbEntity
8
0-000
6
CONTINUOUS
62
3
100
AcDbLine
10
421.600000000000
20
347.220000000000
30
0.0
11
352.480000000000
21
352.180000000000
31
0.0
0
LINE
5
4d8
100
AcDbEntity
8
0-000
6
CONTINUOUS
62
3
100
AcDbLine
10
352.480000000000
20
352.180000000000
30
0.0
11
347.170000000000
21
356.640000000000
31
0.0
0
LINE
5
4d9
100
AcDbEntity
8
0-000
6
CONTINUOUS
62
3
100
AcDbLine
10
324.100000000000
20
394.130000000000
30
0.0
11
309.100000000000
21
394.130000000000
31
0.0
0
LINE
5
4da
100
AcDbEntity
8
0-000
6
CONTINUOUS
62
3
100
AcDbLine
10
323.830000000000
20
393.640000000000
30
0.0
11
309.100000000000
21
393.640000000000
31
0.0
0
LINE
5
4db
100
AcDbEntity
8
0-000
6
CONTINUOUS
62
3
100
AcDbLine
10
646.080000000000
20
348.540000000000
30
0.0
11
714.400000000000
21
353.820000000000
31
0.0
0
LINE
5
4dc
100
AcDbEntity
8
0-000
6
CONTINUOUS
62
3
100
AcDbLine
10
646.120000000000
20
348.040000000000
30
0.0
11
714.440000000000
21
353.320000000000
31
0.0
0
LINE
5
4dd
100
AcDbEntity
8
0-000
6
CONTINUOUS
62
3
100
AcDbLine
10
646.080000000000
20
348.540000000000
30
0.0
11
577.680000000000
21
352.670000000000
31
0.0
0
LINE
5
4de
100
AcDbEntity
8
0-000
6
CONTINUOUS
62
3
100
AcDbLine
10
646.050000000000
20
348.040000000000
30
0.0
11
577.650000000000
21
352.170000000000
31
0.0
0
LINE
5
4df
100
AcDbEntity
8
0-000
6
CONTINUOUS
62
3
100
AcDbLine
10
59.240000000000
20
382.940000000000
30
0.0
11
59.680000000000
21
382.700000000000
31
0.0
0
LINE
5
4e0
100
AcDbEntity
8
0-000
6
CONTINUOUS
62
4
100
AcDbLine
10
304.040000000000
20
393.630000000000
30
0.0
11
304.040000000000
21
351.630000000000
31
0.0
0
LINE
5
4e1
100
AcDbEntity
8
0-000
6
CONTINUOUS
62
4
100
AcDbLine
10
304.040000000000
20
351.630000000000
30
0.0
11
304.040000000000
21
347.930000000000
31
0.0
0
LINE
5
4e2
100
AcDbEntity
8
0-000
6
CONTINUOUS
62
4
100
AcDbLine
10
304.040000000000
20
351.640000000000
30
0.0
11
278.810000000000
21
351.640000000000
31
0.0
0
LINE
5
4e3
100
AcDbEntity
8
0-000
6
CONTINUOUS
62
4
100
AcDbLine
10
304.040000000000
20
347.930000000000
30
0.0
11
278.810000000000
21
347.930000000000
31
0.0
0
LINE
5
4e4
100
AcDbEntity
8
0-000
6
CONTINUOUS
62
7
100
AcDbLine
10
84.100000000000
20
424.890000000000
30
0.0
11
84.100000000000
21
464.890000000000
31
0.0
0
LINE
5
4e5
100
AcDbEntity
8
0-000
6
CONTINUOUS
62
7
100
AcDbLine
10
759.100000000000
20
424.890000000000
30
0.0
11
759.100000000000
21
464.890000000000
31
0.0
0
LINE
5
4e6
100
AcDbEntity
8
0-000
6
CONTINUOUS
62
7
100
AcDbLine
10
84.100000000000
20
464.890000000000
30
0.0
11
759.100000000000
21
464.890000000000
31
0.0
0
LINE
5
4e7
100
AcDbEntity
8
0-000
6
CONTINUOUS
62
7
100
AcDbLine
10
309.100000000000
20
424.890000000000
30
0.0
11
309.100000000000
21
439.890000000000
31
0.0
0
LINE
5
4e8
100
AcDbEntity
8
0-000
6
CONTINUOUS
62
7
100
AcDbLine
10
534.100000000000
20
424.890000000000
30
0.0
11
534.100000000000
21
439.890000000000
31
0.0
0
LINE
5
4e9
100
AcDbEntity
8
0-000
6
CONTINUOUS
62
7
100
AcDbLine
10
84.100000000000
20
439.890000000000
30
0.0
11
309.100000000000
21
439.890000000000
31
0.0
0
LINE
5
4ea
100
AcDbEntity
8
0-000
6
CONTINUOUS
62
7
100
AcDbLine
10
309.100000000000
20
439.890000000000
30
0.0
11
534.100000000000
21
439.890000000000
31
0.0
0
LINE
5
4eb
100
AcDbEntity
8
0-000
6
CONTINUOUS
62
7
100
AcDbLine
10
534.100000000000
20
439.890000000000
30
0.0
11
759.100000000000
21
439.890000000000
31
0.0
0
LINE
5
4ec
100
AcDbEntity
8
0-000
6
CONTINUOUS
62
7
100
AcDbLine
10
294.100000000000
20
409.890000000000
30
0.0
11
324.100000000000
21
409.890000000000
31
0.0
0
LINE
5
4ed
100
AcDbEntity
8
0-000
6
CONTINUOUS
62
7
100
AcDbLine
10
294.100000000000
20
399.890000000000
30
0.0
11
294.100000000000
21
409.890000000000
31
0.0
0
LINE
5
4ee
100
AcDbEntity
8
0-000
6
CONTINUOUS
62
7
100
AcDbLine
10
324.100000000000
20
399.890000000000
30
0.0
11
324.100000000000
21
409.890000000000
31
0.0
0
LINE
5
4ef
100
AcDbEntity
8
0-000
6
CONTINUOUS
62
7
100
AcDbLine
10
519.100000000000
20
409.890000000000
30
0.0
11
549.100000000000
21
409.890000000000
31
0.0
0
LINE
5
4f0
100
AcDbEntity
8
0-000
6
CONTINUOUS
62
7
100
AcDbLine
10
519.100000000000
20
399.890000000000
30
0.0
11
519.100000000000
21
409.890000000000
31
0.0
0
LINE
5
4f1
100
AcDbEntity
8
0-000
6
CONTINUOUS
62
7
100
AcDbLine
10
549.100000000000
20
399.890000000000
30
0.0
11
549.100000000000
21
409.890000000000
31
0.0
0
LINE
5
4f2
100
AcDbEntity
8
0-000
6
CONTINUOUS
62
3
100
AcDbLine
10
151.900000000000
20
139.890000000000
30
0.0
11
157.140000000000
21
144.280000000000
31
0.0
0
LINE
5
4f3
100
AcDbEntity
8
0-000
6
CONTINUOUS
62
3
100
AcDbLine
10
152.220000000000
20
139.500000000000
30
0.0
11
157.530000000000
21
143.960000000000
31
0.0
0
LINE
5
4f4
100
AcDbEntity
8
0-000
6
CONTINUOUS
62
3
100
AcDbLine
10
239.300000000000
20
139.890000000000
30
0.0
11
234.060000000000
21
144.280000000000
31
0.0
0
LINE
5
4f5
100
AcDbEntity
8
0-000
6
CONTINUOUS
62
3
100
AcDbLine
10
239.110000000000
20
139.400000000000
30
0.0
11
233.670000000000
21
143.960000000000
31
0.0
0
LINE
5
4f6
100
AcDbEntity
8
0-000
6
CONTINUOUS
62
3
100
AcDbLine
10
179.930000000000
20
179.450000000000
30
0.0
11
157.560000000000
21
144.020000000000
31
0.0
0
LINE
5
4f7
100
AcDbEntity
8
0-000
6
CONTINUOUS
62
3
100
AcDbLine
10
179.650000000000
20
179.950000000000
30
0.0
11
157.140000000000
21
144.280000000000
31
0.0
0
LINE
5
4f8
100
AcDbEntity
8
0-000
6
CONTINUOUS
62
3
100
AcDbLine
10
179.100000000000
20
180.950000000000
30
0.0
11
195.600000000000
21
180.950000000000
31
0.0
0
LINE
5
4f9
100
AcDbEntity
8
0-000
6
CONTINUOUS
62
3
100
AcDbLine
10
210.920000000000
20
180.950000000000
30
0.0
11
195.600000000000
21
180.950000000000
31
0.0
0
LINE
5
4fa
100
AcDbEntity
8
0-000
6
CONTINUOUS
62
3
100
AcDbLine
10
210.920000000000
20
180.950000000000
30
0.0
11
234.060000000000
21
144.280000000000
31
0.0
0
LINE
5
4fb
100
AcDbEntity
8
0-000
6
CONTINUOUS
62
3
100
AcDbLine
10
210.640000000000
20
180.450000000000
30
0.0
11
179.380000000000
21
180.450000000000
31
0.0
0
LINE
5
4fc
100
AcDbEntity
8
0-000
6
CONTINUOUS
62
3
100
AcDbLine
10
210.640000000000
20
180.450000000000
30
0.0
11
233.640000000000
21
144.020000000000
31
0.0
0
LINE
5
4fd
100
AcDbEntity
8
0-000
6
CONTINUOUS
62
3
100
AcDbLine
10
238.780000000000
20
139.010000000000
30
0.0
11
238.460000000000
21
138.630000000000
31
0.0
0
LINE
5
4fe
100
AcDbEntity
8
0-000
6
CONTINUOUS
62
3
100
AcDbLine
10
238.780000000000
20
139.010000000000
30
0.0
11
233.300000000000
21
143.620000000000
31
0.0
0
LINE
5
4ff
100
AcDbEntity
8
0-000
6
CONTINUOUS
62
3
100
AcDbLine
10
238.460000000000
20
138.630000000000
30
0.0
11
232.920000000000
21
143.280000000000
31
0.0
0
LINE
5
500
100
AcDbEntity
8
0-000
6
CONTINUOUS
62
3
100
AcDbLine
10
210.090000000000
20
179.450000000000
30
0.0
11
179.930000000000
21
179.450000000000
31
0.0
0
LINE
5
501
100
AcDbEntity
8
0-000
6
CONTINUOUS
62
3
100
AcDbLine
10
210.090000000000
20
179.450000000000
30
0.0
11
232.920000000000
21
143.280000000000
31
0.0
0
LINE
5
502
100
AcDbEntity
8
0-000
6
CONTINUOUS
62
3
100
AcDbLine
10
210.370000000000
20
179.950000000000
30
0.0
11
179.650000000000
21
179.950000000000
31
0.0
0
LINE
5
503
100
AcDbEntity
8
0-000
6
CONTINUOUS
62
3
100
AcDbLine
10
210.370000000000
20
179.950000000000
30
0.0
11
233.300000000000
21
143.620000000000
31
0.0
0
LINE
5
504
100
AcDbEntity
8
0-000
6
CONTINUOUS
62
3
100
AcDbLine
10
168.830000000000
20
164.640000000000
30
0.0
11
179.520000000000
21
180.680000000000
31
0.0
0
LINE
5
505
100
AcDbEntity
8
0-000
6
CONTINUOUS
62
3
100
AcDbLine
10
171.740000000000
20
169.010000000000
30
0.0
11
169.200000000000
21
164.410000000000
31
0.0
0
LINE
5
506
100
AcDbEntity
8
0-000
6
CONTINUOUS
62
3
100
AcDbLine
10
168.410000000000
20
164.910000000000
30
0.0
11
179.100000000000
21
180.950000000000
31
0.0
0
LINE
5
507
100
AcDbEntity
8
0-000
6
CONTINUOUS
62
3
100
AcDbLine
10
239.110000000000
20
139.400000000000
30
0.0
11
309.100000000000
21
133.290000000000
31
0.0
0
LINE
5
508
100
AcDbEntity
8
0-000
6
CONTINUOUS
62
3
100
AcDbLine
10
309.100000000000
20
133.790000000000
30
0.0
11
239.300000000000
21
139.890000000000
31
0.0
0
LINE
5
509
100
AcDbEntity
8
0-000
6
CONTINUOUS
62
3
100
AcDbLine
10
661.600000000000
20
180.200000000000
30
0.0
11
685.060000000000
21
143.030000000000
31
0.0
0
LINE
5
50a
100
AcDbEntity
8
0-000
6
CONTINUOUS
62
3
100
AcDbLine
10
661.330000000000
20
179.700000000000
30
0.0
11
684.640000000000
21
142.770000000000
31
0.0
0
LINE
5
50b
100
AcDbEntity
8
0-000
6
CONTINUOUS
62
3
100
AcDbLine
10
690.180000000000
20
138.740000000000
30
0.0
11
685.060000000000
21
143.030000000000
31
0.0
0
LINE
5
50c
100
AcDbEntity
8
0-000
6
CONTINUOUS
62
3
100
AcDbLine
10
689.980000000000
20
138.250000000000
30
0.0
11
684.670000000000
21
142.710000000000
31
0.0
0
LINE
5
50d
100
AcDbEntity
8
0-000
6
CONTINUOUS
62
3
100
AcDbLine
10
661.600000000000
20
180.200000000000
30
0.0
11
646.600000000000
21
180.200000000000
31
0.0
0
LINE
5
50e
100
AcDbEntity
8
0-000
6
CONTINUOUS
62
3
100
AcDbLine
10
661.330000000000
20
179.700000000000
30
0.0
11
646.600000000000
21
179.700000000000
31
0.0
0
LINE
5
50f
100
AcDbEntity
8
0-000
6
CONTINUOUS
62
3
100
AcDbLine
10
631.600000000000
20
180.200000000000
30
0.0
11
608.140000000000
21
143.030000000000
31
0.0
0
LINE
5
510
100
AcDbEntity
8
0-000
6
CONTINUOUS
62
3
100
AcDbLine
10
631.880000000000
20
179.700000000000
30
0.0
11
608.560000000000
21
142.770000000000
31
0.0
0
LINE
5
511
100
AcDbEntity
8
0-000
6
CONTINUOUS
62
3
100
AcDbLine
10
534.070000000000
20
133.790000000000
30
0.0
11
603.020000000000
21
138.740000000000
31
0.0
0
LINE
5
512
100
AcDbEntity
8
0-000
6
CONTINUOUS
62
3
100
AcDbLine
10
603.020000000000
20
138.740000000000
30
0.0
11
608.140000000000
21
143.030000000000
31
0.0
0
LINE
5
513
100
AcDbEntity
8
0-000
6
CONTINUOUS
62
3
100
AcDbLine
10
534.100000000000
20
133.290000000000
30
0.0
11
603.220000000000
21
138.250000000000
31
0.0
0
LINE
5
514
100
AcDbEntity
8
0-000
6
CONTINUOUS
62
3
100
AcDbLine
10
603.220000000000
20
138.250000000000
30
0.0
11
608.530000000000
21
142.710000000000
31
0.0
0
LINE
5
515
100
AcDbEntity
8
0-000
6
CONTINUOUS
62
3
100
AcDbLine
10
631.600000000000
20
180.200000000000
30
0.0
11
646.600000000000
21
180.200000000000
31
0.0
0
LINE
5
516
100
AcDbEntity
8
0-000
6
CONTINUOUS
62
3
100
AcDbLine
10
631.880000000000
20
179.700000000000
30
0.0
11
646.600000000000
21
179.700000000000
31
0.0
0
LINE
5
517
100
AcDbEntity
8
0-000
6
CONTINUOUS
62
3
100
AcDbLine
10
406.600000000000
20
180.200000000000
30
0.0
11
383.140000000000
21
143.030000000000
31
0.0
0
LINE
5
518
100
AcDbEntity
8
0-000
6
CONTINUOUS
62
3
100
AcDbLine
10
406.880000000000
20
179.700000000000
30
0.0
11
383.560000000000
21
142.770000000000
31
0.0
0
LINE
5
519
100
AcDbEntity
8
0-000
6
CONTINUOUS
62
3
100
AcDbLine
10
309.070000000000
20
133.790000000000
30
0.0
11
378.030000000000
21
138.740000000000
31
0.0
0
LINE
5
51a
100
AcDbEntity
8
0-000
6
CONTINUOUS
62
3
100
AcDbLine
10
378.030000000000
20
138.740000000000
30
0.0
11
383.140000000000
21
143.030000000000
31
0.0
0
LINE
5
51b
100
AcDbEntity
8
0-000
6
CONTINUOUS
62
3
100
AcDbLine
10
309.100000000000
20
133.290000000000
30
0.0
11
378.220000000000
21
138.250000000000
31
0.0
0
LINE
5
51c
100
AcDbEntity
8
0-000
6
CONTINUOUS
62
3
100
AcDbLine
10
378.220000000000
20
138.250000000000
30
0.0
11
383.530000000000
21
142.710000000000
31
0.0
0
LINE
5
51d
100
AcDbEntity
8
0-000
6
CONTINUOUS
62
3
100
AcDbLine
10
406.600000000000
20
180.200000000000
30
0.0
11
421.600000000000
21
180.200000000000
31
0.0
0
LINE
5
51e
100
AcDbEntity
8
0-000
6
CONTINUOUS
62
3
100
AcDbLine
10
406.880000000000
20
179.700000000000
30
0.0
11
421.600000000000
21
179.700000000000
31
0.0
0
LINE
5
51f
100
AcDbEntity
8
0-000
6
CONTINUOUS
62
3
100
AcDbLine
10
436.600000000000
20
180.200000000000
30
0.0
11
460.060000000000
21
143.030000000000
31
0.0
0
LINE
5
520
100
AcDbEntity
8
0-000
6
CONTINUOUS
62
3
100
AcDbLine
10
436.330000000000
20
179.700000000000
30
0.0
11
459.640000000000
21
142.770000000000
31
0.0
0
LINE
5
521
100
AcDbEntity
8
0-000
6
CONTINUOUS
62
3
100
AcDbLine
10
534.140000000000
20
133.790000000000
30
0.0
11
465.180000000000
21
138.740000000000
31
0.0
0
LINE
5
522
100
AcDbEntity
8
0-000
6
CONTINUOUS
62
3
100
AcDbLine
10
465.180000000000
20
138.740000000000
30
0.0
11
460.060000000000
21
143.030000000000
31
0.0
0
LINE
5
523
100
AcDbEntity
8
0-000
6
CONTINUOUS
62
3
100
AcDbLine
10
534.100000000000
20
133.290000000000
30
0.0
11
464.980000000000
21
138.250000000000
31
0.0
0
LINE
5
524
100
AcDbEntity
8
0-000
6
CONTINUOUS
62
3
100
AcDbLine
10
464.980000000000
20
138.250000000000
30
0.0
11
459.670000000000
21
142.710000000000
31
0.0
0
LINE
5
525
100
AcDbEntity
8
0-000
6
CONTINUOUS
62
3
100
AcDbLine
10
436.600000000000
20
180.200000000000
30
0.0
11
421.600000000000
21
180.200000000000
31
0.0
0
LINE
5
526
100
AcDbEntity
8
0-000
6
CONTINUOUS
62
3
100
AcDbLine
10
436.330000000000
20
179.700000000000
30
0.0
11
421.600000000000
21
179.700000000000
31
0.0
0
LINE
5
527
100
AcDbEntity
8
0-000
6
CONTINUOUS
62
3
100
AcDbLine
10
758.580000000000
20
134.610000000000
30
0.0
11
690.180000000000
21
138.740000000000
31
0.0
0
LINE
5
528
100
AcDbEntity
8
0-000
6
CONTINUOUS
62
3
100
AcDbLine
10
758.550000000000
20
134.110000000000
30
0.0
11
690.150000000000
21
138.240000000000
31
0.0
0
LINE
5
529
100
AcDbEntity
8
0-000
6
CONTINUOUS
62
3
100
AcDbLine
10
83.580000000000
20
134.610000000000
30
0.0
11
151.900000000000
21
139.890000000000
31
0.0
0
LINE
5
52a
100
AcDbEntity
8
0-000
6
CONTINUOUS
62
3
100
AcDbLine
10
83.620000000000
20
134.110000000000
30
0.0
11
151.940000000000
21
139.390000000000
31
0.0
0
LINE
5
52b
100
AcDbEntity
8
0-000
6
CONTINUOUS
62
3
100
AcDbLine
10
172.180000000000
20
168.770000000000
30
0.0
11
169.620000000000
21
164.140000000000
31
0.0
0
LINE
5
52c
100
AcDbEntity
8
0-000
6
CONTINUOUS
62
3
100
AcDbLine
10
172.180000000000
20
168.770000000000
30
0.0
11
171.740000000000
21
169.010000000000
31
0.0
0
LINE
5
52d
100
AcDbEntity
8
0-000
6
CONTINUOUS
62
4
100
AcDbLine
10
210.590000000000
20
182.870000000000
30
0.0
11
210.510000000000
21
182.950000000000
31
0.0
0
LINE
5
52e
100
AcDbEntity
8
0-000
6
CONTINUOUS
62
4
100
AcDbLine
10
205.100000000000
20
187.750000000000
30
0.0
11
188.100000000000
21
187.750000000000
31
0.0
0
LINE
5
52f
100
AcDbEntity
8
0-000
6
CONTINUOUS
62
4
100
AcDbLine
10
211.100000000000
20
184.350000000000
30
0.0
11
209.000000000000
21
185.320000000000
31
0.0
0
LINE
5
530
100
AcDbEntity
8
0-000
6
CONTINUOUS
62
4
100
AcDbLine
10
209.000000000000
20
185.320000000000
30
0.0
11
184.200000000000
21
185.320000000000
31
0.0
0
LINE
5
531
100
AcDbEntity
8
0-000
6
CONTINUOUS
62
4
100
AcDbLine
10
184.200000000000
20
185.320000000000
30
0.0
11
182.100000000000
21
184.350000000000
31
0.0
0
LINE
5
532
100
AcDbEntity
8
0-000
6
CONTINUOUS
62
4
100
AcDbLine
10
210.600000000000
20
182.950000000000
30
0.0
11
182.600000000000
21
182.950000000000
31
0.0
0
LINE
5
533
100
AcDbEntity
8
0-000
6
CONTINUOUS
62
4
100
AcDbLine
10
210.600000000000
20
182.950000000000
30
0.0
11
211.100000000000
21
184.350000000000
31
0.0
0
LINE
5
534
100
AcDbEntity
8
0-000
6
CONTINUOUS
62
4
100
AcDbLine
10
211.100000000000
20
184.350000000000
30
0.0
11
182.100000000000
21
184.350000000000
31
0.0
0
LINE
5
535
100
AcDbEntity
8
0-000
6
CONTINUOUS
62
4
100
AcDbLine
10
182.100000000000
20
184.350000000000
30
0.0
11
182.600000000000
21
182.950000000000
31
0.0
0
LINE
5
536
100
AcDbEntity
8
0-000
6
CONTINUOUS
62
4
100
AcDbLine
10
203.100000000000
20
187.750000000000
30
0.0
11
203.100000000000
21
193.850000000000
31
0.0
0
LINE
5
537
100
AcDbEntity
8
0-000
6
CONTINUOUS
62
4
100
AcDbLine
10
190.100000000000
20
193.850000000000
30
0.0
11
190.100000000000
21
187.750000000000
31
0.0
0
LINE
5
538
100
AcDbEntity
8
0-000
6
CONTINUOUS
62
4
100
AcDbLine
10
190.100000000000
20
187.750000000000
30
0.0
11
203.100000000000
21
187.750000000000
31
0.0
0
LINE
5
539
100
AcDbEntity
8
0-000
6
CONTINUOUS
62
4
100
AcDbLine
10
201.610000000000
20
194.250000000000
30
0.0
11
191.590000000000
21
194.250000000000
31
0.0
0
LINE
5
53a
100
AcDbEntity
8
0-000
6
CONTINUOUS
62
4
100
AcDbLine
10
200.120000000000
20
193.850000000000
30
0.0
11
200.120000000000
21
187.750000000000
31
0.0
0
LINE
5
53b
100
AcDbEntity
8
0-000
6
CONTINUOUS
62
4
100
AcDbLine
10
193.080000000000
20
187.750000000000
30
0.0
11
193.080000000000
21
193.850000000000
31
0.0
0
LINE
5
53c
100
AcDbEntity
8
0-000
6
CONTINUOUS
62
4
100
AcDbLine
10
201.520000000000
20
194.250000000000
30
0.0
11
199.600000000000
21
194.250000000000
31
0.0
0
LINE
5
53d
100
AcDbEntity
8
0-000
6
CONTINUOUS
62
4
100
AcDbLine
10
193.600000000000
20
194.250000000000
30
0.0
11
191.620000000000
21
194.250000000000
31
0.0
0
LINE
5
53e
100
AcDbEntity
8
0-000
6
CONTINUOUS
62
4
100
AcDbLine
10
182.600000000000
20
182.950000000000
30
0.0
11
182.600000000000
21
180.950000000000
31
0.0
0
LINE
5
53f
100
AcDbEntity
8
0-000
6
CONTINUOUS
62
4
100
AcDbLine
10
182.690000000000
20
180.950000000000
30
0.0
11
184.690000000000
21
182.950000000000
31
0.0
0
LINE
5
540
100
AcDbEntity
8
0-000
6
CONTINUOUS
62
4
100
AcDbLine
10
182.810000000000
20
180.950000000000
30
0.0
11
182.590000000000
21
181.170000000000
31
0.0
0
LINE
5
541
100
AcDbEntity
8
0-000
6
CONTINUOUS
62
4
100
AcDbLine
10
184.930000000000
20
180.950000000000
30
0.0
11
182.940000000000
21
182.950000000000
31
0.0
0
LINE
5
542
100
AcDbEntity
8
0-000
6
CONTINUOUS
62
4
100
AcDbLine
10
184.810000000000
20
180.950000000000
30
0.0
11
186.810000000000
21
182.950000000000
31
0.0
0
LINE
5
543
100
AcDbEntity
8
0-000
6
CONTINUOUS
62
4
100
AcDbLine
10
187.050000000000
20
180.950000000000
30
0.0
11
185.060000000000
21
182.950000000000
31
0.0
0
LINE
5
544
100
AcDbEntity
8
0-000
6
CONTINUOUS
62
4
100
AcDbLine
10
186.940000000000
20
180.950000000000
30
0.0
11
188.930000000000
21
182.950000000000
31
0.0
0
LINE
5
545
100
AcDbEntity
8
0-000
6
CONTINUOUS
62
4
100
AcDbLine
10
189.170000000000
20
180.950000000000
30
0.0
11
187.180000000000
21
182.950000000000
31
0.0
0
LINE
5
546
100
AcDbEntity
8
0-000
6
CONTINUOUS
62
4
100
AcDbLine
10
189.060000000000
20
180.950000000000
30
0.0
11
191.050000000000
21
182.950000000000
31
0.0
0
LINE
5
547
100
AcDbEntity
8
0-000
6
CONTINUOUS
62
4
100
AcDbLine
10
191.290000000000
20
180.950000000000
30
0.0
11
189.300000000000
21
182.950000000000
31
0.0
0
LINE
5
548
100
AcDbEntity
8
0-000
6
CONTINUOUS
62
4
100
AcDbLine
10
191.180000000000
20
180.950000000000
30
0.0
11
193.170000000000
21
182.950000000000
31
0.0
0
LINE
5
549
100
AcDbEntity
8
0-000
6
CONTINUOUS
62
4
100
AcDbLine
10
193.420000000000
20
180.950000000000
30
0.0
11
191.420000000000
21
182.950000000000
31
0.0
0
LINE
5
54a
100
AcDbEntity
8
0-000
6
CONTINUOUS
62
4
100
AcDbLine
10
193.300000000000
20
180.950000000000
30
0.0
11
195.290000000000
21
182.950000000000
31
0.0
0
LINE
5
54b
100
AcDbEntity
8
0-000
6
CONTINUOUS
62
4
100
AcDbLine
10
195.540000000000
20
180.950000000000
30
0.0
11
193.540000000000
21
182.950000000000
31
0.0
0
LINE
5
54c
100
AcDbEntity
8
0-000
6
CONTINUOUS
62
4
100
AcDbLine
10
195.420000000000
20
180.950000000000
30
0.0
11
197.420000000000
21
182.950000000000
31
0.0
0
LINE
5
54d
100
AcDbEntity
8
0-000
6
CONTINUOUS
62
4
100
AcDbLine
10
197.660000000000
20
180.950000000000
30
0.0
11
195.660000000000
21
182.950000000000
31
0.0
0
LINE
5
54e
100
AcDbEntity
8
0-000
6
CONTINUOUS
62
4
100
AcDbLine
10
197.540000000000
20
180.950000000000
30
0.0
11
199.540000000000
21
182.950000000000
31
0.0
0
LINE
5
54f
100
AcDbEntity
8
0-000
6
CONTINUOUS
62
4
100
AcDbLine
10
199.780000000000
20
180.950000000000
30
0.0
11
197.780000000000
21
182.950000000000
31
0.0
0
LINE
5
550
100
AcDbEntity
8
0-000
6
CONTINUOUS
62
4
100
AcDbLine
10
199.660000000000
20
180.950000000000
30
0.0
11
201.660000000000
21
182.950000000000
31
0.0
0
LINE
5
551
100
AcDbEntity
8
0-000
6
CONTINUOUS
62
4
100
AcDbLine
10
201.900000000000
20
180.950000000000
30
0.0
11
199.910000000000
21
182.950000000000
31
0.0
0
LINE
5
552
100
AcDbEntity
8
0-000
6
CONTINUOUS
62
4
100
AcDbLine
10
201.780000000000
20
180.950000000000
30
0.0
11
203.780000000000
21
182.950000000000
31
0.0
0
LINE
5
553
100
AcDbEntity
8
0-000
6
CONTINUOUS
62
4
100
AcDbLine
10
204.020000000000
20
180.950000000000
30
0.0
11
202.030000000000
21
182.950000000000
31
0.0
0
LINE
5
554
100
AcDbEntity
8
0-000
6
CONTINUOUS
62
4
100
AcDbLine
10
203.910000000000
20
180.950000000000
30
0.0
11
205.900000000000
21
182.950000000000
31
0.0
0
LINE
5
555
100
AcDbEntity
8
0-000
6
CONTINUOUS
62
4
100
AcDbLine
10
206.140000000000
20
180.950000000000
30
0.0
11
204.150000000000
21
182.950000000000
31
0.0
0
LINE
5
556
100
AcDbEntity
8
0-000
6
CONTINUOUS
62
4
100
AcDbLine
10
206.030000000000
20
180.950000000000
30
0.0
11
208.020000000000
21
182.950000000000
31
0.0
0
LINE
5
557
100
AcDbEntity
8
0-000
6
CONTINUOUS
62
4
100
AcDbLine
10
208.260000000000
20
180.950000000000
30
0.0
11
206.270000000000
21
182.950000000000
31
0.0
0
LINE
5
558
100
AcDbEntity
8
0-000
6
CONTINUOUS
62
4
100
AcDbLine
10
208.150000000000
20
180.950000000000
30
0.0
11
210.140000000000
21
182.950000000000
31
0.0
0
LINE
5
559
100
AcDbEntity
8
0-000
6
CONTINUOUS
62
4
100
AcDbLine
10
210.390000000000
20
180.950000000000
30
0.0
11
208.390000000000
21
182.950000000000
31
0.0
0
LINE
5
55a
100
AcDbEntity
8
0-000
6
CONTINUOUS
62
4
100
AcDbLine
10
210.600000000000
20
180.950000000000
30
0.0
11
210.600000000000
21
182.950000000000
31
0.0
0
LINE
5
55b
100
AcDbEntity
8
0-000
6
CONTINUOUS
62
4
100
AcDbLine
10
210.270000000000
20
180.950000000000
30
0.0
11
210.590000000000
21
181.280000000000
31
0.0
0
LINE
5
55c
100
AcDbEntity
8
0-000
6
CONTINUOUS
62
4
100
AcDbLine
10
192.920000000000
20
97.040000000000
30
0.0
11
194.040000000000
21
96.390000000000
31
0.0
0
LINE
5
55d
100
AcDbEntity
8
0-000
6
CONTINUOUS
62
4
100
AcDbLine
10
192.920000000000
20
97.210000000000
30
0.0
11
194.040000000000
21
97.860000000000
31
0.0
0
LINE
5
55e
100
AcDbEntity
8
0-000
6
CONTINUOUS
62
4
100
AcDbLine
10
194.040000000000
20
97.860000000000
30
0.0
11
194.040000000000
21
98.820000000000
31
0.0
0
LINE
5
55f
100
AcDbEntity
8
0-000
6
CONTINUOUS
62
4
100
AcDbLine
10
200.160000000000
20
95.990000000000
30
0.0
11
200.160000000000
21
95.820000000000
31
0.0
0
LINE
5
560
100
AcDbEntity
8
0-000
6
CONTINUOUS
62
4
100
AcDbLine
10
200.160000000000
20
95.990000000000
30
0.0
11
199.040000000000
21
96.640000000000
31
0.0
0
LINE
5
561
100
AcDbEntity
8
0-000
6
CONTINUOUS
62
4
100
AcDbLine
10
200.160000000000
20
95.820000000000
30
0.0
11
199.040000000000
21
95.170000000000
31
0.0
0
LINE
5
562
100
AcDbEntity
8
0-000
6
CONTINUOUS
62
4
100
AcDbLine
10
199.040000000000
20
97.610000000000
30
0.0
11
199.040000000000
21
96.640000000000
31
0.0
0
LINE
5
563
100
AcDbEntity
8
0-000
6
CONTINUOUS
62
4
100
AcDbLine
10
199.040000000000
20
95.170000000000
30
0.0
11
194.040000000000
21
96.390000000000
31
0.0
0
LINE
5
564
100
AcDbEntity
8
0-000
6
CONTINUOUS
62
4
100
AcDbLine
10
199.040000000000
20
96.640000000000
30
0.0
11
194.040000000000
21
97.860000000000
31
0.0
0
LINE
5
565
100
AcDbEntity
8
0-000
6
CONTINUOUS
62
4
100
AcDbLine
10
200.160000000000
20
95.820000000000
30
0.0
11
192.920000000000
21
97.040000000000
31
0.0
0
LINE
5
566
100
AcDbEntity
8
0-000
6
CONTINUOUS
62
4
100
AcDbLine
10
192.920000000000
20
97.210000000000
30
0.0
11
200.160000000000
21
95.990000000000
31
0.0
0
LINE
5
567
100
AcDbEntity
8
0-000
6
CONTINUOUS
62
4
100
AcDbLine
10
200.160000000000
20
98.420000000000
30
0.0
11
200.160000000000
21
98.250000000000
31
0.0
0
LINE
5
568
100
AcDbEntity
8
0-000
6
CONTINUOUS
62
4
100
AcDbLine
10
200.160000000000
20
98.420000000000
30
0.0
11
199.040000000000
21
99.070000000000
31
0.0
0
LINE
5
569
100
AcDbEntity
8
0-000
6
CONTINUOUS
62
4
100
AcDbLine
10
200.160000000000
20
98.250000000000
30
0.0
11
199.040000000000
21
97.610000000000
31
0.0
0
LINE
5
56a
100
AcDbEntity
8
0-000
6
CONTINUOUS
62
4
100
AcDbLine
10
199.040000000000
20
100.040000000000
30
0.0
11
199.040000000000
21
99.070000000000
31
0.0
0
LINE
5
56b
100
AcDbEntity
8
0-000
6
CONTINUOUS
62
4
100
AcDbLine
10
192.920000000000
20
99.470000000000
30
0.0
11
192.920000000000
21
99.640000000000
31
0.0
0
LINE
5
56c
100
AcDbEntity
8
0-000
6
CONTINUOUS
62
4
100
AcDbLine
10
199.040000000000
20
97.610000000000
30
0.0
11
194.040000000000
21
98.820000000000
31
0.0
0
LINE
5
56d
100
AcDbEntity
8
0-000
6
CONTINUOUS
62
4
100
AcDbLine
10
199.040000000000
20
99.070000000000
30
0.0
11
194.040000000000
21
100.290000000000
31
0.0
0
LINE
5
56e
100
AcDbEntity
8
0-000
6
CONTINUOUS
62
4
100
AcDbLine
10
192.920000000000
20
99.470000000000
30
0.0
11
194.040000000000
21
98.820000000000
31
0.0
0
LINE
5
56f
100
AcDbEntity
8
0-000
6
CONTINUOUS
62
4
100
AcDbLine
10
192.920000000000
20
99.640000000000
30
0.0
11
194.040000000000
21
100.290000000000
31
0.0
0
LINE
5
570
100
AcDbEntity
8
0-000
6
CONTINUOUS
62
4
100
AcDbLine
10
200.160000000000
20
98.250000000000
30
0.0
11
192.920000000000
21
99.470000000000
31
0.0
0
LINE
5
571
100
AcDbEntity
8
0-000
6
CONTINUOUS
62
4
100
AcDbLine
10
192.920000000000
20
99.640000000000
30
0.0
11
200.160000000000
21
98.420000000000
31
0.0
0
LINE
5
572
100
AcDbEntity
8
0-000
6
CONTINUOUS
62
4
100
AcDbLine
10
194.040000000000
20
100.290000000000
30
0.0
11
194.040000000000
21
101.250000000000
31
0.0
0
LINE
5
573
100
AcDbEntity
8
0-000
6
CONTINUOUS
62
4
100
AcDbLine
10
192.920000000000
20
97.210000000000
30
0.0
11
192.920000000000
21
97.040000000000
31
0.0
0
LINE
5
574
100
AcDbEntity
8
0-000
6
CONTINUOUS
62
4
100
AcDbLine
10
192.920000000000
20
101.900000000000
30
0.0
11
194.040000000000
21
101.250000000000
31
0.0
0
LINE
5
575
100
AcDbEntity
8
0-000
6
CONTINUOUS
62
4
100
AcDbLine
10
192.920000000000
20
102.070000000000
30
0.0
11
194.040000000000
21
102.720000000000
31
0.0
0
LINE
5
576
100
AcDbEntity
8
0-000
6
CONTINUOUS
62
4
100
AcDbLine
10
194.040000000000
20
102.720000000000
30
0.0
11
194.040000000000
21
103.680000000000
31
0.0
0
LINE
5
577
100
AcDbEntity
8
0-000
6
CONTINUOUS
62
4
100
AcDbLine
10
200.160000000000
20
100.860000000000
30
0.0
11
200.160000000000
21
100.680000000000
31
0.0
0
LINE
5
578
100
AcDbEntity
8
0-000
6
CONTINUOUS
62
4
100
AcDbLine
10
200.160000000000
20
100.860000000000
30
0.0
11
199.040000000000
21
101.500000000000
31
0.0
0
LINE
5
579
100
AcDbEntity
8
0-000
6
CONTINUOUS
62
4
100
AcDbLine
10
200.160000000000
20
100.680000000000
30
0.0
11
199.040000000000
21
100.040000000000
31
0.0
0
LINE
5
57a
100
AcDbEntity
8
0-000
6
CONTINUOUS
62
4
100
AcDbLine
10
199.040000000000
20
102.470000000000
30
0.0
11
199.040000000000
21
101.500000000000
31
0.0
0
LINE
5
57b
100
AcDbEntity
8
0-000
6
CONTINUOUS
62
4
100
AcDbLine
10
199.040000000000
20
100.040000000000
30
0.0
11
194.040000000000
21
101.250000000000
31
0.0
0
LINE
5
57c
100
AcDbEntity
8
0-000
6
CONTINUOUS
62
4
100
AcDbLine
10
199.040000000000
20
101.500000000000
30
0.0
11
194.040000000000
21
102.720000000000
31
0.0
0
LINE
5
57d
100
AcDbEntity
8
0-000
6
CONTINUOUS
62
4
100
AcDbLine
10
200.160000000000
20
100.680000000000
30
0.0
11
192.920000000000
21
101.900000000000
31
0.0
0
LINE
5
57e
100
AcDbEntity
8
0-000
6
CONTINUOUS
62
4
100
AcDbLine
10
192.920000000000
20
102.070000000000
30
0.0
11
200.160000000000
21
100.860000000000
31
0.0
0
LINE
5
57f
100
AcDbEntity
8
0-000
6
CONTINUOUS
62
4
100
AcDbLine
10
200.160000000000
20
103.290000000000
30
0.0
11
200.160000000000
21
103.110000000000
31
0.0
0
LINE
5
580
100
AcDbEntity
8
0-000
6
CONTINUOUS
62
4
100
AcDbLine
10
200.160000000000
20
103.290000000000
30
0.0
11
199.040000000000
21
103.930000000000
31
0.0
0
LINE
5
581
100
AcDbEntity
8
0-000
6
CONTINUOUS
62
4
100
AcDbLine
10
200.160000000000
20
103.110000000000
30
0.0
11
199.040000000000
21
102.470000000000
31
0.0
0
LINE
5
582
100
AcDbEntity
8
0-000
6
CONTINUOUS
62
4
100
AcDbLine
10
192.920000000000
20
104.330000000000
30
0.0
11
192.920000000000
21
104.500000000000
31
0.0
0
LINE
5
583
100
AcDbEntity
8
0-000
6
CONTINUOUS
62
4
100
AcDbLine
10
199.040000000000
20
102.470000000000
30
0.0
11
194.040000000000
21
103.680000000000
31
0.0
0
LINE
5
584
100
AcDbEntity
8
0-000
6
CONTINUOUS
62
4
100
AcDbLine
10
199.040000000000
20
103.930000000000
30
0.0
11
194.040000000000
21
105.150000000000
31
0.0
0
LINE
5
585
100
AcDbEntity
8
0-000
6
CONTINUOUS
62
4
100
AcDbLine
10
192.920000000000
20
104.330000000000
30
0.0
11
194.040000000000
21
103.680000000000
31
0.0
0
LINE
5
586
100
AcDbEntity
8
0-000
6
CONTINUOUS
62
4
100
AcDbLine
10
192.920000000000
20
104.500000000000
30
0.0
11
194.040000000000
21
105.150000000000
31
0.0
0
LINE
5
587
100
AcDbEntity
8
0-000
6
CONTINUOUS
62
4
100
AcDbLine
10
200.160000000000
20
103.110000000000
30
0.0
11
192.920000000000
21
104.330000000000
31
0.0
0
LINE
5
588
100
AcDbEntity
8
0-000
6
CONTINUOUS
62
4
100
AcDbLine
10
192.920000000000
20
104.500000000000
30
0.0
11
200.160000000000
21
103.290000000000
31
0.0
0
LINE
5
589
100
AcDbEntity
8
0-000
6
CONTINUOUS
62
4
100
AcDbLine
10
192.920000000000
20
102.070000000000
30
0.0
11
192.920000000000
21
101.900000000000
31
0.0
0
LINE
5
58a
100
AcDbEntity
8
0-000
6
CONTINUOUS
62
4
100
AcDbLine
10
192.920000000000
20
92.170000000000
30
0.0
11
194.040000000000
21
91.530000000000
31
0.0
0
LINE
5
58b
100
AcDbEntity
8
0-000
6
CONTINUOUS
62
4
100
AcDbLine
10
192.920000000000
20
92.350000000000
30
0.0
11
194.040000000000
21
92.990000000000
31
0.0
0
LINE
5
58c
100
AcDbEntity
8
0-000
6
CONTINUOUS
62
4
100
AcDbLine
10
194.040000000000
20
92.990000000000
30
0.0
11
194.040000000000
21
93.960000000000
31
0.0
0
LINE
5
58d
100
AcDbEntity
8
0-000
6
CONTINUOUS
62
4
100
AcDbLine
10
200.160000000000
20
91.130000000000
30
0.0
11
200.160000000000
21
90.960000000000
31
0.0
0
LINE
5
58e
100
AcDbEntity
8
0-000
6
CONTINUOUS
62
4
100
AcDbLine
10
200.160000000000
20
91.130000000000
30
0.0
11
199.040000000000
21
91.780000000000
31
0.0
0
LINE
5
58f
100
AcDbEntity
8
0-000
6
CONTINUOUS
62
4
100
AcDbLine
10
200.160000000000
20
90.960000000000
30
0.0
11
199.040000000000
21
90.310000000000
31
0.0
0
LINE
5
590
100
AcDbEntity
8
0-000
6
CONTINUOUS
62
4
100
AcDbLine
10
199.040000000000
20
92.740000000000
30
0.0
11
199.040000000000
21
91.780000000000
31
0.0
0
LINE
5
591
100
AcDbEntity
8
0-000
6
CONTINUOUS
62
4
100
AcDbLine
10
199.040000000000
20
90.310000000000
30
0.0
11
194.040000000000
21
91.530000000000
31
0.0
0
LINE
5
592
100
AcDbEntity
8
0-000
6
CONTINUOUS
62
4
100
AcDbLine
10
199.040000000000
20
91.780000000000
30
0.0
11
194.040000000000
21
92.990000000000
31
0.0
0
LINE
5
593
100
AcDbEntity
8
0-000
6
CONTINUOUS
62
4
100
AcDbLine
10
200.160000000000
20
90.960000000000
30
0.0
11
192.920000000000
21
92.170000000000
31
0.0
0
LINE
5
594
100
AcDbEntity
8
0-000
6
CONTINUOUS
62
4
100
AcDbLine
10
192.920000000000
20
92.350000000000
30
0.0
11
200.160000000000
21
91.130000000000
31
0.0
0
LINE
5
595
100
AcDbEntity
8
0-000
6
CONTINUOUS
62
4
100
AcDbLine
10
200.160000000000
20
93.560000000000
30
0.0
11
200.160000000000
21
93.390000000000
31
0.0
0
LINE
5
596
100
AcDbEntity
8
0-000
6
CONTINUOUS
62
4
100
AcDbLine
10
200.160000000000
20
93.560000000000
30
0.0
11
199.040000000000
21
94.210000000000
31
0.0
0
LINE
5
597
100
AcDbEntity
8
0-000
6
CONTINUOUS
62
4
100
AcDbLine
10
200.160000000000
20
93.390000000000
30
0.0
11
199.040000000000
21
92.740000000000
31
0.0
0
LINE
5
598
100
AcDbEntity
8
0-000
6
CONTINUOUS
62
4
100
AcDbLine
10
199.040000000000
20
95.170000000000
30
0.0
11
199.040000000000
21
94.210000000000
31
0.0
0
LINE
5
599
100
AcDbEntity
8
0-000
6
CONTINUOUS
62
4
100
AcDbLine
10
192.920000000000
20
94.610000000000
30
0.0
11
192.920000000000
21
94.780000000000
31
0.0
0
LINE
5
59a
100
AcDbEntity
8
0-000
6
CONTINUOUS
62
4
100
AcDbLine
10
199.040000000000
20
92.740000000000
30
0.0
11
194.040000000000
21
93.960000000000
31
0.0
0
LINE
5
59b
100
AcDbEntity
8
0-000
6
CONTINUOUS
62
4
100
AcDbLine
10
199.040000000000
20
94.210000000000
30
0.0
11
194.040000000000
21
95.430000000000
31
0.0
0
LINE
5
59c
100
AcDbEntity
8
0-000
6
CONTINUOUS
62
4
100
AcDbLine
10
192.920000000000
20
94.610000000000
30
0.0
11
194.040000000000
21
93.960000000000
31
0.0
0
LINE
5
59d
100
AcDbEntity
8
0-000
6
CONTINUOUS
62
4
100
AcDbLine
10
192.920000000000
20
94.780000000000
30
0.0
11
194.040000000000
21
95.430000000000
31
0.0
0
LINE
5
59e
100
AcDbEntity
8
0-000
6
CONTINUOUS
62
4
100
AcDbLine
10
200.160000000000
20
93.390000000000
30
0.0
11
192.920000000000
21
94.610000000000
31
0.0
0
LINE
5
59f
100
AcDbEntity
8
0-000
6
CONTINUOUS
62
4
100
AcDbLine
10
192.920000000000
20
94.780000000000
30
0.0
11
200.160000000000
21
93.560000000000
31
0.0
0
LINE
5
5a0
100
AcDbEntity
8
0-000
6
CONTINUOUS
62
4
100
AcDbLine
10
194.040000000000
20
95.430000000000
30
0.0
11
194.040000000000
21
96.390000000000
31
0.0
0
LINE
5
5a1
100
AcDbEntity
8
0-000
6
CONTINUOUS
62
4
100
AcDbLine
10
192.920000000000
20
92.350000000000
30
0.0
11
192.920000000000
21
92.170000000000
31
0.0
0
LINE
5
5a2
100
AcDbEntity
8
0-000
6
CONTINUOUS
62
4
100
AcDbLine
10
199.040000000000
20
60.410000000000
30
0.0
11
198.510000000000
21
63.410000000000
31
0.0
0
LINE
5
5a3
100
AcDbEntity
8
0-000
6
CONTINUOUS
62
4
100
AcDbLine
10
196.540000000000
20
57.410000000000
30
0.0
11
195.740000000000
21
61.910000000000
31
0.0
0
LINE
5
5a4
100
AcDbEntity
8
0-000
6
CONTINUOUS
62
4
100
AcDbLine
10
196.540000000000
20
57.410000000000
30
0.0
11
199.040000000000
21
60.410000000000
31
0.0
0
LINE
5
5a5
100
AcDbEntity
8
0-000
6
CONTINUOUS
62
4
100
AcDbLine
10
194.040000000000
20
58.910000000000
30
0.0
11
196.540000000000
21
57.410000000000
31
0.0
0
LINE
5
5a6
100
AcDbEntity
8
0-000
6
CONTINUOUS
62
4
100
AcDbLine
10
199.040000000000
20
60.410000000000
30
0.0
11
198.510000000000
21
63.410000000000
31
0.0
0
LINE
5
5a7
100
AcDbEntity
8
0-000
6
CONTINUOUS
62
4
100
AcDbLine
10
196.540000000000
20
57.410000000000
30
0.0
11
195.740000000000
21
61.910000000000
31
0.0
0
LINE
5
5a8
100
AcDbEntity
8
0-000
6
CONTINUOUS
62
4
100
AcDbLine
10
196.540000000000
20
57.410000000000
30
0.0
11
199.040000000000
21
60.410000000000
31
0.0
0
LINE
5
5a9
100
AcDbEntity
8
0-000
6
CONTINUOUS
62
4
100
AcDbLine
10
194.040000000000
20
58.910000000000
30
0.0
11
196.540000000000
21
57.410000000000
31
0.0
0
LINE
5
5aa
100
AcDbEntity
8
0-000
6
CONTINUOUS
62
4
100
AcDbLine
10
192.920000000000
20
89.740000000000
30
0.0
11
194.040000000000
21
89.100000000000
31
0.0
0
LINE
5
5ab
100
AcDbEntity
8
0-000
6
CONTINUOUS
62
4
100
AcDbLine
10
192.920000000000
20
89.920000000000
30
0.0
11
194.040000000000
21
90.560000000000
31
0.0
0
LINE
5
5ac
100
AcDbEntity
8
0-000
6
CONTINUOUS
62
4
100
AcDbLine
10
194.040000000000
20
90.560000000000
30
0.0
11
194.040000000000
21
91.530000000000
31
0.0
0
LINE
5
5ad
100
AcDbEntity
8
0-000
6
CONTINUOUS
62
4
100
AcDbLine
10
200.160000000000
20
88.700000000000
30
0.0
11
200.160000000000
21
88.530000000000
31
0.0
0
LINE
5
5ae
100
AcDbEntity
8
0-000
6
CONTINUOUS
62
4
100
AcDbLine
10
200.160000000000
20
88.700000000000
30
0.0
11
199.040000000000
21
89.350000000000
31
0.0
0
LINE
5
5af
100
AcDbEntity
8
0-000
6
CONTINUOUS
62
4
100
AcDbLine
10
200.160000000000
20
88.530000000000
30
0.0
11
199.040000000000
21
87.880000000000
31
0.0
0
LINE
5
5b0
100
AcDbEntity
8
0-000
6
CONTINUOUS
62
4
100
AcDbLine
10
199.040000000000
20
90.310000000000
30
0.0
11
199.040000000000
21
89.350000000000
31
0.0
0
LINE
5
5b1
100
AcDbEntity
8
0-000
6
CONTINUOUS
62
4
100
AcDbLine
10
199.040000000000
20
87.880000000000
30
0.0
11
194.040000000000
21
89.100000000000
31
0.0
0
LINE
5
5b2
100
AcDbEntity
8
0-000
6
CONTINUOUS
62
4
100
AcDbLine
10
199.040000000000
20
89.350000000000
30
0.0
11
194.040000000000
21
90.560000000000
31
0.0
0
LINE
5
5b3
100
AcDbEntity
8
0-000
6
CONTINUOUS
62
4
100
AcDbLine
10
200.160000000000
20
88.530000000000
30
0.0
11
192.920000000000
21
89.740000000000
31
0.0
0
LINE
5
5b4
100
AcDbEntity
8
0-000
6
CONTINUOUS
62
4
100
AcDbLine
10
192.920000000000
20
89.920000000000
30
0.0
11
200.160000000000
21
88.700000000000
31
0.0
0
LINE
5
5b5
100
AcDbEntity
8
0-000
6
CONTINUOUS
62
4
100
AcDbLine
10
192.920000000000
20
89.920000000000
30
0.0
11
192.920000000000
21
89.740000000000
31
0.0
0
LINE
5
5b6
100
AcDbEntity
8
0-000
6
CONTINUOUS
62
4
100
AcDbLine
10
192.920000000000
20
84.880000000000
30
0.0
11
194.040000000000
21
84.230000000000
31
0.0
0
LINE
5
5b7
100
AcDbEntity
8
0-000
6
CONTINUOUS
62
4
100
AcDbLine
10
192.920000000000
20
85.050000000000
30
0.0
11
194.040000000000
21
85.700000000000
31
0.0
0
LINE
5
5b8
100
AcDbEntity
8
0-000
6
CONTINUOUS
62
4
100
AcDbLine
10
194.040000000000
20
85.700000000000
30
0.0
11
194.040000000000
21
86.670000000000
31
0.0
0
LINE
5
5b9
100
AcDbEntity
8
0-000
6
CONTINUOUS
62
4
100
AcDbLine
10
200.160000000000
20
83.840000000000
30
0.0
11
200.160000000000
21
83.670000000000
31
0.0
0
LINE
5
5ba
100
AcDbEntity
8
0-000
6
CONTINUOUS
62
4
100
AcDbLine
10
200.160000000000
20
83.840000000000
30
0.0
11
199.040000000000
21
84.490000000000
31
0.0
0
LINE
5
5bb
100
AcDbEntity
8
0-000
6
CONTINUOUS
62
4
100
AcDbLine
10
200.160000000000
20
83.670000000000
30
0.0
11
199.040000000000
21
83.020000000000
31
0.0
0
LINE
5
5bc
100
AcDbEntity
8
0-000
6
CONTINUOUS
62
4
100
AcDbLine
10
199.040000000000
20
85.450000000000
30
0.0
11
199.040000000000
21
84.490000000000
31
0.0
0
LINE
5
5bd
100
AcDbEntity
8
0-000
6
CONTINUOUS
62
4
100
AcDbLine
10
199.040000000000
20
83.020000000000
30
0.0
11
194.040000000000
21
84.230000000000
31
0.0
0
LINE
5
5be
100
AcDbEntity
8
0-000
6
CONTINUOUS
62
4
100
AcDbLine
10
199.040000000000
20
84.490000000000
30
0.0
11
194.040000000000
21
85.700000000000
31
0.0
0
LINE
5
5bf
100
AcDbEntity
8
0-000
6
CONTINUOUS
62
4
100
AcDbLine
10
200.160000000000
20
83.670000000000
30
0.0
11
192.920000000000
21
84.880000000000
31
0.0
0
LINE
5
5c0
100
AcDbEntity
8
0-000
6
CONTINUOUS
62
4
100
AcDbLine
10
192.920000000000
20
85.050000000000
30
0.0
11
200.160000000000
21
83.840000000000
31
0.0
0
LINE
5
5c1
100
AcDbEntity
8
0-000
6
CONTINUOUS
62
4
100
AcDbLine
10
200.160000000000
20
86.270000000000
30
0.0
11
200.160000000000
21
86.100000000000
31
0.0
0
LINE
5
5c2
100
AcDbEntity
8
0-000
6
CONTINUOUS
62
4
100
AcDbLine
10
200.160000000000
20
86.270000000000
30
0.0
11
199.040000000000
21
86.920000000000
31
0.0
0
LINE
5
5c3
100
AcDbEntity
8
0-000
6
CONTINUOUS
62
4
100
AcDbLine
10
200.160000000000
20
86.100000000000
30
0.0
11
199.040000000000
21
85.450000000000
31
0.0
0
LINE
5
5c4
100
AcDbEntity
8
0-000
6
CONTINUOUS
62
4
100
AcDbLine
10
199.040000000000
20
87.880000000000
30
0.0
11
199.040000000000
21
86.920000000000
31
0.0
0
LINE
5
5c5
100
AcDbEntity
8
0-000
6
CONTINUOUS
62
4
100
AcDbLine
10
192.920000000000
20
87.310000000000
30
0.0
11
192.920000000000
21
87.480000000000
31
0.0
0
LINE
5
5c6
100
AcDbEntity
8
0-000
6
CONTINUOUS
62
4
100
AcDbLine
10
199.040000000000
20
85.450000000000
30
0.0
11
194.040000000000
21
86.670000000000
31
0.0
0
LINE
5
5c7
100
AcDbEntity
8
0-000
6
CONTINUOUS
62
4
100
AcDbLine
10
199.040000000000
20
86.920000000000
30
0.0
11
194.040000000000
21
88.130000000000
31
0.0
0
LINE
5
5c8
100
AcDbEntity
8
0-000
6
CONTINUOUS
62
4
100
AcDbLine
10
192.920000000000
20
87.310000000000
30
0.0
11
194.040000000000
21
86.670000000000
31
0.0
0
LINE
5
5c9
100
AcDbEntity
8
0-000
6
CONTINUOUS
62
4
100
AcDbLine
10
192.920000000000
20
87.480000000000
30
0.0
11
194.040000000000
21
88.130000000000
31
0.0
0
LINE
5
5ca
100
AcDbEntity
8
0-000
6
CONTINUOUS
62
4
100
AcDbLine
10
200.160000000000
20
86.100000000000
30
0.0
11
192.920000000000
21
87.310000000000
31
0.0
0
LINE
5
5cb
100
AcDbEntity
8
0-000
6
CONTINUOUS
62
4
100
AcDbLine
10
192.920000000000
20
87.480000000000
30
0.0
11
200.160000000000
21
86.270000000000
31
0.0
0
LINE
5
5cc
100
AcDbEntity
8
0-000
6
CONTINUOUS
62
4
100
AcDbLine
10
194.040000000000
20
88.130000000000
30
0.0
11
194.040000000000
21
89.100000000000
31
0.0
0
LINE
5
5cd
100
AcDbEntity
8
0-000
6
CONTINUOUS
62
4
100
AcDbLine
10
192.920000000000
20
85.050000000000
30
0.0
11
192.920000000000
21
84.880000000000
31
0.0
0
LINE
5
5ce
100
AcDbEntity
8
0-000
6
CONTINUOUS
62
4
100
AcDbLine
10
192.920000000000
20
82.450000000000
30
0.0
11
194.040000000000
21
81.800000000000
31
0.0
0
LINE
5
5cf
100
AcDbEntity
8
0-000
6
CONTINUOUS
62
4
100
AcDbLine
10
192.920000000000
20
82.620000000000
30
0.0
11
194.040000000000
21
83.270000000000
31
0.0
0
LINE
5
5d0
100
AcDbEntity
8
0-000
6
CONTINUOUS
62
4
100
AcDbLine
10
194.040000000000
20
83.270000000000
30
0.0
11
194.040000000000
21
84.230000000000
31
0.0
0
LINE
5
5d1
100
AcDbEntity
8
0-000
6
CONTINUOUS
62
4
100
AcDbLine
10
200.160000000000
20
81.410000000000
30
0.0
11
200.160000000000
21
81.230000000000
31
0.0
0
LINE
5
5d2
100
AcDbEntity
8
0-000
6
CONTINUOUS
62
4
100
AcDbLine
10
200.160000000000
20
81.410000000000
30
0.0
11
199.040000000000
21
82.050000000000
31
0.0
0
LINE
5
5d3
100
AcDbEntity
8
0-000
6
CONTINUOUS
62
4
100
AcDbLine
10
200.160000000000
20
81.230000000000
30
0.0
11
199.040000000000
21
80.590000000000
31
0.0
0
LINE
5
5d4
100
AcDbEntity
8
0-000
6
CONTINUOUS
62
4
100
AcDbLine
10
199.040000000000
20
83.020000000000
30
0.0
11
199.040000000000
21
82.050000000000
31
0.0
0
LINE
5
5d5
100
AcDbEntity
8
0-000
6
CONTINUOUS
62
4
100
AcDbLine
10
199.040000000000
20
80.590000000000
30
0.0
11
194.040000000000
21
81.800000000000
31
0.0
0
LINE
5
5d6
100
AcDbEntity
8
0-000
6
CONTINUOUS
62
4
100
AcDbLine
10
199.040000000000
20
82.050000000000
30
0.0
11
194.040000000000
21
83.270000000000
31
0.0
0
LINE
5
5d7
100
AcDbEntity
8
0-000
6
CONTINUOUS
62
4
100
AcDbLine
10
200.160000000000
20
81.230000000000
30
0.0
11
192.920000000000
21
82.450000000000
31
0.0
0
LINE
5
5d8
100
AcDbEntity
8
0-000
6
CONTINUOUS
62
4
100
AcDbLine
10
192.920000000000
20
82.620000000000
30
0.0
11
200.160000000000
21
81.410000000000
31
0.0
0
LINE
5
5d9
100
AcDbEntity
8
0-000
6
CONTINUOUS
62
4
100
AcDbLine
10
192.920000000000
20
82.620000000000
30
0.0
11
192.920000000000
21
82.450000000000
31
0.0
0
LINE
5
5da
100
AcDbEntity
8
0-000
6
CONTINUOUS
62
4
100
AcDbLine
10
192.920000000000
20
77.590000000000
30
0.0
11
194.040000000000
21
76.940000000000
31
0.0
0
LINE
5
5db
100
AcDbEntity
8
0-000
6
CONTINUOUS
62
4
100
AcDbLine
10
192.920000000000
20
77.760000000000
30
0.0
11
194.040000000000
21
78.410000000000
31
0.0
0
LINE
5
5dc
100
AcDbEntity
8
0-000
6
CONTINUOUS
62
4
100
AcDbLine
10
194.040000000000
20
78.410000000000
30
0.0
11
194.040000000000
21
79.370000000000
31
0.0
0
LINE
5
5dd
100
AcDbEntity
8
0-000
6
CONTINUOUS
62
4
100
AcDbLine
10
200.160000000000
20
76.550000000000
30
0.0
11
200.160000000000
21
76.370000000000
31
0.0
0
LINE
5
5de
100
AcDbEntity
8
0-000
6
CONTINUOUS
62
4
100
AcDbLine
10
200.160000000000
20
76.550000000000
30
0.0
11
199.040000000000
21
77.190000000000
31
0.0
0
LINE
5
5df
100
AcDbEntity
8
0-000
6
CONTINUOUS
62
4
100
AcDbLine
10
200.160000000000
20
76.370000000000
30
0.0
11
199.040000000000
21
75.730000000000
31
0.0
0
LINE
5
5e0
100
AcDbEntity
8
0-000
6
CONTINUOUS
62
4
100
AcDbLine
10
199.040000000000
20
78.160000000000
30
0.0
11
199.040000000000
21
77.190000000000
31
0.0
0
LINE
5
5e1
100
AcDbEntity
8
0-000
6
CONTINUOUS
62
4
100
AcDbLine
10
199.040000000000
20
75.730000000000
30
0.0
11
194.040000000000
21
76.940000000000
31
0.0
0
LINE
5
5e2
100
AcDbEntity
8
0-000
6
CONTINUOUS
62
4
100
AcDbLine
10
199.040000000000
20
77.190000000000
30
0.0
11
194.040000000000
21
78.410000000000
31
0.0
0
LINE
5
5e3
100
AcDbEntity
8
0-000
6
CONTINUOUS
62
4
100
AcDbLine
10
200.160000000000
20
76.370000000000
30
0.0
11
192.920000000000
21
77.590000000000
31
0.0
0
LINE
5
5e4
100
AcDbEntity
8
0-000
6
CONTINUOUS
62
4
100
AcDbLine
10
192.920000000000
20
77.760000000000
30
0.0
11
200.160000000000
21
76.550000000000
31
0.0
0
LINE
5
5e5
100
AcDbEntity
8
0-000
6
CONTINUOUS
62
4
100
AcDbLine
10
200.160000000000
20
78.980000000000
30
0.0
11
200.160000000000
21
78.800000000000
31
0.0
0
LINE
5
5e6
100
AcDbEntity
8
0-000
6
CONTINUOUS
62
4
100
AcDbLine
10
200.160000000000
20
78.980000000000
30
0.0
11
199.040000000000
21
79.620000000000
31
0.0
0
LINE
5
5e7
100
AcDbEntity
8
0-000
6
CONTINUOUS
62
4
100
AcDbLine
10
200.160000000000
20
78.800000000000
30
0.0
11
199.040000000000
21
78.160000000000
31
0.0
0
LINE
5
5e8
100
AcDbEntity
8
0-000
6
CONTINUOUS
62
4
100
AcDbLine
10
199.040000000000
20
80.590000000000
30
0.0
11
199.040000000000
21
79.620000000000
31
0.0
0
LINE
5
5e9
100
AcDbEntity
8
0-000
6
CONTINUOUS
62
4
100
AcDbLine
10
192.920000000000
20
80.020000000000
30
0.0
11
192.920000000000
21
80.190000000000
31
0.0
0
LINE
5
5ea
100
AcDbEntity
8
0-000
6
CONTINUOUS
62
4
100
AcDbLine
10
199.040000000000
20
78.160000000000
30
0.0
11
194.040000000000
21
79.370000000000
31
0.0
0
LINE
5
5eb
100
AcDbEntity
8
0-000
6
CONTINUOUS
62
4
100
AcDbLine
10
199.040000000000
20
79.620000000000
30
0.0
11
194.040000000000
21
80.840000000000
31
0.0
0
LINE
5
5ec
100
AcDbEntity
8
0-000
6
CONTINUOUS
62
4
100
AcDbLine
10
192.920000000000
20
80.020000000000
30
0.0
11
194.040000000000
21
79.370000000000
31
0.0
0
LINE
5
5ed
100
AcDbEntity
8
0-000
6
CONTINUOUS
62
4
100
AcDbLine
10
192.920000000000
20
80.190000000000
30
0.0
11
194.040000000000
21
80.840000000000
31
0.0
0
LINE
5
5ee
100
AcDbEntity
8
0-000
6
CONTINUOUS
62
4
100
AcDbLine
10
200.160000000000
20
78.800000000000
30
0.0
11
192.920000000000
21
80.020000000000
31
0.0
0
LINE
5
5ef
100
AcDbEntity
8
0-000
6
CONTINUOUS
62
4
100
AcDbLine
10
192.920000000000
20
80.190000000000
30
0.0
11
200.160000000000
21
78.980000000000
31
0.0
0
LINE
5
5f0
100
AcDbEntity
8
0-000
6
CONTINUOUS
62
4
100
AcDbLine
10
194.040000000000
20
80.840000000000
30
0.0
11
194.040000000000
21
81.800000000000
31
0.0
0
LINE
5
5f1
100
AcDbEntity
8
0-000
6
CONTINUOUS
62
4
100
AcDbLine
10
192.920000000000
20
77.760000000000
30
0.0
11
192.920000000000
21
77.590000000000
31
0.0
0
LINE
5
5f2
100
AcDbEntity
8
0-000
6
CONTINUOUS
62
4
100
AcDbLine
10
192.920000000000
20
75.160000000000
30
0.0
11
194.040000000000
21
74.510000000000
31
0.0
0
LINE
5
5f3
100
AcDbEntity
8
0-000
6
CONTINUOUS
62
4
100
AcDbLine
10
192.920000000000
20
75.330000000000
30
0.0
11
194.040000000000
21
75.980000000000
31
0.0
0
LINE
5
5f4
100
AcDbEntity
8
0-000
6
CONTINUOUS
62
4
100
AcDbLine
10
194.040000000000
20
75.980000000000
30
0.0
11
194.040000000000
21
76.940000000000
31
0.0
0
LINE
5
5f5
100
AcDbEntity
8
0-000
6
CONTINUOUS
62
4
100
AcDbLine
10
200.160000000000
20
74.110000000000
30
0.0
11
200.160000000000
21
73.940000000000
31
0.0
0
LINE
5
5f6
100
AcDbEntity
8
0-000
6
CONTINUOUS
62
4
100
AcDbLine
10
200.160000000000
20
74.110000000000
30
0.0
11
199.040000000000
21
74.760000000000
31
0.0
0
LINE
5
5f7
100
AcDbEntity
8
0-000
6
CONTINUOUS
62
4
100
AcDbLine
10
200.160000000000
20
73.940000000000
30
0.0
11
199.040000000000
21
73.290000000000
31
0.0
0
LINE
5
5f8
100
AcDbEntity
8
0-000
6
CONTINUOUS
62
4
100
AcDbLine
10
199.040000000000
20
75.730000000000
30
0.0
11
199.040000000000
21
74.760000000000
31
0.0
0
LINE
5
5f9
100
AcDbEntity
8
0-000
6
CONTINUOUS
62
4
100
AcDbLine
10
199.040000000000
20
73.290000000000
30
0.0
11
194.040000000000
21
74.510000000000
31
0.0
0
LINE
5
5fa
100
AcDbEntity
8
0-000
6
CONTINUOUS
62
4
100
AcDbLine
10
199.040000000000
20
74.760000000000
30
0.0
11
194.040000000000
21
75.980000000000
31
0.0
0
LINE
5
5fb
100
AcDbEntity
8
0-000
6
CONTINUOUS
62
4
100
AcDbLine
10
200.160000000000
20
73.940000000000
30
0.0
11
192.920000000000
21
75.160000000000
31
0.0
0
LINE
5
5fc
100
AcDbEntity
8
0-000
6
CONTINUOUS
62
4
100
AcDbLine
10
192.920000000000
20
75.330000000000
30
0.0
11
200.160000000000
21
74.110000000000
31
0.0
0
LINE
5
5fd
100
AcDbEntity
8
0-000
6
CONTINUOUS
62
4
100
AcDbLine
10
192.920000000000
20
75.330000000000
30
0.0
11
192.920000000000
21
75.160000000000
31
0.0
0
LINE
5
5fe
100
AcDbEntity
8
0-000
6
CONTINUOUS
62
4
100
AcDbLine
10
192.920000000000
20
70.300000000000
30
0.0
11
194.040000000000
21
69.650000000000
31
0.0
0
LINE
5
5ff
100
AcDbEntity
8
0-000
6
CONTINUOUS
62
4
100
AcDbLine
10
192.920000000000
20
70.470000000000
30
0.0
11
194.040000000000
21
71.110000000000
31
0.0
0
LINE
5
600
100
AcDbEntity
8
0-000
6
CONTINUOUS
62
4
100
AcDbLine
10
194.040000000000
20
71.110000000000
30
0.0
11
194.040000000000
21
72.080000000000
31
0.0
0
LINE
5
601
100
AcDbEntity
8
0-000
6
CONTINUOUS
62
4
100
AcDbLine
10
200.160000000000
20
69.250000000000
30
0.0
11
200.160000000000
21
69.080000000000
31
0.0
0
LINE
5
602
100
AcDbEntity
8
0-000
6
CONTINUOUS
62
4
100
AcDbLine
10
200.160000000000
20
69.250000000000
30
0.0
11
199.040000000000
21
69.900000000000
31
0.0
0
LINE
5
603
100
AcDbEntity
8
0-000
6
CONTINUOUS
62
4
100
AcDbLine
10
200.160000000000
20
69.080000000000
30
0.0
11
199.040000000000
21
68.430000000000
31
0.0
0
LINE
5
604
100
AcDbEntity
8
0-000
6
CONTINUOUS
62
4
100
AcDbLine
10
199.040000000000
20
70.860000000000
30
0.0
11
199.040000000000
21
69.900000000000
31
0.0
0
LINE
5
605
100
AcDbEntity
8
0-000
6
CONTINUOUS
62
4
100
AcDbLine
10
199.040000000000
20
68.430000000000
30
0.0
11
194.040000000000
21
69.650000000000
31
0.0
0
LINE
5
606
100
AcDbEntity
8
0-000
6
CONTINUOUS
62
4
100
AcDbLine
10
199.040000000000
20
69.900000000000
30
0.0
11
194.040000000000
21
71.110000000000
31
0.0
0
LINE
5
607
100
AcDbEntity
8
0-000
6
CONTINUOUS
62
4
100
AcDbLine
10
200.160000000000
20
69.080000000000
30
0.0
11
192.920000000000
21
70.300000000000
31
0.0
0
LINE
5
608
100
AcDbEntity
8
0-000
6
CONTINUOUS
62
4
100
AcDbLine
10
192.920000000000
20
70.470000000000
30
0.0
11
200.160000000000
21
69.250000000000
31
0.0
0
LINE
5
609
100
AcDbEntity
8
0-000
6
CONTINUOUS
62
4
100
AcDbLine
10
200.160000000000
20
71.680000000000
30
0.0
11
200.160000000000
21
71.510000000000
31
0.0
0
LINE
5
60a
100
AcDbEntity
8
0-000
6
CONTINUOUS
62
4
100
AcDbLine
10
200.160000000000
20
71.680000000000
30
0.0
11
199.040000000000
21
72.330000000000
31
0.0
0
LINE
5
60b
100
AcDbEntity
8
0-000
6
CONTINUOUS
62
4
100
AcDbLine
10
200.160000000000
20
71.510000000000
30
0.0
11
199.040000000000
21
70.860000000000
31
0.0
0
LINE
5
60c
100
AcDbEntity
8
0-000
6
CONTINUOUS
62
4
100
AcDbLine
10
199.040000000000
20
73.290000000000
30
0.0
11
199.040000000000
21
72.330000000000
31
0.0
0
LINE
5
60d
100
AcDbEntity
8
0-000
6
CONTINUOUS
62
4
100
AcDbLine
10
192.920000000000
20
72.730000000000
30
0.0
11
192.920000000000
21
72.900000000000
31
0.0
0
LINE
5
60e
100
AcDbEntity
8
0-000
6
CONTINUOUS
62
4
100
AcDbLine
10
199.040000000000
20
70.860000000000
30
0.0
11
194.040000000000
21
72.080000000000
31
0.0
0
LINE
5
60f
100
AcDbEntity
8
0-000
6
CONTINUOUS
62
4
100
AcDbLine
10
199.040000000000
20
72.330000000000
30
0.0
11
194.040000000000
21
73.550000000000
31
0.0
0
LINE
5
610
100
AcDbEntity
8
0-000
6
CONTINUOUS
62
4
100
AcDbLine
10
192.920000000000
20
72.730000000000
30
0.0
11
194.040000000000
21
72.080000000000
31
0.0
0
LINE
5
611
100
AcDbEntity
8
0-000
6
CONTINUOUS
62
4
100
AcDbLine
10
192.920000000000
20
72.900000000000
30
0.0
11
194.040000000000
21
73.550000000000
31
0.0
0
LINE
5
612
100
AcDbEntity
8
0-000
6
CONTINUOUS
62
4
100
AcDbLine
10
200.160000000000
20
71.510000000000
30
0.0
11
192.920000000000
21
72.730000000000
31
0.0
0
LINE
5
613
100
AcDbEntity
8
0-000
6
CONTINUOUS
62
4
100
AcDbLine
10
192.920000000000
20
72.900000000000
30
0.0
11
200.160000000000
21
71.680000000000
31
0.0
0
LINE
5
614
100
AcDbEntity
8
0-000
6
CONTINUOUS
62
4
100
AcDbLine
10
194.040000000000
20
73.550000000000
30
0.0
11
194.040000000000
21
74.510000000000
31
0.0
0
LINE
5
615
100
AcDbEntity
8
0-000
6
CONTINUOUS
62
4
100
AcDbLine
10
192.920000000000
20
70.470000000000
30
0.0
11
192.920000000000
21
70.300000000000
31
0.0
0
LINE
5
616
100
AcDbEntity
8
0-000
6
CONTINUOUS
62
4
100
AcDbLine
10
192.920000000000
20
67.860000000000
30
0.0
11
194.040000000000
21
67.220000000000
31
0.0
0
LINE
5
617
100
AcDbEntity
8
0-000
6
CONTINUOUS
62
4
100
AcDbLine
10
192.920000000000
20
68.040000000000
30
0.0
11
194.040000000000
21
68.680000000000
31
0.0
0
LINE
5
618
100
AcDbEntity
8
0-000
6
CONTINUOUS
62
4
100
AcDbLine
10
194.040000000000
20
68.680000000000
30
0.0
11
194.040000000000
21
69.650000000000
31
0.0
0
LINE
5
619
100
AcDbEntity
8
0-000
6
CONTINUOUS
62
4
100
AcDbLine
10
200.160000000000
20
66.820000000000
30
0.0
11
200.160000000000
21
66.650000000000
31
0.0
0
LINE
5
61a
100
AcDbEntity
8
0-000
6
CONTINUOUS
62
4
100
AcDbLine
10
200.160000000000
20
66.820000000000
30
0.0
11
199.040000000000
21
67.470000000000
31
0.0
0
LINE
5
61b
100
AcDbEntity
8
0-000
6
CONTINUOUS
62
4
100
AcDbLine
10
200.160000000000
20
66.650000000000
30
0.0
11
199.040000000000
21
66.000000000000
31
0.0
0
LINE
5
61c
100
AcDbEntity
8
0-000
6
CONTINUOUS
62
4
100
AcDbLine
10
199.040000000000
20
68.430000000000
30
0.0
11
199.040000000000
21
67.470000000000
31
0.0
0
LINE
5
61d
100
AcDbEntity
8
0-000
6
CONTINUOUS
62
4
100
AcDbLine
10
199.040000000000
20
66.000000000000
30
0.0
11
194.040000000000
21
67.220000000000
31
0.0
0
LINE
5
61e
100
AcDbEntity
8
0-000
6
CONTINUOUS
62
4
100
AcDbLine
10
199.040000000000
20
67.470000000000
30
0.0
11
194.040000000000
21
68.680000000000
31
0.0
0
LINE
5
61f
100
AcDbEntity
8
0-000
6
CONTINUOUS
62
4
100
AcDbLine
10
200.160000000000
20
66.650000000000
30
0.0
11
192.920000000000
21
67.860000000000
31
0.0
0
LINE
5
620
100
AcDbEntity
8
0-000
6
CONTINUOUS
62
4
100
AcDbLine
10
192.920000000000
20
68.040000000000
30
0.0
11
200.160000000000
21
66.820000000000
31
0.0
0
LINE
5
621
100
AcDbEntity
8
0-000
6
CONTINUOUS
62
4
100
AcDbLine
10
192.920000000000
20
68.040000000000
30
0.0
11
192.920000000000
21
67.860000000000
31
0.0
0
LINE
5
622
100
AcDbEntity
8
0-000
6
CONTINUOUS
62
4
100
AcDbLine
10
194.040000000000
20
63.820000000000
30
0.0
11
194.040000000000
21
64.790000000000
31
0.0
0
LINE
5
623
100
AcDbEntity
8
0-000
6
CONTINUOUS
62
4
100
AcDbLine
10
199.040000000000
20
63.570000000000
30
0.0
11
199.040000000000
21
62.610000000000
31
0.0
0
LINE
5
624
100
AcDbEntity
8
0-000
6
CONTINUOUS
62
4
100
AcDbLine
10
200.160000000000
20
64.390000000000
30
0.0
11
200.160000000000
21
64.220000000000
31
0.0
0
LINE
5
625
100
AcDbEntity
8
0-000
6
CONTINUOUS
62
4
100
AcDbLine
10
200.160000000000
20
64.390000000000
30
0.0
11
199.040000000000
21
65.040000000000
31
0.0
0
LINE
5
626
100
AcDbEntity
8
0-000
6
CONTINUOUS
62
4
100
AcDbLine
10
200.160000000000
20
64.220000000000
30
0.0
11
199.040000000000
21
63.570000000000
31
0.0
0
LINE
5
627
100
AcDbEntity
8
0-000
6
CONTINUOUS
62
4
100
AcDbLine
10
199.040000000000
20
66.000000000000
30
0.0
11
199.040000000000
21
65.040000000000
31
0.0
0
LINE
5
628
100
AcDbEntity
8
0-000
6
CONTINUOUS
62
4
100
AcDbLine
10
192.920000000000
20
65.430000000000
30
0.0
11
192.920000000000
21
65.610000000000
31
0.0
0
LINE
5
629
100
AcDbEntity
8
0-000
6
CONTINUOUS
62
4
100
AcDbLine
10
199.040000000000
20
63.570000000000
30
0.0
11
194.040000000000
21
64.790000000000
31
0.0
0
LINE
5
62a
100
AcDbEntity
8
0-000
6
CONTINUOUS
62
4
100
AcDbLine
10
199.040000000000
20
65.040000000000
30
0.0
11
194.040000000000
21
66.250000000000
31
0.0
0
LINE
5
62b
100
AcDbEntity
8
0-000
6
CONTINUOUS
62
4
100
AcDbLine
10
192.920000000000
20
65.430000000000
30
0.0
11
194.040000000000
21
64.790000000000
31
0.0
0
LINE
5
62c
100
AcDbEntity
8
0-000
6
CONTINUOUS
62
4
100
AcDbLine
10
192.920000000000
20
65.610000000000
30
0.0
11
194.040000000000
21
66.250000000000
31
0.0
0
LINE
5
62d
100
AcDbEntity
8
0-000
6
CONTINUOUS
62
4
100
AcDbLine
10
200.160000000000
20
64.220000000000
30
0.0
11
192.920000000000
21
65.430000000000
31
0.0
0
LINE
5
62e
100
AcDbEntity
8
0-000
6
CONTINUOUS
62
4
100
AcDbLine
10
192.920000000000
20
65.610000000000
30
0.0
11
200.160000000000
21
64.390000000000
31
0.0
0
LINE
5
62f
100
AcDbEntity
8
0-000
6
CONTINUOUS
62
4
100
AcDbLine
10
194.040000000000
20
66.250000000000
30
0.0
11
194.040000000000
21
67.220000000000
31
0.0
0
LINE
5
630
100
AcDbEntity
8
0-000
6
CONTINUOUS
62
4
100
AcDbLine
10
199.040000000000
20
60.410000000000
30
0.0
11
199.040000000000
21
63.570000000000
31
0.0
0
LINE
5
631
100
AcDbEntity
8
0-000
6
CONTINUOUS
62
4
100
AcDbLine
10
194.040000000000
20
64.790000000000
30
0.0
11
194.040000000000
21
58.910000000000
31
0.0
0
LINE
5
632
100
AcDbEntity
8
0-000
6
CONTINUOUS
62
4
100
AcDbLine
10
193.600000000000
20
104.900000000000
30
0.0
11
193.600000000000
21
179.450000000000
31
0.0
0
LINE
5
633
100
AcDbEntity
8
0-000
6
CONTINUOUS
62
4
100
AcDbLine
10
199.600000000000
20
179.450000000000
30
0.0
11
199.600000000000
21
103.610000000000
31
0.0
0
LINE
5
634
100
AcDbEntity
8
0-000
6
CONTINUOUS
62
4
100
AcDbLine
10
660.660000000000
20
182.120000000000
30
0.0
11
660.580000000000
21
182.200000000000
31
0.0
0
LINE
5
635
100
AcDbEntity
8
0-000
6
CONTINUOUS
62
4
100
AcDbLine
10
655.170000000000
20
187.000000000000
30
0.0
11
638.170000000000
21
187.000000000000
31
0.0
0
LINE
5
636
100
AcDbEntity
8
0-000
6
CONTINUOUS
62
4
100
AcDbLine
10
661.170000000000
20
183.600000000000
30
0.0
11
659.070000000000
21
184.570000000000
31
0.0
0
LINE
5
637
100
AcDbEntity
8
0-000
6
CONTINUOUS
62
4
100
AcDbLine
10
659.070000000000
20
184.570000000000
30
0.0
11
634.270000000000
21
184.570000000000
31
0.0
0
LINE
5
638
100
AcDbEntity
8
0-000
6
CONTINUOUS
62
4
100
AcDbLine
10
634.270000000000
20
184.570000000000
30
0.0
11
632.170000000000
21
183.600000000000
31
0.0
0
LINE
5
639
100
AcDbEntity
8
0-000
6
CONTINUOUS
62
4
100
AcDbLine
10
660.670000000000
20
182.200000000000
30
0.0
11
632.670000000000
21
182.200000000000
31
0.0
0
LINE
5
63a
100
AcDbEntity
8
0-000
6
CONTINUOUS
62
4
100
AcDbLine
10
660.670000000000
20
182.200000000000
30
0.0
11
661.170000000000
21
183.600000000000
31
0.0
0
LINE
5
63b
100
AcDbEntity
8
0-000
6
CONTINUOUS
62
4
100
AcDbLine
10
661.170000000000
20
183.600000000000
30
0.0
11
632.170000000000
21
183.600000000000
31
0.0
0
LINE
5
63c
100
AcDbEntity
8
0-000
6
CONTINUOUS
62
4
100
AcDbLine
10
632.170000000000
20
183.600000000000
30
0.0
11
632.670000000000
21
182.200000000000
31
0.0
0
LINE
5
63d
100
AcDbEntity
8
0-000
6
CONTINUOUS
62
4
100
AcDbLine
10
653.170000000000
20
187.000000000000
30
0.0
11
653.170000000000
21
193.100000000000
31
0.0
0
LINE
5
63e
100
AcDbEntity
8
0-000
6
CONTINUOUS
62
4
100
AcDbLine
10
640.170000000000
20
193.100000000000
30
0.0
11
640.170000000000
21
187.000000000000
31
0.0
0
LINE
5
63f
100
AcDbEntity
8
0-000
6
CONTINUOUS
62
4
100
AcDbLine
10
640.170000000000
20
187.000000000000
30
0.0
11
653.170000000000
21
187.000000000000
31
0.0
0
LINE
5
640
100
AcDbEntity
8
0-000
6
CONTINUOUS
62
4
100
AcDbLine
10
651.670000000000
20
193.500000000000
30
0.0
11
641.660000000000
21
193.500000000000
31
0.0
0
LINE
5
641
100
AcDbEntity
8
0-000
6
CONTINUOUS
62
4
100
AcDbLine
10
650.180000000000
20
193.100000000000
30
0.0
11
650.180000000000
21
187.000000000000
31
0.0
0
LINE
5
642
100
AcDbEntity
8
0-000
6
CONTINUOUS
62
4
100
AcDbLine
10
643.150000000000
20
187.000000000000
30
0.0
11
643.150000000000
21
193.100000000000
31
0.0
0
LINE
5
643
100
AcDbEntity
8
0-000
6
CONTINUOUS
62
4
100
AcDbLine
10
651.580000000000
20
193.500000000000
30
0.0
11
649.660000000000
21
193.500000000000
31
0.0
0
LINE
5
644
100
AcDbEntity
8
0-000
6
CONTINUOUS
62
4
100
AcDbLine
10
643.670000000000
20
193.500000000000
30
0.0
11
641.690000000000
21
193.500000000000
31
0.0
0
LINE
5
645
100
AcDbEntity
8
0-000
6
CONTINUOUS
62
4
100
AcDbLine
10
632.670000000000
20
182.200000000000
30
0.0
11
632.670000000000
21
180.200000000000
31
0.0
0
LINE
5
646
100
AcDbEntity
8
0-000
6
CONTINUOUS
62
4
100
AcDbLine
10
632.760000000000
20
180.200000000000
30
0.0
11
634.750000000000
21
182.200000000000
31
0.0
0
LINE
5
647
100
AcDbEntity
8
0-000
6
CONTINUOUS
62
4
100
AcDbLine
10
632.870000000000
20
180.200000000000
30
0.0
11
632.660000000000
21
180.420000000000
31
0.0
0
LINE
5
648
100
AcDbEntity
8
0-000
6
CONTINUOUS
62
4
100
AcDbLine
10
634.990000000000
20
180.200000000000
30
0.0
11
633.000000000000
21
182.200000000000
31
0.0
0
LINE
5
649
100
AcDbEntity
8
0-000
6
CONTINUOUS
62
4
100
AcDbLine
10
634.880000000000
20
180.200000000000
30
0.0
11
636.870000000000
21
182.200000000000
31
0.0
0
LINE
5
64a
100
AcDbEntity
8
0-000
6
CONTINUOUS
62
4
100
AcDbLine
10
637.120000000000
20
180.200000000000
30
0.0
11
635.120000000000
21
182.200000000000
31
0.0
0
LINE
5
64b
100
AcDbEntity
8
0-000
6
CONTINUOUS
62
4
100
AcDbLine
10
637.000000000000
20
180.200000000000
30
0.0
11
638.990000000000
21
182.200000000000
31
0.0
0
LINE
5
64c
100
AcDbEntity
8
0-000
6
CONTINUOUS
62
4
100
AcDbLine
10
639.240000000000
20
180.200000000000
30
0.0
11
637.240000000000
21
182.200000000000
31
0.0
0
LINE
5
64d
100
AcDbEntity
8
0-000
6
CONTINUOUS
62
4
100
AcDbLine
10
639.120000000000
20
180.200000000000
30
0.0
11
641.120000000000
21
182.200000000000
31
0.0
0
LINE
5
64e
100
AcDbEntity
8
0-000
6
CONTINUOUS
62
4
100
AcDbLine
10
641.360000000000
20
180.200000000000
30
0.0
11
639.360000000000
21
182.200000000000
31
0.0
0
LINE
5
64f
100
AcDbEntity
8
0-000
6
CONTINUOUS
62
4
100
AcDbLine
10
641.240000000000
20
180.200000000000
30
0.0
11
643.240000000000
21
182.200000000000
31
0.0
0
LINE
5
650
100
AcDbEntity
8
0-000
6
CONTINUOUS
62
4
100
AcDbLine
10
643.480000000000
20
180.200000000000
30
0.0
11
641.490000000000
21
182.200000000000
31
0.0
0
LINE
5
651
100
AcDbEntity
8
0-000
6
CONTINUOUS
62
4
100
AcDbLine
10
643.360000000000
20
180.200000000000
30
0.0
11
645.360000000000
21
182.200000000000
31
0.0
0
LINE
5
652
100
AcDbEntity
8
0-000
6
CONTINUOUS
62
4
100
AcDbLine
10
645.600000000000
20
180.200000000000
30
0.0
11
643.610000000000
21
182.200000000000
31
0.0
0
LINE
5
653
100
AcDbEntity
8
0-000
6
CONTINUOUS
62
4
100
AcDbLine
10
645.490000000000
20
180.200000000000
30
0.0
11
647.480000000000
21
182.200000000000
31
0.0
0
LINE
5
654
100
AcDbEntity
8
0-000
6
CONTINUOUS
62
4
100
AcDbLine
10
647.720000000000
20
180.200000000000
30
0.0
11
645.730000000000
21
182.200000000000
31
0.0
0
LINE
5
655
100
AcDbEntity
8
0-000
6
CONTINUOUS
62
4
100
AcDbLine
10
647.610000000000
20
180.200000000000
30
0.0
11
649.600000000000
21
182.200000000000
31
0.0
0
LINE
5
656
100
AcDbEntity
8
0-000
6
CONTINUOUS
62
4
100
AcDbLine
10
649.840000000000
20
180.200000000000
30
0.0
11
647.850000000000
21
182.200000000000
31
0.0
0
LINE
5
657
100
AcDbEntity
8
0-000
6
CONTINUOUS
62
4
100
AcDbLine
10
649.730000000000
20
180.200000000000
30
0.0
11
651.720000000000
21
182.200000000000
31
0.0
0
LINE
5
658
100
AcDbEntity
8
0-000
6
CONTINUOUS
62
4
100
AcDbLine
10
651.960000000000
20
180.200000000000
30
0.0
11
649.970000000000
21
182.200000000000
31
0.0
0
LINE
5
659
100
AcDbEntity
8
0-000
6
CONTINUOUS
62
4
100
AcDbLine
10
651.850000000000
20
180.200000000000
30
0.0
11
653.840000000000
21
182.200000000000
31
0.0
0
LINE
5
65a
100
AcDbEntity
8
0-000
6
CONTINUOUS
62
4
100
AcDbLine
10
654.090000000000
20
180.200000000000
30
0.0
11
652.090000000000
21
182.200000000000
31
0.0
0
LINE
5
65b
100
AcDbEntity
8
0-000
6
CONTINUOUS
62
4
100
AcDbLine
10
653.970000000000
20
180.200000000000
30
0.0
11
655.970000000000
21
182.200000000000
31
0.0
0
LINE
5
65c
100
AcDbEntity
8
0-000
6
CONTINUOUS
62
4
100
AcDbLine
10
656.210000000000
20
180.200000000000
30
0.0
11
654.210000000000
21
182.200000000000
31
0.0
0
LINE
5
65d
100
AcDbEntity
8
0-000
6
CONTINUOUS
62
4
100
AcDbLine
10
656.090000000000
20
180.200000000000
30
0.0
11
658.090000000000
21
182.200000000000
31
0.0
0
LINE
5
65e
100
AcDbEntity
8
0-000
6
CONTINUOUS
62
4
100
AcDbLine
10
658.330000000000
20
180.200000000000
30
0.0
11
656.330000000000
21
182.200000000000
31
0.0
0
LINE
5
65f
100
AcDbEntity
8
0-000
6
CONTINUOUS
62
4
100
AcDbLine
10
658.210000000000
20
180.200000000000
30
0.0
11
660.210000000000
21
182.200000000000
31
0.0
0
LINE
5
660
100
AcDbEntity
8
0-000
6
CONTINUOUS
62
4
100
AcDbLine
10
660.450000000000
20
180.200000000000
30
0.0
11
658.460000000000
21
182.200000000000
31
0.0
0
LINE
5
661
100
AcDbEntity
8
0-000
6
CONTINUOUS
62
4
100
AcDbLine
10
660.670000000000
20
180.200000000000
30
0.0
11
660.670000000000
21
182.200000000000
31
0.0
0
LINE
5
662
100
AcDbEntity
8
0-000
6
CONTINUOUS
62
4
100
AcDbLine
10
660.330000000000
20
180.200000000000
30
0.0
11
660.660000000000
21
180.530000000000
31
0.0
0
LINE
5
663
100
AcDbEntity
8
0-000
6
CONTINUOUS
62
4
100
AcDbLine
10
642.980000000000
20
96.290000000000
30
0.0
11
644.100000000000
21
95.640000000000
31
0.0
0
LINE
5
664
100
AcDbEntity
8
0-000
6
CONTINUOUS
62
4
100
AcDbLine
10
642.980000000000
20
96.460000000000
30
0.0
11
644.100000000000
21
97.110000000000
31
0.0
0
LINE
5
665
100
AcDbEntity
8
0-000
6
CONTINUOUS
62
4
100
AcDbLine
10
644.100000000000
20
97.110000000000
30
0.0
11
644.100000000000
21
98.070000000000
31
0.0
0
LINE
5
666
100
AcDbEntity
8
0-000
6
CONTINUOUS
62
4
100
AcDbLine
10
650.220000000000
20
95.240000000000
30
0.0
11
650.220000000000
21
95.070000000000
31
0.0
0
LINE
5
667
100
AcDbEntity
8
0-000
6
CONTINUOUS
62
4
100
AcDbLine
10
650.220000000000
20
95.240000000000
30
0.0
11
649.100000000000
21
95.890000000000
31
0.0
0
LINE
5
668
100
AcDbEntity
8
0-000
6
CONTINUOUS
62
4
100
AcDbLine
10
650.220000000000
20
95.070000000000
30
0.0
11
649.100000000000
21
94.420000000000
31
0.0
0
LINE
5
669
100
AcDbEntity
8
0-000
6
CONTINUOUS
62
4
100
AcDbLine
10
649.100000000000
20
96.860000000000
30
0.0
11
649.100000000000
21
95.890000000000
31
0.0
0
LINE
5
66a
100
AcDbEntity
8
0-000
6
CONTINUOUS
62
4
100
AcDbLine
10
649.100000000000
20
94.420000000000
30
0.0
11
644.100000000000
21
95.640000000000
31
0.0
0
LINE
5
66b
100
AcDbEntity
8
0-000
6
CONTINUOUS
62
4
100
AcDbLine
10
649.100000000000
20
95.890000000000
30
0.0
11
644.100000000000
21
97.110000000000
31
0.0
0
LINE
5
66c
100
AcDbEntity
8
0-000
6
CONTINUOUS
62
4
100
AcDbLine
10
650.220000000000
20
95.070000000000
30
0.0
11
642.980000000000
21
96.290000000000
31
0.0
0
LINE
5
66d
100
AcDbEntity
8
0-000
6
CONTINUOUS
62
4
100
AcDbLine
10
642.980000000000
20
96.460000000000
30
0.0
11
650.220000000000
21
95.240000000000
31
0.0
0
LINE
5
66e
100
AcDbEntity
8
0-000
6
CONTINUOUS
62
4
100
AcDbLine
10
650.220000000000
20
97.670000000000
30
0.0
11
650.220000000000
21
97.500000000000
31
0.0
0
LINE
5
66f
100
AcDbEntity
8
0-000
6
CONTINUOUS
62
4
100
AcDbLine
10
650.220000000000
20
97.670000000000
30
0.0
11
649.100000000000
21
98.320000000000
31
0.0
0
LINE
5
670
100
AcDbEntity
8
0-000
6
CONTINUOUS
62
4
100
AcDbLine
10
650.220000000000
20
97.500000000000
30
0.0
11
649.100000000000
21
96.860000000000
31
0.0
0
LINE
5
671
100
AcDbEntity
8
0-000
6
CONTINUOUS
62
4
100
AcDbLine
10
649.100000000000
20
99.290000000000
30
0.0
11
649.100000000000
21
98.320000000000
31
0.0
0
LINE
5
672
100
AcDbEntity
8
0-000
6
CONTINUOUS
62
4
100
AcDbLine
10
642.980000000000
20
98.720000000000
30
0.0
11
642.980000000000
21
98.890000000000
31
0.0
0
LINE
5
673
100
AcDbEntity
8
0-000
6
CONTINUOUS
62
4
100
AcDbLine
10
649.100000000000
20
96.860000000000
30
0.0
11
644.100000000000
21
98.070000000000
31
0.0
0
LINE
5
674
100
AcDbEntity
8
0-000
6
CONTINUOUS
62
4
100
AcDbLine
10
649.100000000000
20
98.320000000000
30
0.0
11
644.100000000000
21
99.540000000000
31
0.0
0
LINE
5
675
100
AcDbEntity
8
0-000
6
CONTINUOUS
62
4
100
AcDbLine
10
642.980000000000
20
98.720000000000
30
0.0
11
644.100000000000
21
98.070000000000
31
0.0
0
LINE
5
676
100
AcDbEntity
8
0-000
6
CONTINUOUS
62
4
100
AcDbLine
10
642.980000000000
20
98.890000000000
30
0.0
11
644.100000000000
21
99.540000000000
31
0.0
0
LINE
5
677
100
AcDbEntity
8
0-000
6
CONTINUOUS
62
4
100
AcDbLine
10
650.220000000000
20
97.500000000000
30
0.0
11
642.980000000000
21
98.720000000000
31
0.0
0
LINE
5
678
100
AcDbEntity
8
0-000
6
CONTINUOUS
62
4
100
AcDbLine
10
642.980000000000
20
98.890000000000
30
0.0
11
650.220000000000
21
97.670000000000
31
0.0
0
LINE
5
679
100
AcDbEntity
8
0-000
6
CONTINUOUS
62
4
100
AcDbLine
10
644.100000000000
20
99.540000000000
30
0.0
11
644.100000000000
21
100.500000000000
31
0.0
0
LINE
5
67a
100
AcDbEntity
8
0-000
6
CONTINUOUS
62
4
100
AcDbLine
10
642.980000000000
20
96.460000000000
30
0.0
11
642.980000000000
21
96.290000000000
31
0.0
0
LINE
5
67b
100
AcDbEntity
8
0-000
6
CONTINUOUS
62
4
100
AcDbLine
10
642.980000000000
20
101.150000000000
30
0.0
11
644.100000000000
21
100.500000000000
31
0.0
0
LINE
5
67c
100
AcDbEntity
8
0-000
6
CONTINUOUS
62
4
100
AcDbLine
10
642.980000000000
20
101.320000000000
30
0.0
11
644.100000000000
21
101.970000000000
31
0.0
0
LINE
5
67d
100
AcDbEntity
8
0-000
6
CONTINUOUS
62
4
100
AcDbLine
10
644.100000000000
20
101.970000000000
30
0.0
11
644.100000000000
21
102.930000000000
31
0.0
0
LINE
5
67e
100
AcDbEntity
8
0-000
6
CONTINUOUS
62
4
100
AcDbLine
10
650.220000000000
20
100.110000000000
30
0.0
11
650.220000000000
21
99.930000000000
31
0.0
0
LINE
5
67f
100
AcDbEntity
8
0-000
6
CONTINUOUS
62
4
100
AcDbLine
10
650.220000000000
20
100.110000000000
30
0.0
11
649.100000000000
21
100.750000000000
31
0.0
0
LINE
5
680
100
AcDbEntity
8
0-000
6
CONTINUOUS
62
4
100
AcDbLine
10
650.220000000000
20
99.930000000000
30
0.0
11
649.100000000000
21
99.290000000000
31
0.0
0
LINE
5
681
100
AcDbEntity
8
0-000
6
CONTINUOUS
62
4
100
AcDbLine
10
649.100000000000
20
101.720000000000
30
0.0
11
649.100000000000
21
100.750000000000
31
0.0
0
LINE
5
682
100
AcDbEntity
8
0-000
6
CONTINUOUS
62
4
100
AcDbLine
10
649.100000000000
20
99.290000000000
30
0.0
11
644.100000000000
21
100.500000000000
31
0.0
0
LINE
5
683
100
AcDbEntity
8
0-000
6
CONTINUOUS
62
4
100
AcDbLine
10
649.100000000000
20
100.750000000000
30
0.0
11
644.100000000000
21
101.970000000000
31
0.0
0
LINE
5
684
100
AcDbEntity
8
0-000
6
CONTINUOUS
62
4
100
AcDbLine
10
650.220000000000
20
99.930000000000
30
0.0
11
642.980000000000
21
101.150000000000
31
0.0
0
LINE
5
685
100
AcDbEntity
8
0-000
6
CONTINUOUS
62
4
100
AcDbLine
10
642.980000000000
20
101.320000000000
30
0.0
11
650.220000000000
21
100.110000000000
31
0.0
0
LINE
5
686
100
AcDbEntity
8
0-000
6
CONTINUOUS
62
4
100
AcDbLine
10
650.220000000000
20
102.540000000000
30
0.0
11
650.220000000000
21
102.360000000000
31
0.0
0
LINE
5
687
100
AcDbEntity
8
0-000
6
CONTINUOUS
62
4
100
AcDbLine
10
650.220000000000
20
102.540000000000
30
0.0
11
649.100000000000
21
103.180000000000
31
0.0
0
LINE
5
688
100
AcDbEntity
8
0-000
6
CONTINUOUS
62
4
100
AcDbLine
10
650.220000000000
20
102.360000000000
30
0.0
11
649.100000000000
21
101.720000000000
31
0.0
0
LINE
5
689
100
AcDbEntity
8
0-000
6
CONTINUOUS
62
4
100
AcDbLine
10
642.980000000000
20
103.580000000000
30
0.0
11
642.980000000000
21
103.750000000000
31
0.0
0
LINE
5
68a
100
AcDbEntity
8
0-000
6
CONTINUOUS
62
4
100
AcDbLine
10
649.100000000000
20
101.720000000000
30
0.0
11
644.100000000000
21
102.930000000000
31
0.0
0
LINE
5
68b
100
AcDbEntity
8
0-000
6
CONTINUOUS
62
4
100
AcDbLine
10
649.100000000000
20
103.180000000000
30
0.0
11
644.100000000000
21
104.400000000000
31
0.0
0
LINE
5
68c
100
AcDbEntity
8
0-000
6
CONTINUOUS
62
4
100
AcDbLine
10
642.980000000000
20
103.580000000000
30
0.0
11
644.100000000000
21
102.930000000000
31
0.0
0
LINE
5
68d
100
AcDbEntity
8
0-000
6
CONTINUOUS
62
4
100
AcDbLine
10
642.980000000000
20
103.750000000000
30
0.0
11
644.100000000000
21
104.400000000000
31
0.0
0
LINE
5
68e
100
AcDbEntity
8
0-000
6
CONTINUOUS
62
4
100
AcDbLine
10
650.220000000000
20
102.360000000000
30
0.0
11
642.980000000000
21
103.580000000000
31
0.0
0
LINE
5
68f
100
AcDbEntity
8
0-000
6
CONTINUOUS
62
4
100
AcDbLine
10
642.980000000000
20
103.750000000000
30
0.0
11
650.220000000000
21
102.540000000000
31
0.0
0
LINE
5
690
100
AcDbEntity
8
0-000
6
CONTINUOUS
62
4
100
AcDbLine
10
642.980000000000
20
101.320000000000
30
0.0
11
642.980000000000
21
101.150000000000
31
0.0
0
LINE
5
691
100
AcDbEntity
8
0-000
6
CONTINUOUS
62
4
100
AcDbLine
10
642.980000000000
20
91.420000000000
30
0.0
11
644.100000000000
21
90.780000000000
31
0.0
0
LINE
5
692
100
AcDbEntity
8
0-000
6
CONTINUOUS
62
4
100
AcDbLine
10
642.980000000000
20
91.600000000000
30
0.0
11
644.100000000000
21
92.240000000000
31
0.0
0
LINE
5
693
100
AcDbEntity
8
0-000
6
CONTINUOUS
62
4
100
AcDbLine
10
644.100000000000
20
92.240000000000
30
0.0
11
644.100000000000
21
93.210000000000
31
0.0
0
LINE
5
694
100
AcDbEntity
8
0-000
6
CONTINUOUS
62
4
100
AcDbLine
10
650.220000000000
20
90.380000000000
30
0.0
11
650.220000000000
21
90.210000000000
31
0.0
0
LINE
5
695
100
AcDbEntity
8
0-000
6
CONTINUOUS
62
4
100
AcDbLine
10
650.220000000000
20
90.380000000000
30
0.0
11
649.100000000000
21
91.030000000000
31
0.0
0
LINE
5
696
100
AcDbEntity
8
0-000
6
CONTINUOUS
62
4
100
AcDbLine
10
650.220000000000
20
90.210000000000
30
0.0
11
649.100000000000
21
89.560000000000
31
0.0
0
LINE
5
697
100
AcDbEntity
8
0-000
6
CONTINUOUS
62
4
100
AcDbLine
10
649.100000000000
20
91.990000000000
30
0.0
11
649.100000000000
21
91.030000000000
31
0.0
0
LINE
5
698
100
AcDbEntity
8
0-000
6
CONTINUOUS
62
4
100
AcDbLine
10
649.100000000000
20
89.560000000000
30
0.0
11
644.100000000000
21
90.780000000000
31
0.0
0
LINE
5
699
100
AcDbEntity
8
0-000
6
CONTINUOUS
62
4
100
AcDbLine
10
649.100000000000
20
91.030000000000
30
0.0
11
644.100000000000
21
92.240000000000
31
0.0
0
LINE
5
69a
100
AcDbEntity
8
0-000
6
CONTINUOUS
62
4
100
AcDbLine
10
650.220000000000
20
90.210000000000
30
0.0
11
642.980000000000
21
91.420000000000
31
0.0
0
LINE
5
69b
100
AcDbEntity
8
0-000
6
CONTINUOUS
62
4
100
AcDbLine
10
642.980000000000
20
91.600000000000
30
0.0
11
650.220000000000
21
90.380000000000
31
0.0
0
LINE
5
69c
100
AcDbEntity
8
0-000
6
CONTINUOUS
62
4
100
AcDbLine
10
650.220000000000
20
92.810000000000
30
0.0
11
650.220000000000
21
92.640000000000
31
0.0
0
LINE
5
69d
100
AcDbEntity
8
0-000
6
CONTINUOUS
62
4
100
AcDbLine
10
650.220000000000
20
92.810000000000
30
0.0
11
649.100000000000
21
93.460000000000
31
0.0
0
LINE
5
69e
100
AcDbEntity
8
0-000
6
CONTINUOUS
62
4
100
AcDbLine
10
650.220000000000
20
92.640000000000
30
0.0
11
649.100000000000
21
91.990000000000
31
0.0
0
LINE
5
69f
100
AcDbEntity
8
0-000
6
CONTINUOUS
62
4
100
AcDbLine
10
649.100000000000
20
94.420000000000
30
0.0
11
649.100000000000
21
93.460000000000
31
0.0
0
LINE
5
6a0
100
AcDbEntity
8
0-000
6
CONTINUOUS
62
4
100
AcDbLine
10
642.980000000000
20
93.860000000000
30
0.0
11
642.980000000000
21
94.030000000000
31
0.0
0
LINE
5
6a1
100
AcDbEntity
8
0-000
6
CONTINUOUS
62
4
100
AcDbLine
10
649.100000000000
20
91.990000000000
30
0.0
11
644.100000000000
21
93.210000000000
31
0.0
0
LINE
5
6a2
100
AcDbEntity
8
0-000
6
CONTINUOUS
62
4
100
AcDbLine
10
649.100000000000
20
93.460000000000
30
0.0
11
644.100000000000
21
94.680000000000
31
0.0
0
LINE
5
6a3
100
AcDbEntity
8
0-000
6
CONTINUOUS
62
4
100
AcDbLine
10
642.980000000000
20
93.860000000000
30
0.0
11
644.100000000000
21
93.210000000000
31
0.0
0
LINE
5
6a4
100
AcDbEntity
8
0-000
6
CONTINUOUS
62
4
100
AcDbLine
10
642.980000000000
20
94.030000000000
30
0.0
11
644.100000000000
21
94.680000000000
31
0.0
0
LINE
5
6a5
100
AcDbEntity
8
0-000
6
CONTINUOUS
62
4
100
AcDbLine
10
650.220000000000
20
92.640000000000
30
0.0
11
642.980000000000
21
93.860000000000
31
0.0
0
LINE
5
6a6
100
AcDbEntity
8
0-000
6
CONTINUOUS
62
4
100
AcDbLine
10
642.980000000000
20
94.030000000000
30
0.0
11
650.220000000000
21
92.810000000000
31
0.0
0
LINE
5
6a7
100
AcDbEntity
8
0-000
6
CONTINUOUS
62
4
100
AcDbLine
10
644.100000000000
20
94.680000000000
30
0.0
11
644.100000000000
21
95.640000000000
31
0.0
0
LINE
5
6a8
100
AcDbEntity
8
0-000
6
CONTINUOUS
62
4
100
AcDbLine
10
642.980000000000
20
91.600000000000
30
0.0
11
642.980000000000
21
91.420000000000
31
0.0
0
LINE
5
6a9
100
AcDbEntity
8
0-000
6
CONTINUOUS
62
4
100
AcDbLine
10
649.100000000000
20
59.660000000000
30
0.0
11
648.570000000000
21
62.660000000000
31
0.0
0
LINE
5
6aa
100
AcDbEntity
8
0-000
6
CONTINUOUS
62
4
100
AcDbLine
10
646.600000000000
20
56.660000000000
30
0.0
11
645.810000000000
21
61.160000000000
31
0.0
0
LINE
5
6ab
100
AcDbEntity
8
0-000
6
CONTINUOUS
62
4
100
AcDbLine
10
646.600000000000
20
56.660000000000
30
0.0
11
649.100000000000
21
59.660000000000
31
0.0
0
LINE
5
6ac
100
AcDbEntity
8
0-000
6
CONTINUOUS
62
4
100
AcDbLine
10
644.100000000000
20
58.160000000000
30
0.0
11
646.600000000000
21
56.660000000000
31
0.0
0
LINE
5
6ad
100
AcDbEntity
8
0-000
6
CONTINUOUS
62
4
100
AcDbLine
10
649.100000000000
20
59.660000000000
30
0.0
11
648.570000000000
21
62.660000000000
31
0.0
0
LINE
5
6ae
100
AcDbEntity
8
0-000
6
CONTINUOUS
62
4
100
AcDbLine
10
646.600000000000
20
56.660000000000
30
0.0
11
645.810000000000
21
61.160000000000
31
0.0
0
LINE
5
6af
100
AcDbEntity
8
0-000
6
CONTINUOUS
62
4
100
AcDbLine
10
646.600000000000
20
56.660000000000
30
0.0
11
649.100000000000
21
59.660000000000
31
0.0
0
LINE
5
6b0
100
AcDbEntity
8
0-000
6
CONTINUOUS
62
4
100
AcDbLine
10
644.100000000000
20
58.160000000000
30
0.0
11
646.600000000000
21
56.660000000000
31
0.0
0
LINE
5
6b1
100
AcDbEntity
8
0-000
6
CONTINUOUS
62
4
100
AcDbLine
10
642.980000000000
20
88.990000000000
30
0.0
11
644.100000000000
21
88.350000000000
31
0.0
0
LINE
5
6b2
100
AcDbEntity
8
0-000
6
CONTINUOUS
62
4
100
AcDbLine
10
642.980000000000
20
89.170000000000
30
0.0
11
644.100000000000
21
89.810000000000
31
0.0
0
LINE
5
6b3
100
AcDbEntity
8
0-000
6
CONTINUOUS
62
4
100
AcDbLine
10
644.100000000000
20
89.810000000000
30
0.0
11
644.100000000000
21
90.780000000000
31
0.0
0
LINE
5
6b4
100
AcDbEntity
8
0-000
6
CONTINUOUS
62
4
100
AcDbLine
10
650.220000000000
20
87.950000000000
30
0.0
11
650.220000000000
21
87.780000000000
31
0.0
0
LINE
5
6b5
100
AcDbEntity
8
0-000
6
CONTINUOUS
62
4
100
AcDbLine
10
650.220000000000
20
87.950000000000
30
0.0
11
649.100000000000
21
88.600000000000
31
0.0
0
LINE
5
6b6
100
AcDbEntity
8
0-000
6
CONTINUOUS
62
4
100
AcDbLine
10
650.220000000000
20
87.780000000000
30
0.0
11
649.100000000000
21
87.130000000000
31
0.0
0
LINE
5
6b7
100
AcDbEntity
8
0-000
6
CONTINUOUS
62
4
100
AcDbLine
10
649.100000000000
20
89.560000000000
30
0.0
11
649.100000000000
21
88.600000000000
31
0.0
0
LINE
5
6b8
100
AcDbEntity
8
0-000
6
CONTINUOUS
62
4
100
AcDbLine
10
649.100000000000
20
87.130000000000
30
0.0
11
644.100000000000
21
88.350000000000
31
0.0
0
LINE
5
6b9
100
AcDbEntity
8
0-000
6
CONTINUOUS
62
4
100
AcDbLine
10
649.100000000000
20
88.600000000000
30
0.0
11
644.100000000000
21
89.810000000000
31
0.0
0
LINE
5
6ba
100
AcDbEntity
8
0-000
6
CONTINUOUS
62
4
100
AcDbLine
10
650.220000000000
20
87.780000000000
30
0.0
11
642.980000000000
21
88.990000000000
31
0.0
0
LINE
5
6bb
100
AcDbEntity
8
0-000
6
CONTINUOUS
62
4
100
AcDbLine
10
642.980000000000
20
89.170000000000
30
0.0
11
650.220000000000
21
87.950000000000
31
0.0
0
LINE
5
6bc
100
AcDbEntity
8
0-000
6
CONTINUOUS
62
4
100
AcDbLine
10
642.980000000000
20
89.170000000000
30
0.0
11
642.980000000000
21
88.990000000000
31
0.0
0
LINE
5
6bd
100
AcDbEntity
8
0-000
6
CONTINUOUS
62
4
100
AcDbLine
10
642.980000000000
20
84.130000000000
30
0.0
11
644.100000000000
21
83.480000000000
31
0.0
0
LINE
5
6be
100
AcDbEntity
8
0-000
6
CONTINUOUS
62
4
100
AcDbLine
10
642.980000000000
20
84.300000000000
30
0.0
11
644.100000000000
21
84.950000000000
31
0.0
0
LINE
5
6bf
100
AcDbEntity
8
0-000
6
CONTINUOUS
62
4
100
AcDbLine
10
644.100000000000
20
84.950000000000
30
0.0
11
644.100000000000
21
85.920000000000
31
0.0
0
LINE
5
6c0
100
AcDbEntity
8
0-000
6
CONTINUOUS
62
4
100
AcDbLine
10
650.220000000000
20
83.090000000000
30
0.0
11
650.220000000000
21
82.920000000000
31
0.0
0
LINE
5
6c1
100
AcDbEntity
8
0-000
6
CONTINUOUS
62
4
100
AcDbLine
10
650.220000000000
20
83.090000000000
30
0.0
11
649.100000000000
21
83.740000000000
31
0.0
0
LINE
5
6c2
100
AcDbEntity
8
0-000
6
CONTINUOUS
62
4
100
AcDbLine
10
650.220000000000
20
82.920000000000
30
0.0
11
649.100000000000
21
82.270000000000
31
0.0
0
LINE
5
6c3
100
AcDbEntity
8
0-000
6
CONTINUOUS
62
4
100
AcDbLine
10
649.100000000000
20
84.700000000000
30
0.0
11
649.100000000000
21
83.740000000000
31
0.0
0
LINE
5
6c4
100
AcDbEntity
8
0-000
6
CONTINUOUS
62
4
100
AcDbLine
10
649.100000000000
20
82.270000000000
30
0.0
11
644.100000000000
21
83.480000000000
31
0.0
0
LINE
5
6c5
100
AcDbEntity
8
0-000
6
CONTINUOUS
62
4
100
AcDbLine
10
649.100000000000
20
83.740000000000
30
0.0
11
644.100000000000
21
84.950000000000
31
0.0
0
LINE
5
6c6
100
AcDbEntity
8
0-000
6
CONTINUOUS
62
4
100
AcDbLine
10
650.220000000000
20
82.920000000000
30
0.0
11
642.980000000000
21
84.130000000000
31
0.0
0
LINE
5
6c7
100
AcDbEntity
8
0-000
6
CONTINUOUS
62
4
100
AcDbLine
10
642.980000000000
20
84.300000000000
30
0.0
11
650.220000000000
21
83.090000000000
31
0.0
0
LINE
5
6c8
100
AcDbEntity
8
0-000
6
CONTINUOUS
62
4
100
AcDbLine
10
650.220000000000
20
85.520000000000
30
0.0
11
650.220000000000
21
85.350000000000
31
0.0
0
LINE
5
6c9
100
AcDbEntity
8
0-000
6
CONTINUOUS
62
4
100
AcDbLine
10
650.220000000000
20
85.520000000000
30
0.0
11
649.100000000000
21
86.170000000000
31
0.0
0
LINE
5
6ca
100
AcDbEntity
8
0-000
6
CONTINUOUS
62
4
100
AcDbLine
10
650.220000000000
20
85.350000000000
30
0.0
11
649.100000000000
21
84.700000000000
31
0.0
0
LINE
5
6cb
100
AcDbEntity
8
0-000
6
CONTINUOUS
62
4
100
AcDbLine
10
649.100000000000
20
87.130000000000
30
0.0
11
649.100000000000
21
86.170000000000
31
0.0
0
LINE
5
6cc
100
AcDbEntity
8
0-000
6
CONTINUOUS
62
4
100
AcDbLine
10
642.980000000000
20
86.560000000000
30
0.0
11
642.980000000000
21
86.730000000000
31
0.0
0
LINE
5
6cd
100
AcDbEntity
8
0-000
6
CONTINUOUS
62
4
100
AcDbLine
10
649.100000000000
20
84.700000000000
30
0.0
11
644.100000000000
21
85.920000000000
31
0.0
0
LINE
5
6ce
100
AcDbEntity
8
0-000
6
CONTINUOUS
62
4
100
AcDbLine
10
649.100000000000
20
86.170000000000
30
0.0
11
644.100000000000
21
87.380000000000
31
0.0
0
LINE
5
6cf
100
AcDbEntity
8
0-000
6
CONTINUOUS
62
4
100
AcDbLine
10
642.980000000000
20
86.560000000000
30
0.0
11
644.100000000000
21
85.920000000000
31
0.0
0
LINE
5
6d0
100
AcDbEntity
8
0-000
6
CONTINUOUS
62
4
100
AcDbLine
10
642.980000000000
20
86.730000000000
30
0.0
11
644.100000000000
21
87.380000000000
31
0.0
0
LINE
5
6d1
100
AcDbEntity
8
0-000
6
CONTINUOUS
62
4
100
AcDbLine
10
650.220000000000
20
85.350000000000
30
0.0
11
642.980000000000
21
86.560000000000
31
0.0
0
LINE
5
6d2
100
AcDbEntity
8
0-000
6
CONTINUOUS
62
4
100
AcDbLine
10
642.980000000000
20
86.730000000000
30
0.0
11
650.220000000000
21
85.520000000000
31
0.0
0
LINE
5
6d3
100
AcDbEntity
8
0-000
6
CONTINUOUS
62
4
100
AcDbLine
10
644.100000000000
20
87.380000000000
30
0.0
11
644.100000000000
21
88.350000000000
31
0.0
0
LINE
5
6d4
100
AcDbEntity
8
0-000
6
CONTINUOUS
62
4
100
AcDbLine
10
642.980000000000
20
84.300000000000
30
0.0
11
642.980000000000
21
84.130000000000
31
0.0
0
LINE
5
6d5
100
AcDbEntity
8
0-000
6
CONTINUOUS
62
4
100
AcDbLine
10
642.980000000000
20
81.700000000000
30
0.0
11
644.100000000000
21
81.050000000000
31
0.0
0
LINE
5
6d6
100
AcDbEntity
8
0-000
6
CONTINUOUS
62
4
100
AcDbLine
10
642.980000000000
20
81.870000000000
30
0.0
11
644.100000000000
21
82.520000000000
31
0.0
0
LINE
5
6d7
100
AcDbEntity
8
0-000
6
CONTINUOUS
62
4
100
AcDbLine
10
644.100000000000
20
82.520000000000
30
0.0
11
644.100000000000
21
83.480000000000
31
0.0
0
LINE
5
6d8
100
AcDbEntity
8
0-000
6
CONTINUOUS
62
4
100
AcDbLine
10
650.220000000000
20
80.660000000000
30
0.0
11
650.220000000000
21
80.480000000000
31
0.0
0
LINE
5
6d9
100
AcDbEntity
8
0-000
6
CONTINUOUS
62
4
100
AcDbLine
10
650.220000000000
20
80.660000000000
30
0.0
11
649.100000000000
21
81.300000000000
31
0.0
0
LINE
5
6da
100
AcDbEntity
8
0-000
6
CONTINUOUS
62
4
100
AcDbLine
10
650.220000000000
20
80.480000000000
30
0.0
11
649.100000000000
21
79.840000000000
31
0.0
0
LINE
5
6db
100
AcDbEntity
8
0-000
6
CONTINUOUS
62
4
100
AcDbLine
10
649.100000000000
20
82.270000000000
30
0.0
11
649.100000000000
21
81.300000000000
31
0.0
0
LINE
5
6dc
100
AcDbEntity
8
0-000
6
CONTINUOUS
62
4
100
AcDbLine
10
649.100000000000
20
79.840000000000
30
0.0
11
644.100000000000
21
81.050000000000
31
0.0
0
LINE
5
6dd
100
AcDbEntity
8
0-000
6
CONTINUOUS
62
4
100
AcDbLine
10
649.100000000000
20
81.300000000000
30
0.0
11
644.100000000000
21
82.520000000000
31
0.0
0
LINE
5
6de
100
AcDbEntity
8
0-000
6
CONTINUOUS
62
4
100
AcDbLine
10
650.220000000000
20
80.480000000000
30
0.0
11
642.980000000000
21
81.700000000000
31
0.0
0
LINE
5
6df
100
AcDbEntity
8
0-000
6
CONTINUOUS
62
4
100
AcDbLine
10
642.980000000000
20
81.870000000000
30
0.0
11
650.220000000000
21
80.660000000000
31
0.0
0
LINE
5
6e0
100
AcDbEntity
8
0-000
6
CONTINUOUS
62
4
100
AcDbLine
10
642.980000000000
20
81.870000000000
30
0.0
11
642.980000000000
21
81.700000000000
31
0.0
0
LINE
5
6e1
100
AcDbEntity
8
0-000
6
CONTINUOUS
62
4
100
AcDbLine
10
642.980000000000
20
76.840000000000
30
0.0
11
644.100000000000
21
76.190000000000
31
0.0
0
LINE
5
6e2
100
AcDbEntity
8
0-000
6
CONTINUOUS
62
4
100
AcDbLine
10
642.980000000000
20
77.010000000000
30
0.0
11
644.100000000000
21
77.660000000000
31
0.0
0
LINE
5
6e3
100
AcDbEntity
8
0-000
6
CONTINUOUS
62
4
100
AcDbLine
10
644.100000000000
20
77.660000000000
30
0.0
11
644.100000000000
21
78.620000000000
31
0.0
0
LINE
5
6e4
100
AcDbEntity
8
0-000
6
CONTINUOUS
62
4
100
AcDbLine
10
650.220000000000
20
75.800000000000
30
0.0
11
650.220000000000
21
75.620000000000
31
0.0
0
LINE
5
6e5
100
AcDbEntity
8
0-000
6
CONTINUOUS
62
4
100
AcDbLine
10
650.220000000000
20
75.800000000000
30
0.0
11
649.100000000000
21
76.440000000000
31
0.0
0
LINE
5
6e6
100
AcDbEntity
8
0-000
6
CONTINUOUS
62
4
100
AcDbLine
10
650.220000000000
20
75.620000000000
30
0.0
11
649.100000000000
21
74.980000000000
31
0.0
0
LINE
5
6e7
100
AcDbEntity
8
0-000
6
CONTINUOUS
62
4
100
AcDbLine
10
649.100000000000
20
77.410000000000
30
0.0
11
649.100000000000
21
76.440000000000
31
0.0
0
LINE
5
6e8
100
AcDbEntity
8
0-000
6
CONTINUOUS
62
4
100
AcDbLine
10
649.100000000000
20
74.980000000000
30
0.0
11
644.100000000000
21
76.190000000000
31
0.0
0
LINE
5
6e9
100
AcDbEntity
8
0-000
6
CONTINUOUS
62
4
100
AcDbLine
10
649.100000000000
20
76.440000000000
30
0.0
11
644.100000000000
21
77.660000000000
31
0.0
0
LINE
5
6ea
100
AcDbEntity
8
0-000
6
CONTINUOUS
62
4
100
AcDbLine
10
650.220000000000
20
75.620000000000
30
0.0
11
642.980000000000
21
76.840000000000
31
0.0
0
LINE
5
6eb
100
AcDbEntity
8
0-000
6
CONTINUOUS
62
4
100
AcDbLine
10
642.980000000000
20
77.010000000000
30
0.0
11
650.220000000000
21
75.800000000000
31
0.0
0
LINE
5
6ec
100
AcDbEntity
8
0-000
6
CONTINUOUS
62
4
100
AcDbLine
10
650.220000000000
20
78.230000000000
30
0.0
11
650.220000000000
21
78.050000000000
31
0.0
0
LINE
5
6ed
100
AcDbEntity
8
0-000
6
CONTINUOUS
62
4
100
AcDbLine
10
650.220000000000
20
78.230000000000
30
0.0
11
649.100000000000
21
78.870000000000
31
0.0
0
LINE
5
6ee
100
AcDbEntity
8
0-000
6
CONTINUOUS
62
4
100
AcDbLine
10
650.220000000000
20
78.050000000000
30
0.0
11
649.100000000000
21
77.410000000000
31
0.0
0
LINE
5
6ef
100
AcDbEntity
8
0-000
6
CONTINUOUS
62
4
100
AcDbLine
10
649.100000000000
20
79.840000000000
30
0.0
11
649.100000000000
21
78.870000000000
31
0.0
0
LINE
5
6f0
100
AcDbEntity
8
0-000
6
CONTINUOUS
62
4
100
AcDbLine
10
642.980000000000
20
79.270000000000
30
0.0
11
642.980000000000
21
79.440000000000
31
0.0
0
LINE
5
6f1
100
AcDbEntity
8
0-000
6
CONTINUOUS
62
4
100
AcDbLine
10
649.100000000000
20
77.410000000000
30
0.0
11
644.100000000000
21
78.620000000000
31
0.0
0
LINE
5
6f2
100
AcDbEntity
8
0-000
6
CONTINUOUS
62
4
100
AcDbLine
10
649.100000000000
20
78.870000000000
30
0.0
11
644.100000000000
21
80.090000000000
31
0.0
0
LINE
5
6f3
100
AcDbEntity
8
0-000
6
CONTINUOUS
62
4
100
AcDbLine
10
642.980000000000
20
79.270000000000
30
0.0
11
644.100000000000
21
78.620000000000
31
0.0
0
LINE
5
6f4
100
AcDbEntity
8
0-000
6
CONTINUOUS
62
4
100
AcDbLine
10
642.980000000000
20
79.440000000000
30
0.0
11
644.100000000000
21
80.090000000000
31
0.0
0
LINE
5
6f5
100
AcDbEntity
8
0-000
6
CONTINUOUS
62
4
100
AcDbLine
10
650.220000000000
20
78.050000000000
30
0.0
11
642.980000000000
21
79.270000000000
31
0.0
0
LINE
5
6f6
100
AcDbEntity
8
0-000
6
CONTINUOUS
62
4
100
AcDbLine
10
642.980000000000
20
79.440000000000
30
0.0
11
650.220000000000
21
78.230000000000
31
0.0
0
LINE
5
6f7
100
AcDbEntity
8
0-000
6
CONTINUOUS
62
4
100
AcDbLine
10
644.100000000000
20
80.090000000000
30
0.0
11
644.100000000000
21
81.050000000000
31
0.0
0
LINE
5
6f8
100
AcDbEntity
8
0-000
6
CONTINUOUS
62
4
100
AcDbLine
10
642.980000000000
20
77.010000000000
30
0.0
11
642.980000000000
21
76.840000000000
31
0.0
0
LINE
5
6f9
100
AcDbEntity
8
0-000
6
CONTINUOUS
62
4
100
AcDbLine
10
642.980000000000
20
74.410000000000
30
0.0
11
644.100000000000
21
73.760000000000
31
0.0
0
LINE
5
6fa
100
AcDbEntity
8
0-000
6
CONTINUOUS
62
4
100
AcDbLine
10
642.980000000000
20
74.580000000000
30
0.0
11
644.100000000000
21
75.230000000000
31
0.0
0
LINE
5
6fb
100
AcDbEntity
8
0-000
6
CONTINUOUS
62
4
100
AcDbLine
10
644.100000000000
20
75.230000000000
30
0.0
11
644.100000000000
21
76.190000000000
31
0.0
0
LINE
5
6fc
100
AcDbEntity
8
0-000
6
CONTINUOUS
62
4
100
AcDbLine
10
650.220000000000
20
73.360000000000
30
0.0
11
650.220000000000
21
73.190000000000
31
0.0
0
LINE
5
6fd
100
AcDbEntity
8
0-000
6
CONTINUOUS
62
4
100
AcDbLine
10
650.220000000000
20
73.360000000000
30
0.0
11
649.100000000000
21
74.010000000000
31
0.0
0
LINE
5
6fe
100
AcDbEntity
8
0-000
6
CONTINUOUS
62
4
100
AcDbLine
10
650.220000000000
20
73.190000000000
30
0.0
11
649.100000000000
21
72.540000000000
31
0.0
0
LINE
5
6ff
100
AcDbEntity
8
0-000
6
CONTINUOUS
62
4
100
AcDbLine
10
649.100000000000
20
74.980000000000
30
0.0
11
649.100000000000
21
74.010000000000
31
0.0
0
LINE
5
700
100
AcDbEntity
8
0-000
6
CONTINUOUS
62
4
100
AcDbLine
10
649.100000000000
20
72.540000000000
30
0.0
11
644.100000000000
21
73.760000000000
31
0.0
0
LINE
5
701
100
AcDbEntity
8
0-000
6
CONTINUOUS
62
4
100
AcDbLine
10
649.100000000000
20
74.010000000000
30
0.0
11
644.100000000000
21
75.230000000000
31
0.0
0
LINE
5
702
100
AcDbEntity
8
0-000
6
CONTINUOUS
62
4
100
AcDbLine
10
650.220000000000
20
73.190000000000
30
0.0
11
642.980000000000
21
74.410000000000
31
0.0
0
LINE
5
703
100
AcDbEntity
8
0-000
6
CONTINUOUS
62
4
100
AcDbLine
10
642.980000000000
20
74.580000000000
30
0.0
11
650.220000000000
21
73.360000000000
31
0.0
0
LINE
5
704
100
AcDbEntity
8
0-000
6
CONTINUOUS
62
4
100
AcDbLine
10
642.980000000000
20
74.580000000000
30
0.0
11
642.980000000000
21
74.410000000000
31
0.0
0
LINE
5
705
100
AcDbEntity
8
0-000
6
CONTINUOUS
62
4
100
AcDbLine
10
642.980000000000
20
69.550000000000
30
0.0
11
644.100000000000
21
68.900000000000
31
0.0
0
LINE
5
706
100
AcDbEntity
8
0-000
6
CONTINUOUS
62
4
100
AcDbLine
10
642.980000000000
20
69.720000000000
30
0.0
11
644.100000000000
21
70.360000000000
31
0.0
0
LINE
5
707
100
AcDbEntity
8
0-000
6
CONTINUOUS
62
4
100
AcDbLine
10
644.100000000000
20
70.360000000000
30
0.0
11
644.100000000000
21
71.330000000000
31
0.0
0
LINE
5
708
100
AcDbEntity
8
0-000
6
CONTINUOUS
62
4
100
AcDbLine
10
650.220000000000
20
68.500000000000
30
0.0
11
650.220000000000
21
68.330000000000
31
0.0
0
LINE
5
709
100
AcDbEntity
8
0-000
6
CONTINUOUS
62
4
100
AcDbLine
10
650.220000000000
20
68.500000000000
30
0.0
11
649.100000000000
21
69.150000000000
31
0.0
0
LINE
5
70a
100
AcDbEntity
8
0-000
6
CONTINUOUS
62
4
100
AcDbLine
10
650.220000000000
20
68.330000000000
30
0.0
11
649.100000000000
21
67.680000000000
31
0.0
0
LINE
5
70b
100
AcDbEntity
8
0-000
6
CONTINUOUS
62
4
100
AcDbLine
10
649.100000000000
20
70.110000000000
30
0.0
11
649.100000000000
21
69.150000000000
31
0.0
0
LINE
5
70c
100
AcDbEntity
8
0-000
6
CONTINUOUS
62
4
100
AcDbLine
10
649.100000000000
20
67.680000000000
30
0.0
11
644.100000000000
21
68.900000000000
31
0.0
0
LINE
5
70d
100
AcDbEntity
8
0-000
6
CONTINUOUS
62
4
100
AcDbLine
10
649.100000000000
20
69.150000000000
30
0.0
11
644.100000000000
21
70.360000000000
31
0.0
0
LINE
5
70e
100
AcDbEntity
8
0-000
6
CONTINUOUS
62
4
100
AcDbLine
10
650.220000000000
20
68.330000000000
30
0.0
11
642.980000000000
21
69.550000000000
31
0.0
0
LINE
5
70f
100
AcDbEntity
8
0-000
6
CONTINUOUS
62
4
100
AcDbLine
10
642.980000000000
20
69.720000000000
30
0.0
11
650.220000000000
21
68.500000000000
31
0.0
0
LINE
5
710
100
AcDbEntity
8
0-000
6
CONTINUOUS
62
4
100
AcDbLine
10
650.220000000000
20
70.930000000000
30
0.0
11
650.220000000000
21
70.760000000000
31
0.0
0
LINE
5
711
100
AcDbEntity
8
0-000
6
CONTINUOUS
62
4
100
AcDbLine
10
650.220000000000
20
70.930000000000
30
0.0
11
649.100000000000
21
71.580000000000
31
0.0
0
LINE
5
712
100
AcDbEntity
8
0-000
6
CONTINUOUS
62
4
100
AcDbLine
10
650.220000000000
20
70.760000000000
30
0.0
11
649.100000000000
21
70.110000000000
31
0.0
0
LINE
5
713
100
AcDbEntity
8
0-000
6
CONTINUOUS
62
4
100
AcDbLine
10
649.100000000000
20
72.540000000000
30
0.0
11
649.100000000000
21
71.580000000000
31
0.0
0
LINE
5
714
100
AcDbEntity
8
0-000
6
CONTINUOUS
62
4
100
AcDbLine
10
642.980000000000
20
71.980000000000
30
0.0
11
642.980000000000
21
72.150000000000
31
0.0
0
LINE
5
715
100
AcDbEntity
8
0-000
6
CONTINUOUS
62
4
100
AcDbLine
10
649.100000000000
20
70.110000000000
30
0.0
11
644.100000000000
21
71.330000000000
31
0.0
0
LINE
5
716
100
AcDbEntity
8
0-000
6
CONTINUOUS
62
4
100
AcDbLine
10
649.100000000000
20
71.580000000000
30
0.0
11
644.100000000000
21
72.800000000000
31
0.0
0
LINE
5
717
100
AcDbEntity
8
0-000
6
CONTINUOUS
62
4
100
AcDbLine
10
642.980000000000
20
71.980000000000
30
0.0
11
644.100000000000
21
71.330000000000
31
0.0
0
LINE
5
718
100
AcDbEntity
8
0-000
6
CONTINUOUS
62
4
100
AcDbLine
10
642.980000000000
20
72.150000000000
30
0.0
11
644.100000000000
21
72.800000000000
31
0.0
0
LINE
5
719
100
AcDbEntity
8
0-000
6
CONTINUOUS
62
4
100
AcDbLine
10
650.220000000000
20
70.760000000000
30
0.0
11
642.980000000000
21
71.980000000000
31
0.0
0
LINE
5
71a
100
AcDbEntity
8
0-000
6
CONTINUOUS
62
4
100
AcDbLine
10
642.980000000000
20
72.150000000000
30
0.0
11
650.220000000000
21
70.930000000000
31
0.0
0
LINE
5
71b
100
AcDbEntity
8
0-000
6
CONTINUOUS
62
4
100
AcDbLine
10
644.100000000000
20
72.800000000000
30
0.0
11
644.100000000000
21
73.760000000000
31
0.0
0
LINE
5
71c
100
AcDbEntity
8
0-000
6
CONTINUOUS
62
4
100
AcDbLine
10
642.980000000000
20
69.720000000000
30
0.0
11
642.980000000000
21
69.550000000000
31
0.0
0
LINE
5
71d
100
AcDbEntity
8
0-000
6
CONTINUOUS
62
4
100
AcDbLine
10
642.980000000000
20
67.110000000000
30
0.0
11
644.100000000000
21
66.470000000000
31
0.0
0
LINE
5
71e
100
AcDbEntity
8
0-000
6
CONTINUOUS
62
4
100
AcDbLine
10
642.980000000000
20
67.290000000000
30
0.0
11
644.100000000000
21
67.930000000000
31
0.0
0
LINE
5
71f
100
AcDbEntity
8
0-000
6
CONTINUOUS
62
4
100
AcDbLine
10
644.100000000000
20
67.930000000000
30
0.0
11
644.100000000000
21
68.900000000000
31
0.0
0
LINE
5
720
100
AcDbEntity
8
0-000
6
CONTINUOUS
62
4
100
AcDbLine
10
650.220000000000
20
66.070000000000
30
0.0
11
650.220000000000
21
65.900000000000
31
0.0
0
LINE
5
721
100
AcDbEntity
8
0-000
6
CONTINUOUS
62
4
100
AcDbLine
10
650.220000000000
20
66.070000000000
30
0.0
11
649.100000000000
21
66.720000000000
31
0.0
0
LINE
5
722
100
AcDbEntity
8
0-000
6
CONTINUOUS
62
4
100
AcDbLine
10
650.220000000000
20
65.900000000000
30
0.0
11
649.100000000000
21
65.250000000000
31
0.0
0
LINE
5
723
100
AcDbEntity
8
0-000
6
CONTINUOUS
62
4
100
AcDbLine
10
649.100000000000
20
67.680000000000
30
0.0
11
649.100000000000
21
66.720000000000
31
0.0
0
LINE
5
724
100
AcDbEntity
8
0-000
6
CONTINUOUS
62
4
100
AcDbLine
10
649.100000000000
20
65.250000000000
30
0.0
11
644.100000000000
21
66.470000000000
31
0.0
0
LINE
5
725
100
AcDbEntity
8
0-000
6
CONTINUOUS
62
4
100
AcDbLine
10
649.100000000000
20
66.720000000000
30
0.0
11
644.100000000000
21
67.930000000000
31
0.0
0
LINE
5
726
100
AcDbEntity
8
0-000
6
CONTINUOUS
62
4
100
AcDbLine
10
650.220000000000
20
65.900000000000
30
0.0
11
642.980000000000
21
67.110000000000
31
0.0
0
LINE
5
727
100
AcDbEntity
8
0-000
6
CONTINUOUS
62
4
100
AcDbLine
10
642.980000000000
20
67.290000000000
30
0.0
11
650.220000000000
21
66.070000000000
31
0.0
0
LINE
5
728
100
AcDbEntity
8
0-000
6
CONTINUOUS
62
4
100
AcDbLine
10
642.980000000000
20
67.290000000000
30
0.0
11
642.980000000000
21
67.110000000000
31
0.0
0
LINE
5
729
100
AcDbEntity
8
0-000
6
CONTINUOUS
62
4
100
AcDbLine
10
644.100000000000
20
63.070000000000
30
0.0
11
644.100000000000
21
64.040000000000
31
0.0
0
LINE
5
72a
100
AcDbEntity
8
0-000
6
CONTINUOUS
62
4
100
AcDbLine
10
649.100000000000
20
62.820000000000
30
0.0
11
649.100000000000
21
61.860000000000
31
0.0
0
LINE
5
72b
100
AcDbEntity
8
0-000
6
CONTINUOUS
62
4
100
AcDbLine
10
650.220000000000
20
63.640000000000
30
0.0
11
650.220000000000
21
63.470000000000
31
0.0
0
LINE
5
72c
100
AcDbEntity
8
0-000
6
CONTINUOUS
62
4
100
AcDbLine
10
650.220000000000
20
63.640000000000
30
0.0
11
649.100000000000
21
64.290000000000
31
0.0
0
LINE
5
72d
100
AcDbEntity
8
0-000
6
CONTINUOUS
62
4
100
AcDbLine
10
650.220000000000
20
63.470000000000
30
0.0
11
649.100000000000
21
62.820000000000
31
0.0
0
LINE
5
72e
100
AcDbEntity
8
0-000
6
CONTINUOUS
62
4
100
AcDbLine
10
649.100000000000
20
65.250000000000
30
0.0
11
649.100000000000
21
64.290000000000
31
0.0
0
LINE
5
72f
100
AcDbEntity
8
0-000
6
CONTINUOUS
62
4
100
AcDbLine
10
642.980000000000
20
64.680000000000
30
0.0
11
642.980000000000
21
64.860000000000
31
0.0
0
LINE
5
730
100
AcDbEntity
8
0-000
6
CONTINUOUS
62
4
100
AcDbLine
10
649.100000000000
20
62.820000000000
30
0.0
11
644.100000000000
21
64.040000000000
31
0.0
0
LINE
5
731
100
AcDbEntity
8
0-000
6
CONTINUOUS
62
4
100
AcDbLine
10
649.100000000000
20
64.290000000000
30
0.0
11
644.100000000000
21
65.500000000000
31
0.0
0
LINE
5
732
100
AcDbEntity
8
0-000
6
CONTINUOUS
62
4
100
AcDbLine
10
642.980000000000
20
64.680000000000
30
0.0
11
644.100000000000
21
64.040000000000
31
0.0
0
LINE
5
733
100
AcDbEntity
8
0-000
6
CONTINUOUS
62
4
100
AcDbLine
10
642.980000000000
20
64.860000000000
30
0.0
11
644.100000000000
21
65.500000000000
31
0.0
0
LINE
5
734
100
AcDbEntity
8
0-000
6
CONTINUOUS
62
4
100
AcDbLine
10
650.220000000000
20
63.470000000000
30
0.0
11
642.980000000000
21
64.680000000000
31
0.0
0
LINE
5
735
100
AcDbEntity
8
0-000
6
CONTINUOUS
62
4
100
AcDbLine
10
642.980000000000
20
64.860000000000
30
0.0
11
650.220000000000
21
63.640000000000
31
0.0
0
LINE
5
736
100
AcDbEntity
8
0-000
6
CONTINUOUS
62
4
100
AcDbLine
10
644.100000000000
20
65.500000000000
30
0.0
11
644.100000000000
21
66.470000000000
31
0.0
0
LINE
5
737
100
AcDbEntity
8
0-000
6
CONTINUOUS
62
4
100
AcDbLine
10
649.100000000000
20
59.660000000000
30
0.0
11
649.100000000000
21
62.820000000000
31
0.0
0
LINE
5
738
100
AcDbEntity
8
0-000
6
CONTINUOUS
62
4
100
AcDbLine
10
644.100000000000
20
64.040000000000
30
0.0
11
644.100000000000
21
58.160000000000
31
0.0
0
LINE
5
739
100
AcDbEntity
8
0-000
6
CONTINUOUS
62
4
100
AcDbLine
10
643.670000000000
20
104.150000000000
30
0.0
11
643.670000000000
21
178.700000000000
31
0.0
0
LINE
5
73a
100
AcDbEntity
8
0-000
6
CONTINUOUS
62
4
100
AcDbLine
10
182.660000000000
20
160.610000000000
30
0.0
11
184.750000000000
21
162.700000000000
31
0.0
0
LINE
5
73b
100
AcDbEntity
8
0-000
6
CONTINUOUS
62
4
100
AcDbLine
10
210.660000000000
20
160.500000000000
30
0.0
11
208.460000000000
21
162.700000000000
31
0.0
0
LINE
5
73c
100
AcDbEntity
8
0-000
6
CONTINUOUS
62
4
100
AcDbLine
10
210.660000000000
20
162.620000000000
30
0.0
11
210.580000000000
21
162.700000000000
31
0.0
0
LINE
5
73d
100
AcDbEntity
8
0-000
6
CONTINUOUS
62
4
100
AcDbLine
10
205.170000000000
20
167.500000000000
30
0.0
11
188.170000000000
21
167.500000000000
31
0.0
0
LINE
5
73e
100
AcDbEntity
8
0-000
6
CONTINUOUS
62
4
100
AcDbLine
10
211.170000000000
20
164.100000000000
30
0.0
11
209.070000000000
21
165.070000000000
31
0.0
0
LINE
5
73f
100
AcDbEntity
8
0-000
6
CONTINUOUS
62
4
100
AcDbLine
10
209.070000000000
20
165.070000000000
30
0.0
11
184.270000000000
21
165.070000000000
31
0.0
0
LINE
5
740
100
AcDbEntity
8
0-000
6
CONTINUOUS
62
4
100
AcDbLine
10
184.270000000000
20
165.070000000000
30
0.0
11
182.170000000000
21
164.100000000000
31
0.0
0
LINE
5
741
100
AcDbEntity
8
0-000
6
CONTINUOUS
62
4
100
AcDbLine
10
210.670000000000
20
162.700000000000
30
0.0
11
182.670000000000
21
162.700000000000
31
0.0
0
LINE
5
742
100
AcDbEntity
8
0-000
6
CONTINUOUS
62
4
100
AcDbLine
10
210.670000000000
20
162.700000000000
30
0.0
11
211.170000000000
21
164.100000000000
31
0.0
0
LINE
5
743
100
AcDbEntity
8
0-000
6
CONTINUOUS
62
4
100
AcDbLine
10
211.170000000000
20
164.100000000000
30
0.0
11
182.170000000000
21
164.100000000000
31
0.0
0
LINE
5
744
100
AcDbEntity
8
0-000
6
CONTINUOUS
62
4
100
AcDbLine
10
182.170000000000
20
164.100000000000
30
0.0
11
182.670000000000
21
162.700000000000
31
0.0
0
LINE
5
745
100
AcDbEntity
8
0-000
6
CONTINUOUS
62
4
100
AcDbLine
10
203.170000000000
20
167.500000000000
30
0.0
11
203.170000000000
21
173.600000000000
31
0.0
0
LINE
5
746
100
AcDbEntity
8
0-000
6
CONTINUOUS
62
4
100
AcDbLine
10
190.170000000000
20
173.600000000000
30
0.0
11
190.170000000000
21
167.500000000000
31
0.0
0
LINE
5
747
100
AcDbEntity
8
0-000
6
CONTINUOUS
62
4
100
AcDbLine
10
190.170000000000
20
167.500000000000
30
0.0
11
203.170000000000
21
167.500000000000
31
0.0
0
LINE
5
748
100
AcDbEntity
8
0-000
6
CONTINUOUS
62
4
100
AcDbLine
10
201.670000000000
20
174.000000000000
30
0.0
11
191.660000000000
21
174.000000000000
31
0.0
0
LINE
5
749
100
AcDbEntity
8
0-000
6
CONTINUOUS
62
4
100
AcDbLine
10
200.180000000000
20
173.600000000000
30
0.0
11
200.180000000000
21
167.500000000000
31
0.0
0
LINE
5
74a
100
AcDbEntity
8
0-000
6
CONTINUOUS
62
4
100
AcDbLine
10
193.150000000000
20
167.500000000000
30
0.0
11
193.150000000000
21
173.600000000000
31
0.0
0
LINE
5
74b
100
AcDbEntity
8
0-000
6
CONTINUOUS
62
4
100
AcDbLine
10
201.580000000000
20
174.000000000000
30
0.0
11
199.660000000000
21
174.000000000000
31
0.0
0
LINE
5
74c
100
AcDbEntity
8
0-000
6
CONTINUOUS
62
4
100
AcDbLine
10
193.670000000000
20
174.000000000000
30
0.0
11
191.690000000000
21
174.000000000000
31
0.0
0
LINE
5
74d
100
AcDbEntity
8
0-000
6
CONTINUOUS
62
4
100
AcDbLine
10
182.670000000000
20
162.700000000000
30
0.0
11
182.670000000000
21
158.280000000000
31
0.0
0
LINE
5
74e
100
AcDbEntity
8
0-000
6
CONTINUOUS
62
4
100
AcDbLine
10
210.670000000000
20
158.520000000000
30
0.0
11
210.670000000000
21
162.700000000000
31
0.0
0
LINE
5
74f
100
AcDbEntity
8
0-000
6
CONTINUOUS
62
4
100
AcDbLine
10
184.660000000000
20
158.920000000000
30
0.0
11
182.660000000000
21
160.920000000000
31
0.0
0
LINE
5
750
100
AcDbEntity
8
0-000
6
CONTINUOUS
62
4
100
AcDbLine
10
186.330000000000
20
159.380000000000
30
0.0
11
183.000000000000
21
162.700000000000
31
0.0
0
LINE
5
751
100
AcDbEntity
8
0-000
6
CONTINUOUS
62
4
100
AcDbLine
10
185.430000000000
20
159.140000000000
30
0.0
11
188.990000000000
21
162.700000000000
31
0.0
0
LINE
5
752
100
AcDbEntity
8
0-000
6
CONTINUOUS
62
4
100
AcDbLine
10
188.050000000000
20
159.780000000000
30
0.0
11
185.120000000000
21
162.700000000000
31
0.0
0
LINE
5
753
100
AcDbEntity
8
0-000
6
CONTINUOUS
62
4
100
AcDbLine
10
188.230000000000
20
159.810000000000
30
0.0
11
191.120000000000
21
162.700000000000
31
0.0
0
LINE
5
754
100
AcDbEntity
8
0-000
6
CONTINUOUS
62
4
100
AcDbLine
10
189.830000000000
20
160.110000000000
30
0.0
11
187.240000000000
21
162.700000000000
31
0.0
0
LINE
5
755
100
AcDbEntity
8
0-000
6
CONTINUOUS
62
4
100
AcDbLine
10
191.680000000000
20
160.380000000000
30
0.0
11
189.360000000000
21
162.700000000000
31
0.0
0
LINE
5
756
100
AcDbEntity
8
0-000
6
CONTINUOUS
62
4
100
AcDbLine
10
190.800000000000
20
160.260000000000
30
0.0
11
193.240000000000
21
162.700000000000
31
0.0
0
LINE
5
757
100
AcDbEntity
8
0-000
6
CONTINUOUS
62
4
100
AcDbLine
10
193.610000000000
20
160.580000000000
30
0.0
11
191.490000000000
21
162.700000000000
31
0.0
0
LINE
5
758
100
AcDbEntity
8
0-000
6
CONTINUOUS
62
4
100
AcDbLine
10
193.200000000000
20
160.540000000000
30
0.0
11
195.360000000000
21
162.700000000000
31
0.0
0
LINE
5
759
100
AcDbEntity
8
0-000
6
CONTINUOUS
62
4
100
AcDbLine
10
195.620000000000
20
160.690000000000
30
0.0
11
193.610000000000
21
162.700000000000
31
0.0
0
LINE
5
75a
100
AcDbEntity
8
0-000
6
CONTINUOUS
62
4
100
AcDbLine
10
195.460000000000
20
160.680000000000
30
0.0
11
197.480000000000
21
162.700000000000
31
0.0
0
LINE
5
75b
100
AcDbEntity
8
0-000
6
CONTINUOUS
62
4
100
AcDbLine
10
197.730000000000
20
160.710000000000
30
0.0
11
195.730000000000
21
162.700000000000
31
0.0
0
LINE
5
75c
100
AcDbEntity
8
0-000
6
CONTINUOUS
62
4
100
AcDbLine
10
197.600000000000
20
160.710000000000
30
0.0
11
199.600000000000
21
162.700000000000
31
0.0
0
LINE
5
75d
100
AcDbEntity
8
0-000
6
CONTINUOUS
62
4
100
AcDbLine
10
199.940000000000
20
160.610000000000
30
0.0
11
197.850000000000
21
162.700000000000
31
0.0
0
LINE
5
75e
100
AcDbEntity
8
0-000
6
CONTINUOUS
62
4
100
AcDbLine
10
199.650000000000
20
160.630000000000
30
0.0
11
201.720000000000
21
162.700000000000
31
0.0
0
LINE
5
75f
100
AcDbEntity
8
0-000
6
CONTINUOUS
62
4
100
AcDbLine
10
202.280000000000
20
160.390000000000
30
0.0
11
199.970000000000
21
162.700000000000
31
0.0
0
LINE
5
760
100
AcDbEntity
8
0-000
6
CONTINUOUS
62
4
100
AcDbLine
10
201.610000000000
20
160.470000000000
30
0.0
11
203.840000000000
21
162.700000000000
31
0.0
0
LINE
5
761
100
AcDbEntity
8
0-000
6
CONTINUOUS
62
4
100
AcDbLine
10
204.780000000000
20
160.020000000000
30
0.0
11
202.090000000000
21
162.700000000000
31
0.0
0
LINE
5
762
100
AcDbEntity
8
0-000
6
CONTINUOUS
62
4
100
AcDbLine
10
203.490000000000
20
160.230000000000
30
0.0
11
205.970000000000
21
162.700000000000
31
0.0
0
LINE
5
763
100
AcDbEntity
8
0-000
6
CONTINUOUS
62
4
100
AcDbLine
10
205.300000000000
20
159.920000000000
30
0.0
11
208.090000000000
21
162.700000000000
31
0.0
0
LINE
5
764
100
AcDbEntity
8
0-000
6
CONTINUOUS
62
4
100
AcDbLine
10
207.480000000000
20
159.440000000000
30
0.0
11
204.210000000000
21
162.700000000000
31
0.0
0
LINE
5
765
100
AcDbEntity
8
0-000
6
CONTINUOUS
62
4
100
AcDbLine
10
207.050000000000
20
159.540000000000
30
0.0
11
210.210000000000
21
162.700000000000
31
0.0
0
LINE
5
766
100
AcDbEntity
8
0-000
6
CONTINUOUS
62
4
100
AcDbLine
10
210.440000000000
20
158.600000000000
30
0.0
11
206.330000000000
21
162.700000000000
31
0.0
0
LINE
5
767
100
AcDbEntity
8
0-000
6
CONTINUOUS
62
4
100
AcDbLine
10
208.730000000000
20
159.110000000000
30
0.0
11
210.660000000000
21
161.030000000000
31
0.0
0
LINE
5
768
100
AcDbEntity
8
0-000
6
CONTINUOUS
62
4
100
AcDbLine
10
633.140000000000
20
157.190000000000
30
0.0
11
635.230000000000
21
159.280000000000
31
0.0
0
LINE
5
769
100
AcDbEntity
8
0-000
6
CONTINUOUS
62
4
100
AcDbLine
10
661.140000000000
20
157.080000000000
30
0.0
11
658.930000000000
21
159.280000000000
31
0.0
0
LINE
5
76a
100
AcDbEntity
8
0-000
6
CONTINUOUS
62
4
100
AcDbLine
10
661.140000000000
20
159.200000000000
30
0.0
11
661.060000000000
21
159.280000000000
31
0.0
0
LINE
5
76b
100
AcDbEntity
8
0-000
6
CONTINUOUS
62
4
100
AcDbLine
10
643.670000000000
20
178.120000000000
30
0.0
11
649.670000000000
21
178.130000000000
31
0.0
0
LINE
5
76c
100
AcDbEntity
8
0-000
6
CONTINUOUS
62
4
100
AcDbLine
10
655.640000000000
20
164.080000000000
30
0.0
11
638.640000000000
21
164.080000000000
31
0.0
0
LINE
5
76d
100
AcDbEntity
8
0-000
6
CONTINUOUS
62
4
100
AcDbLine
10
661.640000000000
20
160.680000000000
30
0.0
11
659.540000000000
21
161.650000000000
31
0.0
0
LINE
5
76e
100
AcDbEntity
8
0-000
6
CONTINUOUS
62
4
100
AcDbLine
10
659.540000000000
20
161.650000000000
30
0.0
11
634.740000000000
21
161.650000000000
31
0.0
0
LINE
5
76f
100
AcDbEntity
8
0-000
6
CONTINUOUS
62
4
100
AcDbLine
10
634.740000000000
20
161.650000000000
30
0.0
11
632.640000000000
21
160.680000000000
31
0.0
0
LINE
5
770
100
AcDbEntity
8
0-000
6
CONTINUOUS
62
4
100
AcDbLine
10
661.140000000000
20
159.280000000000
30
0.0
11
633.140000000000
21
159.280000000000
31
0.0
0
LINE
5
771
100
AcDbEntity
8
0-000
6
CONTINUOUS
62
4
100
AcDbLine
10
661.140000000000
20
159.280000000000
30
0.0
11
661.640000000000
21
160.680000000000
31
0.0
0
LINE
5
772
100
AcDbEntity
8
0-000
6
CONTINUOUS
62
4
100
AcDbLine
10
661.640000000000
20
160.680000000000
30
0.0
11
632.640000000000
21
160.680000000000
31
0.0
0
LINE
5
773
100
AcDbEntity
8
0-000
6
CONTINUOUS
62
4
100
AcDbLine
10
632.640000000000
20
160.680000000000
30
0.0
11
633.140000000000
21
159.280000000000
31
0.0
0
LINE
5
774
100
AcDbEntity
8
0-000
6
CONTINUOUS
62
4
100
AcDbLine
10
653.640000000000
20
164.080000000000
30
0.0
11
653.640000000000
21
170.180000000000
31
0.0
0
LINE
5
775
100
AcDbEntity
8
0-000
6
CONTINUOUS
62
4
100
AcDbLine
10
640.640000000000
20
170.180000000000
30
0.0
11
640.640000000000
21
164.080000000000
31
0.0
0
LINE
5
776
100
AcDbEntity
8
0-000
6
CONTINUOUS
62
4
100
AcDbLine
10
640.640000000000
20
164.080000000000
30
0.0
11
653.640000000000
21
164.080000000000
31
0.0
0
LINE
5
777
100
AcDbEntity
8
0-000
6
CONTINUOUS
62
4
100
AcDbLine
10
652.150000000000
20
170.580000000000
30
0.0
11
642.140000000000
21
170.580000000000
31
0.0
0
LINE
5
778
100
AcDbEntity
8
0-000
6
CONTINUOUS
62
4
100
AcDbLine
10
650.660000000000
20
170.180000000000
30
0.0
11
650.660000000000
21
164.080000000000
31
0.0
0
LINE
5
779
100
AcDbEntity
8
0-000
6
CONTINUOUS
62
4
100
AcDbLine
10
643.630000000000
20
164.080000000000
30
0.0
11
643.630000000000
21
170.180000000000
31
0.0
0
LINE
5
77a
100
AcDbEntity
8
0-000
6
CONTINUOUS
62
4
100
AcDbLine
10
652.060000000000
20
170.580000000000
30
0.0
11
650.140000000000
21
170.580000000000
31
0.0
0
LINE
5
77b
100
AcDbEntity
8
0-000
6
CONTINUOUS
62
4
100
AcDbLine
10
649.670000000000
20
177.140000000000
30
0.0
11
649.670000000000
21
178.120000000000
31
0.0
0
LINE
5
77c
100
AcDbEntity
8
0-000
6
CONTINUOUS
62
4
100
AcDbLine
10
643.670000000000
20
178.120000000000
30
0.0
11
643.670000000000
21
177.140000000000
31
0.0
0
LINE
5
77d
100
AcDbEntity
8
0-000
6
CONTINUOUS
62
4
100
AcDbLine
10
644.140000000000
20
170.580000000000
30
0.0
11
642.170000000000
21
170.580000000000
31
0.0
0
LINE
5
77e
100
AcDbEntity
8
0-000
6
CONTINUOUS
62
4
100
AcDbLine
10
633.140000000000
20
159.280000000000
30
0.0
11
633.140000000000
21
154.850000000000
31
0.0
0
LINE
5
77f
100
AcDbEntity
8
0-000
6
CONTINUOUS
62
4
100
AcDbLine
10
661.140000000000
20
155.100000000000
30
0.0
11
661.140000000000
21
159.280000000000
31
0.0
0
LINE
5
780
100
AcDbEntity
8
0-000
6
CONTINUOUS
62
4
100
AcDbLine
10
632.810000000000
20
154.730000000000
30
0.0
11
637.350000000000
21
159.280000000000
31
0.0
0
LINE
5
781
100
AcDbEntity
8
0-000
6
CONTINUOUS
62
4
100
AcDbLine
10
635.140000000000
20
155.500000000000
30
0.0
11
633.140000000000
21
157.500000000000
31
0.0
0
LINE
5
782
100
AcDbEntity
8
0-000
6
CONTINUOUS
62
4
100
AcDbLine
10
636.810000000000
20
155.950000000000
30
0.0
11
633.480000000000
21
159.280000000000
31
0.0
0
LINE
5
783
100
AcDbEntity
8
0-000
6
CONTINUOUS
62
4
100
AcDbLine
10
635.910000000000
20
155.720000000000
30
0.0
11
639.470000000000
21
159.280000000000
31
0.0
0
LINE
5
784
100
AcDbEntity
8
0-000
6
CONTINUOUS
62
4
100
AcDbLine
10
638.530000000000
20
156.350000000000
30
0.0
11
635.600000000000
21
159.280000000000
31
0.0
0
LINE
5
785
100
AcDbEntity
8
0-000
6
CONTINUOUS
62
4
100
AcDbLine
10
638.700000000000
20
156.390000000000
30
0.0
11
641.590000000000
21
159.280000000000
31
0.0
0
LINE
5
786
100
AcDbEntity
8
0-000
6
CONTINUOUS
62
4
100
AcDbLine
10
640.310000000000
20
156.690000000000
30
0.0
11
637.720000000000
21
159.280000000000
31
0.0
0
LINE
5
787
100
AcDbEntity
8
0-000
6
CONTINUOUS
62
4
100
AcDbLine
10
642.160000000000
20
156.960000000000
30
0.0
11
639.840000000000
21
159.280000000000
31
0.0
0
LINE
5
788
100
AcDbEntity
8
0-000
6
CONTINUOUS
62
4
100
AcDbLine
10
641.280000000000
20
156.840000000000
30
0.0
11
643.720000000000
21
159.280000000000
31
0.0
0
LINE
5
789
100
AcDbEntity
8
0-000
6
CONTINUOUS
62
4
100
AcDbLine
10
644.090000000000
20
157.150000000000
30
0.0
11
641.960000000000
21
159.280000000000
31
0.0
0
LINE
5
78a
100
AcDbEntity
8
0-000
6
CONTINUOUS
62
4
100
AcDbLine
10
643.680000000000
20
157.120000000000
30
0.0
11
645.840000000000
21
159.280000000000
31
0.0
0
LINE
5
78b
100
AcDbEntity
8
0-000
6
CONTINUOUS
62
4
100
AcDbLine
10
646.100000000000
20
157.260000000000
30
0.0
11
644.090000000000
21
159.280000000000
31
0.0
0
LINE
5
78c
100
AcDbEntity
8
0-000
6
CONTINUOUS
62
4
100
AcDbLine
10
645.940000000000
20
157.260000000000
30
0.0
11
647.960000000000
21
159.280000000000
31
0.0
0
LINE
5
78d
100
AcDbEntity
8
0-000
6
CONTINUOUS
62
4
100
AcDbLine
10
648.200000000000
20
157.280000000000
30
0.0
11
646.210000000000
21
159.280000000000
31
0.0
0
LINE
5
78e
100
AcDbEntity
8
0-000
6
CONTINUOUS
62
4
100
AcDbLine
10
648.080000000000
20
157.280000000000
30
0.0
11
650.080000000000
21
159.280000000000
31
0.0
0
LINE
5
78f
100
AcDbEntity
8
0-000
6
CONTINUOUS
62
4
100
AcDbLine
10
650.420000000000
20
157.190000000000
30
0.0
11
648.330000000000
21
159.280000000000
31
0.0
0
LINE
5
790
100
AcDbEntity
8
0-000
6
CONTINUOUS
62
4
100
AcDbLine
10
650.130000000000
20
157.210000000000
30
0.0
11
652.200000000000
21
159.280000000000
31
0.0
0
LINE
5
791
100
AcDbEntity
8
0-000
6
CONTINUOUS
62
4
100
AcDbLine
10
652.760000000000
20
156.970000000000
30
0.0
11
650.450000000000
21
159.280000000000
31
0.0
0
LINE
5
792
100
AcDbEntity
8
0-000
6
CONTINUOUS
62
4
100
AcDbLine
10
652.090000000000
20
157.050000000000
30
0.0
11
654.320000000000
21
159.280000000000
31
0.0
0
LINE
5
793
100
AcDbEntity
8
0-000
6
CONTINUOUS
62
4
100
AcDbLine
10
655.260000000000
20
156.590000000000
30
0.0
11
652.570000000000
21
159.280000000000
31
0.0
0
LINE
5
794
100
AcDbEntity
8
0-000
6
CONTINUOUS
62
4
100
AcDbLine
10
653.970000000000
20
156.800000000000
30
0.0
11
656.440000000000
21
159.280000000000
31
0.0
0
LINE
5
795
100
AcDbEntity
8
0-000
6
CONTINUOUS
62
4
100
AcDbLine
10
655.780000000000
20
156.490000000000
30
0.0
11
658.570000000000
21
159.280000000000
31
0.0
0
LINE
5
796
100
AcDbEntity
8
0-000
6
CONTINUOUS
62
4
100
AcDbLine
10
657.960000000000
20
156.020000000000
30
0.0
11
654.690000000000
21
159.280000000000
31
0.0
0
LINE
5
797
100
AcDbEntity
8
0-000
6
CONTINUOUS
62
4
100
AcDbLine
10
657.530000000000
20
156.120000000000
30
0.0
11
660.690000000000
21
159.280000000000
31
0.0
0
LINE
5
798
100
AcDbEntity
8
0-000
6
CONTINUOUS
62
4
100
AcDbLine
10
660.920000000000
20
155.170000000000
30
0.0
11
656.810000000000
21
159.280000000000
31
0.0
0
LINE
5
799
100
AcDbEntity
8
0-000
6
CONTINUOUS
62
4
100
AcDbLine
10
659.210000000000
20
155.690000000000
30
0.0
11
661.140000000000
21
157.610000000000
31
0.0
0
LINE
5
79a
100
AcDbEntity
8
0-000
6
CONTINUOUS
62
4
100
AcDbLine
10
435.660000000000
20
182.120000000000
30
0.0
11
435.580000000000
21
182.200000000000
31
0.0
0
LINE
5
79b
100
AcDbEntity
8
0-000
6
CONTINUOUS
62
4
100
AcDbLine
10
430.170000000000
20
187.000000000000
30
0.0
11
413.170000000000
21
187.000000000000
31
0.0
0
LINE
5
79c
100
AcDbEntity
8
0-000
6
CONTINUOUS
62
4
100
AcDbLine
10
436.170000000000
20
183.600000000000
30
0.0
11
434.070000000000
21
184.570000000000
31
0.0
0
LINE
5
79d
100
AcDbEntity
8
0-000
6
CONTINUOUS
62
4
100
AcDbLine
10
434.070000000000
20
184.570000000000
30
0.0
11
409.270000000000
21
184.570000000000
31
0.0
0
LINE
5
79e
100
AcDbEntity
8
0-000
6
CONTINUOUS
62
4
100
AcDbLine
10
409.270000000000
20
184.570000000000
30
0.0
11
407.170000000000
21
183.600000000000
31
0.0
0
LINE
5
79f
100
AcDbEntity
8
0-000
6
CONTINUOUS
62
4
100
AcDbLine
10
435.670000000000
20
182.200000000000
30
0.0
11
407.670000000000
21
182.200000000000
31
0.0
0
LINE
5
7a0
100
AcDbEntity
8
0-000
6
CONTINUOUS
62
4
100
AcDbLine
10
435.670000000000
20
182.200000000000
30
0.0
11
436.170000000000
21
183.600000000000
31
0.0
0
LINE
5
7a1
100
AcDbEntity
8
0-000
6
CONTINUOUS
62
4
100
AcDbLine
10
436.170000000000
20
183.600000000000
30
0.0
11
407.170000000000
21
183.600000000000
31
0.0
0
LINE
5
7a2
100
AcDbEntity
8
0-000
6
CONTINUOUS
62
4
100
AcDbLine
10
407.170000000000
20
183.600000000000
30
0.0
11
407.670000000000
21
182.200000000000
31
0.0
0
LINE
5
7a3
100
AcDbEntity
8
0-000
6
CONTINUOUS
62
4
100
AcDbLine
10
428.170000000000
20
187.000000000000
30
0.0
11
428.170000000000
21
193.100000000000
31
0.0
0
LINE
5
7a4
100
AcDbEntity
8
0-000
6
CONTINUOUS
62
4
100
AcDbLine
10
415.170000000000
20
193.100000000000
30
0.0
11
415.170000000000
21
187.000000000000
31
0.0
0
LINE
5
7a5
100
AcDbEntity
8
0-000
6
CONTINUOUS
62
4
100
AcDbLine
10
415.170000000000
20
187.000000000000
30
0.0
11
428.170000000000
21
187.000000000000
31
0.0
0
LINE
5
7a6
100
AcDbEntity
8
0-000
6
CONTINUOUS
62
4
100
AcDbLine
10
426.670000000000
20
193.500000000000
30
0.0
11
416.660000000000
21
193.500000000000
31
0.0
0
LINE
5
7a7
100
AcDbEntity
8
0-000
6
CONTINUOUS
62
4
100
AcDbLine
10
425.180000000000
20
193.100000000000
30
0.0
11
425.180000000000
21
187.000000000000
31
0.0
0
LINE
5
7a8
100
AcDbEntity
8
0-000
6
CONTINUOUS
62
4
100
AcDbLine
10
418.150000000000
20
187.000000000000
30
0.0
11
418.150000000000
21
193.100000000000
31
0.0
0
LINE
5
7a9
100
AcDbEntity
8
0-000
6
CONTINUOUS
62
4
100
AcDbLine
10
426.580000000000
20
193.500000000000
30
0.0
11
424.660000000000
21
193.500000000000
31
0.0
0
LINE
5
7aa
100
AcDbEntity
8
0-000
6
CONTINUOUS
62
4
100
AcDbLine
10
418.670000000000
20
193.500000000000
30
0.0
11
416.690000000000
21
193.500000000000
31
0.0
0
LINE
5
7ab
100
AcDbEntity
8
0-000
6
CONTINUOUS
62
4
100
AcDbLine
10
407.670000000000
20
182.200000000000
30
0.0
11
407.670000000000
21
180.200000000000
31
0.0
0
LINE
5
7ac
100
AcDbEntity
8
0-000
6
CONTINUOUS
62
4
100
AcDbLine
10
407.760000000000
20
180.200000000000
30
0.0
11
409.750000000000
21
182.200000000000
31
0.0
0
LINE
5
7ad
100
AcDbEntity
8
0-000
6
CONTINUOUS
62
4
100
AcDbLine
10
407.870000000000
20
180.200000000000
30
0.0
11
407.660000000000
21
180.420000000000
31
0.0
0
LINE
5
7ae
100
AcDbEntity
8
0-000
6
CONTINUOUS
62
4
100
AcDbLine
10
409.990000000000
20
180.200000000000
30
0.0
11
408.000000000000
21
182.200000000000
31
0.0
0
LINE
5
7af
100
AcDbEntity
8
0-000
6
CONTINUOUS
62
4
100
AcDbLine
10
409.880000000000
20
180.200000000000
30
0.0
11
411.870000000000
21
182.200000000000
31
0.0
0
LINE
5
7b0
100
AcDbEntity
8
0-000
6
CONTINUOUS
62
4
100
AcDbLine
10
412.120000000000
20
180.200000000000
30
0.0
11
410.120000000000
21
182.200000000000
31
0.0
0
LINE
5
7b1
100
AcDbEntity
8
0-000
6
CONTINUOUS
62
4
100
AcDbLine
10
412.000000000000
20
180.200000000000
30
0.0
11
413.990000000000
21
182.200000000000
31
0.0
0
LINE
5
7b2
100
AcDbEntity
8
0-000
6
CONTINUOUS
62
4
100
AcDbLine
10
414.240000000000
20
180.200000000000
30
0.0
11
412.240000000000
21
182.200000000000
31
0.0
0
LINE
5
7b3
100
AcDbEntity
8
0-000
6
CONTINUOUS
62
4
100
AcDbLine
10
414.120000000000
20
180.200000000000
30
0.0
11
416.120000000000
21
182.200000000000
31
0.0
0
LINE
5
7b4
100
AcDbEntity
8
0-000
6
CONTINUOUS
62
4
100
AcDbLine
10
416.360000000000
20
180.200000000000
30
0.0
11
414.360000000000
21
182.200000000000
31
0.0
0
LINE
5
7b5
100
AcDbEntity
8
0-000
6
CONTINUOUS
62
4
100
AcDbLine
10
416.240000000000
20
180.200000000000
30
0.0
11
418.240000000000
21
182.200000000000
31
0.0
0
LINE
5
7b6
100
AcDbEntity
8
0-000
6
CONTINUOUS
62
4
100
AcDbLine
10
418.480000000000
20
180.200000000000
30
0.0
11
416.480000000000
21
182.200000000000
31
0.0
0
LINE
5
7b7
100
AcDbEntity
8
0-000
6
CONTINUOUS
62
4
100
AcDbLine
10
418.360000000000
20
180.200000000000
30
0.0
11
420.360000000000
21
182.200000000000
31
0.0
0
LINE
5
7b8
100
AcDbEntity
8
0-000
6
CONTINUOUS
62
4
100
AcDbLine
10
420.600000000000
20
180.200000000000
30
0.0
11
418.610000000000
21
182.200000000000
31
0.0
0
LINE
5
7b9
100
AcDbEntity
8
0-000
6
CONTINUOUS
62
4
100
AcDbLine
10
420.480000000000
20
180.200000000000
30
0.0
11
422.480000000000
21
182.200000000000
31
0.0
0
LINE
5
7ba
100
AcDbEntity
8
0-000
6
CONTINUOUS
62
4
100
AcDbLine
10
422.720000000000
20
180.200000000000
30
0.0
11
420.730000000000
21
182.200000000000
31
0.0
0
LINE
5
7bb
100
AcDbEntity
8
0-000
6
CONTINUOUS
62
4
100
AcDbLine
10
422.610000000000
20
180.200000000000
30
0.0
11
424.600000000000
21
182.200000000000
31
0.0
0
LINE
5
7bc
100
AcDbEntity
8
0-000
6
CONTINUOUS
62
4
100
AcDbLine
10
424.840000000000
20
180.200000000000
30
0.0
11
422.850000000000
21
182.200000000000
31
0.0
0
LINE
5
7bd
100
AcDbEntity
8
0-000
6
CONTINUOUS
62
4
100
AcDbLine
10
424.730000000000
20
180.200000000000
30
0.0
11
426.720000000000
21
182.200000000000
31
0.0
0
LINE
5
7be
100
AcDbEntity
8
0-000
6
CONTINUOUS
62
4
100
AcDbLine
10
426.960000000000
20
180.200000000000
30
0.0
11
424.970000000000
21
182.200000000000
31
0.0
0
LINE
5
7bf
100
AcDbEntity
8
0-000
6
CONTINUOUS
62
4
100
AcDbLine
10
426.850000000000
20
180.200000000000
30
0.0
11
428.840000000000
21
182.200000000000
31
0.0
0
LINE
5
7c0
100
AcDbEntity
8
0-000
6
CONTINUOUS
62
4
100
AcDbLine
10
429.090000000000
20
180.200000000000
30
0.0
11
427.090000000000
21
182.200000000000
31
0.0
0
LINE
5
7c1
100
AcDbEntity
8
0-000
6
CONTINUOUS
62
4
100
AcDbLine
10
428.970000000000
20
180.200000000000
30
0.0
11
430.960000000000
21
182.200000000000
31
0.0
0
LINE
5
7c2
100
AcDbEntity
8
0-000
6
CONTINUOUS
62
4
100
AcDbLine
10
431.210000000000
20
180.200000000000
30
0.0
11
429.210000000000
21
182.200000000000
31
0.0
0
LINE
5
7c3
100
AcDbEntity
8
0-000
6
CONTINUOUS
62
4
100
AcDbLine
10
431.090000000000
20
180.200000000000
30
0.0
11
433.090000000000
21
182.200000000000
31
0.0
0
LINE
5
7c4
100
AcDbEntity
8
0-000
6
CONTINUOUS
62
4
100
AcDbLine
10
433.330000000000
20
180.200000000000
30
0.0
11
431.330000000000
21
182.200000000000
31
0.0
0
LINE
5
7c5
100
AcDbEntity
8
0-000
6
CONTINUOUS
62
4
100
AcDbLine
10
433.210000000000
20
180.200000000000
30
0.0
11
435.210000000000
21
182.200000000000
31
0.0
0
LINE
5
7c6
100
AcDbEntity
8
0-000
6
CONTINUOUS
62
4
100
AcDbLine
10
435.450000000000
20
180.200000000000
30
0.0
11
433.460000000000
21
182.200000000000
31
0.0
0
LINE
5
7c7
100
AcDbEntity
8
0-000
6
CONTINUOUS
62
4
100
AcDbLine
10
435.670000000000
20
180.200000000000
30
0.0
11
435.670000000000
21
182.200000000000
31
0.0
0
LINE
5
7c8
100
AcDbEntity
8
0-000
6
CONTINUOUS
62
4
100
AcDbLine
10
435.330000000000
20
180.200000000000
30
0.0
11
435.660000000000
21
180.530000000000
31
0.0
0
LINE
5
7c9
100
AcDbEntity
8
0-000
6
CONTINUOUS
62
4
100
AcDbLine
10
417.980000000000
20
96.290000000000
30
0.0
11
419.100000000000
21
95.640000000000
31
0.0
0
LINE
5
7ca
100
AcDbEntity
8
0-000
6
CONTINUOUS
62
4
100
AcDbLine
10
417.980000000000
20
96.460000000000
30
0.0
11
419.100000000000
21
97.110000000000
31
0.0
0
LINE
5
7cb
100
AcDbEntity
8
0-000
6
CONTINUOUS
62
4
100
AcDbLine
10
419.100000000000
20
97.110000000000
30
0.0
11
419.100000000000
21
98.070000000000
31
0.0
0
LINE
5
7cc
100
AcDbEntity
8
0-000
6
CONTINUOUS
62
4
100
AcDbLine
10
425.220000000000
20
95.240000000000
30
0.0
11
425.220000000000
21
95.070000000000
31
0.0
0
LINE
5
7cd
100
AcDbEntity
8
0-000
6
CONTINUOUS
62
4
100
AcDbLine
10
425.220000000000
20
95.240000000000
30
0.0
11
424.100000000000
21
95.890000000000
31
0.0
0
LINE
5
7ce
100
AcDbEntity
8
0-000
6
CONTINUOUS
62
4
100
AcDbLine
10
425.220000000000
20
95.070000000000
30
0.0
11
424.100000000000
21
94.420000000000
31
0.0
0
LINE
5
7cf
100
AcDbEntity
8
0-000
6
CONTINUOUS
62
4
100
AcDbLine
10
424.100000000000
20
96.860000000000
30
0.0
11
424.100000000000
21
95.890000000000
31
0.0
0
LINE
5
7d0
100
AcDbEntity
8
0-000
6
CONTINUOUS
62
4
100
AcDbLine
10
424.100000000000
20
94.420000000000
30
0.0
11
419.100000000000
21
95.640000000000
31
0.0
0
LINE
5
7d1
100
AcDbEntity
8
0-000
6
CONTINUOUS
62
4
100
AcDbLine
10
424.100000000000
20
95.890000000000
30
0.0
11
419.100000000000
21
97.110000000000
31
0.0
0
LINE
5
7d2
100
AcDbEntity
8
0-000
6
CONTINUOUS
62
4
100
AcDbLine
10
425.220000000000
20
95.070000000000
30
0.0
11
417.980000000000
21
96.290000000000
31
0.0
0
LINE
5
7d3
100
AcDbEntity
8
0-000
6
CONTINUOUS
62
4
100
AcDbLine
10
417.980000000000
20
96.460000000000
30
0.0
11
425.220000000000
21
95.240000000000
31
0.0
0
LINE
5
7d4
100
AcDbEntity
8
0-000
6
CONTINUOUS
62
4
100
AcDbLine
10
425.220000000000
20
97.670000000000
30
0.0
11
425.220000000000
21
97.500000000000
31
0.0
0
LINE
5
7d5
100
AcDbEntity
8
0-000
6
CONTINUOUS
62
4
100
AcDbLine
10
425.220000000000
20
97.670000000000
30
0.0
11
424.100000000000
21
98.320000000000
31
0.0
0
LINE
5
7d6
100
AcDbEntity
8
0-000
6
CONTINUOUS
62
4
100
AcDbLine
10
425.220000000000
20
97.500000000000
30
0.0
11
424.100000000000
21
96.860000000000
31
0.0
0
LINE
5
7d7
100
AcDbEntity
8
0-000
6
CONTINUOUS
62
4
100
AcDbLine
10
424.100000000000
20
99.290000000000
30
0.0
11
424.100000000000
21
98.320000000000
31
0.0
0
LINE
5
7d8
100
AcDbEntity
8
0-000
6
CONTINUOUS
62
4
100
AcDbLine
10
417.980000000000
20
98.720000000000
30
0.0
11
417.980000000000
21
98.890000000000
31
0.0
0
LINE
5
7d9
100
AcDbEntity
8
0-000
6
CONTINUOUS
62
4
100
AcDbLine
10
424.100000000000
20
96.860000000000
30
0.0
11
419.100000000000
21
98.070000000000
31
0.0
0
LINE
5
7da
100
AcDbEntity
8
0-000
6
CONTINUOUS
62
4
100
AcDbLine
10
424.100000000000
20
98.320000000000
30
0.0
11
419.100000000000
21
99.540000000000
31
0.0
0
LINE
5
7db
100
AcDbEntity
8
0-000
6
CONTINUOUS
62
4
100
AcDbLine
10
417.980000000000
20
98.720000000000
30
0.0
11
419.100000000000
21
98.070000000000
31
0.0
0
LINE
5
7dc
100
AcDbEntity
8
0-000
6
CONTINUOUS
62
4
100
AcDbLine
10
417.980000000000
20
98.890000000000
30
0.0
11
419.100000000000
21
99.540000000000
31
0.0
0
LINE
5
7dd
100
AcDbEntity
8
0-000
6
CONTINUOUS
62
4
100
AcDbLine
10
425.220000000000
20
97.500000000000
30
0.0
11
417.980000000000
21
98.720000000000
31
0.0
0
LINE
5
7de
100
AcDbEntity
8
0-000
6
CONTINUOUS
62
4
100
AcDbLine
10
417.980000000000
20
98.890000000000
30
0.0
11
425.220000000000
21
97.670000000000
31
0.0
0
LINE
5
7df
100
AcDbEntity
8
0-000
6
CONTINUOUS
62
4
100
AcDbLine
10
419.100000000000
20
99.540000000000
30
0.0
11
419.100000000000
21
100.500000000000
31
0.0
0
LINE
5
7e0
100
AcDbEntity
8
0-000
6
CONTINUOUS
62
4
100
AcDbLine
10
417.980000000000
20
96.460000000000
30
0.0
11
417.980000000000
21
96.290000000000
31
0.0
0
LINE
5
7e1
100
AcDbEntity
8
0-000
6
CONTINUOUS
62
4
100
AcDbLine
10
417.980000000000
20
101.150000000000
30
0.0
11
419.100000000000
21
100.500000000000
31
0.0
0
LINE
5
7e2
100
AcDbEntity
8
0-000
6
CONTINUOUS
62
4
100
AcDbLine
10
417.980000000000
20
101.320000000000
30
0.0
11
419.100000000000
21
101.970000000000
31
0.0
0
LINE
5
7e3
100
AcDbEntity
8
0-000
6
CONTINUOUS
62
4
100
AcDbLine
10
419.100000000000
20
101.970000000000
30
0.0
11
419.100000000000
21
102.930000000000
31
0.0
0
LINE
5
7e4
100
AcDbEntity
8
0-000
6
CONTINUOUS
62
4
100
AcDbLine
10
425.220000000000
20
100.110000000000
30
0.0
11
425.220000000000
21
99.930000000000
31
0.0
0
LINE
5
7e5
100
AcDbEntity
8
0-000
6
CONTINUOUS
62
4
100
AcDbLine
10
425.220000000000
20
100.110000000000
30
0.0
11
424.100000000000
21
100.750000000000
31
0.0
0
LINE
5
7e6
100
AcDbEntity
8
0-000
6
CONTINUOUS
62
4
100
AcDbLine
10
425.220000000000
20
99.930000000000
30
0.0
11
424.100000000000
21
99.290000000000
31
0.0
0
LINE
5
7e7
100
AcDbEntity
8
0-000
6
CONTINUOUS
62
4
100
AcDbLine
10
424.100000000000
20
101.720000000000
30
0.0
11
424.100000000000
21
100.750000000000
31
0.0
0
LINE
5
7e8
100
AcDbEntity
8
0-000
6
CONTINUOUS
62
4
100
AcDbLine
10
424.100000000000
20
99.290000000000
30
0.0
11
419.100000000000
21
100.500000000000
31
0.0
0
LINE
5
7e9
100
AcDbEntity
8
0-000
6
CONTINUOUS
62
4
100
AcDbLine
10
424.100000000000
20
100.750000000000
30
0.0
11
419.100000000000
21
101.970000000000
31
0.0
0
LINE
5
7ea
100
AcDbEntity
8
0-000
6
CONTINUOUS
62
4
100
AcDbLine
10
425.220000000000
20
99.930000000000
30
0.0
11
417.980000000000
21
101.150000000000
31
0.0
0
LINE
5
7eb
100
AcDbEntity
8
0-000
6
CONTINUOUS
62
4
100
AcDbLine
10
417.980000000000
20
101.320000000000
30
0.0
11
425.220000000000
21
100.110000000000
31
0.0
0
LINE
5
7ec
100
AcDbEntity
8
0-000
6
CONTINUOUS
62
4
100
AcDbLine
10
425.220000000000
20
102.540000000000
30
0.0
11
425.220000000000
21
102.360000000000
31
0.0
0
LINE
5
7ed
100
AcDbEntity
8
0-000
6
CONTINUOUS
62
4
100
AcDbLine
10
425.220000000000
20
102.540000000000
30
0.0
11
424.100000000000
21
103.180000000000
31
0.0
0
LINE
5
7ee
100
AcDbEntity
8
0-000
6
CONTINUOUS
62
4
100
AcDbLine
10
425.220000000000
20
102.360000000000
30
0.0
11
424.100000000000
21
101.720000000000
31
0.0
0
LINE
5
7ef
100
AcDbEntity
8
0-000
6
CONTINUOUS
62
4
100
AcDbLine
10
417.980000000000
20
103.580000000000
30
0.0
11
417.980000000000
21
103.750000000000
31
0.0
0
LINE
5
7f0
100
AcDbEntity
8
0-000
6
CONTINUOUS
62
4
100
AcDbLine
10
424.100000000000
20
101.720000000000
30
0.0
11
419.100000000000
21
102.930000000000
31
0.0
0
LINE
5
7f1
100
AcDbEntity
8
0-000
6
CONTINUOUS
62
4
100
AcDbLine
10
424.100000000000
20
103.180000000000
30
0.0
11
419.100000000000
21
104.400000000000
31
0.0
0
LINE
5
7f2
100
AcDbEntity
8
0-000
6
CONTINUOUS
62
4
100
AcDbLine
10
417.980000000000
20
103.580000000000
30
0.0
11
419.100000000000
21
102.930000000000
31
0.0
0
LINE
5
7f3
100
AcDbEntity
8
0-000
6
CONTINUOUS
62
4
100
AcDbLine
10
417.980000000000
20
103.750000000000
30
0.0
11
419.100000000000
21
104.400000000000
31
0.0
0
LINE
5
7f4
100
AcDbEntity
8
0-000
6
CONTINUOUS
62
4
100
AcDbLine
10
425.220000000000
20
102.360000000000
30
0.0
11
417.980000000000
21
103.580000000000
31
0.0
0
LINE
5
7f5
100
AcDbEntity
8
0-000
6
CONTINUOUS
62
4
100
AcDbLine
10
417.980000000000
20
103.750000000000
30
0.0
11
425.220000000000
21
102.540000000000
31
0.0
0
LINE
5
7f6
100
AcDbEntity
8
0-000
6
CONTINUOUS
62
4
100
AcDbLine
10
417.980000000000
20
101.320000000000
30
0.0
11
417.980000000000
21
101.150000000000
31
0.0
0
LINE
5
7f7
100
AcDbEntity
8
0-000
6
CONTINUOUS
62
4
100
AcDbLine
10
417.980000000000
20
91.420000000000
30
0.0
11
419.100000000000
21
90.780000000000
31
0.0
0
LINE
5
7f8
100
AcDbEntity
8
0-000
6
CONTINUOUS
62
4
100
AcDbLine
10
417.980000000000
20
91.600000000000
30
0.0
11
419.100000000000
21
92.240000000000
31
0.0
0
LINE
5
7f9
100
AcDbEntity
8
0-000
6
CONTINUOUS
62
4
100
AcDbLine
10
419.100000000000
20
92.240000000000
30
0.0
11
419.100000000000
21
93.210000000000
31
0.0
0
LINE
5
7fa
100
AcDbEntity
8
0-000
6
CONTINUOUS
62
4
100
AcDbLine
10
425.220000000000
20
90.380000000000
30
0.0
11
425.220000000000
21
90.210000000000
31
0.0
0
LINE
5
7fb
100
AcDbEntity
8
0-000
6
CONTINUOUS
62
4
100
AcDbLine
10
425.220000000000
20
90.380000000000
30
0.0
11
424.100000000000
21
91.030000000000
31
0.0
0
LINE
5
7fc
100
AcDbEntity
8
0-000
6
CONTINUOUS
62
4
100
AcDbLine
10
425.220000000000
20
90.210000000000
30
0.0
11
424.100000000000
21
89.560000000000
31
0.0
0
LINE
5
7fd
100
AcDbEntity
8
0-000
6
CONTINUOUS
62
4
100
AcDbLine
10
424.100000000000
20
91.990000000000
30
0.0
11
424.100000000000
21
91.030000000000
31
0.0
0
LINE
5
7fe
100
AcDbEntity
8
0-000
6
CONTINUOUS
62
4
100
AcDbLine
10
424.100000000000
20
89.560000000000
30
0.0
11
419.100000000000
21
90.780000000000
31
0.0
0
LINE
5
7ff
100
AcDbEntity
8
0-000
6
CONTINUOUS
62
4
100
AcDbLine
10
424.100000000000
20
91.030000000000
30
0.0
11
419.100000000000
21
92.240000000000
31
0.0
0
LINE
5
800
100
AcDbEntity
8
0-000
6
CONTINUOUS
62
4
100
AcDbLine
10
425.220000000000
20
90.210000000000
30
0.0
11
417.980000000000
21
91.420000000000
31
0.0
0
LINE
5
801
100
AcDbEntity
8
0-000
6
CONTINUOUS
62
4
100
AcDbLine
10
417.980000000000
20
91.600000000000
30
0.0
11
425.220000000000
21
90.380000000000
31
0.0
0
LINE
5
802
100
AcDbEntity
8
0-000
6
CONTINUOUS
62
4
100
AcDbLine
10
425.220000000000
20
92.810000000000
30
0.0
11
425.220000000000
21
92.640000000000
31
0.0
0
LINE
5
803
100
AcDbEntity
8
0-000
6
CONTINUOUS
62
4
100
AcDbLine
10
425.220000000000
20
92.810000000000
30
0.0
11
424.100000000000
21
93.460000000000
31
0.0
0
LINE
5
804
100
AcDbEntity
8
0-000
6
CONTINUOUS
62
4
100
AcDbLine
10
425.220000000000
20
92.640000000000
30
0.0
11
424.100000000000
21
91.990000000000
31
0.0
0
LINE
5
805
100
AcDbEntity
8
0-000
6
CONTINUOUS
62
4
100
AcDbLine
10
424.100000000000
20
94.420000000000
30
0.0
11
424.100000000000
21
93.460000000000
31
0.0
0
LINE
5
806
100
AcDbEntity
8
0-000
6
CONTINUOUS
62
4
100
AcDbLine
10
417.980000000000
20
93.860000000000
30
0.0
11
417.980000000000
21
94.030000000000
31
0.0
0
LINE
5
807
100
AcDbEntity
8
0-000
6
CONTINUOUS
62
4
100
AcDbLine
10
424.100000000000
20
91.990000000000
30
0.0
11
419.100000000000
21
93.210000000000
31
0.0
0
LINE
5
808
100
AcDbEntity
8
0-000
6
CONTINUOUS
62
4
100
AcDbLine
10
424.100000000000
20
93.460000000000
30
0.0
11
419.100000000000
21
94.680000000000
31
0.0
0
LINE
5
809
100
AcDbEntity
8
0-000
6
CONTINUOUS
62
4
100
AcDbLine
10
417.980000000000
20
93.860000000000
30
0.0
11
419.100000000000
21
93.210000000000
31
0.0
0
LINE
5
80a
100
AcDbEntity
8
0-000
6
CONTINUOUS
62
4
100
AcDbLine
10
417.980000000000
20
94.030000000000
30
0.0
11
419.100000000000
21
94.680000000000
31
0.0
0
LINE
5
80b
100
AcDbEntity
8
0-000
6
CONTINUOUS
62
4
100
AcDbLine
10
425.220000000000
20
92.640000000000
30
0.0
11
417.980000000000
21
93.860000000000
31
0.0
0
LINE
5
80c
100
AcDbEntity
8
0-000
6
CONTINUOUS
62
4
100
AcDbLine
10
417.980000000000
20
94.030000000000
30
0.0
11
425.220000000000
21
92.810000000000
31
0.0
0
LINE
5
80d
100
AcDbEntity
8
0-000
6
CONTINUOUS
62
4
100
AcDbLine
10
419.100000000000
20
94.680000000000
30
0.0
11
419.100000000000
21
95.640000000000
31
0.0
0
LINE
5
80e
100
AcDbEntity
8
0-000
6
CONTINUOUS
62
4
100
AcDbLine
10
417.980000000000
20
91.600000000000
30
0.0
11
417.980000000000
21
91.420000000000
31
0.0
0
LINE
5
80f
100
AcDbEntity
8
0-000
6
CONTINUOUS
62
4
100
AcDbLine
10
424.100000000000
20
59.660000000000
30
0.0
11
423.570000000000
21
62.660000000000
31
0.0
0
LINE
5
810
100
AcDbEntity
8
0-000
6
CONTINUOUS
62
4
100
AcDbLine
10
421.600000000000
20
56.660000000000
30
0.0
11
420.810000000000
21
61.160000000000
31
0.0
0
LINE
5
811
100
AcDbEntity
8
0-000
6
CONTINUOUS
62
4
100
AcDbLine
10
421.600000000000
20
56.660000000000
30
0.0
11
424.100000000000
21
59.660000000000
31
0.0
0
LINE
5
812
100
AcDbEntity
8
0-000
6
CONTINUOUS
62
4
100
AcDbLine
10
419.100000000000
20
58.160000000000
30
0.0
11
421.600000000000
21
56.660000000000
31
0.0
0
LINE
5
813
100
AcDbEntity
8
0-000
6
CONTINUOUS
62
4
100
AcDbLine
10
424.100000000000
20
59.660000000000
30
0.0
11
423.570000000000
21
62.660000000000
31
0.0
0
LINE
5
814
100
AcDbEntity
8
0-000
6
CONTINUOUS
62
4
100
AcDbLine
10
421.600000000000
20
56.660000000000
30
0.0
11
420.810000000000
21
61.160000000000
31
0.0
0
LINE
5
815
100
AcDbEntity
8
0-000
6
CONTINUOUS
62
4
100
AcDbLine
10
421.600000000000
20
56.660000000000
30
0.0
11
424.100000000000
21
59.660000000000
31
0.0
0
LINE
5
816
100
AcDbEntity
8
0-000
6
CONTINUOUS
62
4
100
AcDbLine
10
419.100000000000
20
58.160000000000
30
0.0
11
421.600000000000
21
56.660000000000
31
0.0
0
LINE
5
817
100
AcDbEntity
8
0-000
6
CONTINUOUS
62
4
100
AcDbLine
10
417.980000000000
20
88.990000000000
30
0.0
11
419.100000000000
21
88.350000000000
31
0.0
0
LINE
5
818
100
AcDbEntity
8
0-000
6
CONTINUOUS
62
4
100
AcDbLine
10
417.980000000000
20
89.170000000000
30
0.0
11
419.100000000000
21
89.810000000000
31
0.0
0
LINE
5
819
100
AcDbEntity
8
0-000
6
CONTINUOUS
62
4
100
AcDbLine
10
419.100000000000
20
89.810000000000
30
0.0
11
419.100000000000
21
90.780000000000
31
0.0
0
LINE
5
81a
100
AcDbEntity
8
0-000
6
CONTINUOUS
62
4
100
AcDbLine
10
425.220000000000
20
87.950000000000
30
0.0
11
425.220000000000
21
87.780000000000
31
0.0
0
LINE
5
81b
100
AcDbEntity
8
0-000
6
CONTINUOUS
62
4
100
AcDbLine
10
425.220000000000
20
87.950000000000
30
0.0
11
424.100000000000
21
88.600000000000
31
0.0
0
LINE
5
81c
100
AcDbEntity
8
0-000
6
CONTINUOUS
62
4
100
AcDbLine
10
425.220000000000
20
87.780000000000
30
0.0
11
424.100000000000
21
87.130000000000
31
0.0
0
LINE
5
81d
100
AcDbEntity
8
0-000
6
CONTINUOUS
62
4
100
AcDbLine
10
424.100000000000
20
89.560000000000
30
0.0
11
424.100000000000
21
88.600000000000
31
0.0
0
LINE
5
81e
100
AcDbEntity
8
0-000
6
CONTINUOUS
62
4
100
AcDbLine
10
424.100000000000
20
87.130000000000
30
0.0
11
419.100000000000
21
88.350000000000
31
0.0
0
LINE
5
81f
100
AcDbEntity
8
0-000
6
CONTINUOUS
62
4
100
AcDbLine
10
424.100000000000
20
88.600000000000
30
0.0
11
419.100000000000
21
89.810000000000
31
0.0
0
LINE
5
820
100
AcDbEntity
8
0-000
6
CONTINUOUS
62
4
100
AcDbLine
10
425.220000000000
20
87.780000000000
30
0.0
11
417.980000000000
21
88.990000000000
31
0.0
0
LINE
5
821
100
AcDbEntity
8
0-000
6
CONTINUOUS
62
4
100
AcDbLine
10
417.980000000000
20
89.170000000000
30
0.0
11
425.220000000000
21
87.950000000000
31
0.0
0
LINE
5
822
100
AcDbEntity
8
0-000
6
CONTINUOUS
62
4
100
AcDbLine
10
417.980000000000
20
89.170000000000
30
0.0
11
417.980000000000
21
88.990000000000
31
0.0
0
LINE
5
823
100
AcDbEntity
8
0-000
6
CONTINUOUS
62
4
100
AcDbLine
10
417.980000000000
20
84.130000000000
30
0.0
11
419.100000000000
21
83.480000000000
31
0.0
0
LINE
5
824
100
AcDbEntity
8
0-000
6
CONTINUOUS
62
4
100
AcDbLine
10
417.980000000000
20
84.300000000000
30
0.0
11
419.100000000000
21
84.950000000000
31
0.0
0
LINE
5
825
100
AcDbEntity
8
0-000
6
CONTINUOUS
62
4
100
AcDbLine
10
419.100000000000
20
84.950000000000
30
0.0
11
419.100000000000
21
85.920000000000
31
0.0
0
LINE
5
826
100
AcDbEntity
8
0-000
6
CONTINUOUS
62
4
100
AcDbLine
10
425.220000000000
20
83.090000000000
30
0.0
11
425.220000000000
21
82.920000000000
31
0.0
0
LINE
5
827
100
AcDbEntity
8
0-000
6
CONTINUOUS
62
4
100
AcDbLine
10
425.220000000000
20
83.090000000000
30
0.0
11
424.100000000000
21
83.740000000000
31
0.0
0
LINE
5
828
100
AcDbEntity
8
0-000
6
CONTINUOUS
62
4
100
AcDbLine
10
425.220000000000
20
82.920000000000
30
0.0
11
424.100000000000
21
82.270000000000
31
0.0
0
LINE
5
829
100
AcDbEntity
8
0-000
6
CONTINUOUS
62
4
100
AcDbLine
10
424.100000000000
20
84.700000000000
30
0.0
11
424.100000000000
21
83.740000000000
31
0.0
0
LINE
5
82a
100
AcDbEntity
8
0-000
6
CONTINUOUS
62
4
100
AcDbLine
10
424.100000000000
20
82.270000000000
30
0.0
11
419.100000000000
21
83.480000000000
31
0.0
0
LINE
5
82b
100
AcDbEntity
8
0-000
6
CONTINUOUS
62
4
100
AcDbLine
10
424.100000000000
20
83.740000000000
30
0.0
11
419.100000000000
21
84.950000000000
31
0.0
0
LINE
5
82c
100
AcDbEntity
8
0-000
6
CONTINUOUS
62
4
100
AcDbLine
10
425.220000000000
20
82.920000000000
30
0.0
11
417.980000000000
21
84.130000000000
31
0.0
0
LINE
5
82d
100
AcDbEntity
8
0-000
6
CONTINUOUS
62
4
100
AcDbLine
10
417.980000000000
20
84.300000000000
30
0.0
11
425.220000000000
21
83.090000000000
31
0.0
0
LINE
5
82e
100
AcDbEntity
8
0-000
6
CONTINUOUS
62
4
100
AcDbLine
10
425.220000000000
20
85.520000000000
30
0.0
11
425.220000000000
21
85.350000000000
31
0.0
0
LINE
5
82f
100
AcDbEntity
8
0-000
6
CONTINUOUS
62
4
100
AcDbLine
10
425.220000000000
20
85.520000000000
30
0.0
11
424.100000000000
21
86.170000000000
31
0.0
0
LINE
5
830
100
AcDbEntity
8
0-000
6
CONTINUOUS
62
4
100
AcDbLine
10
425.220000000000
20
85.350000000000
30
0.0
11
424.100000000000
21
84.700000000000
31
0.0
0
LINE
5
831
100
AcDbEntity
8
0-000
6
CONTINUOUS
62
4
100
AcDbLine
10
424.100000000000
20
87.130000000000
30
0.0
11
424.100000000000
21
86.170000000000
31
0.0
0
LINE
5
832
100
AcDbEntity
8
0-000
6
CONTINUOUS
62
4
100
AcDbLine
10
417.980000000000
20
86.560000000000
30
0.0
11
417.980000000000
21
86.730000000000
31
0.0
0
LINE
5
833
100
AcDbEntity
8
0-000
6
CONTINUOUS
62
4
100
AcDbLine
10
424.100000000000
20
84.700000000000
30
0.0
11
419.100000000000
21
85.920000000000
31
0.0
0
LINE
5
834
100
AcDbEntity
8
0-000
6
CONTINUOUS
62
4
100
AcDbLine
10
424.100000000000
20
86.170000000000
30
0.0
11
419.100000000000
21
87.380000000000
31
0.0
0
LINE
5
835
100
AcDbEntity
8
0-000
6
CONTINUOUS
62
4
100
AcDbLine
10
417.980000000000
20
86.560000000000
30
0.0
11
419.100000000000
21
85.920000000000
31
0.0
0
LINE
5
836
100
AcDbEntity
8
0-000
6
CONTINUOUS
62
4
100
AcDbLine
10
417.980000000000
20
86.730000000000
30
0.0
11
419.100000000000
21
87.380000000000
31
0.0
0
LINE
5
837
100
AcDbEntity
8
0-000
6
CONTINUOUS
62
4
100
AcDbLine
10
425.220000000000
20
85.350000000000
30
0.0
11
417.980000000000
21
86.560000000000
31
0.0
0
LINE
5
838
100
AcDbEntity
8
0-000
6
CONTINUOUS
62
4
100
AcDbLine
10
417.980000000000
20
86.730000000000
30
0.0
11
425.220000000000
21
85.520000000000
31
0.0
0
LINE
5
839
100
AcDbEntity
8
0-000
6
CONTINUOUS
62
4
100
AcDbLine
10
419.100000000000
20
87.380000000000
30
0.0
11
419.100000000000
21
88.350000000000
31
0.0
0
LINE
5
83a
100
AcDbEntity
8
0-000
6
CONTINUOUS
62
4
100
AcDbLine
10
417.980000000000
20
84.300000000000
30
0.0
11
417.980000000000
21
84.130000000000
31
0.0
0
LINE
5
83b
100
AcDbEntity
8
0-000
6
CONTINUOUS
62
4
100
AcDbLine
10
417.980000000000
20
81.700000000000
30
0.0
11
419.100000000000
21
81.050000000000
31
0.0
0
LINE
5
83c
100
AcDbEntity
8
0-000
6
CONTINUOUS
62
4
100
AcDbLine
10
417.980000000000
20
81.870000000000
30
0.0
11
419.100000000000
21
82.520000000000
31
0.0
0
LINE
5
83d
100
AcDbEntity
8
0-000
6
CONTINUOUS
62
4
100
AcDbLine
10
419.100000000000
20
82.520000000000
30
0.0
11
419.100000000000
21
83.480000000000
31
0.0
0
LINE
5
83e
100
AcDbEntity
8
0-000
6
CONTINUOUS
62
4
100
AcDbLine
10
425.220000000000
20
80.660000000000
30
0.0
11
425.220000000000
21
80.480000000000
31
0.0
0
LINE
5
83f
100
AcDbEntity
8
0-000
6
CONTINUOUS
62
4
100
AcDbLine
10
425.220000000000
20
80.660000000000
30
0.0
11
424.100000000000
21
81.300000000000
31
0.0
0
LINE
5
840
100
AcDbEntity
8
0-000
6
CONTINUOUS
62
4
100
AcDbLine
10
425.220000000000
20
80.480000000000
30
0.0
11
424.100000000000
21
79.840000000000
31
0.0
0
LINE
5
841
100
AcDbEntity
8
0-000
6
CONTINUOUS
62
4
100
AcDbLine
10
424.100000000000
20
82.270000000000
30
0.0
11
424.100000000000
21
81.300000000000
31
0.0
0
LINE
5
842
100
AcDbEntity
8
0-000
6
CONTINUOUS
62
4
100
AcDbLine
10
424.100000000000
20
79.840000000000
30
0.0
11
419.100000000000
21
81.050000000000
31
0.0
0
LINE
5
843
100
AcDbEntity
8
0-000
6
CONTINUOUS
62
4
100
AcDbLine
10
424.100000000000
20
81.300000000000
30
0.0
11
419.100000000000
21
82.520000000000
31
0.0
0
LINE
5
844
100
AcDbEntity
8
0-000
6
CONTINUOUS
62
4
100
AcDbLine
10
425.220000000000
20
80.480000000000
30
0.0
11
417.980000000000
21
81.700000000000
31
0.0
0
LINE
5
845
100
AcDbEntity
8
0-000
6
CONTINUOUS
62
4
100
AcDbLine
10
417.980000000000
20
81.870000000000
30
0.0
11
425.220000000000
21
80.660000000000
31
0.0
0
LINE
5
846
100
AcDbEntity
8
0-000
6
CONTINUOUS
62
4
100
AcDbLine
10
417.980000000000
20
81.870000000000
30
0.0
11
417.980000000000
21
81.700000000000
31
0.0
0
LINE
5
847
100
AcDbEntity
8
0-000
6
CONTINUOUS
62
4
100
AcDbLine
10
417.980000000000
20
76.840000000000
30
0.0
11
419.100000000000
21
76.190000000000
31
0.0
0
LINE
5
848
100
AcDbEntity
8
0-000
6
CONTINUOUS
62
4
100
AcDbLine
10
417.980000000000
20
77.010000000000
30
0.0
11
419.100000000000
21
77.660000000000
31
0.0
0
LINE
5
849
100
AcDbEntity
8
0-000
6
CONTINUOUS
62
4
100
AcDbLine
10
419.100000000000
20
77.660000000000
30
0.0
11
419.100000000000
21
78.620000000000
31
0.0
0
LINE
5
84a
100
AcDbEntity
8
0-000
6
CONTINUOUS
62
4
100
AcDbLine
10
425.220000000000
20
75.800000000000
30
0.0
11
425.220000000000
21
75.620000000000
31
0.0
0
LINE
5
84b
100
AcDbEntity
8
0-000
6
CONTINUOUS
62
4
100
AcDbLine
10
425.220000000000
20
75.800000000000
30
0.0
11
424.100000000000
21
76.440000000000
31
0.0
0
LINE
5
84c
100
AcDbEntity
8
0-000
6
CONTINUOUS
62
4
100
AcDbLine
10
425.220000000000
20
75.620000000000
30
0.0
11
424.100000000000
21
74.980000000000
31
0.0
0
LINE
5
84d
100
AcDbEntity
8
0-000
6
CONTINUOUS
62
4
100
AcDbLine
10
424.100000000000
20
77.410000000000
30
0.0
11
424.100000000000
21
76.440000000000
31
0.0
0
LINE
5
84e
100
AcDbEntity
8
0-000
6
CONTINUOUS
62
4
100
AcDbLine
10
424.100000000000
20
74.980000000000
30
0.0
11
419.100000000000
21
76.190000000000
31
0.0
0
LINE
5
84f
100
AcDbEntity
8
0-000
6
CONTINUOUS
62
4
100
AcDbLine
10
424.100000000000
20
76.440000000000
30
0.0
11
419.100000000000
21
77.660000000000
31
0.0
0
LINE
5
850
100
AcDbEntity
8
0-000
6
CONTINUOUS
62
4
100
AcDbLine
10
425.220000000000
20
75.620000000000
30
0.0
11
417.980000000000
21
76.840000000000
31
0.0
0
LINE
5
851
100
AcDbEntity
8
0-000
6
CONTINUOUS
62
4
100
AcDbLine
10
417.980000000000
20
77.010000000000
30
0.0
11
425.220000000000
21
75.800000000000
31
0.0
0
LINE
5
852
100
AcDbEntity
8
0-000
6
CONTINUOUS
62
4
100
AcDbLine
10
425.220000000000
20
78.230000000000
30
0.0
11
425.220000000000
21
78.050000000000
31
0.0
0
LINE
5
853
100
AcDbEntity
8
0-000
6
CONTINUOUS
62
4
100
AcDbLine
10
425.220000000000
20
78.230000000000
30
0.0
11
424.100000000000
21
78.870000000000
31
0.0
0
LINE
5
854
100
AcDbEntity
8
0-000
6
CONTINUOUS
62
4
100
AcDbLine
10
425.220000000000
20
78.050000000000
30
0.0
11
424.100000000000
21
77.410000000000
31
0.0
0
LINE
5
855
100
AcDbEntity
8
0-000
6
CONTINUOUS
62
4
100
AcDbLine
10
424.100000000000
20
79.840000000000
30
0.0
11
424.100000000000
21
78.870000000000
31
0.0
0
LINE
5
856
100
AcDbEntity
8
0-000
6
CONTINUOUS
62
4
100
AcDbLine
10
417.980000000000
20
79.270000000000
30
0.0
11
417.980000000000
21
79.440000000000
31
0.0
0
LINE
5
857
100
AcDbEntity
8
0-000
6
CONTINUOUS
62
4
100
AcDbLine
10
424.100000000000
20
77.410000000000
30
0.0
11
419.100000000000
21
78.620000000000
31
0.0
0
LINE
5
858
100
AcDbEntity
8
0-000
6
CONTINUOUS
62
4
100
AcDbLine
10
424.100000000000
20
78.870000000000
30
0.0
11
419.100000000000
21
80.090000000000
31
0.0
0
LINE
5
859
100
AcDbEntity
8
0-000
6
CONTINUOUS
62
4
100
AcDbLine
10
417.980000000000
20
79.270000000000
30
0.0
11
419.100000000000
21
78.620000000000
31
0.0
0
LINE
5
85a
100
AcDbEntity
8
0-000
6
CONTINUOUS
62
4
100
AcDbLine
10
417.980000000000
20
79.440000000000
30
0.0
11
419.100000000000
21
80.090000000000
31
0.0
0
LINE
5
85b
100
AcDbEntity
8
0-000
6
CONTINUOUS
62
4
100
AcDbLine
10
425.220000000000
20
78.050000000000
30
0.0
11
417.980000000000
21
79.270000000000
31
0.0
0
LINE
5
85c
100
AcDbEntity
8
0-000
6
CONTINUOUS
62
4
100
AcDbLine
10
417.980000000000
20
79.440000000000
30
0.0
11
425.220000000000
21
78.230000000000
31
0.0
0
LINE
5
85d
100
AcDbEntity
8
0-000
6
CONTINUOUS
62
4
100
AcDbLine
10
419.100000000000
20
80.090000000000
30
0.0
11
419.100000000000
21
81.050000000000
31
0.0
0
LINE
5
85e
100
AcDbEntity
8
0-000
6
CONTINUOUS
62
4
100
AcDbLine
10
417.980000000000
20
77.010000000000
30
0.0
11
417.980000000000
21
76.840000000000
31
0.0
0
LINE
5
85f
100
AcDbEntity
8
0-000
6
CONTINUOUS
62
4
100
AcDbLine
10
417.980000000000
20
74.410000000000
30
0.0
11
419.100000000000
21
73.760000000000
31
0.0
0
LINE
5
860
100
AcDbEntity
8
0-000
6
CONTINUOUS
62
4
100
AcDbLine
10
417.980000000000
20
74.580000000000
30
0.0
11
419.100000000000
21
75.230000000000
31
0.0
0
LINE
5
861
100
AcDbEntity
8
0-000
6
CONTINUOUS
62
4
100
AcDbLine
10
419.100000000000
20
75.230000000000
30
0.0
11
419.100000000000
21
76.190000000000
31
0.0
0
LINE
5
862
100
AcDbEntity
8
0-000
6
CONTINUOUS
62
4
100
AcDbLine
10
425.220000000000
20
73.360000000000
30
0.0
11
425.220000000000
21
73.190000000000
31
0.0
0
LINE
5
863
100
AcDbEntity
8
0-000
6
CONTINUOUS
62
4
100
AcDbLine
10
425.220000000000
20
73.360000000000
30
0.0
11
424.100000000000
21
74.010000000000
31
0.0
0
LINE
5
864
100
AcDbEntity
8
0-000
6
CONTINUOUS
62
4
100
AcDbLine
10
425.220000000000
20
73.190000000000
30
0.0
11
424.100000000000
21
72.540000000000
31
0.0
0
LINE
5
865
100
AcDbEntity
8
0-000
6
CONTINUOUS
62
4
100
AcDbLine
10
424.100000000000
20
74.980000000000
30
0.0
11
424.100000000000
21
74.010000000000
31
0.0
0
LINE
5
866
100
AcDbEntity
8
0-000
6
CONTINUOUS
62
4
100
AcDbLine
10
424.100000000000
20
72.540000000000
30
0.0
11
419.100000000000
21
73.760000000000
31
0.0
0
LINE
5
867
100
AcDbEntity
8
0-000
6
CONTINUOUS
62
4
100
AcDbLine
10
424.100000000000
20
74.010000000000
30
0.0
11
419.100000000000
21
75.230000000000
31
0.0
0
LINE
5
868
100
AcDbEntity
8
0-000
6
CONTINUOUS
62
4
100
AcDbLine
10
425.220000000000
20
73.190000000000
30
0.0
11
417.980000000000
21
74.410000000000
31
0.0
0
LINE
5
869
100
AcDbEntity
8
0-000
6
CONTINUOUS
62
4
100
AcDbLine
10
417.980000000000
20
74.580000000000
30
0.0
11
425.220000000000
21
73.360000000000
31
0.0
0
LINE
5
86a
100
AcDbEntity
8
0-000
6
CONTINUOUS
62
4
100
AcDbLine
10
417.980000000000
20
74.580000000000
30
0.0
11
417.980000000000
21
74.410000000000
31
0.0
0
LINE
5
86b
100
AcDbEntity
8
0-000
6
CONTINUOUS
62
4
100
AcDbLine
10
417.980000000000
20
69.550000000000
30
0.0
11
419.100000000000
21
68.900000000000
31
0.0
0
LINE
5
86c
100
AcDbEntity
8
0-000
6
CONTINUOUS
62
4
100
AcDbLine
10
417.980000000000
20
69.720000000000
30
0.0
11
419.100000000000
21
70.360000000000
31
0.0
0
LINE
5
86d
100
AcDbEntity
8
0-000
6
CONTINUOUS
62
4
100
AcDbLine
10
419.100000000000
20
70.360000000000
30
0.0
11
419.100000000000
21
71.330000000000
31
0.0
0
LINE
5
86e
100
AcDbEntity
8
0-000
6
CONTINUOUS
62
4
100
AcDbLine
10
425.220000000000
20
68.500000000000
30
0.0
11
425.220000000000
21
68.330000000000
31
0.0
0
LINE
5
86f
100
AcDbEntity
8
0-000
6
CONTINUOUS
62
4
100
AcDbLine
10
425.220000000000
20
68.500000000000
30
0.0
11
424.100000000000
21
69.150000000000
31
0.0
0
LINE
5
870
100
AcDbEntity
8
0-000
6
CONTINUOUS
62
4
100
AcDbLine
10
425.220000000000
20
68.330000000000
30
0.0
11
424.100000000000
21
67.680000000000
31
0.0
0
LINE
5
871
100
AcDbEntity
8
0-000
6
CONTINUOUS
62
4
100
AcDbLine
10
424.100000000000
20
70.110000000000
30
0.0
11
424.100000000000
21
69.150000000000
31
0.0
0
LINE
5
872
100
AcDbEntity
8
0-000
6
CONTINUOUS
62
4
100
AcDbLine
10
424.100000000000
20
67.680000000000
30
0.0
11
419.100000000000
21
68.900000000000
31
0.0
0
LINE
5
873
100
AcDbEntity
8
0-000
6
CONTINUOUS
62
4
100
AcDbLine
10
424.100000000000
20
69.150000000000
30
0.0
11
419.100000000000
21
70.360000000000
31
0.0
0
LINE
5
874
100
AcDbEntity
8
0-000
6
CONTINUOUS
62
4
100
AcDbLine
10
425.220000000000
20
68.330000000000
30
0.0
11
417.980000000000
21
69.550000000000
31
0.0
0
LINE
5
875
100
AcDbEntity
8
0-000
6
CONTINUOUS
62
4
100
AcDbLine
10
417.980000000000
20
69.720000000000
30
0.0
11
425.220000000000
21
68.500000000000
31
0.0
0
LINE
5
876
100
AcDbEntity
8
0-000
6
CONTINUOUS
62
4
100
AcDbLine
10
425.220000000000
20
70.930000000000
30
0.0
11
425.220000000000
21
70.760000000000
31
0.0
0
LINE
5
877
100
AcDbEntity
8
0-000
6
CONTINUOUS
62
4
100
AcDbLine
10
425.220000000000
20
70.930000000000
30
0.0
11
424.100000000000
21
71.580000000000
31
0.0
0
LINE
5
878
100
AcDbEntity
8
0-000
6
CONTINUOUS
62
4
100
AcDbLine
10
425.220000000000
20
70.760000000000
30
0.0
11
424.100000000000
21
70.110000000000
31
0.0
0
LINE
5
879
100
AcDbEntity
8
0-000
6
CONTINUOUS
62
4
100
AcDbLine
10
424.100000000000
20
72.540000000000
30
0.0
11
424.100000000000
21
71.580000000000
31
0.0
0
LINE
5
87a
100
AcDbEntity
8
0-000
6
CONTINUOUS
62
4
100
AcDbLine
10
417.980000000000
20
71.980000000000
30
0.0
11
417.980000000000
21
72.150000000000
31
0.0
0
LINE
5
87b
100
AcDbEntity
8
0-000
6
CONTINUOUS
62
4
100
AcDbLine
10
424.100000000000
20
70.110000000000
30
0.0
11
419.100000000000
21
71.330000000000
31
0.0
0
LINE
5
87c
100
AcDbEntity
8
0-000
6
CONTINUOUS
62
4
100
AcDbLine
10
424.100000000000
20
71.580000000000
30
0.0
11
419.100000000000
21
72.800000000000
31
0.0
0
LINE
5
87d
100
AcDbEntity
8
0-000
6
CONTINUOUS
62
4
100
AcDbLine
10
417.980000000000
20
71.980000000000
30
0.0
11
419.100000000000
21
71.330000000000
31
0.0
0
LINE
5
87e
100
AcDbEntity
8
0-000
6
CONTINUOUS
62
4
100
AcDbLine
10
417.980000000000
20
72.150000000000
30
0.0
11
419.100000000000
21
72.800000000000
31
0.0
0
LINE
5
87f
100
AcDbEntity
8
0-000
6
CONTINUOUS
62
4
100
AcDbLine
10
425.220000000000
20
70.760000000000
30
0.0
11
417.980000000000
21
71.980000000000
31
0.0
0
LINE
5
880
100
AcDbEntity
8
0-000
6
CONTINUOUS
62
4
100
AcDbLine
10
417.980000000000
20
72.150000000000
30
0.0
11
425.220000000000
21
70.930000000000
31
0.0
0
LINE
5
881
100
AcDbEntity
8
0-000
6
CONTINUOUS
62
4
100
AcDbLine
10
419.100000000000
20
72.800000000000
30
0.0
11
419.100000000000
21
73.760000000000
31
0.0
0
LINE
5
882
100
AcDbEntity
8
0-000
6
CONTINUOUS
62
4
100
AcDbLine
10
417.980000000000
20
69.720000000000
30
0.0
11
417.980000000000
21
69.550000000000
31
0.0
0
LINE
5
883
100
AcDbEntity
8
0-000
6
CONTINUOUS
62
4
100
AcDbLine
10
417.980000000000
20
67.110000000000
30
0.0
11
419.100000000000
21
66.470000000000
31
0.0
0
LINE
5
884
100
AcDbEntity
8
0-000
6
CONTINUOUS
62
4
100
AcDbLine
10
417.980000000000
20
67.290000000000
30
0.0
11
419.100000000000
21
67.930000000000
31
0.0
0
LINE
5
885
100
AcDbEntity
8
0-000
6
CONTINUOUS
62
4
100
AcDbLine
10
419.100000000000
20
67.930000000000
30
0.0
11
419.100000000000
21
68.900000000000
31
0.0
0
LINE
5
886
100
AcDbEntity
8
0-000
6
CONTINUOUS
62
4
100
AcDbLine
10
425.220000000000
20
66.070000000000
30
0.0
11
425.220000000000
21
65.900000000000
31
0.0
0
LINE
5
887
100
AcDbEntity
8
0-000
6
CONTINUOUS
62
4
100
AcDbLine
10
425.220000000000
20
66.070000000000
30
0.0
11
424.100000000000
21
66.720000000000
31
0.0
0
LINE
5
888
100
AcDbEntity
8
0-000
6
CONTINUOUS
62
4
100
AcDbLine
10
425.220000000000
20
65.900000000000
30
0.0
11
424.100000000000
21
65.250000000000
31
0.0
0
LINE
5
889
100
AcDbEntity
8
0-000
6
CONTINUOUS
62
4
100
AcDbLine
10
424.100000000000
20
67.680000000000
30
0.0
11
424.100000000000
21
66.720000000000
31
0.0
0
LINE
5
88a
100
AcDbEntity
8
0-000
6
CONTINUOUS
62
4
100
AcDbLine
10
424.100000000000
20
65.250000000000
30
0.0
11
419.100000000000
21
66.470000000000
31
0.0
0
LINE
5
88b
100
AcDbEntity
8
0-000
6
CONTINUOUS
62
4
100
AcDbLine
10
424.100000000000
20
66.720000000000
30
0.0
11
419.100000000000
21
67.930000000000
31
0.0
0
LINE
5
88c
100
AcDbEntity
8
0-000
6
CONTINUOUS
62
4
100
AcDbLine
10
425.220000000000
20
65.900000000000
30
0.0
11
417.980000000000
21
67.110000000000
31
0.0
0
LINE
5
88d
100
AcDbEntity
8
0-000
6
CONTINUOUS
62
4
100
AcDbLine
10
417.980000000000
20
67.290000000000
30
0.0
11
425.220000000000
21
66.070000000000
31
0.0
0
LINE
5
88e
100
AcDbEntity
8
0-000
6
CONTINUOUS
62
4
100
AcDbLine
10
417.980000000000
20
67.290000000000
30
0.0
11
417.980000000000
21
67.110000000000
31
0.0
0
LINE
5
88f
100
AcDbEntity
8
0-000
6
CONTINUOUS
62
4
100
AcDbLine
10
419.100000000000
20
63.070000000000
30
0.0
11
419.100000000000
21
64.040000000000
31
0.0
0
LINE
5
890
100
AcDbEntity
8
0-000
6
CONTINUOUS
62
4
100
AcDbLine
10
424.100000000000
20
62.820000000000
30
0.0
11
424.100000000000
21
61.860000000000
31
0.0
0
LINE
5
891
100
AcDbEntity
8
0-000
6
CONTINUOUS
62
4
100
AcDbLine
10
425.220000000000
20
63.640000000000
30
0.0
11
425.220000000000
21
63.470000000000
31
0.0
0
LINE
5
892
100
AcDbEntity
8
0-000
6
CONTINUOUS
62
4
100
AcDbLine
10
425.220000000000
20
63.640000000000
30
0.0
11
424.100000000000
21
64.290000000000
31
0.0
0
LINE
5
893
100
AcDbEntity
8
0-000
6
CONTINUOUS
62
4
100
AcDbLine
10
425.220000000000
20
63.470000000000
30
0.0
11
424.100000000000
21
62.820000000000
31
0.0
0
LINE
5
894
100
AcDbEntity
8
0-000
6
CONTINUOUS
62
4
100
AcDbLine
10
424.100000000000
20
65.250000000000
30
0.0
11
424.100000000000
21
64.290000000000
31
0.0
0
LINE
5
895
100
AcDbEntity
8
0-000
6
CONTINUOUS
62
4
100
AcDbLine
10
417.980000000000
20
64.680000000000
30
0.0
11
417.980000000000
21
64.860000000000
31
0.0
0
LINE
5
896
100
AcDbEntity
8
0-000
6
CONTINUOUS
62
4
100
AcDbLine
10
424.100000000000
20
62.820000000000
30
0.0
11
419.100000000000
21
64.040000000000
31
0.0
0
LINE
5
897
100
AcDbEntity
8
0-000
6
CONTINUOUS
62
4
100
AcDbLine
10
424.100000000000
20
64.290000000000
30
0.0
11
419.100000000000
21
65.500000000000
31
0.0
0
LINE
5
898
100
AcDbEntity
8
0-000
6
CONTINUOUS
62
4
100
AcDbLine
10
417.980000000000
20
64.680000000000
30
0.0
11
419.100000000000
21
64.040000000000
31
0.0
0
LINE
5
899
100
AcDbEntity
8
0-000
6
CONTINUOUS
62
4
100
AcDbLine
10
417.980000000000
20
64.860000000000
30
0.0
11
419.100000000000
21
65.500000000000
31
0.0
0
LINE
5
89a
100
AcDbEntity
8
0-000
6
CONTINUOUS
62
4
100
AcDbLine
10
425.220000000000
20
63.470000000000
30
0.0
11
417.980000000000
21
64.680000000000
31
0.0
0
LINE
5
89b
100
AcDbEntity
8
0-000
6
CONTINUOUS
62
4
100
AcDbLine
10
417.980000000000
20
64.860000000000
30
0.0
11
425.220000000000
21
63.640000000000
31
0.0
0
LINE
5
89c
100
AcDbEntity
8
0-000
6
CONTINUOUS
62
4
100
AcDbLine
10
419.100000000000
20
65.500000000000
30
0.0
11
419.100000000000
21
66.470000000000
31
0.0
0
LINE
5
89d
100
AcDbEntity
8
0-000
6
CONTINUOUS
62
4
100
AcDbLine
10
424.100000000000
20
59.660000000000
30
0.0
11
424.100000000000
21
62.820000000000
31
0.0
0
LINE
5
89e
100
AcDbEntity
8
0-000
6
CONTINUOUS
62
4
100
AcDbLine
10
419.100000000000
20
64.040000000000
30
0.0
11
419.100000000000
21
58.160000000000
31
0.0
0
LINE
5
89f
100
AcDbEntity
8
0-000
6
CONTINUOUS
62
4
100
AcDbLine
10
418.670000000000
20
104.150000000000
30
0.0
11
418.670000000000
21
178.700000000000
31
0.0
0
LINE
5
8a0
100
AcDbEntity
8
0-000
6
CONTINUOUS
62
4
100
AcDbLine
10
424.670000000000
20
178.700000000000
30
0.0
11
424.670000000000
21
102.860000000000
31
0.0
0
LINE
5
8a1
100
AcDbEntity
8
0-000
6
CONTINUOUS
62
7
100
AcDbLine
10
649.670000000000
20
174.840000000000
30
0.0
11
669.990000000000
21
174.840000000000
31
0.0
0
LINE
5
8a2
100
AcDbEntity
8
0-000
6
CONTINUOUS
62
7
100
AcDbLine
10
669.990000000000
20
174.840000000000
30
0.0
11
679.950000000000
21
199.340000000000
31
0.0
0
LINE
5
8a3
100
AcDbEntity
8
0-000
6
CONTINUOUS
62
4
100
AcDbLine
10
193.600000000000
20
178.870000000000
30
0.0
11
199.600000000000
21
178.880000000000
31
0.0
0
LINE
5
8a4
100
AcDbEntity
8
0-000
6
CONTINUOUS
62
4
100
AcDbLine
10
643.670000000000
20
177.140000000000
30
0.0
11
643.670000000000
21
180.200000000000
31
0.0
0
LINE
5
8a5
100
AcDbEntity
8
0-000
6
CONTINUOUS
62
4
100
AcDbLine
10
649.670000000000
20
180.200000000000
30
0.0
11
649.670000000000
21
102.860000000000
31
0.0
0
LINE
5
8a6
100
AcDbEntity
8
0-000
6
CONTINUOUS
62
3
100
AcDbLine
10
83.580000000000
20
90.020000000000
30
0.0
11
759.160000000000
21
90.020000000000
31
0.0
0
LINE
5
8a7
100
AcDbEntity
8
0-000
6
CONTINUOUS
62
3
100
AcDbLine
10
83.580000000000
20
70.020000000000
30
0.0
11
759.160000000000
21
70.020000000000
31
0.0
0
LINE
5
8a8
100
AcDbEntity
8
0-000
6
CONTINUOUS
62
4
100
AcDbLine
10
193.670000000000
20
90.020000000000
30
0.0
11
193.670000000000
21
162.220000000000
31
0.0
0
LINE
5
8a9
100
AcDbEntity
8
0-000
6
CONTINUOUS
62
4
100
AcDbLine
10
199.670000000000
20
162.220000000000
30
0.0
11
199.670000000000
21
90.020000000000
31
0.0
0
LINE
5
8aa
100
AcDbEntity
8
0-000
6
CONTINUOUS
62
4
100
AcDbLine
10
650.140000000000
20
159.130000000000
30
0.0
11
650.140000000000
21
90.020000000000
31
0.0
0
LINE
5
8ab
100
AcDbEntity
8
0-000
6
CONTINUOUS
62
4
100
AcDbLine
10
644.140000000000
20
90.020000000000
30
0.0
11
644.140000000000
21
159.130000000000
31
0.0
0
LINE
5
8ac
100
AcDbEntity
8
0-000
6
CONTINUOUS
62
7
100
AcDbLine
10
424.830000000000
20
194.100000000000
30
0.0
11
426.970000000000
21
202.100000000000
31
0.0
0
LINE
5
8ad
100
AcDbEntity
8
0-000
6
CONTINUOUS
62
7
100
AcDbLine
10
424.830000000000
20
194.100000000000
30
0.0
11
430.680000000000
21
199.960000000000
31
0.0
0
LINE
5
8ae
100
AcDbEntity
8
0-000
6
CONTINUOUS
62
7
100
AcDbLine
10
442.180000000000
20
171.370000000000
30
0.0
11
444.320000000000
21
179.370000000000
31
0.0
0
LINE
5
8af
100
AcDbEntity
8
0-000
6
CONTINUOUS
62
7
100
AcDbLine
10
442.180000000000
20
171.370000000000
30
0.0
11
448.030000000000
21
177.220000000000
31
0.0
0
LINE
5
8b0
100
AcDbEntity
8
0-000
6
CONTINUOUS
62
7
100
AcDbLine
10
424.830000000000
20
194.100000000000
30
0.0
11
439.020000000000
21
218.670000000000
31
0.0
0
LINE
5
8b1
100
AcDbEntity
8
0-000
6
CONTINUOUS
62
7
100
AcDbLine
10
442.180000000000
20
171.370000000000
30
0.0
11
460.820000000000
21
203.660000000000
31
0.0
0
LINE
5
8b2
100
AcDbEntity
8
0-000
6
DOT
62
3
100
AcDbLine
10
644.140000000000
20
41.450000000000
30
0.0
11
644.140000000000
21
90.020000000000
31
0.0
0
LINE
5
8b3
100
AcDbEntity
8
0-000
6
DOT
62
3
100
AcDbLine
10
650.140000000000
20
90.020000000000
30
0.0
11
650.140000000000
21
41.450000000000
31
0.0
0
LINE
5
8b4
100
AcDbEntity
8
0-000
6
DOT
62
3
100
AcDbLine
10
193.670000000000
20
41.450000000000
30
0.0
11
193.670000000000
21
90.020000000000
31
0.0
0
LINE
5
8b5
100
AcDbEntity
8
0-000
6
DOT
62
3
100
AcDbLine
10
199.670000000000
20
90.020000000000
30
0.0
11
199.670000000000
21
41.450000000000
31
0.0
0
LINE
5
8b6
100
AcDbEntity
8
0-000
6
CONTINUOUS
62
7
100
AcDbLine
10
488.130000000000
20
104.350000000000
30
0.0
11
490.280000000000
21
96.350000000000
31
0.0
0
LINE
5
8b7
100
AcDbEntity
8
0-000
6
CONTINUOUS
62
7
100
AcDbLine
10
488.130000000000
20
104.350000000000
30
0.0
11
493.990000000000
21
98.490000000000
31
0.0
0
LINE
5
8b8
100
AcDbEntity
8
0-000
6
CONTINUOUS
62
7
100
AcDbLine
10
272.470000000000
20
70.020000000000
30
0.0
11
274.610000000000
21
62.020000000000
31
0.0
0
LINE
5
8b9
100
AcDbEntity
8
0-000
6
CONTINUOUS
62
7
100
AcDbLine
10
272.470000000000
20
70.020000000000
30
0.0
11
278.320000000000
21
64.160000000000
31
0.0
0
LINE
5
8ba
100
AcDbEntity
8
0-000
6
CONTINUOUS
62
7
100
AcDbLine
10
488.130000000000
20
104.350000000000
30
0.0
11
511.300000000000
21
64.230000000000
31
0.0
0
LINE
5
8bb
100
AcDbEntity
8
0-000
6
CONTINUOUS
62
7
100
AcDbLine
10
272.470000000000
20
70.020000000000
30
0.0
11
278.860000000000
21
58.940000000000
31
0.0
0
LINE
5
8bc
100
AcDbEntity
8
0-000
6
CONTINUOUS
62
7
100
AcDbLine
10
199.600000000000
20
175.590000000000
30
0.0
11
219.930000000000
21
175.590000000000
31
0.0
0
LINE
5
8bd
100
AcDbEntity
8
0-000
6
CONTINUOUS
62
7
100
AcDbLine
10
219.930000000000
20
175.590000000000
30
0.0
11
229.890000000000
21
200.090000000000
31
0.0
0
LINE
5
8be
100
AcDbEntity
8
0-000
6
CONTINUOUS
62
4
100
AcDbLine
10
182.670000000000
20
158.500000000000
30
0.0
11
186.870000000000
21
162.700000000000
31
0.0
0
CIRCLE
5
8bf
100
AcDbEntity
8
F-F_J_ADDF
6
CONTINUOUS
62
3
100
AcDbCircle
10
39.860000000000
20
33.550000000000
30
0.0
40
5.656899781463
0
CIRCLE
5
8c0
100
AcDbEntity
8
F-F_J_ADDF
6
CONTINUOUS
62
3
100
AcDbCircle
10
39.860000000000
20
33.550000000000
30
0.0
40
5.656899781463
0
CIRCLE
5
8c1
100
AcDbEntity
8
F-F_J_ADDF
6
CONTINUOUS
62
3
100
AcDbCircle
10
39.860000000000
20
33.550000000000
30
0.0
40
5.656899781463
0
CIRCLE
5
8c2
100
AcDbEntity
8
F-F_J_ADDF
6
CONTINUOUS
62
3
100
AcDbCircle
10
39.860000000000
20
33.550000000000
30
0.0
40
6.456899924157
0
CIRCLE
5
8c3
100
AcDbEntity
8
F-F_J_ADDF
6
CONTINUOUS
62
4
100
AcDbCircle
10
39.860000000000
20
33.550000000000
30
0.0
40
5.736899795732
0
CIRCLE
5
8c4
100
AcDbEntity
8
F-F_J_ADDF
6
CONTINUOUS
62
4
100
AcDbCircle
10
39.860000000000
20
33.550000000000
30
0.0
40
5.896899824271
0
CIRCLE
5
8c5
100
AcDbEntity
8
F-F_J_ADDF
6
CONTINUOUS
62
4
100
AcDbCircle
10
39.860000000000
20
33.550000000000
30
0.0
40
6.056899852810
0
CIRCLE
5
8c6
100
AcDbEntity
8
F-F_J_ADDF
6
CONTINUOUS
62
4
100
AcDbCircle
10
39.860000000000
20
33.550000000000
30
0.0
40
6.216899881349
0
CIRCLE
5
8c7
100
AcDbEntity
8
F-F_J_ADDF
6
CONTINUOUS
62
4
100
AcDbCircle
10
39.860000000000
20
33.550000000000
30
0.0
40
6.376899909887
0
ARC
5
8c8
100
AcDbEntity
8
0-000
6
CONTINUOUS
62
3
100
AcDbCircle
10
56.510000000000
20
378.450000000000
30
0.0
40
0.719999934882
100
AcDbArc
50
147.741546630859
51
327.741546630859
0
ARC
5
8c9
100
AcDbEntity
8
0-000
6
CONTINUOUS
62
3
100
AcDbCircle
10
56.510000000000
20
378.450000000000
30
0.0
40
0.219399984942
100
AcDbArc
50
147.739608764648
51
327.739608764648
0
ARC
5
8ca
100
AcDbEntity
8
0-000
6
CONTINUOUS
62
7
100
AcDbCircle
10
81.820000000000
20
199.840000000000
30
0.0
40
98.401597632239
100
AcDbArc
50
271.373474121094
51
324.348175048828
0
ARC
5
8cb
100
AcDbEntity
8
0-000
6
CONTINUOUS
62
7
100
AcDbCircle
10
81.820000000000
20
199.840000000000
30
0.0
40
104.901602952790
100
AcDbArc
50
271.263916015625
51
324.348175048828
0
ARC
5
8cc
100
AcDbEntity
8
0-000
6
CONTINUOUS
62
7
100
AcDbCircle
10
196.790000000000
20
117.870000000000
30
0.0
40
42.802599942240
100
AcDbArc
50
89.605819702148
51
144.892044067383
0
ARC
5
8cd
100
AcDbEntity
8
0-000
6
CONTINUOUS
62
7
100
AcDbCircle
10
196.790000000000
20
117.870000000000
30
0.0
40
36.302597718368
100
AcDbArc
50
89.605819702148
51
144.892044067383
0
ARC
5
8ce
100
AcDbEntity
8
0-000
6
CONTINUOUS
62
7
100
AcDbCircle
10
306.810000000000
20
198.300000000000
30
0.0
40
98.401597632239
100
AcDbArc
50
271.373474121094
51
324.348175048828
0
ARC
5
8cf
100
AcDbEntity
8
0-000
6
CONTINUOUS
62
7
100
AcDbCircle
10
306.810000000000
20
198.300000000000
30
0.0
40
104.901602952790
100
AcDbArc
50
271.263916015625
51
324.348175048828
0
ARC
5
8d0
100
AcDbEntity
8
0-000
6
CONTINUOUS
62
7
100
AcDbCircle
10
312.880000000000
20
198.260000000000
30
0.0
40
98.401597632239
100
AcDbArc
50
214.863449096680
51
267.838165283203
0
ARC
5
8d1
100
AcDbEntity
8
0-000
6
CONTINUOUS
62
7
100
AcDbCircle
10
196.790000000000
20
117.870000000000
30
0.0
40
36.302597718368
100
AcDbArc
50
34.319595336914
51
89.605819702148
0
ARC
5
8d2
100
AcDbEntity
8
0-000
6
CONTINUOUS
62
7
100
AcDbCircle
10
196.790000000000
20
117.870000000000
30
0.0
40
42.802599942240
100
AcDbArc
50
34.319595336914
51
89.605819702148
0
ARC
5
8d3
100
AcDbEntity
8
0-000
6
CONTINUOUS
62
7
100
AcDbCircle
10
421.790000000000
20
116.330000000000
30
0.0
40
42.802599942240
100
AcDbArc
50
89.605819702148
51
144.892044067383
0
ARC
5
8d4
100
AcDbEntity
8
0-000
6
CONTINUOUS
62
7
100
AcDbCircle
10
421.790000000000
20
116.330000000000
30
0.0
40
36.302597718368
100
AcDbArc
50
89.605819702148
51
144.892044067383
0
ARC
5
8d5
100
AcDbEntity
8
0-000
6
CONTINUOUS
62
7
100
AcDbCircle
10
531.810000000000
20
196.750000000000
30
0.0
40
98.401597632239
100
AcDbArc
50
271.373474121094
51
324.348175048828
0
ARC
5
8d6
100
AcDbEntity
8
0-000
6
CONTINUOUS
62
7
100
AcDbCircle
10
531.810000000000
20
196.750000000000
30
0.0
40
104.901602952790
100
AcDbArc
50
271.263916015625
51
324.348175048828
0
ARC
5
8d7
100
AcDbEntity
8
0-000
6
CONTINUOUS
62
7
100
AcDbCircle
10
537.880000000000
20
196.710000000000
30
0.0
40
98.401597632239
100
AcDbArc
50
214.863449096680
51
267.838165283203
0
ARC
5
8d8
100
AcDbEntity
8
0-000
6
CONTINUOUS
62
7
100
AcDbCircle
10
537.880000000000
20
196.710000000000
30
0.0
40
104.901602952790
100
AcDbArc
50
214.863449096680
51
267.947723388672
0
ARC
5
8d9
100
AcDbEntity
8
0-000
6
CONTINUOUS
62
7
100
AcDbCircle
10
421.790000000000
20
116.330000000000
30
0.0
40
36.302597718368
100
AcDbArc
50
34.319595336914
51
89.605819702148
0
ARC
5
8da
100
AcDbEntity
8
0-000
6
CONTINUOUS
62
7
100
AcDbCircle
10
421.790000000000
20
116.330000000000
30
0.0
40
42.802599942240
100
AcDbArc
50
34.319595336914
51
89.605819702148
0
ARC
5
8db
100
AcDbEntity
8
0-000
6
CONTINUOUS
62
7
100
AcDbCircle
10
646.780000000000
20
114.780000000000
30
0.0
40
42.802599942240
100
AcDbArc
50
89.605819702148
51
144.892044067383
0
ARC
5
8dc
100
AcDbEntity
8
0-000
6
CONTINUOUS
62
7
100
AcDbCircle
10
646.780000000000
20
114.780000000000
30
0.0
40
36.302597718368
100
AcDbArc
50
89.605819702148
51
144.892044067383
0
ARC
5
8dd
100
AcDbEntity
8
0-000
6
CONTINUOUS
62
7
100
AcDbCircle
10
646.780000000000
20
114.780000000000
30
0.0
40
36.302597718368
100
AcDbArc
50
34.319595336914
51
89.605819702148
0
ARC
5
8de
100
AcDbEntity
8
0-000
6
CONTINUOUS
62
7
100
AcDbCircle
10
646.780000000000
20
114.780000000000
30
0.0
40
42.802599942240
100
AcDbArc
50
34.319595336914
51
89.605819702148
0
ARC
5
8df
100
AcDbEntity
8
0-000
6
CONTINUOUS
62
7
100
AcDbCircle
10
762.870000000000
20
195.160000000000
30
0.0
40
98.401597632239
100
AcDbArc
50
214.863449096680
51
267.838165283203
0
ARC
5
8e0
100
AcDbEntity
8
0-000
6
CONTINUOUS
62
7
100
AcDbCircle
10
762.870000000000
20
195.160000000000
30
0.0
40
104.901602952790
100
AcDbArc
50
214.863449096680
51
267.947723388672
0
ARC
5
8e1
100
AcDbEntity
8
0-000
6
CONTINUOUS
62
3
100
AcDbCircle
10
169.010000000000
20
164.520000000000
30
0.0
40
0.719999934882
100
AcDbArc
50
147.741546630859
51
327.741546630859
0
ARC
5
8e2
100
AcDbEntity
8
0-000
6
CONTINUOUS
62
3
100
AcDbCircle
10
169.010000000000
20
164.520000000000
30
0.0
40
0.219399984942
100
AcDbArc
50
147.739608764648
51
327.739608764648
0
ARC
5
8e3
100
AcDbEntity
8
0-000
6
CONTINUOUS
62
4
100
AcDbCircle
10
204.440000000000
20
182.350000000000
30
0.0
40
5.441000036654
100
AcDbArc
50
33.069259643555
51
83.036132812500
0
ARC
5
8e4
100
AcDbEntity
8
0-000
6
CONTINUOUS
62
4
100
AcDbCircle
10
188.760000000000
20
182.350000000000
30
0.0
40
5.441000036654
100
AcDbArc
50
96.963836669922
51
146.930725097656
0
ARC
5
8e5
100
AcDbEntity
8
0-000
6
CONTINUOUS
62
4
100
AcDbCircle
10
201.610000000000
20
191.280000000000
30
0.0
40
2.972399827620
100
AcDbArc
50
59.896102905273
51
120.103866577148
0
ARC
5
8e6
100
AcDbEntity
8
0-000
6
CONTINUOUS
62
4
100
AcDbCircle
10
196.600000000000
20
178.570000000000
30
0.0
40
15.676599545647
100
AcDbArc
50
77.030944824219
51
102.969039916992
0
ARC
5
8e7
100
AcDbEntity
8
0-000
6
CONTINUOUS
62
4
100
AcDbCircle
10
191.590000000000
20
191.270000000000
30
0.0
40
2.980599835856
100
AcDbArc
50
59.987182617188
51
120.012802124023
0
ARC
5
8e8
100
AcDbEntity
8
0-000
6
CONTINUOUS
62
4
100
AcDbCircle
10
201.610000000000
20
191.280000000000
30
0.0
40
2.972399827620
100
AcDbArc
50
59.896057128906
51
91.789337158203
0
ARC
5
8e9
100
AcDbEntity
8
0-000
6
CONTINUOUS
62
4
100
AcDbCircle
10
191.590000000000
20
191.270000000000
30
0.0
40
2.980599835856
100
AcDbArc
50
89.373764038086
51
120.012756347656
0
ARC
5
8ea
100
AcDbEntity
8
0-000
6
CONTINUOUS
62
4
100
AcDbCircle
10
197.710000000000
20
61.580000000000
30
0.0
40
1.999999969650
100
AcDbArc
50
66.572341918945
51
170.343276977539
0
ARC
5
8eb
100
AcDbEntity
8
0-000
6
CONTINUOUS
62
4
100
AcDbCircle
10
197.710000000000
20
61.580000000000
30
0.0
40
1.999999969650
100
AcDbArc
50
66.572341918945
51
170.343276977539
0
ARC
5
8ec
100
AcDbEntity
8
0-000
6
CONTINUOUS
62
4
100
AcDbCircle
10
654.510000000000
20
181.600000000000
30
0.0
40
5.441000036654
100
AcDbArc
50
33.069259643555
51
83.036132812500
0
ARC
5
8ed
100
AcDbEntity
8
0-000
6
CONTINUOUS
62
4
100
AcDbCircle
10
638.830000000000
20
181.600000000000
30
0.0
40
5.441000036654
100
AcDbArc
50
96.963836669922
51
146.930725097656
0
ARC
5
8ee
100
AcDbEntity
8
0-000
6
CONTINUOUS
62
4
100
AcDbCircle
10
651.670000000000
20
190.530000000000
30
0.0
40
2.972399827620
100
AcDbArc
50
59.896102905273
51
120.103866577148
0
ARC
5
8ef
100
AcDbEntity
8
0-000
6
CONTINUOUS
62
4
100
AcDbCircle
10
646.670000000000
20
177.820000000000
30
0.0
40
15.676599545647
100
AcDbArc
50
77.030944824219
51
102.969039916992
0
ARC
5
8f0
100
AcDbEntity
8
0-000
6
CONTINUOUS
62
4
100
AcDbCircle
10
641.660000000000
20
190.520000000000
30
0.0
40
2.980599835856
100
AcDbArc
50
59.987182617188
51
120.012802124023
0
ARC
5
8f1
100
AcDbEntity
8
0-000
6
CONTINUOUS
62
4
100
AcDbCircle
10
651.670000000000
20
190.530000000000
30
0.0
40
2.972399827620
100
AcDbArc
50
59.896057128906
51
91.789337158203
0
ARC
5
8f2
100
AcDbEntity
8
0-000
6
CONTINUOUS
62
4
100
AcDbCircle
10
641.660000000000
20
190.520000000000
30
0.0
40
2.980599835856
100
AcDbArc
50
89.373764038086
51
120.012756347656
0
ARC
5
8f3
100
AcDbEntity
8
0-000
6
CONTINUOUS
62
4
100
AcDbCircle
10
647.780000000000
20
60.830000000000
30
0.0
40
1.999999969650
100
AcDbArc
50
66.572341918945
51
170.343276977539
0
ARC
5
8f4
100
AcDbEntity
8
0-000
6
CONTINUOUS
62
4
100
AcDbCircle
10
647.780000000000
20
60.830000000000
30
0.0
40
1.999999969650
100
AcDbArc
50
66.572341918945
51
170.343276977539
0
ARC
5
8f5
100
AcDbEntity
8
0-000
6
CONTINUOUS
62
4
100
AcDbCircle
10
204.510000000000
20
162.100000000000
30
0.0
40
5.441000036654
100
AcDbArc
50
33.069259643555
51
83.036132812500
0
ARC
5
8f6
100
AcDbEntity
8
0-000
6
CONTINUOUS
62
4
100
AcDbCircle
10
188.830000000000
20
162.100000000000
30
0.0
40
5.441000036654
100
AcDbArc
50
96.963836669922
51
146.930725097656
0
ARC
5
8f7
100
AcDbEntity
8
0-000
6
CONTINUOUS
62
4
100
AcDbCircle
10
201.670000000000
20
171.030000000000
30
0.0
40
2.972399827620
100
AcDbArc
50
59.896102905273
51
120.103866577148
0
ARC
5
8f8
100
AcDbEntity
8
0-000
6
CONTINUOUS
62
4
100
AcDbCircle
10
196.670000000000
20
158.330000000000
30
0.0
40
15.676599545647
100
AcDbArc
50
77.030944824219
51
102.969039916992
0
ARC
5
8f9
100
AcDbEntity
8
0-000
6
CONTINUOUS
62
4
100
AcDbCircle
10
191.660000000000
20
171.020000000000
30
0.0
40
2.980599835856
100
AcDbArc
50
59.987182617188
51
120.012802124023
0
ARC
5
8fa
100
AcDbEntity
8
0-000
6
CONTINUOUS
62
4
100
AcDbCircle
10
201.670000000000
20
171.030000000000
30
0.0
40
2.972399827620
100
AcDbArc
50
59.896057128906
51
91.789337158203
0
ARC
5
8fb
100
AcDbEntity
8
0-000
6
CONTINUOUS
62
4
100
AcDbCircle
10
191.660000000000
20
171.020000000000
30
0.0
40
2.980599835856
100
AcDbArc
50
89.373764038086
51
120.012756347656
0
ARC
5
8fc
100
AcDbEntity
8
0-000
6
CONTINUOUS
62
4
100
AcDbCircle
10
654.980000000000
20
158.680000000000
30
0.0
40
5.441000036654
100
AcDbArc
50
33.069259643555
51
83.036132812500
0
ARC
5
8fd
100
AcDbEntity
8
0-000
6
CONTINUOUS
62
4
100
AcDbCircle
10
639.300000000000
20
158.680000000000
30
0.0
40
5.441000036654
100
AcDbArc
50
96.963836669922
51
146.930725097656
0
ARC
5
8fe
100
AcDbEntity
8
0-000
6
CONTINUOUS
62
4
100
AcDbCircle
10
652.150000000000
20
167.610000000000
30
0.0
40
2.972399827620
100
AcDbArc
50
59.896102905273
51
120.103866577148
0
ARC
5
8ff
100
AcDbEntity
8
0-000
6
CONTINUOUS
62
4
100
AcDbCircle
10
647.140000000000
20
154.900000000000
30
0.0
40
15.676599545647
100
AcDbArc
50
77.030944824219
51
102.969039916992
0
ARC
5
900
100
AcDbEntity
8
0-000
6
CONTINUOUS
62
4
100
AcDbCircle
10
642.140000000000
20
167.600000000000
30
0.0
40
2.980599835856
100
AcDbArc
50
59.987182617188
51
120.012802124023
0
ARC
5
901
100
AcDbEntity
8
0-000
6
CONTINUOUS
62
4
100
AcDbCircle
10
652.150000000000
20
167.610000000000
30
0.0
40
2.972399827620
100
AcDbArc
50
59.896057128906
51
91.789337158203
0
ARC
5
902
100
AcDbEntity
8
0-000
6
CONTINUOUS
62
4
100
AcDbCircle
10
642.140000000000
20
167.600000000000
30
0.0
40
2.980599835856
100
AcDbArc
50
89.373764038086
51
120.012756347656
0
ARC
5
903
100
AcDbEntity
8
0-000
6
CONTINUOUS
62
4
100
AcDbCircle
10
429.510000000000
20
181.600000000000
30
0.0
40
5.441000036654
100
AcDbArc
50
33.069259643555
51
83.036132812500
0
ARC
5
904
100
AcDbEntity
8
0-000
6
CONTINUOUS
62
4
100
AcDbCircle
10
413.820000000000
20
181.600000000000
30
0.0
40
5.441000036654
100
AcDbArc
50
96.963836669922
51
146.930725097656
0
ARC
5
905
100
AcDbEntity
8
0-000
6
CONTINUOUS
62
4
100
AcDbCircle
10
426.670000000000
20
190.530000000000
30
0.0
40
2.972399827620
100
AcDbArc
50
59.896102905273
51
120.103866577148
0
ARC
5
906
100
AcDbEntity
8
0-000
6
CONTINUOUS
62
4
100
AcDbCircle
10
421.670000000000
20
177.820000000000
30
0.0
40
15.676599545647
100
AcDbArc
50
77.030944824219
51
102.969039916992
0
ARC
5
907
100
AcDbEntity
8
0-000
6
CONTINUOUS
62
4
100
AcDbCircle
10
416.660000000000
20
190.520000000000
30
0.0
40
2.980599835856
100
AcDbArc
50
59.987182617188
51
120.012802124023
0
ARC
5
908
100
AcDbEntity
8
0-000
6
CONTINUOUS
62
4
100
AcDbCircle
10
426.670000000000
20
190.530000000000
30
0.0
40
2.972399827620
100
AcDbArc
50
59.896057128906
51
91.789337158203
0
ARC
5
909
100
AcDbEntity
8
0-000
6
CONTINUOUS
62
4
100
AcDbCircle
10
416.660000000000
20
190.520000000000
30
0.0
40
2.980599835856
100
AcDbArc
50
89.373764038086
51
120.012756347656
0
ARC
5
90a
100
AcDbEntity
8
0-000
6
CONTINUOUS
62
4
100
AcDbCircle
10
422.780000000000
20
60.830000000000
30
0.0
40
1.999999969650
100
AcDbArc
50
66.572341918945
51
170.343276977539
0
ARC
5
90b
100
AcDbEntity
8
0-000
6
CONTINUOUS
62
4
100
AcDbCircle
10
422.780000000000
20
60.830000000000
30
0.0
40
1.999999969650
100
AcDbArc
50
66.572341918945
51
170.343276977539
0
ARC
5
90c
100
AcDbEntity
8
0-000
6
CONTINUOUS
62
7
100
AcDbCircle
10
312.880000000000
20
198.260000000000
30
0.0
40
104.901602952790
100
AcDbArc
50
214.863449096680
51
267.947723388672
0
TEXT
5
90d
100
AcDbEntity
8
F-F_J_ADDF
62
3
100
AcDbText
10
83.178
20
13.785
30
0.0
40
3.900
1
電話（０５４）２６３－２２８０（代表）
41
1.125
50
0.000
100
AcDbText
0
TEXT
5
90e
100
AcDbEntity
8
F-F_J_ADDF
62
7
100
AcDbText
10
265.928
20
37.427
30
0.0
40
2.925
1
変　　　　　　更　　　　　　記　　　　　　事
41
1.167
50
0.000
100
AcDbText
0
TEXT
5
90f
100
AcDbEntity
8
F-F_J_ADDF
62
7
100
AcDbText
10
407.795
20
37.027
30
0.0
40
2.925
1
受領　　日附
41
1.167
50
0.000
100
AcDbText
0
TEXT
5
910
100
AcDbEntity
8
F-F_J_ADDF
62
7
100
AcDbText
10
506.904
20
22.311
30
0.0
40
2.925
1
施工者
41
1.167
50
0.000
100
AcDbText
0
TEXT
5
911
100
AcDbEntity
8
F-F_J_ADDF
62
7
100
AcDbText
10
506.904
20
37.126
30
0.0
40
2.925
1
設計者
41
1.167
50
0.000
100
AcDbText
0
TEXT
5
912
100
AcDbEntity
8
F-F_J_ADDF
62
7
100
AcDbText
10
609.646
20
22.039
30
0.0
40
2.925
1
作図
41
1.167
50
0.000
100
AcDbText
0
TEXT
5
913
100
AcDbEntity
8
F-F_J_ADDF
62
7
100
AcDbText
10
645.559
20
22.305
30
0.0
40
2.925
1
図面名
41
1.167
50
0.000
100
AcDbText
0
TEXT
5
914
100
AcDbEntity
8
F-F_J_ADDF
62
7
100
AcDbText
10
609.646
20
36.854
30
0.0
40
2.925
1
日附
41
1.167
50
0.000
100
AcDbText
0
TEXT
5
915
100
AcDbEntity
8
F-F_J_ADDF
62
7
100
AcDbText
10
645.559
20
37.120
30
0.0
40
2.925
1
工事件名
41
1.167
50
0.000
100
AcDbText
0
TEXT
5
916
100
AcDbEntity
8
F-F_J_ADDF
62
7
100
AcDbText
10
620.714
20
36.729
30
0.0
40
2.925
1
年　月　日
41
1.167
50
0.000
100
AcDbText
0
TEXT
5
917
100
AcDbEntity
8
F-F_J_ADDF
62
7
100
AcDbText
10
620.714
20
21.914
30
0.0
40
2.925
1
年　月　日
41
1.167
50
0.000
100
AcDbText
0
TEXT
5
918
100
AcDbEntity
8
F-F_J_ADDF
62
7
100
AcDbText
10
771.730
20
37.120
30
0.0
40
2.925
1
設計番号
41
1.167
50
0.000
100
AcDbText
0
TEXT
5
919
100
AcDbEntity
8
F-F_J_ADDF
62
7
100
AcDbText
10
771.730
20
22.305
30
0.0
40
2.925
1
縮　尺
41
1.167
50
0.000
100
AcDbText
0
TEXT
5
91a
100
AcDbEntity
8
F-F_J_ADDF
62
7
100
AcDbText
10
193.389
20
33.735
30
0.0
40
2.925
1
. 　.　 
41
1.167
50
0.000
100
AcDbText
0
TEXT
5
91b
100
AcDbEntity
8
F-F_J_ADDF
62
7
100
AcDbText
10
193.389
20
28.797
30
0.0
40
2.925
1
. 　.　 
41
1.167
50
0.000
100
AcDbText
0
TEXT
5
91c
100
AcDbEntity
8
F-F_J_ADDF
62
7
100
AcDbText
10
193.389
20
23.858
30
0.0
40
2.925
1
. 　.　 
41
1.167
50
0.000
100
AcDbText
0
TEXT
5
91d
100
AcDbEntity
8
F-F_J_ADDF
62
7
100
AcDbText
10
193.389
20
18.920
30
0.0
40
2.925
1
. 　.　 
41
1.167
50
0.000
100
AcDbText
0
TEXT
5
91e
100
AcDbEntity
8
F-F_J_ADDF
62
7
100
AcDbText
10
193.389
20
13.982
30
0.0
40
2.925
1
. 　.　 
41
1.167
50
0.000
100
AcDbText
0
TEXT
5
91f
100
AcDbEntity
8
F-F_J_ADDF
62
3
100
AcDbText
10
517.035
20
30.588
30
0.0
40
3.900
1
　　　　　　　　　　
41
1.125
50
0.000
100
AcDbText
0
TEXT
5
920
100
AcDbEntity
8
F-F_J_ADDF
62
3
100
AcDbText
10
517.035
20
15.773
30
0.0
40
3.900
1
　　　　　　　　　　
41
1.125
50
0.000
100
AcDbText
0
TEXT
5
921
100
AcDbEntity
8
F-F_J_ADDF
62
3
100
AcDbText
10
658.767
20
31.361
30
0.0
40
3.900
1
　　　　　　　　　　　　　
41
1.125
50
0.000
100
AcDbText
0
TEXT
5
922
100
AcDbEntity
8
F-F_J_ADDF
62
7
100
AcDbText
10
188.903
20
37.394
30
0.0
40
2.925
1
年　月　日
41
1.167
50
0.000
100
AcDbText
0
TEXT
5
923
100
AcDbEntity
8
F-F_J_ADDF
62
7
100
AcDbText
10
436.381
20
36.735
30
0.0
40
2.925
1
年　　月　　日
41
1.167
50
0.000
100
AcDbText
0
TEXT
5
924
100
AcDbEntity
8
F-F_J_ADDF
62
7
100
AcDbText
10
442.657
20
31.524
30
0.0
40
2.925
1
.　 　.
41
1.167
50
0.000
100
AcDbText
0
TEXT
5
925
100
AcDbEntity
8
F-F_J_ADDF
62
7
100
AcDbText
10
407.795
20
22.212
30
0.0
40
2.925
1
受領　　日附
41
1.167
50
0.000
100
AcDbText
0
TEXT
5
926
100
AcDbEntity
8
F-F_J_ADDF
62
7
100
AcDbText
10
436.381
20
21.920
30
0.0
40
2.925
1
年　　月　　日
41
1.167
50
0.000
100
AcDbText
0
TEXT
5
927
100
AcDbEntity
8
F-F_J_ADDF
62
7
100
AcDbText
10
442.657
20
16.709
30
0.0
40
2.925
1
.　 　.
41
1.167
50
0.000
100
AcDbText
0
TEXT
5
928
100
AcDbEntity
8
F-F_J_ADDF
62
7
100
AcDbText
10
624.100
20
30.667
30
0.0
40
2.925
1
.　　.　
41
1.167
50
0.000
100
AcDbText
0
TEXT
5
929
100
AcDbEntity
8
F-F_J_ADDF
62
3
100
AcDbText
10
61.073
20
29.382
30
0.0
40
7.800
1
小　池　弥　太　郎　商　店
41
1.125
50
0.000
100
AcDbText
0
TEXT
5
92a
100
AcDbEntity
8
F-F_J_ADDF
62
3
100
AcDbText
10
83.176
20
21.201
30
0.0
40
3.900
1
静岡県静岡市葵区流通センター１６番
41
1.125
50
0.000
100
AcDbText
0
TEXT
5
92b
100
AcDbEntity
8
F-F_J_ADDF
62
7
100
AcDbText
10
49.950
20
33.676
30
0.0
40
2.925
1
株
41
1.167
50
0.000
100
AcDbText
0
TEXT
5
92c
100
AcDbEntity
8
F-F_J_ADDF
62
7
100
AcDbText
10
53.525
20
30.051
30
0.0
40
2.925
1
社
41
1.167
50
0.000
100
AcDbText
0
TEXT
5
92d
100
AcDbEntity
8
F-F_J_ADDF
62
7
100
AcDbText
10
49.925
20
30.051
30
0.0
40
2.925
1
会
41
1.167
50
0.000
100
AcDbText
0
TEXT
5
92e
100
AcDbEntity
8
F-F_J_ADDF
62
7
100
AcDbText
10
53.325
20
33.576
30
0.0
40
2.925
1
式
41
1.167
50
0.000
100
AcDbText
0
TEXT
5
92f
100
AcDbEntity
8
F-F_J_ADDF
62
7
100
AcDbText
10
778.026
20
18.245
30
0.0
40
2.925
1
Ａ１－１／２
41
1.167
50
0.000
100
AcDbText
0
TEXT
5
930
100
AcDbEntity
8
F-F_J_ADDF
62
7
100
AcDbText
10
778.026
20
13.245
30
0.0
40
2.925
1
Ａ３－１／４
41
1.167
50
0.000
100
AcDbText
0
TEXT
5
931
100
AcDbEntity
8
F-F_J_ADDF
62
3
100
AcDbText
10
658.767
20
16.546
30
0.0
40
3.900
1
ルーフワイドカバールーフ（超大波スレート）断面図
41
1.125
50
0.000
100
AcDbText
0
TEXT
5
932
100
AcDbEntity
8
F-F_J_ADDF
62
3
100
AcDbText
10
772.628
20
30.427
30
0.0
40
3.900
1
ＵＷ－ＫＡ－０１
41
1.125
50
0.000
100
AcDbText
0
TEXT
5
933
100
AcDbEntity
8
F-0
62
3
100
AcDbText
10
74.529
20
257.276
30
0.0
40
6.825
1
※ ２００４年１０月１日以前に建築された建物にはアスベスト含有スレート屋根材等が使用されている可能性があります。
41
1.143
50
0.000
100
AcDbText
0
TEXT
5
934
100
AcDbEntity
8
F-0
62
3
100
AcDbText
10
115.498
20
557.978
30
0.0
40
6.825
1
ルーフワイドカバールーフ　断面図
41
1.143
50
0.000
100
AcDbText
0
TEXT
5
935
100
AcDbEntity
8
0-000
62
3
100
AcDbText
10
303.537
20
367.385
30
0.0
40
9.750
1
42
41
1.100
50
90.000
100
AcDbText
0
TEXT
5
936
100
AcDbEntity
8
0-000
62
3
100
AcDbText
10
314.537
20
339.885
30
0.0
40
9.750
1
3.7
41
1.100
50
90.000
100
AcDbText
0
TEXT
5
937
100
AcDbEntity
8
0-000
62
3
100
AcDbText
10
188.601
20
440.385
30
0.0
40
9.750
1
225
41
1.100
50
0.000
100
AcDbText
0
TEXT
5
938
100
AcDbEntity
8
0-000
62
3
100
AcDbText
10
413.601
20
440.385
30
0.0
40
9.750
1
225
41
1.100
50
0.000
100
AcDbText
0
TEXT
5
939
100
AcDbEntity
8
0-000
62
3
100
AcDbText
10
638.601
20
440.385
30
0.0
40
9.750
1
225
41
1.100
50
0.000
100
AcDbText
0
TEXT
5
93a
100
AcDbEntity
8
0-000
62
3
100
AcDbText
10
413.601
20
465.385
30
0.0
40
9.750
1
675
41
1.100
50
0.000
100
AcDbText
0
TEXT
5
93b
100
AcDbEntity
8
0-000
62
3
100
AcDbText
10
303.851
20
410.385
30
0.0
40
9.750
1
30
41
1.100
50
0.000
100
AcDbText
0
TEXT
5
93c
100
AcDbEntity
8
0-000
62
3
100
AcDbText
10
528.851
20
410.385
30
0.0
40
9.750
1
30
41
1.100
50
0.000
100
AcDbText
0
TEXT
5
93d
100
AcDbEntity
8
0-000
62
3
100
AcDbText
10
427.015
20
220.801
30
0.0
40
6.825
1
カバールーフビス 6×115(SUS品又は(亜)ﾒｯｷ品)
41
1.143
50
0.000
100
AcDbText
0
TEXT
5
93e
100
AcDbEntity
8
0-000
62
3
100
AcDbText
10
448.823
20
205.785
30
0.0
40
6.825
1
新設：ＫＲカバールーフ　エコなみ
41
1.143
50
0.000
100
AcDbText
0
TEXT
5
93f
100
AcDbEntity
8
0-000
62
3
100
AcDbText
10
666.372
20
213.182
30
0.0
40
6.825
1
既設フックボルト
41
1.143
50
0.000
100
AcDbText
0
TEXT
5
940
100
AcDbEntity
8
0-000
62
3
100
AcDbText
10
270.070
20
49.361
30
0.0
40
6.825
1
既設Ｃ型鋼
41
1.143
50
0.000
100
AcDbText
0
TEXT
5
941
100
AcDbEntity
8
F-0
62
3
100
AcDbText
10
74.529
20
245.276
30
0.0
40
6.825
1
※ 無粉塵工法（間接固定工法）は問い合わせお願いします。（特殊サドル工法等）
41
1.143
50
0.000
100
AcDbText
0
TEXT
5
942
100
AcDbEntity
8
0-000
62
3
100
AcDbText
10
216.307
20
213.932
30
0.0
40
6.825
1
既設フックボルト
41
1.143
50
0.000
100
AcDbText
0
TEXT
5
943
100
AcDbEntity
8
F-0
62
3
100
AcDbText
10
74.529
20
525.413
30
0.0
40
6.825
1
ラジアル仕様　Ｒ＝２５０以上可（プレス押凸仕様）
41
1.143
50
0.000
100
AcDbText
0
TEXT
5
944
100
AcDbEntity
8
0-000
62
3
100
AcDbText
10
216.307
20
201.932
30
0.0
40
6.825
1
干渉余長部カット
41
1.143
50
0.000
100
AcDbText
0
TEXT
5
945
100
AcDbEntity
8
0-000
62
3
100
AcDbText
10
666.372
20
201.182
30
0.0
40
6.825
1
干渉余長部カット
41
1.143
50
0.000
100
AcDbText
0
TEXT
5
946
100
AcDbEntity
8
F-0
62
3
100
AcDbText
10
74.529
20
269.276
30
0.0
40
6.825
1
※ ビス貫通時に発生する粉塵対策が必要な工法です。（アスベスト含有建材は除外工法となります）
41
1.143
50
0.000
100
AcDbText
0
TEXT
5
947
100
AcDbEntity
8
F-0
62
3
100
AcDbText
10
115.498
20
292.792
30
0.0
40
6.825
1
ルーフワイドカバールーフ　改修工法（直接固定工法）断面図　※ノンアスベスト製品への改修用製品
41
1.143
50
0.000
100
AcDbText
0
TEXT
5
948
100
AcDbEntity
8
0-000
62
3
100
AcDbText
10
482.506
20
54.650
30
0.0
40
6.825
1
既設超大波スレート（ノンアスベスト製品）
41
1.143
50
0.000
100
AcDbText
0
TEXT
5
949
100
AcDbEntity
8
F-F_J_ADDF
62
7
100
AcDbText
10
611.241
20
15.334
30
0.0
40
2.925
1
MA 2021-04-01
41
1.167
50
0.000
100
AcDbText
0
POINT
5
94a
100
AcDbEntity
8
F-F_J_ADDF
62
3
100
AcDbPoint
10
27.380000000000
20
571.820000000000
30
0.0
0
POINT
5
94b
100
AcDbEntity
8
F-F_J_ADDF
62
3
100
AcDbPoint
10
27.380000000000
20
571.820000000000
30
0.0
0
POINT
5
94c
100
AcDbEntity
8
F-F_J_ADDF
62
3
100
AcDbPoint
10
27.380000000000
20
571.820000000000
30
0.0
0
POINT
5
94d
100
AcDbEntity
8
0-000
62
4
100
AcDbPoint
10
304.040000000000
20
393.630000000000
30
0.0
0
POINT
5
94e
100
AcDbEntity
8
0-000
62
4
100
AcDbPoint
10
304.040000000000
20
351.630000000000
30
0.0
0
POINT
5
94f
100
AcDbEntity
8
0-000
62
4
100
AcDbPoint
10
304.040000000000
20
347.930000000000
30
0.0
0
POINT
5
950
100
AcDbEntity
8
0-000
62
7
100
AcDbPoint
10
84.100000000000
20
439.890000000000
30
0.0
0
POINT
5
951
100
AcDbEntity
8
0-000
62
7
100
AcDbPoint
10
309.100000000000
20
439.890000000000
30
0.0
0
POINT
5
952
100
AcDbEntity
8
0-000
62
7
100
AcDbPoint
10
534.100000000000
20
439.890000000000
30
0.0
0
POINT
5
953
100
AcDbEntity
8
0-000
62
7
100
AcDbPoint
10
759.100000000000
20
439.890000000000
30
0.0
0
POINT
5
954
100
AcDbEntity
8
0-000
62
7
100
AcDbPoint
10
294.100000000000
20
409.890000000000
30
0.0
0
POINT
5
955
100
AcDbEntity
8
0-000
62
7
100
AcDbPoint
10
324.100000000000
20
409.890000000000
30
0.0
0
POINT
5
956
100
AcDbEntity
8
0-000
62
7
100
AcDbPoint
10
519.100000000000
20
409.890000000000
30
0.0
0
POINT
5
957
100
AcDbEntity
8
0-000
62
7
100
AcDbPoint
10
549.100000000000
20
409.890000000000
30
0.0
0
POINT
5
958
100
AcDbEntity
8
0-000
62
7
100
AcDbPoint
10
649.670000000000
20
174.840000000000
30
0.0
0
POINT
5
959
100
AcDbEntity
8
0-000
62
7
100
AcDbPoint
10
199.600000000000
20
175.590000000000
30
0.0
0
ENDSEC
0
EOF
