0
SECTION
2
HEADER
9
$ACADVER
1
AC1015
9
$ACADMAINTVER
 70
6
9
$DWGCODEPAGE
3
ANSI_932
9
$EXTMIN
10
0.000
20
0.000
30
0.0
9
$EXTMAX
10
841.000
20
594.000
30
0.0
9
$LIMMIN
10
0.000
20
0.000
9
$LIMMAX
10
841.000
20
594.000
9
$DIMSCALE
40
1.000000
9
$LTSCALE
40
2.000
9
$PDMODE
70
0
9
$PDSIZE
40
40.0
9
$HANDSEED
5
61c1d
9
$UNITMODE
70
0
9
$VISRETAIN
70
0
9
$PLINEGEN
70
0
9
$PSLTSCALE
70
1
9
$TREEDEPTH
70
3020
9
$CMLSTYLE
2
STANDARD
9
$CMLJUST
70
0
9
$CMLSCALE
40
1.0
9
$PROXYGRAPHICS
70
1
9
$MEASUREMENT
70
0
9
$CELWEIGHT
370
-1
9
$ENDCAPS
280
0
9
$JOINSTYLE
280
0
9
$LWDISPLAY
290
0
9
$INSUNITS
70
0
9
$HYPERLINKBASE
1

9
$STYLESHEET
1

9
$XEDIT
290
1
9
$CEPSNTYPE
380
0
9
$PSTYLEMODE
290
1
9
$FINGERPRINTGUID
2
{5F082321-0195-11D3-BDFB-0060B0CD5109}
9
$VERSIONGUID
2
{12943756-294D-11D3-98C2-0060B087942D}
9
$EXTNAMES
290
1
9
$PSVPSCALE
40
0.0
9
$OLESTARTUP
290
0
0
ENDSEC
0
SECTION
  2
CLASSES
0
ENDSEC
0
SECTION
2
TABLES
0
TABLE
2
VPORT
5
190
100
AcDbSymbolTable
70
2
0
VPORT
5
191
100
AcDbSymbolTableRecord
100
AcDbViewportTableRecord
2
*ACTIVE
70
0
10
0.0
20
0.0
11
1.0
21
1.0
12
420.500
22
297.000
13
0.0
23
0.0
14
1.0
24
1.0
15
0.0
25
0.0
16
0.0
26
0.0
36
1.0
17
0.0
27
0.0
37
0.0
40
609.420
41
2.0
42
50.0
43
0.0
44
0.0
50
0.0
51
0.0
71
0
72
1000
73
1
74
1
75
0
76
0
77
0
78
0
0
ENDTAB
0
TABLE
2
LTYPE
5
1f4
100
AcDbSymbolTable
70
9
0
LTYPE
5
1f5
100
AcDbSymbolTableRecord
100
AcDbLinetypeTableRecord
2
BYBLOCK
70
 64
3

72
 65
73
  0
40
0.0
0
LTYPE
5
1f6
100
AcDbSymbolTableRecord
100
AcDbLinetypeTableRecord
2
BYLAYER
70
 64
3

72
 65
73
  0
40
0.0
0
LTYPE
5
1f7
100
AcDbSymbolTableRecord
100
AcDbLinetypeTableRecord
2
CONTINUOUS
70
64
3
SolidLine
72
65
73
0
40
0.0
0
LTYPE
5
1f8
100
AcDbSymbolTableRecord
100
AcDbLinetypeTableRecord
2
DOT
70
64
3
--  --  --  --  --  --  --  --     
72
65
73
2
40
3.000
49
1.000
74
0
49
-2.000
74
0
0
LTYPE
5
1f9
100
AcDbSymbolTableRecord
100
AcDbLinetypeTableRecord
2
DASHED
70
64
3
----    ----    ----    ----    
72
65
73
2
40
5.000
49
2.000
74
0
49
-3.000
74
0
0
LTYPE
5
1fa
100
AcDbSymbolTableRecord
100
AcDbLinetypeTableRecord
2
DASHED2
70
64
3
------  ------  ------  ------ 
72
65
73
2
40
10.000
49
4.000
74
0
49
-6.000
74
0
0
LTYPE
5
1fb
100
AcDbSymbolTableRecord
100
AcDbLinetypeTableRecord
2
CENTER
70
64
3
----- - ----- - ----- - ----- - 
72
65
73
4
40
10.000
49
6.000
74
0
49
-3.000
74
0
49
1.000
74
0
49
-3.000
74
0
0
LTYPE
5
1fc
100
AcDbSymbolTableRecord
100
AcDbLinetypeTableRecord
2
CENTER2
70
64
3
----------  --  ----------  -- 
72
65
73
4
40
17.000
49
12.000
74
0
49
-5.000
74
0
49
2.000
74
0
49
-5.000
74
0
0
LTYPE
5
1fd
100
AcDbSymbolTableRecord
100
AcDbLinetypeTableRecord
2
PHANTOM
70
64
3
--- - - --- - - --- - - --- - -
72
65
73
6
40
13.000
49
5.000
74
0
49
-3.000
74
0
49
1.000
74
0
49
-3.000
74
0
49
1.000
74
0
49
-3.000
74
0
0
LTYPE
5
1fe
100
AcDbSymbolTableRecord
100
AcDbLinetypeTableRecord
2
PHANTOM2
70
64
3
--------  -  -  --------  -  -
72
65
73
6
40
20.000
49
6.000
74
0
49
-5.000
74
0
49
2.000
74
0
49
-5.000
74
0
49
2.000
74
0
49
-5.000
74
0
0
LTYPE
5
1ff
100
AcDbSymbolTableRecord
100
AcDbLinetypeTableRecord
2
HIDDEN
70
64
3
-   -   -   -   -   -   -   -   
72
65
73
2
40
3.000
49
0.500
74
0
49
-2.500
74
0
0
ENDTAB
0
TABLE
2
STYLE
5
200
100
AcDbSymbolTable
70
1
0
STYLE
5
201
100
AcDbSymbolTableRecord
100
AcDbTextStyleTableRecord
2
STANDARD
70
0
40
0.0
41
1.0
50
0.0
71
0
42
0.0
3
txt.shx
4
extfont.shx
0
STYLE
5
202
100
AcDbSymbolTableRecord
100
AcDbTextStyleTableRecord
2
TATEGAKI
70
4
40
0.0
41
1.0
50
0.0
71
0
42
0.0
3
txt.shx
4
extfont.shx
0
STYLE
5
203
100
AcDbSymbolTableRecord
100
AcDbTextStyleTableRecord
2
DIM
70
0
40
0.0
41
0.75
50
0.0
71
0
42
0.0
3
txt.shx
4
extfont.shx
0
STYLE
5
204
100
AcDbSymbolTableRecord
100
AcDbTextStyleTableRecord
2
_Gothic_
70
0
40
1.0
41
1.0
50
0.0
71
0
42
10.0
3

4

1001
ACAD
1000
MS Gothic
1071
32817
0
STYLE
5
205
100
AcDbSymbolTableRecord
100
AcDbTextStyleTableRecord
2
_TateGothic_
70
4
40
0.0
41
1.0
50
0.0
71
0
42
0.0
3
@MS Gothic
4

0
ENDTAB
0
TABLE
2
VIEW
5
206
100
AcDbSymbolTable
70
0
0
ENDTAB
0
TABLE
2
UCS
5
207
100
AcDbSymbolTable
70
0
0
ENDTAB
0
TABLE
2
APPID
5
208
100
AcDbSymbolTable
70
1
0
APPID
5
209
100
AcDbSymbolTableRecord
100
AcDbRegAppTableRecord
2
ACAD
70
0
0
ENDTAB
0
TABLE
2
DIMSTYLE
5
403
330
0
100
AcDbSymbolTable
70
1
100
AcDbDimStyleTable
71
0
0
DIMSTYLE
105
404
330
402
100
AcDbSymbolTableRecord
100
AcDbDimStyleTableRecord
2
JAC_DIM
70
0
41
2.000
42
0.000
44
0.0
73
0
74
0
77
1
78
8
79
2
140
0.000
170
0
171
2
172
0
173
0
174
0
175
0
176
0
177
0
178
0
270
2
271
0
272
0
273
2
274
2
340
201
275
0
280
0
281
0
282
0
283
0
284
0
285
0
286
0
287
3
288
0
0
ENDTAB
0
TABLE
2
BLOCK_RECORD
5
405
100
AcDbSymbolTable
70
0
0
BLOCK_RECORD
5
406
100
AcDbSymbolTableRecord
100
AcDbBlockTableRecord
2
*MODEL_SPACE
0
BLOCK_RECORD
5
407
100
AcDbSymbolTableRecord
100
AcDbBlockTableRecord
2
*PAPER_SPACE
0
BLOCK_RECORD
5
408
100
AcDbSymbolTableRecord
100
AcDbBlockTableRecord
2
_JACCONVERT_
0
ENDTAB
0
TABLE
2
LAYER
5
409
100
AcDbSymbolTable
70
10
0
LAYER
5
40a
100
AcDbSymbolTableRecord
100
AcDbLayerTableRecord
2
0
70
0
62
7
6
CONTINUOUS
370
-3
390
14
0
LAYER
5
40b
100
AcDbSymbolTableRecord
100
AcDbLayerTableRecord
2
0-0
70
0
62
7
6
CONTINUOUS
370
-3
390
14
0
LAYER
5
40c
100
AcDbSymbolTableRecord
100
AcDbLayerTableRecord
2
F-E_J_ADD
70
0
62
-7
6
CONTINUOUS
290
0
370
-3
390
14
0
LAYER
5
40d
100
AcDbSymbolTableRecord
100
AcDbLayerTableRecord
2
F-F
70
0
62
7
6
CONTINUOUS
370
-3
390
14
0
ENDTAB
0
ENDSEC
0
SECTION
2
BLOCKS
0
BLOCK
5
40e
100
AcDbEntity
67
1
8
0
100
AcDbBlockBegin
2
*MODEL_SPACE
70
0
10
0.0
20
0.0
30
0.0
3
*MODEL_SPACE
1

0
ENDBLK
5
40f
100
AcDbEntity
8
0
100
AcDbBlockEnd
0
BLOCK
5
410
100
AcDbEntity
67
1
8
0
100
AcDbBlockBegin
2
*PAPER_SPACE
70
0
10
0.0
20
0.0
30
0.0
3
*PAPER_SPACE
1

0
ENDBLK
5
411
100
AcDbEntity
67
1
8
0
100
AcDbBlockEnd
0
BLOCK
5
412
100
AcDbEntity
8
0
100
AcDbBlockBegin
2
_JACCONVERT_
70
2
10
0.0
20
0.0
30
0.0
3
_JACCONVERT_
1
_JACCONVERT_
0
ATTDEF
5
413
100
AcDbEntity
8
0
62
0
100
AcDbText
10
0.0
20
0.0
30
0.0
40
1.0
1
User:460950EB0890EC0964308A
100
AcDbAttributeDefinition
3

2
USER
70
8
0
ATTDEF
5
414
100
AcDbEntity
8
0
62
0
100
AcDbText
10
0.0
20
2.0
30
0.0
40
1.0
1
Date:15/06/16 13:07
100
AcDbAttributeDefinition
3

2
REVDATE
70
8
0
ATTDEF
5
415
100
AcDbEntity
8
0
62
0
100
AcDbText
10
0.0
20
4.0
30
0.0
40
1.0
1
File:ﾘﾌﾞｳｫｰﾙ.dxf
100
AcDbAttributeDefinition
3

2
FNAME
70
8
0
ATTDEF
5
416
100
AcDbEntity
8
0
62
0
100
AcDbText
10
0.0
20
6.0
30
0.0
40
1.0
1
JacConvert Version3.09 copyright (c) 2001-2013 K.Nakahara
100
AcDbAttributeDefinition
3

2
VER
70
8
0
ENDBLK
5
417
100
AcDbEntity
67
1
8
0
100
AcDbBlockEnd
0
ENDSEC
0
SECTION
2
ENTITIES
0
LINE
5
418
100
AcDbEntity
8
F-F
6
CONTINUOUS
62
2
100
AcDbLine
10
27.380000000000
20
11.820000000000
30
0.0
11
27.380000000000
21
571.820000000000
31
0.0
0
LINE
5
419
100
AcDbEntity
8
F-F
6
CONTINUOUS
62
2
100
AcDbLine
10
642.380000000000
20
41.450000000000
30
0.0
11
642.380000000000
21
11.820000000000
31
0.0
0
LINE
5
41a
100
AcDbEntity
8
F-F
6
CONTINUOUS
62
2
100
AcDbLine
10
607.270000000000
20
41.450000000000
30
0.0
11
607.270000000000
21
11.820000000000
31
0.0
0
LINE
5
41b
100
AcDbEntity
8
F-F
6
CONTINUOUS
62
2
100
AcDbLine
10
768.560000000000
20
11.820000000000
30
0.0
11
768.560000000000
21
41.450000000000
31
0.0
0
LINE
5
41c
100
AcDbEntity
8
F-F
6
CONTINUOUS
62
2
100
AcDbLine
10
403.450000000000
20
41.450000000000
30
0.0
11
403.450000000000
21
11.820000000000
31
0.0
0
LINE
5
41d
100
AcDbEntity
8
F-F
6
CONTINUOUS
62
2
100
AcDbLine
10
504.870000000000
20
41.450000000000
30
0.0
11
504.870000000000
21
11.820000000000
31
0.0
0
LINE
5
41e
100
AcDbEntity
8
F-F
6
CONTINUOUS
62
2
100
AcDbLine
10
403.450000000000
20
31.570000000000
30
0.0
11
184.880000000000
21
31.570000000000
31
0.0
0
LINE
5
41f
100
AcDbEntity
8
F-F
6
CONTINUOUS
62
2
100
AcDbLine
10
403.450000000000
20
21.690000000000
30
0.0
11
184.880000000000
21
21.690000000000
31
0.0
0
LINE
5
420
100
AcDbEntity
8
F-F
6
CONTINUOUS
62
2
100
AcDbLine
10
403.450000000000
20
16.760000000000
30
0.0
11
184.880000000000
21
16.760000000000
31
0.0
0
LINE
5
421
100
AcDbEntity
8
F-F
6
CONTINUOUS
62
2
100
AcDbLine
10
403.450000000000
20
36.510000000000
30
0.0
11
184.880000000000
21
36.510000000000
31
0.0
0
LINE
5
422
100
AcDbEntity
8
F-F
6
CONTINUOUS
62
2
100
AcDbLine
10
211.210000000000
20
41.450000000000
30
0.0
11
211.210000000000
21
11.820000000000
31
0.0
0
LINE
5
423
100
AcDbEntity
8
F-F
6
CONTINUOUS
62
2
100
AcDbLine
10
184.880000000000
20
41.450000000000
30
0.0
11
184.880000000000
21
11.820000000000
31
0.0
0
LINE
5
424
100
AcDbEntity
8
F-F
6
CONTINUOUS
62
2
100
AcDbLine
10
815.820000000000
20
11.820000000000
30
0.0
11
815.820000000000
21
571.820000000000
31
0.0
0
LINE
5
425
100
AcDbEntity
8
F-F
6
CONTINUOUS
62
2
100
AcDbLine
10
27.380000000000
20
571.820000000000
30
0.0
11
815.820000000000
21
571.820000000000
31
0.0
0
LINE
5
426
100
AcDbEntity
8
F-F
6
CONTINUOUS
62
2
100
AcDbLine
10
27.380000000000
20
11.820000000000
30
0.0
11
815.820000000000
21
11.820000000000
31
0.0
0
LINE
5
427
100
AcDbEntity
8
F-F
6
CONTINUOUS
62
2
100
AcDbLine
10
815.820000000000
20
41.450000000000
30
0.0
11
27.380000000000
21
41.450000000000
31
0.0
0
LINE
5
428
100
AcDbEntity
8
F-F
6
CONTINUOUS
62
2
100
AcDbLine
10
184.880000000000
20
26.630000000000
30
0.0
11
815.820000000000
21
26.630000000000
31
0.0
0
POLYLINE
5
429
100
AcDbEntity
8
F-F
6
CONTINUOUS
62
  3
100
AcDb2dPolyline
66
1
10
0.0
20
0.0
30
0.0
70
0
0
VERTEX
5
42a
100
AcDbEntity
8
F-F
6
CONTINUOUS
62
  3
100
AcDbVertex
100
AcDb2dVertex
10
40.420000000000
20
29.050000000000
30
0.0
0
VERTEX
5
42b
100
AcDbEntity
8
F-F
6
CONTINUOUS
62
  3
100
AcDbVertex
100
AcDb2dVertex
10
40.420000000000
20
37.050000000000
30
0.0
0
VERTEX
5
42c
100
AcDbEntity
8
F-F
6
CONTINUOUS
62
  3
100
AcDbVertex
100
AcDb2dVertex
10
48.420000000000
20
37.050000000000
30
0.0
0
VERTEX
5
42d
100
AcDbEntity
8
F-F
6
CONTINUOUS
62
  3
100
AcDbVertex
100
AcDb2dVertex
10
48.420000000000
20
29.050000000000
30
0.0
0
VERTEX
5
42e
100
AcDbEntity
8
F-F
6
CONTINUOUS
62
  3
100
AcDbVertex
100
AcDb2dVertex
10
40.420000000000
20
29.050000000000
30
0.0
0
SEQEND
5
42f
100
AcDbEntity
8
F-F
0
LINE
5
430
100
AcDbEntity
8
F-F
6
CONTINUOUS
62
3
100
AcDbLine
10
41.220000000000
20
30.130000000000
30
0.0
11
41.220000000000
21
36.250000000000
31
0.0
0
LINE
5
431
100
AcDbEntity
8
F-F
6
CONTINUOUS
62
3
100
AcDbLine
10
47.620000000000
20
29.850000000000
30
0.0
11
41.500000000000
21
29.850000000000
31
0.0
0
POLYLINE
5
432
100
AcDbEntity
8
F-F
6
CONTINUOUS
62
  3
100
AcDb2dPolyline
66
1
10
0.0
20
0.0
30
0.0
70
0
0
VERTEX
5
433
100
AcDbEntity
8
F-F
6
CONTINUOUS
62
  3
100
AcDbVertex
100
AcDb2dVertex
10
41.220000000000
20
36.250000000000
30
0.0
0
VERTEX
5
434
100
AcDbEntity
8
F-F
6
CONTINUOUS
62
  3
100
AcDbVertex
100
AcDb2dVertex
10
47.340000000000
20
36.250000000000
30
0.0
0
VERTEX
5
435
100
AcDbEntity
8
F-F
6
CONTINUOUS
62
  3
100
AcDbVertex
100
AcDb2dVertex
10
41.220000000000
20
30.130000000000
30
0.0
0
SEQEND
5
436
100
AcDbEntity
8
F-F
0
LINE
5
437
100
AcDbEntity
8
F-F
6
CONTINUOUS
62
3
100
AcDbLine
10
47.620000000000
20
35.960000000000
30
0.0
11
41.500000000000
21
29.850000000000
31
0.0
0
LINE
5
438
100
AcDbEntity
8
F-F
6
CONTINUOUS
62
3
100
AcDbLine
10
47.620000000000
20
35.960000000000
30
0.0
11
47.620000000000
21
29.850000000000
31
0.0
0
LINE
5
439
100
AcDbEntity
8
F-F
6
CONTINUOUS
62
4
100
AcDbLine
10
40.420000000000
20
36.970000000000
30
0.0
11
48.420000000000
21
36.970000000000
31
0.0
0
LINE
5
43a
100
AcDbEntity
8
F-F
6
CONTINUOUS
62
4
100
AcDbLine
10
40.420000000000
20
36.810000000000
30
0.0
11
48.420000000000
21
36.810000000000
31
0.0
0
LINE
5
43b
100
AcDbEntity
8
F-F
6
CONTINUOUS
62
4
100
AcDbLine
10
40.420000000000
20
36.650000000000
30
0.0
11
48.420000000000
21
36.650000000000
31
0.0
0
LINE
5
43c
100
AcDbEntity
8
F-F
6
CONTINUOUS
62
4
100
AcDbLine
10
40.420000000000
20
36.490000000000
30
0.0
11
48.420000000000
21
36.490000000000
31
0.0
0
LINE
5
43d
100
AcDbEntity
8
F-F
6
CONTINUOUS
62
4
100
AcDbLine
10
40.420000000000
20
36.330000000000
30
0.0
11
48.420000000000
21
36.330000000000
31
0.0
0
LINE
5
43e
100
AcDbEntity
8
F-F
6
CONTINUOUS
62
4
100
AcDbLine
10
40.420000000000
20
29.770000000000
30
0.0
11
48.420000000000
21
29.770000000000
31
0.0
0
LINE
5
43f
100
AcDbEntity
8
F-F
6
CONTINUOUS
62
4
100
AcDbLine
10
40.420000000000
20
29.610000000000
30
0.0
11
48.420000000000
21
29.610000000000
31
0.0
0
LINE
5
440
100
AcDbEntity
8
F-F
6
CONTINUOUS
62
4
100
AcDbLine
10
40.420000000000
20
29.450000000000
30
0.0
11
48.420000000000
21
29.450000000000
31
0.0
0
LINE
5
441
100
AcDbEntity
8
F-F
6
CONTINUOUS
62
4
100
AcDbLine
10
40.420000000000
20
29.290000000000
30
0.0
11
48.420000000000
21
29.290000000000
31
0.0
0
LINE
5
442
100
AcDbEntity
8
F-F
6
CONTINUOUS
62
4
100
AcDbLine
10
40.420000000000
20
29.130000000000
30
0.0
11
48.420000000000
21
29.130000000000
31
0.0
0
LINE
5
443
100
AcDbEntity
8
F-F
6
CONTINUOUS
62
4
100
AcDbLine
10
40.420000000000
20
30.250000000000
30
0.0
11
41.220000000000
21
30.250000000000
31
0.0
0
LINE
5
444
100
AcDbEntity
8
F-F
6
CONTINUOUS
62
4
100
AcDbLine
10
40.420000000000
20
30.410000000000
30
0.0
11
41.220000000000
21
30.410000000000
31
0.0
0
LINE
5
445
100
AcDbEntity
8
F-F
6
CONTINUOUS
62
4
100
AcDbLine
10
40.420000000000
20
30.570000000000
30
0.0
11
41.220000000000
21
30.570000000000
31
0.0
0
LINE
5
446
100
AcDbEntity
8
F-F
6
CONTINUOUS
62
4
100
AcDbLine
10
40.420000000000
20
30.730000000000
30
0.0
11
41.220000000000
21
30.730000000000
31
0.0
0
LINE
5
447
100
AcDbEntity
8
F-F
6
CONTINUOUS
62
4
100
AcDbLine
10
40.420000000000
20
30.890000000000
30
0.0
11
41.220000000000
21
30.890000000000
31
0.0
0
LINE
5
448
100
AcDbEntity
8
F-F
6
CONTINUOUS
62
4
100
AcDbLine
10
40.420000000000
20
31.050000000000
30
0.0
11
41.220000000000
21
31.050000000000
31
0.0
0
LINE
5
449
100
AcDbEntity
8
F-F
6
CONTINUOUS
62
4
100
AcDbLine
10
40.420000000000
20
31.210000000000
30
0.0
11
41.220000000000
21
31.210000000000
31
0.0
0
LINE
5
44a
100
AcDbEntity
8
F-F
6
CONTINUOUS
62
4
100
AcDbLine
10
40.420000000000
20
31.370000000000
30
0.0
11
41.220000000000
21
31.370000000000
31
0.0
0
LINE
5
44b
100
AcDbEntity
8
F-F
6
CONTINUOUS
62
4
100
AcDbLine
10
40.420000000000
20
31.530000000000
30
0.0
11
41.220000000000
21
31.530000000000
31
0.0
0
LINE
5
44c
100
AcDbEntity
8
F-F
6
CONTINUOUS
62
4
100
AcDbLine
10
40.420000000000
20
31.690000000000
30
0.0
11
41.220000000000
21
31.690000000000
31
0.0
0
LINE
5
44d
100
AcDbEntity
8
F-F
6
CONTINUOUS
62
4
100
AcDbLine
10
40.420000000000
20
31.850000000000
30
0.0
11
41.220000000000
21
31.850000000000
31
0.0
0
LINE
5
44e
100
AcDbEntity
8
F-F
6
CONTINUOUS
62
4
100
AcDbLine
10
40.420000000000
20
32.010000000000
30
0.0
11
41.220000000000
21
32.010000000000
31
0.0
0
LINE
5
44f
100
AcDbEntity
8
F-F
6
CONTINUOUS
62
4
100
AcDbLine
10
40.420000000000
20
32.170000000000
30
0.0
11
41.220000000000
21
32.170000000000
31
0.0
0
LINE
5
450
100
AcDbEntity
8
F-F
6
CONTINUOUS
62
4
100
AcDbLine
10
40.420000000000
20
32.330000000000
30
0.0
11
41.220000000000
21
32.330000000000
31
0.0
0
LINE
5
451
100
AcDbEntity
8
F-F
6
CONTINUOUS
62
4
100
AcDbLine
10
40.420000000000
20
32.490000000000
30
0.0
11
41.220000000000
21
32.490000000000
31
0.0
0
LINE
5
452
100
AcDbEntity
8
F-F
6
CONTINUOUS
62
4
100
AcDbLine
10
40.420000000000
20
32.650000000000
30
0.0
11
41.220000000000
21
32.650000000000
31
0.0
0
LINE
5
453
100
AcDbEntity
8
F-F
6
CONTINUOUS
62
4
100
AcDbLine
10
40.420000000000
20
32.810000000000
30
0.0
11
41.220000000000
21
32.810000000000
31
0.0
0
LINE
5
454
100
AcDbEntity
8
F-F
6
CONTINUOUS
62
4
100
AcDbLine
10
40.420000000000
20
32.970000000000
30
0.0
11
41.220000000000
21
32.970000000000
31
0.0
0
LINE
5
455
100
AcDbEntity
8
F-F
6
CONTINUOUS
62
4
100
AcDbLine
10
40.420000000000
20
33.130000000000
30
0.0
11
41.220000000000
21
33.130000000000
31
0.0
0
LINE
5
456
100
AcDbEntity
8
F-F
6
CONTINUOUS
62
4
100
AcDbLine
10
40.420000000000
20
33.290000000000
30
0.0
11
41.220000000000
21
33.290000000000
31
0.0
0
LINE
5
457
100
AcDbEntity
8
F-F
6
CONTINUOUS
62
4
100
AcDbLine
10
40.420000000000
20
33.450000000000
30
0.0
11
41.220000000000
21
33.450000000000
31
0.0
0
LINE
5
458
100
AcDbEntity
8
F-F
6
CONTINUOUS
62
4
100
AcDbLine
10
40.420000000000
20
33.610000000000
30
0.0
11
41.220000000000
21
33.610000000000
31
0.0
0
LINE
5
459
100
AcDbEntity
8
F-F
6
CONTINUOUS
62
4
100
AcDbLine
10
40.420000000000
20
33.770000000000
30
0.0
11
41.220000000000
21
33.770000000000
31
0.0
0
LINE
5
45a
100
AcDbEntity
8
F-F
6
CONTINUOUS
62
4
100
AcDbLine
10
40.420000000000
20
33.930000000000
30
0.0
11
41.220000000000
21
33.930000000000
31
0.0
0
LINE
5
45b
100
AcDbEntity
8
F-F
6
CONTINUOUS
62
4
100
AcDbLine
10
40.420000000000
20
34.410000000000
30
0.0
11
41.220000000000
21
34.410000000000
31
0.0
0
LINE
5
45c
100
AcDbEntity
8
F-F
6
CONTINUOUS
62
4
100
AcDbLine
10
40.420000000000
20
34.890000000000
30
0.0
11
41.220000000000
21
34.890000000000
31
0.0
0
LINE
5
45d
100
AcDbEntity
8
F-F
6
CONTINUOUS
62
4
100
AcDbLine
10
40.420000000000
20
35.050000000000
30
0.0
11
41.220000000000
21
35.050000000000
31
0.0
0
LINE
5
45e
100
AcDbEntity
8
F-F
6
CONTINUOUS
62
4
100
AcDbLine
10
40.420000000000
20
35.210000000000
30
0.0
11
41.220000000000
21
35.210000000000
31
0.0
0
LINE
5
45f
100
AcDbEntity
8
F-F
6
CONTINUOUS
62
4
100
AcDbLine
10
40.420000000000
20
35.370000000000
30
0.0
11
41.220000000000
21
35.370000000000
31
0.0
0
LINE
5
460
100
AcDbEntity
8
F-F
6
CONTINUOUS
62
4
100
AcDbLine
10
40.420000000000
20
36.170000000000
30
0.0
11
41.220000000000
21
36.170000000000
31
0.0
0
LINE
5
461
100
AcDbEntity
8
F-F
6
CONTINUOUS
62
4
100
AcDbLine
10
40.420000000000
20
36.010000000000
30
0.0
11
41.220000000000
21
36.010000000000
31
0.0
0
LINE
5
462
100
AcDbEntity
8
F-F
6
CONTINUOUS
62
4
100
AcDbLine
10
40.420000000000
20
35.850000000000
30
0.0
11
41.220000000000
21
35.850000000000
31
0.0
0
LINE
5
463
100
AcDbEntity
8
F-F
6
CONTINUOUS
62
4
100
AcDbLine
10
40.420000000000
20
35.690000000000
30
0.0
11
41.220000000000
21
35.690000000000
31
0.0
0
LINE
5
464
100
AcDbEntity
8
F-F
6
CONTINUOUS
62
4
100
AcDbLine
10
40.420000000000
20
35.530000000000
30
0.0
11
41.220000000000
21
35.530000000000
31
0.0
0
LINE
5
465
100
AcDbEntity
8
F-F
6
CONTINUOUS
62
4
100
AcDbLine
10
40.420000000000
20
34.570000000000
30
0.0
11
41.220000000000
21
34.570000000000
31
0.0
0
LINE
5
466
100
AcDbEntity
8
F-F
6
CONTINUOUS
62
4
100
AcDbLine
10
40.420000000000
20
34.730000000000
30
0.0
11
41.220000000000
21
34.730000000000
31
0.0
0
LINE
5
467
100
AcDbEntity
8
F-F
6
CONTINUOUS
62
4
100
AcDbLine
10
40.420000000000
20
34.250000000000
30
0.0
11
41.220000000000
21
34.250000000000
31
0.0
0
LINE
5
468
100
AcDbEntity
8
F-F
6
CONTINUOUS
62
4
100
AcDbLine
10
40.420000000000
20
34.090000000000
30
0.0
11
41.220000000000
21
34.090000000000
31
0.0
0
LINE
5
469
100
AcDbEntity
8
F-F
6
CONTINUOUS
62
4
100
AcDbLine
10
41.500000000000
20
30.410000000000
30
0.0
11
42.060000000000
21
30.410000000000
31
0.0
0
LINE
5
46a
100
AcDbEntity
8
F-F
6
CONTINUOUS
62
4
100
AcDbLine
10
41.340000000000
20
30.250000000000
30
0.0
11
41.900000000000
21
30.250000000000
31
0.0
0
LINE
5
46b
100
AcDbEntity
8
F-F
6
CONTINUOUS
62
4
100
AcDbLine
10
40.420000000000
20
30.090000000000
30
0.0
11
41.740000000000
21
30.090000000000
31
0.0
0
LINE
5
46c
100
AcDbEntity
8
F-F
6
CONTINUOUS
62
4
100
AcDbLine
10
40.420000000000
20
29.930000000000
30
0.0
11
41.580000000000
21
29.930000000000
31
0.0
0
LINE
5
46d
100
AcDbEntity
8
F-F
6
CONTINUOUS
62
4
100
AcDbLine
10
42.460000000000
20
31.370000000000
30
0.0
11
43.020000000000
21
31.370000000000
31
0.0
0
LINE
5
46e
100
AcDbEntity
8
F-F
6
CONTINUOUS
62
4
100
AcDbLine
10
42.300000000000
20
31.210000000000
30
0.0
11
42.860000000000
21
31.210000000000
31
0.0
0
LINE
5
46f
100
AcDbEntity
8
F-F
6
CONTINUOUS
62
4
100
AcDbLine
10
42.140000000000
20
31.050000000000
30
0.0
11
42.700000000000
21
31.050000000000
31
0.0
0
LINE
5
470
100
AcDbEntity
8
F-F
6
CONTINUOUS
62
4
100
AcDbLine
10
41.980000000000
20
30.890000000000
30
0.0
11
42.540000000000
21
30.890000000000
31
0.0
0
LINE
5
471
100
AcDbEntity
8
F-F
6
CONTINUOUS
62
4
100
AcDbLine
10
41.820000000000
20
30.730000000000
30
0.0
11
42.380000000000
21
30.730000000000
31
0.0
0
LINE
5
472
100
AcDbEntity
8
F-F
6
CONTINUOUS
62
4
100
AcDbLine
10
41.660000000000
20
30.570000000000
30
0.0
11
42.220000000000
21
30.570000000000
31
0.0
0
LINE
5
473
100
AcDbEntity
8
F-F
6
CONTINUOUS
62
4
100
AcDbLine
10
41.220000000000
20
36.250000000000
30
0.0
11
41.220000000000
21
36.410000000000
31
0.0
0
LINE
5
474
100
AcDbEntity
8
F-F
6
CONTINUOUS
62
4
100
AcDbLine
10
47.620000000000
20
30.250000000000
30
0.0
11
48.420000000000
21
30.250000000000
31
0.0
0
LINE
5
475
100
AcDbEntity
8
F-F
6
CONTINUOUS
62
4
100
AcDbLine
10
47.620000000000
20
30.410000000000
30
0.0
11
48.420000000000
21
30.410000000000
31
0.0
0
LINE
5
476
100
AcDbEntity
8
F-F
6
CONTINUOUS
62
4
100
AcDbLine
10
47.620000000000
20
30.570000000000
30
0.0
11
48.420000000000
21
30.570000000000
31
0.0
0
LINE
5
477
100
AcDbEntity
8
F-F
6
CONTINUOUS
62
4
100
AcDbLine
10
47.620000000000
20
30.730000000000
30
0.0
11
48.420000000000
21
30.730000000000
31
0.0
0
LINE
5
478
100
AcDbEntity
8
F-F
6
CONTINUOUS
62
4
100
AcDbLine
10
47.620000000000
20
30.890000000000
30
0.0
11
48.420000000000
21
30.890000000000
31
0.0
0
LINE
5
479
100
AcDbEntity
8
F-F
6
CONTINUOUS
62
4
100
AcDbLine
10
47.620000000000
20
31.050000000000
30
0.0
11
48.420000000000
21
31.050000000000
31
0.0
0
LINE
5
47a
100
AcDbEntity
8
F-F
6
CONTINUOUS
62
4
100
AcDbLine
10
47.620000000000
20
31.210000000000
30
0.0
11
48.420000000000
21
31.210000000000
31
0.0
0
LINE
5
47b
100
AcDbEntity
8
F-F
6
CONTINUOUS
62
4
100
AcDbLine
10
47.620000000000
20
31.370000000000
30
0.0
11
48.420000000000
21
31.370000000000
31
0.0
0
LINE
5
47c
100
AcDbEntity
8
F-F
6
CONTINUOUS
62
4
100
AcDbLine
10
47.620000000000
20
31.530000000000
30
0.0
11
48.420000000000
21
31.530000000000
31
0.0
0
LINE
5
47d
100
AcDbEntity
8
F-F
6
CONTINUOUS
62
4
100
AcDbLine
10
47.620000000000
20
31.690000000000
30
0.0
11
48.420000000000
21
31.690000000000
31
0.0
0
LINE
5
47e
100
AcDbEntity
8
F-F
6
CONTINUOUS
62
4
100
AcDbLine
10
47.620000000000
20
31.850000000000
30
0.0
11
48.420000000000
21
31.850000000000
31
0.0
0
LINE
5
47f
100
AcDbEntity
8
F-F
6
CONTINUOUS
62
4
100
AcDbLine
10
47.620000000000
20
32.010000000000
30
0.0
11
48.420000000000
21
32.010000000000
31
0.0
0
LINE
5
480
100
AcDbEntity
8
F-F
6
CONTINUOUS
62
4
100
AcDbLine
10
47.620000000000
20
32.170000000000
30
0.0
11
48.420000000000
21
32.170000000000
31
0.0
0
LINE
5
481
100
AcDbEntity
8
F-F
6
CONTINUOUS
62
4
100
AcDbLine
10
47.620000000000
20
32.490000000000
30
0.0
11
48.420000000000
21
32.490000000000
31
0.0
0
LINE
5
482
100
AcDbEntity
8
F-F
6
CONTINUOUS
62
4
100
AcDbLine
10
47.620000000000
20
32.650000000000
30
0.0
11
48.420000000000
21
32.650000000000
31
0.0
0
LINE
5
483
100
AcDbEntity
8
F-F
6
CONTINUOUS
62
4
100
AcDbLine
10
47.620000000000
20
32.810000000000
30
0.0
11
48.420000000000
21
32.810000000000
31
0.0
0
LINE
5
484
100
AcDbEntity
8
F-F
6
CONTINUOUS
62
4
100
AcDbLine
10
47.620000000000
20
32.970000000000
30
0.0
11
48.420000000000
21
32.970000000000
31
0.0
0
LINE
5
485
100
AcDbEntity
8
F-F
6
CONTINUOUS
62
4
100
AcDbLine
10
47.620000000000
20
33.130000000000
30
0.0
11
48.420000000000
21
33.130000000000
31
0.0
0
LINE
5
486
100
AcDbEntity
8
F-F
6
CONTINUOUS
62
4
100
AcDbLine
10
47.620000000000
20
33.290000000000
30
0.0
11
48.420000000000
21
33.290000000000
31
0.0
0
LINE
5
487
100
AcDbEntity
8
F-F
6
CONTINUOUS
62
4
100
AcDbLine
10
47.620000000000
20
33.450000000000
30
0.0
11
48.420000000000
21
33.450000000000
31
0.0
0
LINE
5
488
100
AcDbEntity
8
F-F
6
CONTINUOUS
62
4
100
AcDbLine
10
47.620000000000
20
33.610000000000
30
0.0
11
48.420000000000
21
33.610000000000
31
0.0
0
LINE
5
489
100
AcDbEntity
8
F-F
6
CONTINUOUS
62
4
100
AcDbLine
10
47.620000000000
20
33.770000000000
30
0.0
11
48.420000000000
21
33.770000000000
31
0.0
0
LINE
5
48a
100
AcDbEntity
8
F-F
6
CONTINUOUS
62
4
100
AcDbLine
10
47.620000000000
20
33.930000000000
30
0.0
11
48.420000000000
21
33.930000000000
31
0.0
0
LINE
5
48b
100
AcDbEntity
8
F-F
6
CONTINUOUS
62
4
100
AcDbLine
10
47.620000000000
20
34.410000000000
30
0.0
11
48.420000000000
21
34.410000000000
31
0.0
0
LINE
5
48c
100
AcDbEntity
8
F-F
6
CONTINUOUS
62
4
100
AcDbLine
10
47.620000000000
20
34.890000000000
30
0.0
11
48.420000000000
21
34.890000000000
31
0.0
0
LINE
5
48d
100
AcDbEntity
8
F-F
6
CONTINUOUS
62
4
100
AcDbLine
10
47.620000000000
20
35.050000000000
30
0.0
11
48.420000000000
21
35.050000000000
31
0.0
0
LINE
5
48e
100
AcDbEntity
8
F-F
6
CONTINUOUS
62
4
100
AcDbLine
10
47.620000000000
20
35.210000000000
30
0.0
11
48.420000000000
21
35.210000000000
31
0.0
0
LINE
5
48f
100
AcDbEntity
8
F-F
6
CONTINUOUS
62
4
100
AcDbLine
10
47.620000000000
20
35.370000000000
30
0.0
11
48.420000000000
21
35.370000000000
31
0.0
0
LINE
5
490
100
AcDbEntity
8
F-F
6
CONTINUOUS
62
4
100
AcDbLine
10
47.620000000000
20
35.850000000000
30
0.0
11
48.420000000000
21
35.850000000000
31
0.0
0
LINE
5
491
100
AcDbEntity
8
F-F
6
CONTINUOUS
62
4
100
AcDbLine
10
47.620000000000
20
35.690000000000
30
0.0
11
48.420000000000
21
35.690000000000
31
0.0
0
LINE
5
492
100
AcDbEntity
8
F-F
6
CONTINUOUS
62
4
100
AcDbLine
10
47.620000000000
20
35.530000000000
30
0.0
11
48.420000000000
21
35.530000000000
31
0.0
0
LINE
5
493
100
AcDbEntity
8
F-F
6
CONTINUOUS
62
4
100
AcDbLine
10
47.620000000000
20
34.570000000000
30
0.0
11
48.420000000000
21
34.570000000000
31
0.0
0
LINE
5
494
100
AcDbEntity
8
F-F
6
CONTINUOUS
62
4
100
AcDbLine
10
47.620000000000
20
34.730000000000
30
0.0
11
48.420000000000
21
34.730000000000
31
0.0
0
LINE
5
495
100
AcDbEntity
8
F-F
6
CONTINUOUS
62
4
100
AcDbLine
10
47.620000000000
20
34.250000000000
30
0.0
11
48.420000000000
21
34.250000000000
31
0.0
0
LINE
5
496
100
AcDbEntity
8
F-F
6
CONTINUOUS
62
4
100
AcDbLine
10
47.620000000000
20
34.090000000000
30
0.0
11
48.420000000000
21
34.090000000000
31
0.0
0
LINE
5
497
100
AcDbEntity
8
F-F
6
CONTINUOUS
62
4
100
AcDbLine
10
47.620000000000
20
29.930000000000
30
0.0
11
48.420000000000
21
29.930000000000
31
0.0
0
LINE
5
498
100
AcDbEntity
8
F-F
6
CONTINUOUS
62
4
100
AcDbLine
10
47.620000000000
20
30.090000000000
30
0.0
11
48.420000000000
21
30.090000000000
31
0.0
0
LINE
5
499
100
AcDbEntity
8
F-F
6
CONTINUOUS
62
4
100
AcDbLine
10
47.260000000000
20
36.170000000000
30
0.0
11
48.420000000000
21
36.170000000000
31
0.0
0
LINE
5
49a
100
AcDbEntity
8
F-F
6
CONTINUOUS
62
4
100
AcDbLine
10
47.100000000000
20
36.010000000000
30
0.0
11
48.420000000000
21
36.010000000000
31
0.0
0
LINE
5
49b
100
AcDbEntity
8
F-F
6
CONTINUOUS
62
4
100
AcDbLine
10
43.100000000000
20
32.010000000000
30
0.0
11
43.660000000000
21
32.010000000000
31
0.0
0
LINE
5
49c
100
AcDbEntity
8
F-F
6
CONTINUOUS
62
4
100
AcDbLine
10
42.940000000000
20
31.850000000000
30
0.0
11
43.500000000000
21
31.850000000000
31
0.0
0
LINE
5
49d
100
AcDbEntity
8
F-F
6
CONTINUOUS
62
4
100
AcDbLine
10
42.780000000000
20
31.690000000000
30
0.0
11
43.340000000000
21
31.690000000000
31
0.0
0
LINE
5
49e
100
AcDbEntity
8
F-F
6
CONTINUOUS
62
4
100
AcDbLine
10
42.620000000000
20
31.530000000000
30
0.0
11
43.180000000000
21
31.530000000000
31
0.0
0
LINE
5
49f
100
AcDbEntity
8
F-F
6
CONTINUOUS
62
4
100
AcDbLine
10
43.740000000000
20
32.650000000000
30
0.0
11
44.300000000000
21
32.650000000000
31
0.0
0
LINE
5
4a0
100
AcDbEntity
8
F-F
6
CONTINUOUS
62
4
100
AcDbLine
10
43.580000000000
20
32.490000000000
30
0.0
11
44.140000000000
21
32.490000000000
31
0.0
0
LINE
5
4a1
100
AcDbEntity
8
F-F
6
CONTINUOUS
62
4
100
AcDbLine
10
43.420000000000
20
32.330000000000
30
0.0
11
43.980000000000
21
32.330000000000
31
0.0
0
LINE
5
4a2
100
AcDbEntity
8
F-F
6
CONTINUOUS
62
4
100
AcDbLine
10
43.260000000000
20
32.170000000000
30
0.0
11
43.820000000000
21
32.170000000000
31
0.0
0
LINE
5
4a3
100
AcDbEntity
8
F-F
6
CONTINUOUS
62
4
100
AcDbLine
10
44.380000000000
20
33.290000000000
30
0.0
11
44.940000000000
21
33.290000000000
31
0.0
0
LINE
5
4a4
100
AcDbEntity
8
F-F
6
CONTINUOUS
62
4
100
AcDbLine
10
44.220000000000
20
33.130000000000
30
0.0
11
44.780000000000
21
33.130000000000
31
0.0
0
LINE
5
4a5
100
AcDbEntity
8
F-F
6
CONTINUOUS
62
4
100
AcDbLine
10
44.060000000000
20
32.970000000000
30
0.0
11
44.620000000000
21
32.970000000000
31
0.0
0
LINE
5
4a6
100
AcDbEntity
8
F-F
6
CONTINUOUS
62
4
100
AcDbLine
10
43.900000000000
20
32.810000000000
30
0.0
11
44.460000000000
21
32.810000000000
31
0.0
0
LINE
5
4a7
100
AcDbEntity
8
F-F
6
CONTINUOUS
62
4
100
AcDbLine
10
45.020000000000
20
33.930000000000
30
0.0
11
45.580000000000
21
33.930000000000
31
0.0
0
LINE
5
4a8
100
AcDbEntity
8
F-F
6
CONTINUOUS
62
4
100
AcDbLine
10
44.860000000000
20
33.770000000000
30
0.0
11
45.420000000000
21
33.770000000000
31
0.0
0
LINE
5
4a9
100
AcDbEntity
8
F-F
6
CONTINUOUS
62
4
100
AcDbLine
10
44.700000000000
20
33.610000000000
30
0.0
11
45.260000000000
21
33.610000000000
31
0.0
0
LINE
5
4aa
100
AcDbEntity
8
F-F
6
CONTINUOUS
62
4
100
AcDbLine
10
44.540000000000
20
33.450000000000
30
0.0
11
45.100000000000
21
33.450000000000
31
0.0
0
LINE
5
4ab
100
AcDbEntity
8
F-F
6
CONTINUOUS
62
4
100
AcDbLine
10
45.660000000000
20
34.570000000000
30
0.0
11
46.220000000000
21
34.570000000000
31
0.0
0
LINE
5
4ac
100
AcDbEntity
8
F-F
6
CONTINUOUS
62
4
100
AcDbLine
10
45.500000000000
20
34.410000000000
30
0.0
11
46.060000000000
21
34.410000000000
31
0.0
0
LINE
5
4ad
100
AcDbEntity
8
F-F
6
CONTINUOUS
62
4
100
AcDbLine
10
45.340000000000
20
34.250000000000
30
0.0
11
45.900000000000
21
34.250000000000
31
0.0
0
LINE
5
4ae
100
AcDbEntity
8
F-F
6
CONTINUOUS
62
4
100
AcDbLine
10
45.180000000000
20
34.090000000000
30
0.0
11
45.740000000000
21
34.090000000000
31
0.0
0
LINE
5
4af
100
AcDbEntity
8
F-F
6
CONTINUOUS
62
4
100
AcDbLine
10
46.300000000000
20
35.210000000000
30
0.0
11
46.860000000000
21
35.210000000000
31
0.0
0
LINE
5
4b0
100
AcDbEntity
8
F-F
6
CONTINUOUS
62
4
100
AcDbLine
10
46.140000000000
20
35.050000000000
30
0.0
11
46.700000000000
21
35.050000000000
31
0.0
0
LINE
5
4b1
100
AcDbEntity
8
F-F
6
CONTINUOUS
62
4
100
AcDbLine
10
45.980000000000
20
34.890000000000
30
0.0
11
46.540000000000
21
34.890000000000
31
0.0
0
LINE
5
4b2
100
AcDbEntity
8
F-F
6
CONTINUOUS
62
4
100
AcDbLine
10
45.820000000000
20
34.730000000000
30
0.0
11
46.380000000000
21
34.730000000000
31
0.0
0
LINE
5
4b3
100
AcDbEntity
8
F-F
6
CONTINUOUS
62
4
100
AcDbLine
10
46.940000000000
20
35.850000000000
30
0.0
11
47.500000000000
21
35.850000000000
31
0.0
0
LINE
5
4b4
100
AcDbEntity
8
F-F
6
CONTINUOUS
62
4
100
AcDbLine
10
46.780000000000
20
35.690000000000
30
0.0
11
47.340000000000
21
35.690000000000
31
0.0
0
LINE
5
4b5
100
AcDbEntity
8
F-F
6
CONTINUOUS
62
4
100
AcDbLine
10
46.620000000000
20
35.530000000000
30
0.0
11
47.180000000000
21
35.530000000000
31
0.0
0
LINE
5
4b6
100
AcDbEntity
8
F-F
6
CONTINUOUS
62
4
100
AcDbLine
10
46.460000000000
20
35.370000000000
30
0.0
11
47.020000000000
21
35.370000000000
31
0.0
0
LINE
5
4b7
100
AcDbEntity
8
F-F
6
CONTINUOUS
62
4
100
AcDbLine
10
47.620000000000
20
32.330000000000
30
0.0
11
48.420000000000
21
32.330000000000
31
0.0
0
LINE
5
4b8
100
AcDbEntity
8
F-F
6
CONTINUOUS
62
2
100
AcDbLine
10
612.110000000000
20
476.210000000000
30
0.0
11
815.820000000000
21
476.210000000000
31
0.0
0
LINE
5
4b9
100
AcDbEntity
8
F-F
6
CONTINUOUS
62
2
100
AcDbLine
10
612.110000000000
20
571.820000000000
30
0.0
11
612.110000000000
21
476.210000000000
31
0.0
0
LINE
5
4ba
100
AcDbEntity
8
0-0
6
CONTINUOUS
62
7
100
AcDbLine
10
262.700000000000
20
344.220000000000
30
0.0
11
262.700000000000
21
364.220000000000
31
0.0
0
LINE
5
4bb
100
AcDbEntity
8
0-0
6
CONTINUOUS
62
7
100
AcDbLine
10
264.200000000000
20
325.220000000000
30
0.0
11
264.200000000000
21
305.220000000000
31
0.0
0
LINE
5
4bc
100
AcDbEntity
8
0-0
6
CONTINUOUS
62
7
100
AcDbLine
10
106.600000000000
20
379.220000000000
30
0.0
11
106.600000000000
21
344.220000000000
31
0.0
0
LINE
5
4bd
100
AcDbEntity
8
0-0
6
CONTINUOUS
62
7
100
AcDbLine
10
283.300000000000
20
344.220000000000
30
0.0
11
283.300000000000
21
364.220000000000
31
0.0
0
LINE
5
4be
100
AcDbEntity
8
0-0
6
CONTINUOUS
62
7
100
AcDbLine
10
264.200000000000
20
305.220000000000
30
0.0
11
281.800000000000
21
305.220000000000
31
0.0
0
LINE
5
4bf
100
AcDbEntity
8
0-0
6
CONTINUOUS
62
3
100
AcDbLine
10
283.980000000000
20
339.400000000000
30
0.0
11
282.940000000000
21
333.850000000000
31
0.0
0
LINE
5
4c0
100
AcDbEntity
8
0-0
6
CONTINUOUS
62
3
100
AcDbLine
10
281.950000000000
20
334.040000000000
30
0.0
11
282.990000000000
21
339.590000000000
31
0.0
0
LINE
5
4c1
100
AcDbEntity
8
0-0
6
CONTINUOUS
62
3
100
AcDbLine
10
280.970000000000
20
333.220000000000
30
0.0
11
273.000000000000
21
333.220000000000
31
0.0
0
LINE
5
4c2
100
AcDbEntity
8
0-0
6
CONTINUOUS
62
3
100
AcDbLine
10
280.970000000000
20
332.220000000000
30
0.0
11
273.000000000000
21
332.220000000000
31
0.0
0
LINE
5
4c3
100
AcDbEntity
8
0-0
6
CONTINUOUS
62
3
100
AcDbLine
10
293.800000000000
20
341.220000000000
30
0.0
11
284.960000000000
21
341.220000000000
31
0.0
0
LINE
5
4c4
100
AcDbEntity
8
0-0
6
CONTINUOUS
62
3
100
AcDbLine
10
284.960000000000
20
340.220000000000
30
0.0
11
293.800000000000
21
340.220000000000
31
0.0
0
LINE
5
4c5
100
AcDbEntity
8
0-0
6
CONTINUOUS
62
7
100
AcDbLine
10
283.300000000000
20
364.220000000000
30
0.0
11
241.700000000000
21
364.220000000000
31
0.0
0
LINE
5
4c6
100
AcDbEntity
8
0-0
6
CONTINUOUS
62
7
100
AcDbLine
10
241.700000000000
20
344.220000000000
30
0.0
11
241.700000000000
21
364.220000000000
31
0.0
0
LINE
5
4c7
100
AcDbEntity
8
0-0
6
CONTINUOUS
62
3
100
AcDbLine
10
262.020000000000
20
339.400000000000
30
0.0
11
263.060000000000
21
333.850000000000
31
0.0
0
LINE
5
4c8
100
AcDbEntity
8
0-0
6
CONTINUOUS
62
3
100
AcDbLine
10
264.050000000000
20
334.040000000000
30
0.0
11
263.010000000000
21
339.590000000000
31
0.0
0
LINE
5
4c9
100
AcDbEntity
8
0-0
6
CONTINUOUS
62
3
100
AcDbLine
10
265.030000000000
20
333.220000000000
30
0.0
11
273.000000000000
21
333.220000000000
31
0.0
0
LINE
5
4ca
100
AcDbEntity
8
0-0
6
CONTINUOUS
62
3
100
AcDbLine
10
265.030000000000
20
332.220000000000
30
0.0
11
273.000000000000
21
332.220000000000
31
0.0
0
LINE
5
4cb
100
AcDbEntity
8
0-0
6
CONTINUOUS
62
3
100
AcDbLine
10
252.200000000000
20
341.220000000000
30
0.0
11
261.040000000000
21
341.220000000000
31
0.0
0
LINE
5
4cc
100
AcDbEntity
8
0-0
6
CONTINUOUS
62
3
100
AcDbLine
10
261.040000000000
20
340.220000000000
30
0.0
11
252.200000000000
21
340.220000000000
31
0.0
0
LINE
5
4cd
100
AcDbEntity
8
0-0
6
CONTINUOUS
62
3
100
AcDbLine
10
220.420000000000
20
339.400000000000
30
0.0
11
221.460000000000
21
333.850000000000
31
0.0
0
LINE
5
4ce
100
AcDbEntity
8
0-0
6
CONTINUOUS
62
3
100
AcDbLine
10
222.450000000000
20
334.040000000000
30
0.0
11
221.410000000000
21
339.590000000000
31
0.0
0
LINE
5
4cf
100
AcDbEntity
8
0-0
6
CONTINUOUS
62
3
100
AcDbLine
10
223.430000000000
20
333.220000000000
30
0.0
11
231.400000000000
21
333.220000000000
31
0.0
0
LINE
5
4d0
100
AcDbEntity
8
0-0
6
CONTINUOUS
62
3
100
AcDbLine
10
223.430000000000
20
332.220000000000
30
0.0
11
231.400000000000
21
332.220000000000
31
0.0
0
LINE
5
4d1
100
AcDbEntity
8
0-0
6
CONTINUOUS
62
3
100
AcDbLine
10
210.600000000000
20
341.220000000000
30
0.0
11
219.440000000000
21
341.220000000000
31
0.0
0
LINE
5
4d2
100
AcDbEntity
8
0-0
6
CONTINUOUS
62
3
100
AcDbLine
10
219.440000000000
20
340.220000000000
30
0.0
11
210.600000000000
21
340.220000000000
31
0.0
0
LINE
5
4d3
100
AcDbEntity
8
0-0
6
CONTINUOUS
62
3
100
AcDbLine
10
242.380000000000
20
339.400000000000
30
0.0
11
241.340000000000
21
333.850000000000
31
0.0
0
LINE
5
4d4
100
AcDbEntity
8
0-0
6
CONTINUOUS
62
3
100
AcDbLine
10
240.350000000000
20
334.040000000000
30
0.0
11
241.390000000000
21
339.590000000000
31
0.0
0
LINE
5
4d5
100
AcDbEntity
8
0-0
6
CONTINUOUS
62
3
100
AcDbLine
10
239.370000000000
20
333.220000000000
30
0.0
11
231.400000000000
21
333.220000000000
31
0.0
0
LINE
5
4d6
100
AcDbEntity
8
0-0
6
CONTINUOUS
62
3
100
AcDbLine
10
239.370000000000
20
332.220000000000
30
0.0
11
231.400000000000
21
332.220000000000
31
0.0
0
LINE
5
4d7
100
AcDbEntity
8
0-0
6
CONTINUOUS
62
3
100
AcDbLine
10
252.200000000000
20
341.220000000000
30
0.0
11
243.360000000000
21
341.220000000000
31
0.0
0
LINE
5
4d8
100
AcDbEntity
8
0-0
6
CONTINUOUS
62
3
100
AcDbLine
10
243.360000000000
20
340.220000000000
30
0.0
11
252.200000000000
21
340.220000000000
31
0.0
0
LINE
5
4d9
100
AcDbEntity
8
0-0
6
CONTINUOUS
62
3
100
AcDbLine
10
303.620000000000
20
339.400000000000
30
0.0
11
304.660000000000
21
333.850000000000
31
0.0
0
LINE
5
4da
100
AcDbEntity
8
0-0
6
CONTINUOUS
62
3
100
AcDbLine
10
305.650000000000
20
334.040000000000
30
0.0
11
304.610000000000
21
339.590000000000
31
0.0
0
LINE
5
4db
100
AcDbEntity
8
0-0
6
CONTINUOUS
62
3
100
AcDbLine
10
306.630000000000
20
333.220000000000
30
0.0
11
314.600000000000
21
333.220000000000
31
0.0
0
LINE
5
4dc
100
AcDbEntity
8
0-0
6
CONTINUOUS
62
3
100
AcDbLine
10
306.630000000000
20
332.220000000000
30
0.0
11
314.600000000000
21
332.220000000000
31
0.0
0
LINE
5
4dd
100
AcDbEntity
8
0-0
6
CONTINUOUS
62
3
100
AcDbLine
10
293.800000000000
20
341.220000000000
30
0.0
11
302.640000000000
21
341.220000000000
31
0.0
0
LINE
5
4de
100
AcDbEntity
8
0-0
6
CONTINUOUS
62
3
100
AcDbLine
10
302.640000000000
20
340.220000000000
30
0.0
11
293.800000000000
21
340.220000000000
31
0.0
0
LINE
5
4df
100
AcDbEntity
8
0-0
6
CONTINUOUS
62
3
100
AcDbLine
10
325.580000000000
20
339.400000000000
30
0.0
11
324.540000000000
21
333.850000000000
31
0.0
0
LINE
5
4e0
100
AcDbEntity
8
0-0
6
CONTINUOUS
62
3
100
AcDbLine
10
323.550000000000
20
334.040000000000
30
0.0
11
324.590000000000
21
339.590000000000
31
0.0
0
LINE
5
4e1
100
AcDbEntity
8
0-0
6
CONTINUOUS
62
3
100
AcDbLine
10
322.570000000000
20
333.220000000000
30
0.0
11
314.600000000000
21
333.220000000000
31
0.0
0
LINE
5
4e2
100
AcDbEntity
8
0-0
6
CONTINUOUS
62
3
100
AcDbLine
10
322.570000000000
20
332.220000000000
30
0.0
11
314.600000000000
21
332.220000000000
31
0.0
0
LINE
5
4e3
100
AcDbEntity
8
0-0
6
CONTINUOUS
62
3
100
AcDbLine
10
335.400000000000
20
341.220000000000
30
0.0
11
326.560000000000
21
341.220000000000
31
0.0
0
LINE
5
4e4
100
AcDbEntity
8
0-0
6
CONTINUOUS
62
3
100
AcDbLine
10
326.560000000000
20
340.220000000000
30
0.0
11
335.400000000000
21
340.220000000000
31
0.0
0
LINE
5
4e5
100
AcDbEntity
8
0-0
6
CONTINUOUS
62
3
100
AcDbLine
10
137.220000000000
20
339.400000000000
30
0.0
11
138.270000000000
21
333.850000000000
31
0.0
0
LINE
5
4e6
100
AcDbEntity
8
0-0
6
CONTINUOUS
62
3
100
AcDbLine
10
139.250000000000
20
334.040000000000
30
0.0
11
138.210000000000
21
339.590000000000
31
0.0
0
LINE
5
4e7
100
AcDbEntity
8
0-0
6
CONTINUOUS
62
3
100
AcDbLine
10
140.230000000000
20
333.220000000000
30
0.0
11
148.200000000000
21
333.220000000000
31
0.0
0
LINE
5
4e8
100
AcDbEntity
8
0-0
6
CONTINUOUS
62
3
100
AcDbLine
10
140.230000000000
20
332.220000000000
30
0.0
11
148.200000000000
21
332.220000000000
31
0.0
0
LINE
5
4e9
100
AcDbEntity
8
0-0
6
CONTINUOUS
62
3
100
AcDbLine
10
127.400000000000
20
341.220000000000
30
0.0
11
136.240000000000
21
341.220000000000
31
0.0
0
LINE
5
4ea
100
AcDbEntity
8
0-0
6
CONTINUOUS
62
3
100
AcDbLine
10
136.240000000000
20
340.220000000000
30
0.0
11
127.400000000000
21
340.220000000000
31
0.0
0
LINE
5
4eb
100
AcDbEntity
8
0-0
6
CONTINUOUS
62
3
100
AcDbLine
10
159.180000000000
20
339.400000000000
30
0.0
11
158.140000000000
21
333.850000000000
31
0.0
0
LINE
5
4ec
100
AcDbEntity
8
0-0
6
CONTINUOUS
62
3
100
AcDbLine
10
157.150000000000
20
334.040000000000
30
0.0
11
158.190000000000
21
339.590000000000
31
0.0
0
LINE
5
4ed
100
AcDbEntity
8
0-0
6
CONTINUOUS
62
3
100
AcDbLine
10
156.170000000000
20
333.220000000000
30
0.0
11
148.200000000000
21
333.220000000000
31
0.0
0
LINE
5
4ee
100
AcDbEntity
8
0-0
6
CONTINUOUS
62
3
100
AcDbLine
10
156.170000000000
20
332.220000000000
30
0.0
11
148.200000000000
21
332.220000000000
31
0.0
0
LINE
5
4ef
100
AcDbEntity
8
0-0
6
CONTINUOUS
62
3
100
AcDbLine
10
169.000000000000
20
341.220000000000
30
0.0
11
160.160000000000
21
341.220000000000
31
0.0
0
LINE
5
4f0
100
AcDbEntity
8
0-0
6
CONTINUOUS
62
3
100
AcDbLine
10
160.160000000000
20
340.220000000000
30
0.0
11
169.000000000000
21
340.220000000000
31
0.0
0
LINE
5
4f1
100
AcDbEntity
8
0-0
6
CONTINUOUS
62
3
100
AcDbLine
10
200.780000000000
20
339.400000000000
30
0.0
11
199.740000000000
21
333.850000000000
31
0.0
0
LINE
5
4f2
100
AcDbEntity
8
0-0
6
CONTINUOUS
62
3
100
AcDbLine
10
198.750000000000
20
334.040000000000
30
0.0
11
199.790000000000
21
339.590000000000
31
0.0
0
LINE
5
4f3
100
AcDbEntity
8
0-0
6
CONTINUOUS
62
3
100
AcDbLine
10
197.770000000000
20
333.220000000000
30
0.0
11
189.800000000000
21
333.220000000000
31
0.0
0
LINE
5
4f4
100
AcDbEntity
8
0-0
6
CONTINUOUS
62
3
100
AcDbLine
10
197.770000000000
20
332.220000000000
30
0.0
11
189.800000000000
21
332.220000000000
31
0.0
0
LINE
5
4f5
100
AcDbEntity
8
0-0
6
CONTINUOUS
62
3
100
AcDbLine
10
210.600000000000
20
341.220000000000
30
0.0
11
201.760000000000
21
341.220000000000
31
0.0
0
LINE
5
4f6
100
AcDbEntity
8
0-0
6
CONTINUOUS
62
3
100
AcDbLine
10
201.760000000000
20
340.220000000000
30
0.0
11
210.600000000000
21
340.220000000000
31
0.0
0
LINE
5
4f7
100
AcDbEntity
8
0-0
6
CONTINUOUS
62
3
100
AcDbLine
10
178.820000000000
20
339.400000000000
30
0.0
11
179.860000000000
21
333.850000000000
31
0.0
0
LINE
5
4f8
100
AcDbEntity
8
0-0
6
CONTINUOUS
62
3
100
AcDbLine
10
180.850000000000
20
334.040000000000
30
0.0
11
179.810000000000
21
339.590000000000
31
0.0
0
LINE
5
4f9
100
AcDbEntity
8
0-0
6
CONTINUOUS
62
3
100
AcDbLine
10
181.830000000000
20
333.220000000000
30
0.0
11
189.800000000000
21
333.220000000000
31
0.0
0
LINE
5
4fa
100
AcDbEntity
8
0-0
6
CONTINUOUS
62
3
100
AcDbLine
10
181.830000000000
20
332.220000000000
30
0.0
11
189.800000000000
21
332.220000000000
31
0.0
0
LINE
5
4fb
100
AcDbEntity
8
0-0
6
CONTINUOUS
62
3
100
AcDbLine
10
169.000000000000
20
341.220000000000
30
0.0
11
177.840000000000
21
341.220000000000
31
0.0
0
LINE
5
4fc
100
AcDbEntity
8
0-0
6
CONTINUOUS
62
3
100
AcDbLine
10
177.840000000000
20
340.220000000000
30
0.0
11
169.000000000000
21
340.220000000000
31
0.0
0
LINE
5
4fd
100
AcDbEntity
8
0-0
6
CONTINUOUS
62
3
100
AcDbLine
10
117.580000000000
20
339.400000000000
30
0.0
11
116.540000000000
21
333.850000000000
31
0.0
0
LINE
5
4fe
100
AcDbEntity
8
0-0
6
CONTINUOUS
62
3
100
AcDbLine
10
115.550000000000
20
334.040000000000
30
0.0
11
116.590000000000
21
339.590000000000
31
0.0
0
LINE
5
4ff
100
AcDbEntity
8
0-0
6
CONTINUOUS
62
3
100
AcDbLine
10
114.570000000000
20
332.220000000000
30
0.0
11
106.600000000000
21
332.220000000000
31
0.0
0
LINE
5
500
100
AcDbEntity
8
0-0
6
CONTINUOUS
62
3
100
AcDbLine
10
127.400000000000
20
341.220000000000
30
0.0
11
118.560000000000
21
341.220000000000
31
0.0
0
LINE
5
501
100
AcDbEntity
8
0-0
6
CONTINUOUS
62
3
100
AcDbLine
10
118.560000000000
20
340.220000000000
30
0.0
11
127.400000000000
21
340.220000000000
31
0.0
0
LINE
5
502
100
AcDbEntity
8
0-0
6
CONTINUOUS
62
3
100
AcDbLine
10
95.620000000000
20
339.400000000000
30
0.0
11
96.670000000000
21
333.850000000000
31
0.0
0
LINE
5
503
100
AcDbEntity
8
0-0
6
CONTINUOUS
62
3
100
AcDbLine
10
97.650000000000
20
334.040000000000
30
0.0
11
96.610000000000
21
339.590000000000
31
0.0
0
LINE
5
504
100
AcDbEntity
8
0-0
6
CONTINUOUS
62
3
100
AcDbLine
10
98.630000000000
20
332.220000000000
30
0.0
11
106.600000000000
21
332.220000000000
31
0.0
0
LINE
5
505
100
AcDbEntity
8
0-0
6
CONTINUOUS
62
7
100
AcDbLine
10
439.600000000000
20
379.220000000000
30
0.0
11
106.600000000000
21
379.220000000000
31
0.0
0
LINE
5
506
100
AcDbEntity
8
0-0
6
CONTINUOUS
62
7
100
AcDbLine
10
439.600000000000
20
379.220000000000
30
0.0
11
439.600000000000
21
344.220000000000
31
0.0
0
LINE
5
507
100
AcDbEntity
8
0-0
6
CONTINUOUS
62
3
100
AcDbLine
10
386.820000000000
20
339.400000000000
30
0.0
11
387.870000000000
21
333.850000000000
31
0.0
0
LINE
5
508
100
AcDbEntity
8
0-0
6
CONTINUOUS
62
3
100
AcDbLine
10
388.850000000000
20
334.040000000000
30
0.0
11
387.810000000000
21
339.590000000000
31
0.0
0
LINE
5
509
100
AcDbEntity
8
0-0
6
CONTINUOUS
62
3
100
AcDbLine
10
389.830000000000
20
333.220000000000
30
0.0
11
397.800000000000
21
333.220000000000
31
0.0
0
LINE
5
50a
100
AcDbEntity
8
0-0
6
CONTINUOUS
62
3
100
AcDbLine
10
389.830000000000
20
332.220000000000
30
0.0
11
397.800000000000
21
332.220000000000
31
0.0
0
LINE
5
50b
100
AcDbEntity
8
0-0
6
CONTINUOUS
62
3
100
AcDbLine
10
377.000000000000
20
341.220000000000
30
0.0
11
385.840000000000
21
341.220000000000
31
0.0
0
LINE
5
50c
100
AcDbEntity
8
0-0
6
CONTINUOUS
62
3
100
AcDbLine
10
385.840000000000
20
340.220000000000
30
0.0
11
377.000000000000
21
340.220000000000
31
0.0
0
LINE
5
50d
100
AcDbEntity
8
0-0
6
CONTINUOUS
62
3
100
AcDbLine
10
405.770000000000
20
333.220000000000
30
0.0
11
397.800000000000
21
333.220000000000
31
0.0
0
LINE
5
50e
100
AcDbEntity
8
0-0
6
CONTINUOUS
62
3
100
AcDbLine
10
405.770000000000
20
332.220000000000
30
0.0
11
397.800000000000
21
332.220000000000
31
0.0
0
LINE
5
50f
100
AcDbEntity
8
0-0
6
CONTINUOUS
62
3
100
AcDbLine
10
418.600000000000
20
342.220000000000
30
0.0
11
409.760000000000
21
342.220000000000
31
0.0
0
LINE
5
510
100
AcDbEntity
8
0-0
6
CONTINUOUS
62
3
100
AcDbLine
10
409.760000000000
20
341.220000000000
30
0.0
11
418.600000000000
21
341.220000000000
31
0.0
0
LINE
5
511
100
AcDbEntity
8
0-0
6
CONTINUOUS
62
3
100
AcDbLine
10
418.600000000000
20
342.220000000000
30
0.0
11
427.440000000000
21
342.220000000000
31
0.0
0
LINE
5
512
100
AcDbEntity
8
0-0
6
CONTINUOUS
62
3
100
AcDbLine
10
427.440000000000
20
341.220000000000
30
0.0
11
418.600000000000
21
341.220000000000
31
0.0
0
LINE
5
513
100
AcDbEntity
8
0-0
6
CONTINUOUS
62
3
100
AcDbLine
10
367.180000000000
20
339.400000000000
30
0.0
11
366.140000000000
21
333.850000000000
31
0.0
0
LINE
5
514
100
AcDbEntity
8
0-0
6
CONTINUOUS
62
3
100
AcDbLine
10
365.150000000000
20
334.040000000000
30
0.0
11
366.190000000000
21
339.590000000000
31
0.0
0
LINE
5
515
100
AcDbEntity
8
0-0
6
CONTINUOUS
62
3
100
AcDbLine
10
364.170000000000
20
333.220000000000
30
0.0
11
356.200000000000
21
333.220000000000
31
0.0
0
LINE
5
516
100
AcDbEntity
8
0-0
6
CONTINUOUS
62
3
100
AcDbLine
10
364.170000000000
20
332.220000000000
30
0.0
11
356.200000000000
21
332.220000000000
31
0.0
0
LINE
5
517
100
AcDbEntity
8
0-0
6
CONTINUOUS
62
3
100
AcDbLine
10
377.000000000000
20
341.220000000000
30
0.0
11
368.160000000000
21
341.220000000000
31
0.0
0
LINE
5
518
100
AcDbEntity
8
0-0
6
CONTINUOUS
62
3
100
AcDbLine
10
368.160000000000
20
340.220000000000
30
0.0
11
377.000000000000
21
340.220000000000
31
0.0
0
LINE
5
519
100
AcDbEntity
8
0-0
6
CONTINUOUS
62
3
100
AcDbLine
10
345.220000000000
20
339.400000000000
30
0.0
11
346.260000000000
21
333.850000000000
31
0.0
0
LINE
5
51a
100
AcDbEntity
8
0-0
6
CONTINUOUS
62
3
100
AcDbLine
10
347.250000000000
20
334.040000000000
30
0.0
11
346.210000000000
21
339.590000000000
31
0.0
0
LINE
5
51b
100
AcDbEntity
8
0-0
6
CONTINUOUS
62
3
100
AcDbLine
10
348.230000000000
20
333.220000000000
30
0.0
11
356.200000000000
21
333.220000000000
31
0.0
0
LINE
5
51c
100
AcDbEntity
8
0-0
6
CONTINUOUS
62
3
100
AcDbLine
10
348.230000000000
20
332.220000000000
30
0.0
11
356.200000000000
21
332.220000000000
31
0.0
0
LINE
5
51d
100
AcDbEntity
8
0-0
6
CONTINUOUS
62
3
100
AcDbLine
10
335.400000000000
20
341.220000000000
30
0.0
11
344.240000000000
21
341.220000000000
31
0.0
0
LINE
5
51e
100
AcDbEntity
8
0-0
6
CONTINUOUS
62
3
100
AcDbLine
10
344.240000000000
20
340.220000000000
30
0.0
11
335.400000000000
21
340.220000000000
31
0.0
0
LINE
5
51f
100
AcDbEntity
8
0-0
6
CONTINUOUS
62
7
100
AcDbLine
10
281.800000000000
20
325.220000000000
30
0.0
11
281.800000000000
21
305.220000000000
31
0.0
0
LINE
5
520
100
AcDbEntity
8
0-0
6
CONTINUOUS
62
7
100
AcDbLine
10
285.590000000000
20
332.220000000000
30
0.0
11
296.700000000000
21
332.220000000000
31
0.0
0
LINE
5
521
100
AcDbEntity
8
0-0
6
CONTINUOUS
62
7
100
AcDbLine
10
296.700000000000
20
340.220000000000
30
0.0
11
296.700000000000
21
332.220000000000
31
0.0
0
LINE
5
522
100
AcDbEntity
8
0-0
6
CONTINUOUS
62
3
100
AcDbLine
10
83.800000000000
20
340.220000000000
30
0.0
11
83.800000000000
21
341.220000000000
31
0.0
0
LINE
5
523
100
AcDbEntity
8
0-0
6
CONTINUOUS
62
3
100
AcDbLine
10
94.640000000000
20
340.220000000000
30
0.0
11
83.800000000000
21
340.220000000000
31
0.0
0
LINE
5
524
100
AcDbEntity
8
0-0
6
CONTINUOUS
62
3
100
AcDbLine
10
447.370000000000
20
333.220000000000
30
0.0
11
439.400000000000
21
333.220000000000
31
0.0
0
LINE
5
525
100
AcDbEntity
8
0-0
6
CONTINUOUS
62
3
100
AcDbLine
10
429.420000000000
20
340.400000000000
30
0.0
11
430.470000000000
21
334.850000000000
31
0.0
0
LINE
5
526
100
AcDbEntity
8
0-0
6
CONTINUOUS
62
3
100
AcDbLine
10
431.450000000000
20
335.040000000000
30
0.0
11
430.410000000000
21
340.590000000000
31
0.0
0
LINE
5
527
100
AcDbEntity
8
0-0
6
CONTINUOUS
62
3
100
AcDbLine
10
98.630000000000
20
333.220000000000
30
0.0
11
106.600000000000
21
333.220000000000
31
0.0
0
POLYLINE
5
528
100
AcDbEntity
8
0-0
6
CONTINUOUS
62
  3
100
AcDb2dPolyline
66
1
10
0.0
20
0.0
30
0.0
70
0
0
VERTEX
5
529
100
AcDbEntity
8
0-0
6
CONTINUOUS
62
  3
100
AcDbVertex
100
AcDb2dVertex
10
447.350000000000
20
335.040000000000
30
0.0
0
VERTEX
5
52a
100
AcDbEntity
8
0-0
6
CONTINUOUS
62
  3
100
AcDbVertex
100
AcDb2dVertex
10
447.950000000000
20
338.200000000000
30
0.0
0
VERTEX
5
52b
100
AcDbEntity
8
0-0
6
CONTINUOUS
62
  3
100
AcDbVertex
100
AcDb2dVertex
10
448.930000000000
20
338.020000000000
30
0.0
0
VERTEX
5
52c
100
AcDbEntity
8
0-0
6
CONTINUOUS
62
  3
100
AcDbVertex
100
AcDb2dVertex
10
448.340000000000
20
334.850000000000
30
0.0
0
SEQEND
5
52d
100
AcDbEntity
8
0-0
0
LINE
5
52e
100
AcDbEntity
8
0-0
6
CONTINUOUS
62
3
100
AcDbLine
10
432.430000000000
20
334.220000000000
30
0.0
11
439.400000000000
21
334.220000000000
31
0.0
0
LINE
5
52f
100
AcDbEntity
8
0-0
6
CONTINUOUS
62
3
100
AcDbLine
10
432.430000000000
20
333.220000000000
30
0.0
11
439.400000000000
21
333.220000000000
31
0.0
0
LINE
5
530
100
AcDbEntity
8
0-0
6
CONTINUOUS
62
3
100
AcDbLine
10
446.370000000000
20
334.220000000000
30
0.0
11
439.400000000000
21
334.220000000000
31
0.0
0
LINE
5
531
100
AcDbEntity
8
0-0
6
CONTINUOUS
62
3
100
AcDbLine
10
446.370000000000
20
333.220000000000
30
0.0
11
439.400000000000
21
333.220000000000
31
0.0
0
LINE
5
532
100
AcDbEntity
8
0-0
6
CONTINUOUS
62
3
100
AcDbLine
10
83.800000000000
20
341.220000000000
30
0.0
11
94.640000000000
21
341.220000000000
31
0.0
0
LINE
5
533
100
AcDbEntity
8
0-0
6
CONTINUOUS
62
3
100
AcDbLine
10
428.440000000000
20
342.220000000000
30
0.0
11
427.440000000000
21
342.220000000000
31
0.0
0
LINE
5
534
100
AcDbEntity
8
0-0
6
CONTINUOUS
62
3
100
AcDbLine
10
428.440000000000
20
341.220000000000
30
0.0
11
427.440000000000
21
341.220000000000
31
0.0
0
LINE
5
535
100
AcDbEntity
8
0-0
6
CONTINUOUS
62
3
100
AcDbLine
10
408.780000000000
20
340.400000000000
30
0.0
11
407.740000000000
21
333.850000000000
31
0.0
0
LINE
5
536
100
AcDbEntity
8
0-0
6
CONTINUOUS
62
3
100
AcDbLine
10
407.790000000000
20
340.590000000000
30
0.0
11
406.750000000000
21
334.040000000000
31
0.0
0
LINE
5
537
100
AcDbEntity
8
0-0
6
CONTINUOUS
62
3
100
AcDbLine
10
114.570000000000
20
333.220000000000
30
0.0
11
106.600000000000
21
333.220000000000
31
0.0
0
CIRCLE
5
538
100
AcDbEntity
8
F-F
6
CONTINUOUS
62
3
100
AcDbCircle
10
44.420000000000
20
33.050000000000
30
0.0
40
5.656855653775
0
CIRCLE
5
539
100
AcDbEntity
8
F-F
6
CONTINUOUS
62
3
100
AcDbCircle
10
44.420000000000
20
33.050000000000
30
0.0
40
6.456854248129
0
CIRCLE
5
53a
100
AcDbEntity
8
F-F
6
CONTINUOUS
62
4
100
AcDbCircle
10
44.420000000000
20
33.050000000000
30
0.0
40
5.736854893875
0
CIRCLE
5
53b
100
AcDbEntity
8
F-F
6
CONTINUOUS
62
4
100
AcDbCircle
10
44.420000000000
20
33.050000000000
30
0.0
40
5.896853374073
0
CIRCLE
5
53c
100
AcDbEntity
8
F-F
6
CONTINUOUS
62
4
100
AcDbCircle
10
44.420000000000
20
33.050000000000
30
0.0
40
6.056854176782
0
CIRCLE
5
53d
100
AcDbEntity
8
F-F
6
CONTINUOUS
62
4
100
AcDbCircle
10
44.420000000000
20
33.050000000000
30
0.0
40
6.216852656981
0
CIRCLE
5
53e
100
AcDbEntity
8
F-F
6
CONTINUOUS
62
4
100
AcDbCircle
10
44.420000000000
20
33.050000000000
30
0.0
40
6.376852298435
0
ARC
5
53f
100
AcDbEntity
8
0-0
6
CONTINUOUS
62
3
100
AcDbCircle
10
280.970000000000
20
334.220000000000
30
0.0
40
0.999999984825
100
AcDbArc
50
270.000000000000
51
349.381942749023
0
ARC
5
540
100
AcDbEntity
8
0-0
6
CONTINUOUS
62
3
100
AcDbCircle
10
280.970000000000
20
334.220000000000
30
0.0
40
1.999999969650
100
AcDbArc
50
270.000000000000
51
349.381942749023
0
ARC
5
541
100
AcDbEntity
8
0-0
6
CONTINUOUS
62
3
100
AcDbCircle
10
284.960000000000
20
339.220000000000
30
0.0
40
0.999999984825
100
AcDbArc
50
90.000000000000
51
169.381942749023
0
ARC
5
542
100
AcDbEntity
8
0-0
6
CONTINUOUS
62
3
100
AcDbCircle
10
284.960000000000
20
339.220000000000
30
0.0
40
1.999999969650
100
AcDbArc
50
90.000000000000
51
169.381942749023
0
ARC
5
543
100
AcDbEntity
8
0-0
6
CONTINUOUS
62
3
100
AcDbCircle
10
265.030000000000
20
334.220000000000
30
0.0
40
0.999999984825
100
AcDbArc
50
190.618057250977
51
270.000000000000
0
ARC
5
544
100
AcDbEntity
8
0-0
6
CONTINUOUS
62
3
100
AcDbCircle
10
265.030000000000
20
334.220000000000
30
0.0
40
1.999999969650
100
AcDbArc
50
190.618057250977
51
270.000000000000
0
ARC
5
545
100
AcDbEntity
8
0-0
6
CONTINUOUS
62
3
100
AcDbCircle
10
261.040000000000
20
339.220000000000
30
0.0
40
0.999999984825
100
AcDbArc
50
10.618057250977
51
90.000000000000
0
ARC
5
546
100
AcDbEntity
8
0-0
6
CONTINUOUS
62
3
100
AcDbCircle
10
261.040000000000
20
339.220000000000
30
0.0
40
1.999999969650
100
AcDbArc
50
10.618057250977
51
90.000000000000
0
ARC
5
547
100
AcDbEntity
8
0-0
6
CONTINUOUS
62
3
100
AcDbCircle
10
223.430000000000
20
334.220000000000
30
0.0
40
0.999999984825
100
AcDbArc
50
190.618057250977
51
270.000000000000
0
ARC
5
548
100
AcDbEntity
8
0-0
6
CONTINUOUS
62
3
100
AcDbCircle
10
223.430000000000
20
334.220000000000
30
0.0
40
1.999999969650
100
AcDbArc
50
190.618057250977
51
270.000000000000
0
ARC
5
549
100
AcDbEntity
8
0-0
6
CONTINUOUS
62
3
100
AcDbCircle
10
219.440000000000
20
339.220000000000
30
0.0
40
0.999999984825
100
AcDbArc
50
10.618057250977
51
90.000000000000
0
ARC
5
54a
100
AcDbEntity
8
0-0
6
CONTINUOUS
62
3
100
AcDbCircle
10
219.440000000000
20
339.220000000000
30
0.0
40
1.999999969650
100
AcDbArc
50
10.618057250977
51
90.000000000000
0
ARC
5
54b
100
AcDbEntity
8
0-0
6
CONTINUOUS
62
3
100
AcDbCircle
10
239.370000000000
20
334.220000000000
30
0.0
40
0.999999984825
100
AcDbArc
50
270.000000000000
51
349.381942749023
0
ARC
5
54c
100
AcDbEntity
8
0-0
6
CONTINUOUS
62
3
100
AcDbCircle
10
239.370000000000
20
334.220000000000
30
0.0
40
1.999999969650
100
AcDbArc
50
270.000000000000
51
349.381942749023
0
ARC
5
54d
100
AcDbEntity
8
0-0
6
CONTINUOUS
62
3
100
AcDbCircle
10
243.360000000000
20
339.220000000000
30
0.0
40
0.999999984825
100
AcDbArc
50
90.000000000000
51
169.381942749023
0
ARC
5
54e
100
AcDbEntity
8
0-0
6
CONTINUOUS
62
3
100
AcDbCircle
10
243.360000000000
20
339.220000000000
30
0.0
40
1.999999969650
100
AcDbArc
50
90.000000000000
51
169.381942749023
0
ARC
5
54f
100
AcDbEntity
8
0-0
6
CONTINUOUS
62
3
100
AcDbCircle
10
306.630000000000
20
334.220000000000
30
0.0
40
0.999999984825
100
AcDbArc
50
190.618057250977
51
270.000000000000
0
ARC
5
550
100
AcDbEntity
8
0-0
6
CONTINUOUS
62
3
100
AcDbCircle
10
306.630000000000
20
334.220000000000
30
0.0
40
1.999999969650
100
AcDbArc
50
190.618057250977
51
270.000000000000
0
ARC
5
551
100
AcDbEntity
8
0-0
6
CONTINUOUS
62
3
100
AcDbCircle
10
302.640000000000
20
339.220000000000
30
0.0
40
0.999999984825
100
AcDbArc
50
10.618057250977
51
90.000000000000
0
ARC
5
552
100
AcDbEntity
8
0-0
6
CONTINUOUS
62
3
100
AcDbCircle
10
302.640000000000
20
339.220000000000
30
0.0
40
1.999999969650
100
AcDbArc
50
10.618057250977
51
90.000000000000
0
ARC
5
553
100
AcDbEntity
8
0-0
6
CONTINUOUS
62
3
100
AcDbCircle
10
322.570000000000
20
334.220000000000
30
0.0
40
0.999999984825
100
AcDbArc
50
270.000000000000
51
349.381942749023
0
ARC
5
554
100
AcDbEntity
8
0-0
6
CONTINUOUS
62
3
100
AcDbCircle
10
322.570000000000
20
334.220000000000
30
0.0
40
1.999999969650
100
AcDbArc
50
270.000000000000
51
349.381942749023
0
ARC
5
555
100
AcDbEntity
8
0-0
6
CONTINUOUS
62
3
100
AcDbCircle
10
326.560000000000
20
339.220000000000
30
0.0
40
0.999999984825
100
AcDbArc
50
90.000000000000
51
169.381942749023
0
ARC
5
556
100
AcDbEntity
8
0-0
6
CONTINUOUS
62
3
100
AcDbCircle
10
326.560000000000
20
339.220000000000
30
0.0
40
1.999999969650
100
AcDbArc
50
90.000000000000
51
169.381942749023
0
ARC
5
557
100
AcDbEntity
8
0-0
6
CONTINUOUS
62
3
100
AcDbCircle
10
140.230000000000
20
334.220000000000
30
0.0
40
0.999999984825
100
AcDbArc
50
190.618057250977
51
270.000000000000
0
ARC
5
558
100
AcDbEntity
8
0-0
6
CONTINUOUS
62
3
100
AcDbCircle
10
140.230000000000
20
334.220000000000
30
0.0
40
1.999999969650
100
AcDbArc
50
190.618057250977
51
270.000000000000
0
ARC
5
559
100
AcDbEntity
8
0-0
6
CONTINUOUS
62
3
100
AcDbCircle
10
136.240000000000
20
339.220000000000
30
0.0
40
0.999999984825
100
AcDbArc
50
10.618057250977
51
90.000000000000
0
ARC
5
55a
100
AcDbEntity
8
0-0
6
CONTINUOUS
62
3
100
AcDbCircle
10
136.240000000000
20
339.220000000000
30
0.0
40
1.999999969650
100
AcDbArc
50
10.618057250977
51
90.000000000000
0
ARC
5
55b
100
AcDbEntity
8
0-0
6
CONTINUOUS
62
3
100
AcDbCircle
10
156.170000000000
20
334.220000000000
30
0.0
40
0.999999984825
100
AcDbArc
50
270.000000000000
51
349.381942749023
0
ARC
5
55c
100
AcDbEntity
8
0-0
6
CONTINUOUS
62
3
100
AcDbCircle
10
156.170000000000
20
334.220000000000
30
0.0
40
1.999999969650
100
AcDbArc
50
270.000000000000
51
349.381942749023
0
ARC
5
55d
100
AcDbEntity
8
0-0
6
CONTINUOUS
62
3
100
AcDbCircle
10
160.160000000000
20
339.220000000000
30
0.0
40
0.999999984825
100
AcDbArc
50
90.000000000000
51
169.381942749023
0
ARC
5
55e
100
AcDbEntity
8
0-0
6
CONTINUOUS
62
3
100
AcDbCircle
10
160.160000000000
20
339.220000000000
30
0.0
40
1.999999969650
100
AcDbArc
50
90.000000000000
51
169.381942749023
0
ARC
5
55f
100
AcDbEntity
8
0-0
6
CONTINUOUS
62
3
100
AcDbCircle
10
197.770000000000
20
334.220000000000
30
0.0
40
0.999999984825
100
AcDbArc
50
270.000000000000
51
349.381942749023
0
ARC
5
560
100
AcDbEntity
8
0-0
6
CONTINUOUS
62
3
100
AcDbCircle
10
197.770000000000
20
334.220000000000
30
0.0
40
1.999999969650
100
AcDbArc
50
270.000000000000
51
349.381942749023
0
ARC
5
561
100
AcDbEntity
8
0-0
6
CONTINUOUS
62
3
100
AcDbCircle
10
201.760000000000
20
339.220000000000
30
0.0
40
0.999999984825
100
AcDbArc
50
90.000000000000
51
169.381942749023
0
ARC
5
562
100
AcDbEntity
8
0-0
6
CONTINUOUS
62
3
100
AcDbCircle
10
201.760000000000
20
339.220000000000
30
0.0
40
1.999999969650
100
AcDbArc
50
90.000000000000
51
169.381942749023
0
ARC
5
563
100
AcDbEntity
8
0-0
6
CONTINUOUS
62
3
100
AcDbCircle
10
181.830000000000
20
334.220000000000
30
0.0
40
0.999999984825
100
AcDbArc
50
190.618057250977
51
270.000000000000
0
ARC
5
564
100
AcDbEntity
8
0-0
6
CONTINUOUS
62
3
100
AcDbCircle
10
181.830000000000
20
334.220000000000
30
0.0
40
1.999999969650
100
AcDbArc
50
190.618057250977
51
270.000000000000
0
ARC
5
565
100
AcDbEntity
8
0-0
6
CONTINUOUS
62
3
100
AcDbCircle
10
177.840000000000
20
339.220000000000
30
0.0
40
0.999999984825
100
AcDbArc
50
10.618057250977
51
90.000000000000
0
ARC
5
566
100
AcDbEntity
8
0-0
6
CONTINUOUS
62
3
100
AcDbCircle
10
177.840000000000
20
339.220000000000
30
0.0
40
1.999999969650
100
AcDbArc
50
10.618057250977
51
90.000000000000
0
ARC
5
567
100
AcDbEntity
8
0-0
6
CONTINUOUS
62
3
100
AcDbCircle
10
114.570000000000
20
334.220000000000
30
0.0
40
0.999999984825
100
AcDbArc
50
270.000000000000
51
349.381942749023
0
ARC
5
568
100
AcDbEntity
8
0-0
6
CONTINUOUS
62
3
100
AcDbCircle
10
114.570000000000
20
334.220000000000
30
0.0
40
1.999999969650
100
AcDbArc
50
270.000000000000
51
349.381942749023
0
ARC
5
569
100
AcDbEntity
8
0-0
6
CONTINUOUS
62
3
100
AcDbCircle
10
118.560000000000
20
339.220000000000
30
0.0
40
0.999999984825
100
AcDbArc
50
90.000000000000
51
169.381942749023
0
ARC
5
56a
100
AcDbEntity
8
0-0
6
CONTINUOUS
62
3
100
AcDbCircle
10
118.560000000000
20
339.220000000000
30
0.0
40
1.999999969650
100
AcDbArc
50
90.000000000000
51
169.381942749023
0
ARC
5
56b
100
AcDbEntity
8
0-0
6
CONTINUOUS
62
3
100
AcDbCircle
10
98.630000000000
20
334.220000000000
30
0.0
40
0.999999984825
100
AcDbArc
50
190.618057250977
51
270.000000000000
0
ARC
5
56c
100
AcDbEntity
8
0-0
6
CONTINUOUS
62
3
100
AcDbCircle
10
98.630000000000
20
334.220000000000
30
0.0
40
1.999999969650
100
AcDbArc
50
190.618057250977
51
270.000000000000
0
ARC
5
56d
100
AcDbEntity
8
0-0
6
CONTINUOUS
62
3
100
AcDbCircle
10
94.640000000000
20
339.220000000000
30
0.0
40
0.999999984825
100
AcDbArc
50
10.618057250977
51
90.000000000000
0
ARC
5
56e
100
AcDbEntity
8
0-0
6
CONTINUOUS
62
3
100
AcDbCircle
10
94.640000000000
20
339.220000000000
30
0.0
40
1.999999969650
100
AcDbArc
50
10.618057250977
51
90.000000000000
0
ARC
5
56f
100
AcDbEntity
8
0-0
6
CONTINUOUS
62
3
100
AcDbCircle
10
389.830000000000
20
334.220000000000
30
0.0
40
0.999999984825
100
AcDbArc
50
190.618057250977
51
270.000000000000
0
ARC
5
570
100
AcDbEntity
8
0-0
6
CONTINUOUS
62
3
100
AcDbCircle
10
389.830000000000
20
334.220000000000
30
0.0
40
1.999999969650
100
AcDbArc
50
190.618057250977
51
270.000000000000
0
ARC
5
571
100
AcDbEntity
8
0-0
6
CONTINUOUS
62
3
100
AcDbCircle
10
385.840000000000
20
339.220000000000
30
0.0
40
0.999999984825
100
AcDbArc
50
10.618057250977
51
90.000000000000
0
ARC
5
572
100
AcDbEntity
8
0-0
6
CONTINUOUS
62
3
100
AcDbCircle
10
385.840000000000
20
339.220000000000
30
0.0
40
1.999999969650
100
AcDbArc
50
10.618057250977
51
90.000000000000
0
ARC
5
573
100
AcDbEntity
8
0-0
6
CONTINUOUS
62
3
100
AcDbCircle
10
405.770000000000
20
334.220000000000
30
0.0
40
0.999999984825
100
AcDbArc
50
270.000000000000
51
349.381942749023
0
ARC
5
574
100
AcDbEntity
8
0-0
6
CONTINUOUS
62
3
100
AcDbCircle
10
405.770000000000
20
334.220000000000
30
0.0
40
1.999999969650
100
AcDbArc
50
270.000000000000
51
349.381942749023
0
ARC
5
575
100
AcDbEntity
8
0-0
6
CONTINUOUS
62
3
100
AcDbCircle
10
409.760000000000
20
340.220000000000
30
0.0
40
0.999999984825
100
AcDbArc
50
90.000000000000
51
169.381942749023
0
ARC
5
576
100
AcDbEntity
8
0-0
6
CONTINUOUS
62
3
100
AcDbCircle
10
409.760000000000
20
340.220000000000
30
0.0
40
1.999999969650
100
AcDbArc
50
90.000000000000
51
169.381942749023
0
ARC
5
577
100
AcDbEntity
8
0-0
6
CONTINUOUS
62
3
100
AcDbCircle
10
364.170000000000
20
334.220000000000
30
0.0
40
0.999999984825
100
AcDbArc
50
270.000000000000
51
349.381942749023
0
ARC
5
578
100
AcDbEntity
8
0-0
6
CONTINUOUS
62
3
100
AcDbCircle
10
364.170000000000
20
334.220000000000
30
0.0
40
1.999999969650
100
AcDbArc
50
270.000000000000
51
349.381942749023
0
ARC
5
579
100
AcDbEntity
8
0-0
6
CONTINUOUS
62
3
100
AcDbCircle
10
368.160000000000
20
339.220000000000
30
0.0
40
0.999999984825
100
AcDbArc
50
90.000000000000
51
169.381942749023
0
ARC
5
57a
100
AcDbEntity
8
0-0
6
CONTINUOUS
62
3
100
AcDbCircle
10
368.160000000000
20
339.220000000000
30
0.0
40
1.999999969650
100
AcDbArc
50
90.000000000000
51
169.381942749023
0
ARC
5
57b
100
AcDbEntity
8
0-0
6
CONTINUOUS
62
3
100
AcDbCircle
10
348.230000000000
20
334.220000000000
30
0.0
40
0.999999984825
100
AcDbArc
50
190.618057250977
51
270.000000000000
0
ARC
5
57c
100
AcDbEntity
8
0-0
6
CONTINUOUS
62
3
100
AcDbCircle
10
348.230000000000
20
334.220000000000
30
0.0
40
1.999999969650
100
AcDbArc
50
190.618057250977
51
270.000000000000
0
ARC
5
57d
100
AcDbEntity
8
0-0
6
CONTINUOUS
62
3
100
AcDbCircle
10
344.240000000000
20
339.220000000000
30
0.0
40
0.999999984825
100
AcDbArc
50
10.618057250977
51
90.000000000000
0
ARC
5
57e
100
AcDbEntity
8
0-0
6
CONTINUOUS
62
3
100
AcDbCircle
10
344.240000000000
20
339.220000000000
30
0.0
40
1.999999969650
100
AcDbArc
50
10.618057250977
51
90.000000000000
0
ARC
5
57f
100
AcDbEntity
8
0-0
6
CONTINUOUS
62
3
100
AcDbCircle
10
446.370000000000
20
335.220000000000
30
0.0
40
0.999999984825
100
AcDbArc
50
270.000000000000
51
349.381942749023
0
ARC
5
580
100
AcDbEntity
8
0-0
6
CONTINUOUS
62
3
100
AcDbCircle
10
446.370000000000
20
335.220000000000
30
0.0
40
1.999999969650
100
AcDbArc
50
270.000000000000
51
349.381942749023
0
ARC
5
581
100
AcDbEntity
8
0-0
6
CONTINUOUS
62
3
100
AcDbCircle
10
432.430000000000
20
335.220000000000
30
0.0
40
0.999999984825
100
AcDbArc
50
190.618057250977
51
270.000000000000
0
ARC
5
582
100
AcDbEntity
8
0-0
6
CONTINUOUS
62
3
100
AcDbCircle
10
432.430000000000
20
335.220000000000
30
0.0
40
1.999999969650
100
AcDbArc
50
190.618057250977
51
270.000000000000
0
ARC
5
583
100
AcDbEntity
8
0-0
6
CONTINUOUS
62
3
100
AcDbCircle
10
428.440000000000
20
340.220000000000
30
0.0
40
0.999999984825
100
AcDbArc
50
10.618057250977
51
90.000000000000
0
ARC
5
584
100
AcDbEntity
8
0-0
6
CONTINUOUS
62
3
100
AcDbCircle
10
428.440000000000
20
340.220000000000
30
0.0
40
1.999999969650
100
AcDbArc
50
10.618057250977
51
90.000000000000
0
TEXT
5
585
100
AcDbEntity
8
F-F
62
3
370
-3
100
AcDbText
10
83.332
20
21.800
30
0.0
40
3.282
1
静岡県静岡市流通センター１６番
41
0.921
50
0.000
100
AcDbText
0
TEXT
5
586
100
AcDbEntity
8
F-F
62
3
370
-3
100
AcDbText
10
83.334
20
14.383
30
0.0
40
3.282
1
電話（０５４）２６３－２２８０（代表）
41
0.921
50
0.000
100
AcDbText
0
TEXT
5
587
100
AcDbEntity
8
F-F
62
3
370
-3
100
AcDbText
10
266.045
20
37.876
30
0.0
40
2.461
1
変　　　　　　更　　　　　　記　　　　　　事
41
0.914
50
0.000
100
AcDbText
0
TEXT
5
588
100
AcDbEntity
8
F-F
62
3
370
-3
100
AcDbText
10
407.912
20
37.476
30
0.0
40
2.461
1
受領　　日附
41
0.914
50
0.000
100
AcDbText
0
TEXT
5
589
100
AcDbEntity
8
F-F
62
3
370
-3
100
AcDbText
10
507.021
20
22.760
30
0.0
40
2.461
1
施工者
41
0.914
50
0.000
100
AcDbText
0
TEXT
5
58a
100
AcDbEntity
8
F-F
62
3
370
-3
100
AcDbText
10
507.021
20
37.575
30
0.0
40
2.461
1
設計者
41
0.914
50
0.000
100
AcDbText
0
TEXT
5
58b
100
AcDbEntity
8
F-F
62
3
370
-3
100
AcDbText
10
609.763
20
22.489
30
0.0
40
2.461
1
作図
41
0.914
50
0.000
100
AcDbText
0
TEXT
5
58c
100
AcDbEntity
8
F-F
62
3
370
-3
100
AcDbText
10
645.676
20
22.754
30
0.0
40
2.461
1
図面名
41
0.914
50
0.000
100
AcDbText
0
TEXT
5
58d
100
AcDbEntity
8
F-F
62
3
370
-3
100
AcDbText
10
609.763
20
37.303
30
0.0
40
2.461
1
日附
41
0.914
50
0.000
100
AcDbText
0
TEXT
5
58e
100
AcDbEntity
8
F-F
62
3
370
-3
100
AcDbText
10
645.676
20
37.569
30
0.0
40
2.461
1
工事件名
41
0.914
50
0.000
100
AcDbText
0
TEXT
5
58f
100
AcDbEntity
8
F-F
62
3
370
-3
100
AcDbText
10
620.831
20
37.178
30
0.0
40
2.461
1
年　月　日
41
0.914
50
0.000
100
AcDbText
0
TEXT
5
590
100
AcDbEntity
8
F-F
62
3
370
-3
100
AcDbText
10
620.831
20
22.363
30
0.0
40
2.461
1
年　月　日
41
0.914
50
0.000
100
AcDbText
0
TEXT
5
591
100
AcDbEntity
8
F-F
62
3
370
-3
100
AcDbText
10
771.848
20
37.569
30
0.0
40
2.461
1
設計番号
41
0.914
50
0.000
100
AcDbText
0
MTEXT
5
592
100
AcDbEntity
8
F-F
62
3
370
-3
100
AcDbMText
10
193.506
20
33.911
30
0.0
40
2.325
41
0.000
71
7
72
1
1
\W1.037;{\W0.747;. }　{\W0.747;.}　{\W0.747; }
7
STANDARD
11
1.00000
21
0.00000
31
0.0
0
MTEXT
5
593
100
AcDbEntity
8
F-F
62
3
370
-3
100
AcDbMText
10
193.506
20
28.972
30
0.0
40
2.325
41
0.000
71
7
72
1
1
\W1.037;{\W0.747;. }　{\W0.747;.}　{\W0.747; }
7
STANDARD
11
1.00000
21
0.00000
31
0.0
0
MTEXT
5
594
100
AcDbEntity
8
F-F
62
3
370
-3
100
AcDbMText
10
193.506
20
24.034
30
0.0
40
2.325
41
0.000
71
7
72
1
1
\W1.037;{\W0.747;. }　{\W0.747;.}　{\W0.747; }
7
STANDARD
11
1.00000
21
0.00000
31
0.0
0
MTEXT
5
595
100
AcDbEntity
8
F-F
62
3
370
-3
100
AcDbMText
10
193.506
20
19.096
30
0.0
40
2.325
41
0.000
71
7
72
1
1
\W1.037;{\W0.747;. }　{\W0.747;.}　{\W0.747; }
7
STANDARD
11
1.00000
21
0.00000
31
0.0
0
MTEXT
5
596
100
AcDbEntity
8
F-F
62
3
370
-3
100
AcDbMText
10
193.506
20
14.157
30
0.0
40
2.325
41
0.000
71
7
72
1
1
\W1.037;{\W0.747;. }　{\W0.747;.}　{\W0.747; }
7
STANDARD
11
1.00000
21
0.00000
31
0.0
0
TEXT
5
597
100
AcDbEntity
8
F-F
62
3
370
-3
100
AcDbText
10
517.191
20
31.187
30
0.0
40
3.282
1
　　　　　　　　　　
41
0.921
50
0.000
100
AcDbText
0
TEXT
5
598
100
AcDbEntity
8
F-F
62
3
370
-3
100
AcDbText
10
517.191
20
16.371
30
0.0
40
3.282
1
　　　　　　　　　　
41
0.921
50
0.000
100
AcDbText
0
TEXT
5
599
100
AcDbEntity
8
F-F
62
3
370
-3
100
AcDbText
10
658.923
20
31.960
30
0.0
40
3.282
1
　　　　　　　　　　　　　
41
0.921
50
0.000
100
AcDbText
0
TEXT
5
59a
100
AcDbEntity
8
F-F
62
3
370
-3
100
AcDbText
10
189.020
20
37.844
30
0.0
40
2.461
1
年　月　日
41
0.914
50
0.000
100
AcDbText
0
TEXT
5
59b
100
AcDbEntity
8
F-F
62
3
370
-3
100
AcDbText
10
436.498
20
37.184
30
0.0
40
2.461
1
年　　月　　日
41
0.914
50
0.000
100
AcDbText
0
MTEXT
5
59c
100
AcDbEntity
8
F-F
62
3
370
-3
100
AcDbMText
10
442.774
20
31.699
30
0.0
40
2.325
41
0.000
71
7
72
1
1
\W1.037;{\W0.747;.}　{\W0.747; }　{\W0.747;.}
7
STANDARD
11
1.00000
21
0.00000
31
0.0
0
TEXT
5
59d
100
AcDbEntity
8
F-F
62
3
370
-3
100
AcDbText
10
407.912
20
22.661
30
0.0
40
2.461
1
受領　　日附
41
0.914
50
0.000
100
AcDbText
0
TEXT
5
59e
100
AcDbEntity
8
F-F
62
3
370
-3
100
AcDbText
10
436.498
20
22.369
30
0.0
40
2.461
1
年　　月　　日
41
0.914
50
0.000
100
AcDbText
0
MTEXT
5
59f
100
AcDbEntity
8
F-F
62
3
370
-3
100
AcDbMText
10
442.774
20
16.884
30
0.0
40
2.325
41
0.000
71
7
72
1
1
\W1.037;{\W0.747;.}　{\W0.747; }　{\W0.747;.}
7
STANDARD
11
1.00000
21
0.00000
31
0.0
0
MTEXT
5
5a0
100
AcDbEntity
8
F-F
62
3
370
-3
100
AcDbMText
10
624.217
20
30.842
30
0.0
40
2.325
41
0.000
71
7
72
1
1
\W1.037;{\W0.747;.}　　{\W0.747;.}　
7
STANDARD
11
1.00000
21
0.00000
31
0.0
0
TEXT
5
5a1
100
AcDbEntity
8
F-F
62
3
370
-3
100
AcDbText
10
57.385
20
30.579
30
0.0
40
6.564
1
小　池　弥　太　郎　商　店
41
0.963
50
0.000
100
AcDbText
0
TEXT
5
5a2
100
AcDbEntity
8
F-F
62
3
370
-3
100
AcDbText
10
771.848
20
22.754
30
0.0
40
2.461
1
縮　尺
41
0.914
50
0.000
100
AcDbText
0
TEXT
5
5a3
100
AcDbEntity
8
F-F
62
3
370
-3
100
AcDbText
10
783.506
20
20.823
30
0.0
40
3.282
1
Ａ１－１／１　
41
0.921
50
0.000
100
AcDbText
0
TEXT
5
5a4
100
AcDbEntity
8
F-F
62
3
370
-3
100
AcDbText
10
783.506
20
13.416
30
0.0
40
3.282
1
Ａ３－１／２　
41
0.921
50
0.000
100
AcDbText
0
TEXT
5
5a5
100
AcDbEntity
8
F-F
62
3
370
-3
100
AcDbText
10
637.422
20
556.464
30
0.0
40
6.564
1
製　品　名
41
0.963
50
0.000
100
AcDbText
0
MTEXT
5
5a6
100
AcDbEntity
8
F-F
62
3
370
-3
100
AcDbMText
10
637.422
20
505.735
30
0.0
40
6.199
41
0.000
71
7
72
1
1
\W1.093;各種鋼板　０{\W0.787;.}２７ｍｍ{\W0.787; }～{\W0.787; }０{\W0.787;.}４ｍｍ
7
STANDARD
11
1.00000
21
0.00000
31
0.0
0
TEXT
5
5a7
100
AcDbEntity
8
F-F
62
3
370
-3
100
AcDbText
10
637.422
20
493.964
30
0.0
40
6.564
1
板幅　：　４５５ｍｍ
41
0.963
50
0.000
100
AcDbText
0
TEXT
5
5a8
100
AcDbEntity
8
F-F
62
3
370
-3
100
AcDbText
10
611.358
20
15.783
30
0.0
40
2.461
1
MA 2015-06-16
41
0.618
50
0.000
100
AcDbText
0
TEXT
5
5a9
100
AcDbEntity
8
0-0
62
3
370
-3
100
AcDbText
10
264.563
20
366.417
30
0.0
40
6.564
41
0.701
50
0.000
1
20.6
72
1
11
273.338
21
365.688
31
0.0
100
AcDbText
73
1
0
TEXT
5
5aa
100
AcDbEntity
8
0-0
62
3
370
-3
100
AcDbText
10
264.563
20
307.417
30
0.0
40
6.564
41
0.795
50
0.000
1
17.6
72
1
11
273.338
21
306.688
31
0.0
100
AcDbText
73
1
0
TEXT
5
5ab
100
AcDbEntity
8
0-0
62
3
370
-3
100
AcDbText
10
294.504
20
334.532
30
0.0
40
6.564
41
0.554
50
90.000
1
8
72
1
11
295.233
21
336.725
31
0.0
100
AcDbText
73
1
0
TEXT
5
5ac
100
AcDbEntity
8
0-0
62
3
370
-3
100
AcDbText
10
248.263
20
366.417
30
0.0
40
6.564
41
0.675
50
0.000
1
21
72
1
11
252.650
21
365.688
31
0.0
100
AcDbText
73
1
0
TEXT
5
5ad
100
AcDbEntity
8
0-0
62
3
370
-3
100
AcDbText
10
258.663
20
380.917
30
0.0
40
6.564
41
0.581
50
0.000
1
333
72
1
11
265.244
21
380.188
31
0.0
100
AcDbText
73
1
0
MTEXT
5
5ae
100
AcDbEntity
8
0-0
62
3
370
-3
100
AcDbMText
10
107.856
20
409.422
30
0.0
40
6.199
41
0.000
71
7
72
1
1
\W1.093;リブ{\W0.787; }ウォール{\W0.787; }（有効巾　３３３ｍｍ）
7
STANDARD
11
1.00000
21
0.00000
31
0.0
0
TEXT
5
5af
100
AcDbEntity
8
F-F
62
3
370
-3
100
AcDbText
10
658.923
20
17.145
30
0.0
40
3.282
1
リブウォール　Ｗ３３３　角波　断面図
41
0.921
50
0.000
100
AcDbText
0
TEXT
5
5b0
100
AcDbEntity
8
F-F
62
3
370
-3
100
AcDbText
10
778.734
20
30.593
30
0.0
40
4.102
1
HAN-RW-01
41
0.573
50
0.000
100
AcDbText
0
MTEXT
5
5b1
100
AcDbEntity
8
F-F
62
3
370
-3
100
AcDbMText
10
637.422
20
530.735
30
0.0
40
6.199
41
0.000
71
7
72
1
1
\W1.093;リブウォール{\W0.787; }Ｗ３３３
7
STANDARD
11
1.00000
21
0.00000
31
0.0
0
POLYLINE
5
5b2
100
AcDbEntity
  8
F-F
6
CONTINUOUS
62
3
100
AcDb2dPolyline
66
1
10
0
20
0
70
1
40
0.400
41
0.400
0
VERTEX
5
5b3
100
AcDbEntity
  8
F-F
6
CONTINUOUS
62
3
100
AcDbVertex
100
AcDb2dVertex
10
27.179
20
571.820
30
0.0
42
1.000
0
VERTEX
5
5b4
100
AcDbEntity
  8
F-F
6
CONTINUOUS
62
3
100
AcDbVertex
100
AcDb2dVertex
10
27.579
20
571.820
30
0.0
42
1.000
0
SEQEND
5
5b5
100
AcDbEntity
  8
F-F
0
POLYLINE
5
5b6
100
AcDbEntity
  8
0-0
6
CONTINUOUS
62
3
100
AcDb2dPolyline
66
1
10
0
20
0
70
1
40
0.400
41
0.400
0
VERTEX
5
5b7
100
AcDbEntity
  8
0-0
6
CONTINUOUS
62
3
100
AcDbVertex
100
AcDb2dVertex
10
106.401
20
379.220
30
0.0
42
1.000
0
VERTEX
5
5b8
100
AcDbEntity
  8
0-0
6
CONTINUOUS
62
3
100
AcDbVertex
100
AcDb2dVertex
10
106.801
20
379.220
30
0.0
42
1.000
0
SEQEND
5
5b9
100
AcDbEntity
  8
0-0
0
POLYLINE
5
5ba
100
AcDbEntity
  8
0-0
6
CONTINUOUS
62
3
100
AcDb2dPolyline
66
1
10
0
20
0
70
1
40
0.400
41
0.400
0
VERTEX
5
5bb
100
AcDbEntity
  8
0-0
6
CONTINUOUS
62
3
100
AcDbVertex
100
AcDb2dVertex
10
241.501
20
364.220
30
0.0
42
1.000
0
VERTEX
5
5bc
100
AcDbEntity
  8
0-0
6
CONTINUOUS
62
3
100
AcDbVertex
100
AcDb2dVertex
10
241.901
20
364.220
30
0.0
42
1.000
0
SEQEND
5
5bd
100
AcDbEntity
  8
0-0
0
POLYLINE
5
5be
100
AcDbEntity
  8
0-0
6
CONTINUOUS
62
3
100
AcDb2dPolyline
66
1
10
0
20
0
70
1
40
0.400
41
0.400
0
VERTEX
5
5bf
100
AcDbEntity
  8
0-0
6
CONTINUOUS
62
3
100
AcDbVertex
100
AcDb2dVertex
10
262.501
20
364.220
30
0.0
42
1.000
0
VERTEX
5
5c0
100
AcDbEntity
  8
0-0
6
CONTINUOUS
62
3
100
AcDbVertex
100
AcDb2dVertex
10
262.901
20
364.220
30
0.0
42
1.000
0
SEQEND
5
5c1
100
AcDbEntity
  8
0-0
0
POLYLINE
5
5c2
100
AcDbEntity
  8
0-0
6
CONTINUOUS
62
3
100
AcDb2dPolyline
66
1
10
0
20
0
70
1
40
0.400
41
0.400
0
VERTEX
5
5c3
100
AcDbEntity
  8
0-0
6
CONTINUOUS
62
3
100
AcDbVertex
100
AcDb2dVertex
10
283.101
20
364.220
30
0.0
42
1.000
0
VERTEX
5
5c4
100
AcDbEntity
  8
0-0
6
CONTINUOUS
62
3
100
AcDbVertex
100
AcDb2dVertex
10
283.501
20
364.220
30
0.0
42
1.000
0
SEQEND
5
5c5
100
AcDbEntity
  8
0-0
0
POLYLINE
5
5c6
100
AcDbEntity
  8
0-0
6
CONTINUOUS
62
3
100
AcDb2dPolyline
66
1
10
0
20
0
70
1
40
0.400
41
0.400
0
VERTEX
5
5c7
100
AcDbEntity
  8
0-0
6
CONTINUOUS
62
3
100
AcDbVertex
100
AcDb2dVertex
10
439.401
20
379.220
30
0.0
42
1.000
0
VERTEX
5
5c8
100
AcDbEntity
  8
0-0
6
CONTINUOUS
62
3
100
AcDbVertex
100
AcDb2dVertex
10
439.801
20
379.220
30
0.0
42
1.000
0
SEQEND
5
5c9
100
AcDbEntity
  8
0-0
0
POLYLINE
5
5ca
100
AcDbEntity
  8
0-0
6
CONTINUOUS
62
3
100
AcDb2dPolyline
66
1
10
0
20
0
70
1
40
0.400
41
0.400
0
VERTEX
5
5cb
100
AcDbEntity
  8
0-0
6
CONTINUOUS
62
3
100
AcDbVertex
100
AcDb2dVertex
10
296.501
20
332.220
30
0.0
42
1.000
0
VERTEX
5
5cc
100
AcDbEntity
  8
0-0
6
CONTINUOUS
62
3
100
AcDbVertex
100
AcDb2dVertex
10
296.901
20
332.220
30
0.0
42
1.000
0
SEQEND
5
5cd
100
AcDbEntity
  8
0-0
0
POLYLINE
5
5ce
100
AcDbEntity
  8
0-0
6
CONTINUOUS
62
3
100
AcDb2dPolyline
66
1
10
0
20
0
70
1
40
0.400
41
0.400
0
VERTEX
5
5cf
100
AcDbEntity
  8
0-0
6
CONTINUOUS
62
3
100
AcDbVertex
100
AcDb2dVertex
10
296.501
20
340.220
30
0.0
42
1.000
0
VERTEX
5
5d0
100
AcDbEntity
  8
0-0
6
CONTINUOUS
62
3
100
AcDbVertex
100
AcDb2dVertex
10
296.901
20
340.220
30
0.0
42
1.000
0
SEQEND
5
5d1
100
AcDbEntity
  8
0-0
0
POLYLINE
5
5d2
100
AcDbEntity
  8
0-0
6
CONTINUOUS
62
3
100
AcDb2dPolyline
66
1
10
0
20
0
70
1
40
0.400
41
0.400
0
VERTEX
5
5d3
100
AcDbEntity
  8
0-0
6
CONTINUOUS
62
3
100
AcDbVertex
100
AcDb2dVertex
10
264.001
20
305.220
30
0.0
42
1.000
0
VERTEX
5
5d4
100
AcDbEntity
  8
0-0
6
CONTINUOUS
62
3
100
AcDbVertex
100
AcDb2dVertex
10
264.401
20
305.220
30
0.0
42
1.000
0
SEQEND
5
5d5
100
AcDbEntity
  8
0-0
0
POLYLINE
5
5d6
100
AcDbEntity
  8
0-0
6
CONTINUOUS
62
3
100
AcDb2dPolyline
66
1
10
0
20
0
70
1
40
0.400
41
0.400
0
VERTEX
5
5d7
100
AcDbEntity
  8
0-0
6
CONTINUOUS
62
3
100
AcDbVertex
100
AcDb2dVertex
10
281.601
20
305.220
30
0.0
42
1.000
0
VERTEX
5
5d8
100
AcDbEntity
  8
0-0
6
CONTINUOUS
62
3
100
AcDbVertex
100
AcDb2dVertex
10
282.001
20
305.220
30
0.0
42
1.000
0
SEQEND
5
5d9
100
AcDbEntity
  8
0-0
0
POLYLINE
5
5da
100
AcDbEntity
  8
0-0
6
CONTINUOUS
62
3
100
AcDb2dPolyline
66
1
10
0
20
0
70
1
40
0.400
41
0.400
0
VERTEX
5
5db
100
AcDbEntity
  8
0-0
6
CONTINUOUS
62
3
100
AcDbVertex
100
AcDb2dVertex
10
439.201
20
332.220
30
0.0
42
1.000
0
VERTEX
5
5dc
100
AcDbEntity
  8
0-0
6
CONTINUOUS
62
3
100
AcDbVertex
100
AcDb2dVertex
10
439.601
20
332.220
30
0.0
42
1.000
0
SEQEND
5
5dd
100
AcDbEntity
  8
0-0
0
POLYLINE
5
5de
100
AcDbEntity
  8
0-0
6
CONTINUOUS
62
3
100
AcDb2dPolyline
66
1
10
0
20
0
70
1
40
0.400
41
0.400
0
VERTEX
5
5df
100
AcDbEntity
  8
0-0
6
CONTINUOUS
62
3
100
AcDbVertex
100
AcDb2dVertex
10
106.401
20
332.220
30
0.0
42
1.000
0
VERTEX
5
5e0
100
AcDbEntity
  8
0-0
6
CONTINUOUS
62
3
100
AcDbVertex
100
AcDb2dVertex
10
106.801
20
332.220
30
0.0
42
1.000
0
SEQEND
5
5e1
100
AcDbEntity
  8
0-0
0
ENDSEC
 0
SECTION
  2
OBJECTS
 0
DICTIONARY
  5
C
100
AcDbDictionary
  3
ACAD_GROUP
350
D
  3
ACAD_MLINESTYLE
350
E
 0
DICTIONARY
  5
D
102
{ACAD_REACTORS
102
}
100
AcDbDictionary
 0
DICTIONARY
  5
E
102
{ACAD_REACTORS
102
}
100
AcDbDictionary
  3
STANDARD
350
13
0
MLINESTYLE
  5
13
102
{ACAD_REACTORS
102
}
100
AcDbMlineStyle
  2
STANDARD
 70
    0
3

62
256
51
90.0
52
90.0
71
0
0
ACDBPLACEHOLDER
  5
14
102
{ACAD_REACTORS
102
}
0
ENDSEC
0
EOF
