0
SECTION
2
HEADER
9
$ACADVER
1
AC1009
9
$DWGCODEPAGE
3
ANSI_932
9
$EXTMIN
10
0.000
20
0.000
30
0.0
9
$EXTMAX
10
841.000
20
594.000
30
0.0
9
$LTSCALE
40
2.000
9
$PDMODE
70
0
9
$PDSIZE
40
40.0
0
ENDSEC
0
SECTION
2
TABLES
0
TABLE
2
LTYPE
70
9
0
LTYPE
5
1f4
2
CONTINUOUS
70
64
3
SolidLine
72
65
73
0
40
0.0
0
LTYPE
5
1f5
2
DOT
70
64
3
--  --  --  --  --  --  --  --     
72
65
73
2
40
3.000
49
1.000
49
-2.000
0
LTYPE
5
1f6
2
DASHED
70
64
3
----    ----    ----    ----    
72
65
73
2
40
5.000
49
2.000
49
-3.000
0
LTYPE
5
1f7
2
DASHED2
70
64
3
------  ------  ------  ------ 
72
65
73
2
40
10.000
49
4.000
49
-6.000
0
LTYPE
5
1f8
2
CENTER
70
64
3
----- - ----- - ----- - ----- - 
72
65
73
4
40
10.000
49
6.000
49
-3.000
49
1.000
49
-3.000
0
LTYPE
5
1f9
2
CENTER2
70
64
3
----------  --  ----------  -- 
72
65
73
4
40
17.000
49
12.000
49
-5.000
49
2.000
49
-5.000
0
LTYPE
5
1fa
2
PHANTOM
70
64
3
--- - - --- - - --- - - --- - -
72
65
73
6
40
13.000
49
5.000
49
-3.000
49
1.000
49
-3.000
49
1.000
49
-3.000
0
LTYPE
5
1fb
2
PHANTOM2
70
64
3
--------  -  -  --------  -  -
72
65
73
6
40
20.000
49
6.000
49
-5.000
49
2.000
49
-5.000
49
2.000
49
-5.000
0
LTYPE
5
1fc
2
HIDDEN
70
64
3
-   -   -   -   -   -   -   -   
72
65
73
2
40
3.000
49
0.500
49
-2.500
0
ENDTAB
0
TABLE
2
STYLE
70
1
0
STYLE
5
1fd
100
AcDbSymbolTableRecord
100
AcDbTextStyleTableRecord
2
STANDARD
70
0
40
0.0
41
1.0
50
0.0
71
0
42
0.0
3
txt.shx
4
extfont.shx
0
STYLE
5
1fe
100
AcDbSymbolTableRecord
100
AcDbTextStyleTableRecord
2
TATEGAKI
70
4
40
0.0
41
1.0
50
0.0
71
0
42
0.0
3
txt.shx
4
extfont.shx
0
STYLE
5
1ff
100
AcDbSymbolTableRecord
100
AcDbTextStyleTableRecord
2
DIM
70
0
40
0.0
41
0.75
50
0.0
71
0
42
0.0
3
txt.shx
4
extfont.shx
0
STYLE
5
200
100
AcDbSymbolTableRecord
100
AcDbTextStyleTableRecord
2
_Gothic__
70
0
40
0.0
41
1.0
50
0.0
71
0
42
0.0
3
MS Gothic
4

0
STYLE
5
201
100
AcDbSymbolTableRecord
100
AcDbTextStyleTableRecord
2
_TateGothic_
70
4
40
0.0
41
1.0
50
0.0
71
0
42
0.0
3
@MS Gothic
4

0
ENDTAB
0
TABLE
2
LAYER
5
403
100
AcDbSymbolTable
70
10
0
LAYER
5
404
100
AcDbSymbolTableRecord
100
AcDbLayerTableRecord
2
0-0
70
0
62
7
6
CONTINUOUS
0
LAYER
5
405
100
AcDbSymbolTableRecord
100
AcDbLayerTableRecord
2
0-1
70
0
62
7
6
CONTINUOUS
0
LAYER
5
406
100
AcDbSymbolTableRecord
100
AcDbLayerTableRecord
2
0-2
70
0
62
7
6
CONTINUOUS
0
LAYER
5
407
100
AcDbSymbolTableRecord
100
AcDbLayerTableRecord
2
0-3
70
0
62
7
6
CONTINUOUS
0
LAYER
5
408
100
AcDbSymbolTableRecord
100
AcDbLayerTableRecord
2
F-E_J_ADD
70
0
62
-7
6
CONTINUOUS
0
LAYER
5
409
100
AcDbSymbolTableRecord
100
AcDbLayerTableRecord
2
F-F
70
0
62
7
6
CONTINUOUS
0
ENDTAB
0
ENDSEC
0
SECTION
2
ENTITIES
0
LINE
5
40a
100
AcDbEntity
8
0-3
6
CONTINUOUS
62
2
100
AcDbLine
10
27.380000000000
20
11.820000000000
30
0.0
11
27.380000000000
21
571.820000000000
31
0.0
0
LINE
5
40b
100
AcDbEntity
8
0-3
6
CONTINUOUS
62
2
100
AcDbLine
10
642.380000000000
20
41.450000000000
30
0.0
11
642.380000000000
21
11.820000000000
31
0.0
0
LINE
5
40c
100
AcDbEntity
8
0-3
6
CONTINUOUS
62
2
100
AcDbLine
10
607.270000000000
20
41.450000000000
30
0.0
11
607.270000000000
21
11.820000000000
31
0.0
0
LINE
5
40d
100
AcDbEntity
8
0-3
6
CONTINUOUS
62
2
100
AcDbLine
10
768.560000000000
20
11.820000000000
30
0.0
11
768.560000000000
21
41.450000000000
31
0.0
0
LINE
5
40e
100
AcDbEntity
8
0-3
6
CONTINUOUS
62
2
100
AcDbLine
10
403.450000000000
20
41.450000000000
30
0.0
11
403.450000000000
21
11.820000000000
31
0.0
0
LINE
5
40f
100
AcDbEntity
8
0-3
6
CONTINUOUS
62
2
100
AcDbLine
10
504.870000000000
20
41.450000000000
30
0.0
11
504.870000000000
21
11.820000000000
31
0.0
0
LINE
5
410
100
AcDbEntity
8
0-3
6
CONTINUOUS
62
2
100
AcDbLine
10
403.450000000000
20
31.570000000000
30
0.0
11
184.880000000000
21
31.570000000000
31
0.0
0
LINE
5
411
100
AcDbEntity
8
0-3
6
CONTINUOUS
62
2
100
AcDbLine
10
403.450000000000
20
21.690000000000
30
0.0
11
184.880000000000
21
21.690000000000
31
0.0
0
LINE
5
412
100
AcDbEntity
8
0-3
6
CONTINUOUS
62
2
100
AcDbLine
10
403.450000000000
20
16.760000000000
30
0.0
11
184.880000000000
21
16.760000000000
31
0.0
0
LINE
5
413
100
AcDbEntity
8
0-3
6
CONTINUOUS
62
2
100
AcDbLine
10
403.450000000000
20
36.510000000000
30
0.0
11
184.880000000000
21
36.510000000000
31
0.0
0
LINE
5
414
100
AcDbEntity
8
0-3
6
CONTINUOUS
62
2
100
AcDbLine
10
211.210000000000
20
41.450000000000
30
0.0
11
211.210000000000
21
11.820000000000
31
0.0
0
LINE
5
415
100
AcDbEntity
8
0-3
6
CONTINUOUS
62
2
100
AcDbLine
10
184.880000000000
20
41.450000000000
30
0.0
11
184.880000000000
21
11.820000000000
31
0.0
0
LINE
5
416
100
AcDbEntity
8
0-3
6
CONTINUOUS
62
2
100
AcDbLine
10
815.820000000000
20
11.820000000000
30
0.0
11
815.820000000000
21
571.820000000000
31
0.0
0
LINE
5
417
100
AcDbEntity
8
0-3
6
CONTINUOUS
62
2
100
AcDbLine
10
27.380000000000
20
571.820000000000
30
0.0
11
815.820000000000
21
571.820000000000
31
0.0
0
LINE
5
418
100
AcDbEntity
8
0-3
6
CONTINUOUS
62
2
100
AcDbLine
10
27.380000000000
20
11.820000000000
30
0.0
11
815.820000000000
21
11.820000000000
31
0.0
0
LINE
5
419
100
AcDbEntity
8
0-3
6
CONTINUOUS
62
2
100
AcDbLine
10
815.820000000000
20
41.450000000000
30
0.0
11
27.380000000000
21
41.450000000000
31
0.0
0
LINE
5
41a
100
AcDbEntity
8
0-3
6
CONTINUOUS
62
2
100
AcDbLine
10
184.880000000000
20
26.630000000000
30
0.0
11
815.820000000000
21
26.630000000000
31
0.0
0
LINE
5
41b
100
AcDbEntity
8
0-3
6
CONTINUOUS
62
3
100
AcDbLine
10
35.860000000000
20
29.550000000000
30
0.0
11
35.860000000000
21
37.550000000000
31
0.0
0
LINE
5
41c
100
AcDbEntity
8
0-3
6
CONTINUOUS
62
3
100
AcDbLine
10
35.860000000000
20
37.550000000000
30
0.0
11
43.860000000000
21
37.550000000000
31
0.0
0
LINE
5
41d
100
AcDbEntity
8
0-3
6
CONTINUOUS
62
3
100
AcDbLine
10
43.860000000000
20
37.550000000000
30
0.0
11
43.860000000000
21
29.550000000000
31
0.0
0
LINE
5
41e
100
AcDbEntity
8
0-3
6
CONTINUOUS
62
3
100
AcDbLine
10
43.860000000000
20
29.550000000000
30
0.0
11
35.860000000000
21
29.550000000000
31
0.0
0
LINE
5
41f
100
AcDbEntity
8
0-3
6
CONTINUOUS
62
3
100
AcDbLine
10
36.660000000000
20
30.630000000000
30
0.0
11
36.660000000000
21
36.750000000000
31
0.0
0
LINE
5
420
100
AcDbEntity
8
0-3
6
CONTINUOUS
62
3
100
AcDbLine
10
43.060000000000
20
30.350000000000
30
0.0
11
36.940000000000
21
30.350000000000
31
0.0
0
LINE
5
421
100
AcDbEntity
8
0-3
6
CONTINUOUS
62
3
100
AcDbLine
10
36.660000000000
20
36.750000000000
30
0.0
11
42.780000000000
21
36.750000000000
31
0.0
0
LINE
5
422
100
AcDbEntity
8
0-3
6
CONTINUOUS
62
3
100
AcDbLine
10
42.780000000000
20
36.750000000000
30
0.0
11
36.660000000000
21
30.630000000000
31
0.0
0
LINE
5
423
100
AcDbEntity
8
0-3
6
CONTINUOUS
62
3
100
AcDbLine
10
43.060000000000
20
36.470000000000
30
0.0
11
36.940000000000
21
30.350000000000
31
0.0
0
LINE
5
424
100
AcDbEntity
8
0-3
6
CONTINUOUS
62
3
100
AcDbLine
10
43.060000000000
20
36.470000000000
30
0.0
11
43.060000000000
21
30.350000000000
31
0.0
0
LINE
5
425
100
AcDbEntity
8
0-3
6
CONTINUOUS
62
4
100
AcDbLine
10
35.860000000000
20
37.470000000000
30
0.0
11
43.860000000000
21
37.470000000000
31
0.0
0
LINE
5
426
100
AcDbEntity
8
0-3
6
CONTINUOUS
62
4
100
AcDbLine
10
35.860000000000
20
37.310000000000
30
0.0
11
43.860000000000
21
37.310000000000
31
0.0
0
LINE
5
427
100
AcDbEntity
8
0-3
6
CONTINUOUS
62
4
100
AcDbLine
10
35.860000000000
20
37.150000000000
30
0.0
11
43.860000000000
21
37.150000000000
31
0.0
0
LINE
5
428
100
AcDbEntity
8
0-3
6
CONTINUOUS
62
4
100
AcDbLine
10
35.860000000000
20
36.990000000000
30
0.0
11
43.860000000000
21
36.990000000000
31
0.0
0
LINE
5
429
100
AcDbEntity
8
0-3
6
CONTINUOUS
62
4
100
AcDbLine
10
35.860000000000
20
36.830000000000
30
0.0
11
43.860000000000
21
36.830000000000
31
0.0
0
LINE
5
42a
100
AcDbEntity
8
0-3
6
CONTINUOUS
62
4
100
AcDbLine
10
35.860000000000
20
30.270000000000
30
0.0
11
43.860000000000
21
30.270000000000
31
0.0
0
LINE
5
42b
100
AcDbEntity
8
0-3
6
CONTINUOUS
62
4
100
AcDbLine
10
35.860000000000
20
30.110000000000
30
0.0
11
43.860000000000
21
30.110000000000
31
0.0
0
LINE
5
42c
100
AcDbEntity
8
0-3
6
CONTINUOUS
62
4
100
AcDbLine
10
35.860000000000
20
29.950000000000
30
0.0
11
43.860000000000
21
29.950000000000
31
0.0
0
LINE
5
42d
100
AcDbEntity
8
0-3
6
CONTINUOUS
62
4
100
AcDbLine
10
35.860000000000
20
29.790000000000
30
0.0
11
43.860000000000
21
29.790000000000
31
0.0
0
LINE
5
42e
100
AcDbEntity
8
0-3
6
CONTINUOUS
62
4
100
AcDbLine
10
35.860000000000
20
29.630000000000
30
0.0
11
43.860000000000
21
29.630000000000
31
0.0
0
LINE
5
42f
100
AcDbEntity
8
0-3
6
CONTINUOUS
62
4
100
AcDbLine
10
35.860000000000
20
30.750000000000
30
0.0
11
36.660000000000
21
30.750000000000
31
0.0
0
LINE
5
430
100
AcDbEntity
8
0-3
6
CONTINUOUS
62
4
100
AcDbLine
10
35.860000000000
20
30.910000000000
30
0.0
11
36.660000000000
21
30.910000000000
31
0.0
0
LINE
5
431
100
AcDbEntity
8
0-3
6
CONTINUOUS
62
4
100
AcDbLine
10
35.860000000000
20
31.070000000000
30
0.0
11
36.660000000000
21
31.070000000000
31
0.0
0
LINE
5
432
100
AcDbEntity
8
0-3
6
CONTINUOUS
62
4
100
AcDbLine
10
35.860000000000
20
31.230000000000
30
0.0
11
36.660000000000
21
31.230000000000
31
0.0
0
LINE
5
433
100
AcDbEntity
8
0-3
6
CONTINUOUS
62
4
100
AcDbLine
10
35.860000000000
20
31.390000000000
30
0.0
11
36.660000000000
21
31.390000000000
31
0.0
0
LINE
5
434
100
AcDbEntity
8
0-3
6
CONTINUOUS
62
4
100
AcDbLine
10
35.860000000000
20
31.550000000000
30
0.0
11
36.660000000000
21
31.550000000000
31
0.0
0
LINE
5
435
100
AcDbEntity
8
0-3
6
CONTINUOUS
62
4
100
AcDbLine
10
35.860000000000
20
31.710000000000
30
0.0
11
36.660000000000
21
31.710000000000
31
0.0
0
LINE
5
436
100
AcDbEntity
8
0-3
6
CONTINUOUS
62
4
100
AcDbLine
10
35.860000000000
20
31.870000000000
30
0.0
11
36.660000000000
21
31.870000000000
31
0.0
0
LINE
5
437
100
AcDbEntity
8
0-3
6
CONTINUOUS
62
4
100
AcDbLine
10
35.860000000000
20
32.030000000000
30
0.0
11
36.660000000000
21
32.030000000000
31
0.0
0
LINE
5
438
100
AcDbEntity
8
0-3
6
CONTINUOUS
62
4
100
AcDbLine
10
35.860000000000
20
32.190000000000
30
0.0
11
36.660000000000
21
32.190000000000
31
0.0
0
LINE
5
439
100
AcDbEntity
8
0-3
6
CONTINUOUS
62
4
100
AcDbLine
10
35.860000000000
20
32.350000000000
30
0.0
11
36.660000000000
21
32.350000000000
31
0.0
0
LINE
5
43a
100
AcDbEntity
8
0-3
6
CONTINUOUS
62
4
100
AcDbLine
10
35.860000000000
20
32.510000000000
30
0.0
11
36.660000000000
21
32.510000000000
31
0.0
0
LINE
5
43b
100
AcDbEntity
8
0-3
6
CONTINUOUS
62
4
100
AcDbLine
10
35.860000000000
20
32.670000000000
30
0.0
11
36.660000000000
21
32.670000000000
31
0.0
0
LINE
5
43c
100
AcDbEntity
8
0-3
6
CONTINUOUS
62
4
100
AcDbLine
10
35.860000000000
20
32.830000000000
30
0.0
11
36.660000000000
21
32.830000000000
31
0.0
0
LINE
5
43d
100
AcDbEntity
8
0-3
6
CONTINUOUS
62
4
100
AcDbLine
10
35.860000000000
20
32.990000000000
30
0.0
11
36.660000000000
21
32.990000000000
31
0.0
0
LINE
5
43e
100
AcDbEntity
8
0-3
6
CONTINUOUS
62
4
100
AcDbLine
10
35.860000000000
20
33.150000000000
30
0.0
11
36.660000000000
21
33.150000000000
31
0.0
0
LINE
5
43f
100
AcDbEntity
8
0-3
6
CONTINUOUS
62
4
100
AcDbLine
10
35.860000000000
20
33.310000000000
30
0.0
11
36.660000000000
21
33.310000000000
31
0.0
0
LINE
5
440
100
AcDbEntity
8
0-3
6
CONTINUOUS
62
4
100
AcDbLine
10
35.860000000000
20
33.470000000000
30
0.0
11
36.660000000000
21
33.470000000000
31
0.0
0
LINE
5
441
100
AcDbEntity
8
0-3
6
CONTINUOUS
62
4
100
AcDbLine
10
35.860000000000
20
33.630000000000
30
0.0
11
36.660000000000
21
33.630000000000
31
0.0
0
LINE
5
442
100
AcDbEntity
8
0-3
6
CONTINUOUS
62
4
100
AcDbLine
10
35.860000000000
20
33.790000000000
30
0.0
11
36.660000000000
21
33.790000000000
31
0.0
0
LINE
5
443
100
AcDbEntity
8
0-3
6
CONTINUOUS
62
4
100
AcDbLine
10
35.860000000000
20
33.950000000000
30
0.0
11
36.660000000000
21
33.950000000000
31
0.0
0
LINE
5
444
100
AcDbEntity
8
0-3
6
CONTINUOUS
62
4
100
AcDbLine
10
35.860000000000
20
34.110000000000
30
0.0
11
36.660000000000
21
34.110000000000
31
0.0
0
LINE
5
445
100
AcDbEntity
8
0-3
6
CONTINUOUS
62
4
100
AcDbLine
10
35.860000000000
20
34.270000000000
30
0.0
11
36.660000000000
21
34.270000000000
31
0.0
0
LINE
5
446
100
AcDbEntity
8
0-3
6
CONTINUOUS
62
4
100
AcDbLine
10
35.860000000000
20
34.430000000000
30
0.0
11
36.660000000000
21
34.430000000000
31
0.0
0
LINE
5
447
100
AcDbEntity
8
0-3
6
CONTINUOUS
62
4
100
AcDbLine
10
35.860000000000
20
34.910000000000
30
0.0
11
36.660000000000
21
34.910000000000
31
0.0
0
LINE
5
448
100
AcDbEntity
8
0-3
6
CONTINUOUS
62
4
100
AcDbLine
10
35.860000000000
20
35.390000000000
30
0.0
11
36.660000000000
21
35.390000000000
31
0.0
0
LINE
5
449
100
AcDbEntity
8
0-3
6
CONTINUOUS
62
4
100
AcDbLine
10
35.860000000000
20
35.550000000000
30
0.0
11
36.660000000000
21
35.550000000000
31
0.0
0
LINE
5
44a
100
AcDbEntity
8
0-3
6
CONTINUOUS
62
4
100
AcDbLine
10
35.860000000000
20
35.710000000000
30
0.0
11
36.660000000000
21
35.710000000000
31
0.0
0
LINE
5
44b
100
AcDbEntity
8
0-3
6
CONTINUOUS
62
4
100
AcDbLine
10
35.860000000000
20
35.870000000000
30
0.0
11
36.660000000000
21
35.870000000000
31
0.0
0
LINE
5
44c
100
AcDbEntity
8
0-3
6
CONTINUOUS
62
4
100
AcDbLine
10
35.860000000000
20
36.670000000000
30
0.0
11
36.660000000000
21
36.670000000000
31
0.0
0
LINE
5
44d
100
AcDbEntity
8
0-3
6
CONTINUOUS
62
4
100
AcDbLine
10
35.860000000000
20
36.510000000000
30
0.0
11
36.660000000000
21
36.510000000000
31
0.0
0
LINE
5
44e
100
AcDbEntity
8
0-3
6
CONTINUOUS
62
4
100
AcDbLine
10
35.860000000000
20
36.350000000000
30
0.0
11
36.660000000000
21
36.350000000000
31
0.0
0
LINE
5
44f
100
AcDbEntity
8
0-3
6
CONTINUOUS
62
4
100
AcDbLine
10
35.860000000000
20
36.190000000000
30
0.0
11
36.660000000000
21
36.190000000000
31
0.0
0
LINE
5
450
100
AcDbEntity
8
0-3
6
CONTINUOUS
62
4
100
AcDbLine
10
35.860000000000
20
36.030000000000
30
0.0
11
36.660000000000
21
36.030000000000
31
0.0
0
LINE
5
451
100
AcDbEntity
8
0-3
6
CONTINUOUS
62
4
100
AcDbLine
10
35.860000000000
20
35.070000000000
30
0.0
11
36.660000000000
21
35.070000000000
31
0.0
0
LINE
5
452
100
AcDbEntity
8
0-3
6
CONTINUOUS
62
4
100
AcDbLine
10
35.860000000000
20
35.230000000000
30
0.0
11
36.660000000000
21
35.230000000000
31
0.0
0
LINE
5
453
100
AcDbEntity
8
0-3
6
CONTINUOUS
62
4
100
AcDbLine
10
35.860000000000
20
34.750000000000
30
0.0
11
36.660000000000
21
34.750000000000
31
0.0
0
LINE
5
454
100
AcDbEntity
8
0-3
6
CONTINUOUS
62
4
100
AcDbLine
10
35.860000000000
20
34.590000000000
30
0.0
11
36.660000000000
21
34.590000000000
31
0.0
0
LINE
5
455
100
AcDbEntity
8
0-3
6
CONTINUOUS
62
4
100
AcDbLine
10
36.930000000000
20
30.910000000000
30
0.0
11
37.500000000000
21
30.910000000000
31
0.0
0
LINE
5
456
100
AcDbEntity
8
0-3
6
CONTINUOUS
62
4
100
AcDbLine
10
36.770000000000
20
30.750000000000
30
0.0
11
37.340000000000
21
30.750000000000
31
0.0
0
LINE
5
457
100
AcDbEntity
8
0-3
6
CONTINUOUS
62
4
100
AcDbLine
10
35.860000000000
20
30.590000000000
30
0.0
11
37.180000000000
21
30.590000000000
31
0.0
0
LINE
5
458
100
AcDbEntity
8
0-3
6
CONTINUOUS
62
4
100
AcDbLine
10
35.860000000000
20
30.430000000000
30
0.0
11
37.020000000000
21
30.430000000000
31
0.0
0
LINE
5
459
100
AcDbEntity
8
0-3
6
CONTINUOUS
62
4
100
AcDbLine
10
37.900000000000
20
31.870000000000
30
0.0
11
38.460000000000
21
31.870000000000
31
0.0
0
LINE
5
45a
100
AcDbEntity
8
0-3
6
CONTINUOUS
62
4
100
AcDbLine
10
37.740000000000
20
31.710000000000
30
0.0
11
38.300000000000
21
31.710000000000
31
0.0
0
LINE
5
45b
100
AcDbEntity
8
0-3
6
CONTINUOUS
62
4
100
AcDbLine
10
37.580000000000
20
31.550000000000
30
0.0
11
38.140000000000
21
31.550000000000
31
0.0
0
LINE
5
45c
100
AcDbEntity
8
0-3
6
CONTINUOUS
62
4
100
AcDbLine
10
37.410000000000
20
31.390000000000
30
0.0
11
37.980000000000
21
31.390000000000
31
0.0
0
LINE
5
45d
100
AcDbEntity
8
0-3
6
CONTINUOUS
62
4
100
AcDbLine
10
37.260000000000
20
31.230000000000
30
0.0
11
37.820000000000
21
31.230000000000
31
0.0
0
LINE
5
45e
100
AcDbEntity
8
0-3
6
CONTINUOUS
62
4
100
AcDbLine
10
37.100000000000
20
31.070000000000
30
0.0
11
37.660000000000
21
31.070000000000
31
0.0
0
LINE
5
45f
100
AcDbEntity
8
0-3
6
CONTINUOUS
62
4
100
AcDbLine
10
36.660000000000
20
36.750000000000
30
0.0
11
36.660000000000
21
36.910000000000
31
0.0
0
LINE
5
460
100
AcDbEntity
8
0-3
6
CONTINUOUS
62
4
100
AcDbLine
10
43.060000000000
20
30.750000000000
30
0.0
11
43.860000000000
21
30.750000000000
31
0.0
0
LINE
5
461
100
AcDbEntity
8
0-3
6
CONTINUOUS
62
4
100
AcDbLine
10
43.060000000000
20
30.910000000000
30
0.0
11
43.860000000000
21
30.910000000000
31
0.0
0
LINE
5
462
100
AcDbEntity
8
0-3
6
CONTINUOUS
62
4
100
AcDbLine
10
43.060000000000
20
31.070000000000
30
0.0
11
43.860000000000
21
31.070000000000
31
0.0
0
LINE
5
463
100
AcDbEntity
8
0-3
6
CONTINUOUS
62
4
100
AcDbLine
10
43.060000000000
20
31.230000000000
30
0.0
11
43.860000000000
21
31.230000000000
31
0.0
0
LINE
5
464
100
AcDbEntity
8
0-3
6
CONTINUOUS
62
4
100
AcDbLine
10
43.060000000000
20
31.390000000000
30
0.0
11
43.860000000000
21
31.390000000000
31
0.0
0
LINE
5
465
100
AcDbEntity
8
0-3
6
CONTINUOUS
62
4
100
AcDbLine
10
43.060000000000
20
31.550000000000
30
0.0
11
43.860000000000
21
31.550000000000
31
0.0
0
LINE
5
466
100
AcDbEntity
8
0-3
6
CONTINUOUS
62
4
100
AcDbLine
10
43.060000000000
20
31.710000000000
30
0.0
11
43.860000000000
21
31.710000000000
31
0.0
0
LINE
5
467
100
AcDbEntity
8
0-3
6
CONTINUOUS
62
4
100
AcDbLine
10
43.060000000000
20
31.870000000000
30
0.0
11
43.860000000000
21
31.870000000000
31
0.0
0
LINE
5
468
100
AcDbEntity
8
0-3
6
CONTINUOUS
62
4
100
AcDbLine
10
43.060000000000
20
32.030000000000
30
0.0
11
43.860000000000
21
32.030000000000
31
0.0
0
LINE
5
469
100
AcDbEntity
8
0-3
6
CONTINUOUS
62
4
100
AcDbLine
10
43.060000000000
20
32.190000000000
30
0.0
11
43.860000000000
21
32.190000000000
31
0.0
0
LINE
5
46a
100
AcDbEntity
8
0-3
6
CONTINUOUS
62
4
100
AcDbLine
10
43.060000000000
20
32.350000000000
30
0.0
11
43.860000000000
21
32.350000000000
31
0.0
0
LINE
5
46b
100
AcDbEntity
8
0-3
6
CONTINUOUS
62
4
100
AcDbLine
10
43.060000000000
20
32.510000000000
30
0.0
11
43.860000000000
21
32.510000000000
31
0.0
0
LINE
5
46c
100
AcDbEntity
8
0-3
6
CONTINUOUS
62
4
100
AcDbLine
10
43.060000000000
20
32.670000000000
30
0.0
11
43.860000000000
21
32.670000000000
31
0.0
0
LINE
5
46d
100
AcDbEntity
8
0-3
6
CONTINUOUS
62
4
100
AcDbLine
10
43.060000000000
20
32.990000000000
30
0.0
11
43.860000000000
21
32.990000000000
31
0.0
0
LINE
5
46e
100
AcDbEntity
8
0-3
6
CONTINUOUS
62
4
100
AcDbLine
10
43.060000000000
20
33.150000000000
30
0.0
11
43.860000000000
21
33.150000000000
31
0.0
0
LINE
5
46f
100
AcDbEntity
8
0-3
6
CONTINUOUS
62
4
100
AcDbLine
10
43.060000000000
20
33.310000000000
30
0.0
11
43.860000000000
21
33.310000000000
31
0.0
0
LINE
5
470
100
AcDbEntity
8
0-3
6
CONTINUOUS
62
4
100
AcDbLine
10
43.060000000000
20
33.470000000000
30
0.0
11
43.860000000000
21
33.470000000000
31
0.0
0
LINE
5
471
100
AcDbEntity
8
0-3
6
CONTINUOUS
62
4
100
AcDbLine
10
43.060000000000
20
33.630000000000
30
0.0
11
43.860000000000
21
33.630000000000
31
0.0
0
LINE
5
472
100
AcDbEntity
8
0-3
6
CONTINUOUS
62
4
100
AcDbLine
10
43.060000000000
20
33.790000000000
30
0.0
11
43.860000000000
21
33.790000000000
31
0.0
0
LINE
5
473
100
AcDbEntity
8
0-3
6
CONTINUOUS
62
4
100
AcDbLine
10
43.060000000000
20
33.950000000000
30
0.0
11
43.860000000000
21
33.950000000000
31
0.0
0
LINE
5
474
100
AcDbEntity
8
0-3
6
CONTINUOUS
62
4
100
AcDbLine
10
43.060000000000
20
34.110000000000
30
0.0
11
43.860000000000
21
34.110000000000
31
0.0
0
LINE
5
475
100
AcDbEntity
8
0-3
6
CONTINUOUS
62
4
100
AcDbLine
10
43.060000000000
20
34.270000000000
30
0.0
11
43.860000000000
21
34.270000000000
31
0.0
0
LINE
5
476
100
AcDbEntity
8
0-3
6
CONTINUOUS
62
4
100
AcDbLine
10
43.060000000000
20
34.430000000000
30
0.0
11
43.860000000000
21
34.430000000000
31
0.0
0
LINE
5
477
100
AcDbEntity
8
0-3
6
CONTINUOUS
62
4
100
AcDbLine
10
43.060000000000
20
34.910000000000
30
0.0
11
43.860000000000
21
34.910000000000
31
0.0
0
LINE
5
478
100
AcDbEntity
8
0-3
6
CONTINUOUS
62
4
100
AcDbLine
10
43.060000000000
20
35.390000000000
30
0.0
11
43.860000000000
21
35.390000000000
31
0.0
0
LINE
5
479
100
AcDbEntity
8
0-3
6
CONTINUOUS
62
4
100
AcDbLine
10
43.060000000000
20
35.550000000000
30
0.0
11
43.860000000000
21
35.550000000000
31
0.0
0
LINE
5
47a
100
AcDbEntity
8
0-3
6
CONTINUOUS
62
4
100
AcDbLine
10
43.060000000000
20
35.710000000000
30
0.0
11
43.860000000000
21
35.710000000000
31
0.0
0
LINE
5
47b
100
AcDbEntity
8
0-3
6
CONTINUOUS
62
4
100
AcDbLine
10
43.060000000000
20
35.870000000000
30
0.0
11
43.860000000000
21
35.870000000000
31
0.0
0
LINE
5
47c
100
AcDbEntity
8
0-3
6
CONTINUOUS
62
4
100
AcDbLine
10
43.060000000000
20
36.350000000000
30
0.0
11
43.860000000000
21
36.350000000000
31
0.0
0
LINE
5
47d
100
AcDbEntity
8
0-3
6
CONTINUOUS
62
4
100
AcDbLine
10
43.060000000000
20
36.190000000000
30
0.0
11
43.860000000000
21
36.190000000000
31
0.0
0
LINE
5
47e
100
AcDbEntity
8
0-3
6
CONTINUOUS
62
4
100
AcDbLine
10
43.060000000000
20
36.030000000000
30
0.0
11
43.860000000000
21
36.030000000000
31
0.0
0
LINE
5
47f
100
AcDbEntity
8
0-3
6
CONTINUOUS
62
4
100
AcDbLine
10
43.060000000000
20
35.070000000000
30
0.0
11
43.860000000000
21
35.070000000000
31
0.0
0
LINE
5
480
100
AcDbEntity
8
0-3
6
CONTINUOUS
62
4
100
AcDbLine
10
43.060000000000
20
35.230000000000
30
0.0
11
43.860000000000
21
35.230000000000
31
0.0
0
LINE
5
481
100
AcDbEntity
8
0-3
6
CONTINUOUS
62
4
100
AcDbLine
10
43.060000000000
20
34.750000000000
30
0.0
11
43.860000000000
21
34.750000000000
31
0.0
0
LINE
5
482
100
AcDbEntity
8
0-3
6
CONTINUOUS
62
4
100
AcDbLine
10
43.060000000000
20
34.590000000000
30
0.0
11
43.860000000000
21
34.590000000000
31
0.0
0
LINE
5
483
100
AcDbEntity
8
0-3
6
CONTINUOUS
62
4
100
AcDbLine
10
43.060000000000
20
30.430000000000
30
0.0
11
43.860000000000
21
30.430000000000
31
0.0
0
LINE
5
484
100
AcDbEntity
8
0-3
6
CONTINUOUS
62
4
100
AcDbLine
10
43.060000000000
20
30.590000000000
30
0.0
11
43.860000000000
21
30.590000000000
31
0.0
0
LINE
5
485
100
AcDbEntity
8
0-3
6
CONTINUOUS
62
4
100
AcDbLine
10
42.700000000000
20
36.670000000000
30
0.0
11
43.860000000000
21
36.670000000000
31
0.0
0
LINE
5
486
100
AcDbEntity
8
0-3
6
CONTINUOUS
62
4
100
AcDbLine
10
42.530000000000
20
36.510000000000
30
0.0
11
43.860000000000
21
36.510000000000
31
0.0
0
LINE
5
487
100
AcDbEntity
8
0-3
6
CONTINUOUS
62
4
100
AcDbLine
10
38.540000000000
20
32.510000000000
30
0.0
11
39.100000000000
21
32.510000000000
31
0.0
0
LINE
5
488
100
AcDbEntity
8
0-3
6
CONTINUOUS
62
4
100
AcDbLine
10
38.380000000000
20
32.350000000000
30
0.0
11
38.940000000000
21
32.350000000000
31
0.0
0
LINE
5
489
100
AcDbEntity
8
0-3
6
CONTINUOUS
62
4
100
AcDbLine
10
38.210000000000
20
32.190000000000
30
0.0
11
38.780000000000
21
32.190000000000
31
0.0
0
LINE
5
48a
100
AcDbEntity
8
0-3
6
CONTINUOUS
62
4
100
AcDbLine
10
38.060000000000
20
32.030000000000
30
0.0
11
38.620000000000
21
32.030000000000
31
0.0
0
LINE
5
48b
100
AcDbEntity
8
0-3
6
CONTINUOUS
62
4
100
AcDbLine
10
39.180000000000
20
33.150000000000
30
0.0
11
39.740000000000
21
33.150000000000
31
0.0
0
LINE
5
48c
100
AcDbEntity
8
0-3
6
CONTINUOUS
62
4
100
AcDbLine
10
39.020000000000
20
32.990000000000
30
0.0
11
39.580000000000
21
32.990000000000
31
0.0
0
LINE
5
48d
100
AcDbEntity
8
0-3
6
CONTINUOUS
62
4
100
AcDbLine
10
38.850000000000
20
32.830000000000
30
0.0
11
39.420000000000
21
32.830000000000
31
0.0
0
LINE
5
48e
100
AcDbEntity
8
0-3
6
CONTINUOUS
62
4
100
AcDbLine
10
38.690000000000
20
32.670000000000
30
0.0
11
39.260000000000
21
32.670000000000
31
0.0
0
LINE
5
48f
100
AcDbEntity
8
0-3
6
CONTINUOUS
62
4
100
AcDbLine
10
39.820000000000
20
33.790000000000
30
0.0
11
40.380000000000
21
33.790000000000
31
0.0
0
LINE
5
490
100
AcDbEntity
8
0-3
6
CONTINUOUS
62
4
100
AcDbLine
10
39.660000000000
20
33.630000000000
30
0.0
11
40.220000000000
21
33.630000000000
31
0.0
0
LINE
5
491
100
AcDbEntity
8
0-3
6
CONTINUOUS
62
4
100
AcDbLine
10
39.490000000000
20
33.470000000000
30
0.0
11
40.060000000000
21
33.470000000000
31
0.0
0
LINE
5
492
100
AcDbEntity
8
0-3
6
CONTINUOUS
62
4
100
AcDbLine
10
39.330000000000
20
33.310000000000
30
0.0
11
39.900000000000
21
33.310000000000
31
0.0
0
LINE
5
493
100
AcDbEntity
8
0-3
6
CONTINUOUS
62
4
100
AcDbLine
10
40.460000000000
20
34.430000000000
30
0.0
11
41.020000000000
21
34.430000000000
31
0.0
0
LINE
5
494
100
AcDbEntity
8
0-3
6
CONTINUOUS
62
4
100
AcDbLine
10
40.300000000000
20
34.270000000000
30
0.0
11
40.860000000000
21
34.270000000000
31
0.0
0
LINE
5
495
100
AcDbEntity
8
0-3
6
CONTINUOUS
62
4
100
AcDbLine
10
40.130000000000
20
34.110000000000
30
0.0
11
40.700000000000
21
34.110000000000
31
0.0
0
LINE
5
496
100
AcDbEntity
8
0-3
6
CONTINUOUS
62
4
100
AcDbLine
10
39.980000000000
20
33.950000000000
30
0.0
11
40.540000000000
21
33.950000000000
31
0.0
0
LINE
5
497
100
AcDbEntity
8
0-3
6
CONTINUOUS
62
4
100
AcDbLine
10
41.100000000000
20
35.070000000000
30
0.0
11
41.660000000000
21
35.070000000000
31
0.0
0
LINE
5
498
100
AcDbEntity
8
0-3
6
CONTINUOUS
62
4
100
AcDbLine
10
40.930000000000
20
34.910000000000
30
0.0
11
41.500000000000
21
34.910000000000
31
0.0
0
LINE
5
499
100
AcDbEntity
8
0-3
6
CONTINUOUS
62
4
100
AcDbLine
10
40.770000000000
20
34.750000000000
30
0.0
11
41.340000000000
21
34.750000000000
31
0.0
0
LINE
5
49a
100
AcDbEntity
8
0-3
6
CONTINUOUS
62
4
100
AcDbLine
10
40.620000000000
20
34.590000000000
30
0.0
11
41.180000000000
21
34.590000000000
31
0.0
0
LINE
5
49b
100
AcDbEntity
8
0-3
6
CONTINUOUS
62
4
100
AcDbLine
10
41.740000000000
20
35.710000000000
30
0.0
11
42.300000000000
21
35.710000000000
31
0.0
0
LINE
5
49c
100
AcDbEntity
8
0-3
6
CONTINUOUS
62
4
100
AcDbLine
10
41.570000000000
20
35.550000000000
30
0.0
11
42.140000000000
21
35.550000000000
31
0.0
0
LINE
5
49d
100
AcDbEntity
8
0-3
6
CONTINUOUS
62
4
100
AcDbLine
10
41.420000000000
20
35.390000000000
30
0.0
11
41.980000000000
21
35.390000000000
31
0.0
0
LINE
5
49e
100
AcDbEntity
8
0-3
6
CONTINUOUS
62
4
100
AcDbLine
10
41.260000000000
20
35.230000000000
30
0.0
11
41.820000000000
21
35.230000000000
31
0.0
0
LINE
5
49f
100
AcDbEntity
8
0-3
6
CONTINUOUS
62
4
100
AcDbLine
10
42.370000000000
20
36.350000000000
30
0.0
11
42.940000000000
21
36.350000000000
31
0.0
0
LINE
5
4a0
100
AcDbEntity
8
0-3
6
CONTINUOUS
62
4
100
AcDbLine
10
42.210000000000
20
36.190000000000
30
0.0
11
42.780000000000
21
36.190000000000
31
0.0
0
LINE
5
4a1
100
AcDbEntity
8
0-3
6
CONTINUOUS
62
4
100
AcDbLine
10
42.050000000000
20
36.030000000000
30
0.0
11
42.620000000000
21
36.030000000000
31
0.0
0
LINE
5
4a2
100
AcDbEntity
8
0-3
6
CONTINUOUS
62
4
100
AcDbLine
10
41.890000000000
20
35.870000000000
30
0.0
11
42.460000000000
21
35.870000000000
31
0.0
0
LINE
5
4a3
100
AcDbEntity
8
0-3
6
CONTINUOUS
62
4
100
AcDbLine
10
43.060000000000
20
32.830000000000
30
0.0
11
43.860000000000
21
32.830000000000
31
0.0
0
LINE
5
4a4
100
AcDbEntity
8
0-0
6
CONTINUOUS
62
4
100
AcDbLine
10
153.960000000000
20
477.950000000000
30
0.0
11
153.960000000000
21
487.950000000000
31
0.0
0
LINE
5
4a5
100
AcDbEntity
8
0-0
6
CONTINUOUS
62
4
100
AcDbLine
10
170.460000000000
20
477.950000000000
30
0.0
11
170.460000000000
21
487.950000000000
31
0.0
0
LINE
5
4a6
100
AcDbEntity
8
0-0
6
CONTINUOUS
62
4
100
AcDbLine
10
140.460000000000
20
492.950000000000
30
0.0
11
140.460000000000
21
502.950000000000
31
0.0
0
LINE
5
4a7
100
AcDbEntity
8
0-0
6
CONTINUOUS
62
4
100
AcDbLine
10
140.460000000000
20
517.950000000000
30
0.0
11
290.460000000000
21
517.950000000000
31
0.0
0
LINE
5
4a8
100
AcDbEntity
8
0-0
6
CONTINUOUS
62
4
100
AcDbLine
10
140.460000000000
20
507.950000000000
30
0.0
11
140.460000000000
21
517.950000000000
31
0.0
0
LINE
5
4a9
100
AcDbEntity
8
0-0
6
CONTINUOUS
62
4
100
AcDbLine
10
290.460000000000
20
507.950000000000
30
0.0
11
290.460000000000
21
517.950000000000
31
0.0
0
LINE
5
4aa
100
AcDbEntity
8
0-0
6
CONTINUOUS
62
4
100
AcDbLine
10
116.960000000000
20
436.540000000000
30
0.0
11
116.960000000000
21
426.080000000000
31
0.0
0
LINE
5
4ab
100
AcDbEntity
8
0-0
6
CONTINUOUS
62
4
100
AcDbLine
10
139.460000000000
20
436.540000000000
30
0.0
11
139.460000000000
21
426.080000000000
31
0.0
0
LINE
5
4ac
100
AcDbEntity
8
0-0
6
CONTINUOUS
62
4
100
AcDbLine
10
266.160000000000
20
436.540000000000
30
0.0
11
266.160000000000
21
426.080000000000
31
0.0
0
LINE
5
4ad
100
AcDbEntity
8
0-0
6
CONTINUOUS
62
4
100
AcDbLine
10
299.660000000000
20
436.540000000000
30
0.0
11
299.660000000000
21
426.080000000000
31
0.0
0
LINE
5
4ae
100
AcDbEntity
8
0-0
6
CONTINUOUS
62
4
100
AcDbLine
10
299.660000000000
20
426.080000000000
30
0.0
11
299.660000000000
21
415.620000000000
31
0.0
0
LINE
5
4af
100
AcDbEntity
8
0-0
6
CONTINUOUS
62
4
100
AcDbLine
10
266.160000000000
20
426.080000000000
30
0.0
11
266.160000000000
21
415.620000000000
31
0.0
0
LINE
5
4b0
100
AcDbEntity
8
0-0
6
CONTINUOUS
62
4
100
AcDbLine
10
280.710000000000
20
436.540000000000
30
0.0
11
280.710000000000
21
426.080000000000
31
0.0
0
LINE
5
4b1
100
AcDbEntity
8
0-0
6
CONTINUOUS
62
4
100
AcDbLine
10
116.960000000000
20
426.080000000000
30
0.0
11
116.960000000000
21
415.620000000000
31
0.0
0
LINE
5
4b2
100
AcDbEntity
8
0-0
6
CONTINUOUS
62
4
100
AcDbLine
10
139.460000000000
20
426.080000000000
30
0.0
11
139.460000000000
21
415.620000000000
31
0.0
0
LINE
5
4b3
100
AcDbEntity
8
0-0
6
CONTINUOUS
62
4
100
AcDbLine
10
123.960000000000
20
436.540000000000
30
0.0
11
123.960000000000
21
426.080000000000
31
0.0
0
LINE
5
4b4
100
AcDbEntity
8
0-0
6
CONTINUOUS
62
4
100
AcDbLine
10
442.300000000000
20
487.950000000000
30
0.0
11
592.300000000000
21
487.950000000000
31
0.0
0
LINE
5
4b5
100
AcDbEntity
8
0-0
6
CONTINUOUS
62
4
100
AcDbLine
10
442.300000000000
20
477.950000000000
30
0.0
11
442.300000000000
21
487.950000000000
31
0.0
0
LINE
5
4b6
100
AcDbEntity
8
0-0
6
CONTINUOUS
62
4
100
AcDbLine
10
592.300000000000
20
477.950000000000
30
0.0
11
592.300000000000
21
487.950000000000
31
0.0
0
LINE
5
4b7
100
AcDbEntity
8
0-0
6
CONTINUOUS
62
4
100
AcDbLine
10
592.300000000000
20
487.950000000000
30
0.0
11
742.300000000000
21
487.950000000000
31
0.0
0
LINE
5
4b8
100
AcDbEntity
8
0-0
6
CONTINUOUS
62
4
100
AcDbLine
10
742.300000000000
20
477.950000000000
30
0.0
11
742.300000000000
21
487.950000000000
31
0.0
0
LINE
5
4b9
100
AcDbEntity
8
0-0
6
CONTINUOUS
62
4
100
AcDbLine
10
102.210000000000
20
458.450000000000
30
0.0
11
92.210000000000
21
458.450000000000
31
0.0
0
LINE
5
4ba
100
AcDbEntity
8
0-0
6
CONTINUOUS
62
4
100
AcDbLine
10
322.210000000000
20
458.450000000000
30
0.0
11
312.210000000000
21
458.450000000000
31
0.0
0
LINE
5
4bb
100
AcDbEntity
8
0-0
6
CONTINUOUS
62
3
100
AcDbLine
10
155.960000000000
20
446.350000000000
30
0.0
11
162.210000000000
21
446.350000000000
31
0.0
0
LINE
5
4bc
100
AcDbEntity
8
0-0
6
CONTINUOUS
62
3
100
AcDbLine
10
155.960000000000
20
445.950000000000
30
0.0
11
162.210000000000
21
445.950000000000
31
0.0
0
LINE
5
4bd
100
AcDbEntity
8
0-0
6
CONTINUOUS
62
3
100
AcDbLine
10
152.570000000000
20
458.450000000000
30
0.0
11
147.210000000000
21
458.450000000000
31
0.0
0
LINE
5
4be
100
AcDbEntity
8
0-0
6
CONTINUOUS
62
3
100
AcDbLine
10
154.960000000000
20
447.250000000000
30
0.0
11
153.960000000000
21
457.190000000000
31
0.0
0
LINE
5
4bf
100
AcDbEntity
8
0-0
6
CONTINUOUS
62
3
100
AcDbLine
10
152.570000000000
20
458.050000000000
30
0.0
11
147.210000000000
21
458.050000000000
31
0.0
0
LINE
5
4c0
100
AcDbEntity
8
0-0
6
CONTINUOUS
62
3
100
AcDbLine
10
153.560000000000
20
457.150000000000
30
0.0
11
154.560000000000
21
447.210000000000
31
0.0
0
LINE
5
4c1
100
AcDbEntity
8
0-0
6
CONTINUOUS
62
3
100
AcDbLine
10
168.470000000000
20
446.350000000000
30
0.0
11
162.210000000000
21
446.350000000000
31
0.0
0
LINE
5
4c2
100
AcDbEntity
8
0-0
6
CONTINUOUS
62
3
100
AcDbLine
10
168.470000000000
20
445.950000000000
30
0.0
11
162.210000000000
21
445.950000000000
31
0.0
0
LINE
5
4c3
100
AcDbEntity
8
0-0
6
CONTINUOUS
62
3
100
AcDbLine
10
169.460000000000
20
447.250000000000
30
0.0
11
170.470000000000
21
457.190000000000
31
0.0
0
LINE
5
4c4
100
AcDbEntity
8
0-0
6
CONTINUOUS
62
3
100
AcDbLine
10
170.860000000000
20
457.150000000000
30
0.0
11
169.860000000000
21
447.210000000000
31
0.0
0
LINE
5
4c5
100
AcDbEntity
8
0-0
6
CONTINUOUS
62
3
100
AcDbLine
10
171.860000000000
20
458.450000000000
30
0.0
11
177.210000000000
21
458.450000000000
31
0.0
0
LINE
5
4c6
100
AcDbEntity
8
0-0
6
CONTINUOUS
62
3
100
AcDbLine
10
171.860000000000
20
458.050000000000
30
0.0
11
177.210000000000
21
458.050000000000
31
0.0
0
LINE
5
4c7
100
AcDbEntity
8
0-0
6
CONTINUOUS
62
3
100
AcDbLine
10
141.860000000000
20
458.450000000000
30
0.0
11
147.210000000000
21
458.450000000000
31
0.0
0
LINE
5
4c8
100
AcDbEntity
8
0-0
6
CONTINUOUS
62
3
100
AcDbLine
10
141.860000000000
20
458.050000000000
30
0.0
11
147.210000000000
21
458.050000000000
31
0.0
0
LINE
5
4c9
100
AcDbEntity
8
0-0
6
CONTINUOUS
62
3
100
AcDbLine
10
139.420000000000
20
446.850000000000
30
0.0
11
140.470000000000
21
457.190000000000
31
0.0
0
LINE
5
4ca
100
AcDbEntity
8
0-0
6
CONTINUOUS
62
3
100
AcDbLine
10
140.860000000000
20
457.150000000000
30
0.0
11
139.820000000000
21
446.810000000000
31
0.0
0
LINE
5
4cb
100
AcDbEntity
8
0-0
6
CONTINUOUS
62
3
100
AcDbLine
10
138.430000000000
20
445.550000000000
30
0.0
11
117.560000000000
21
445.550000000000
31
0.0
0
LINE
5
4cc
100
AcDbEntity
8
0-0
6
CONTINUOUS
62
3
100
AcDbLine
10
123.940000000000
20
445.550000000000
30
0.0
11
123.960000000000
21
445.150000000000
31
0.0
0
LINE
5
4cd
100
AcDbEntity
8
0-0
6
CONTINUOUS
62
3
100
AcDbLine
10
117.590000000000
20
444.750000000000
30
0.0
11
123.960000000000
21
445.150000000000
31
0.0
0
LINE
5
4ce
100
AcDbEntity
8
0-0
6
CONTINUOUS
62
3
100
AcDbLine
10
125.960000000000
20
445.950000000000
30
0.0
11
132.210000000000
21
445.950000000000
31
0.0
0
LINE
5
4cf
100
AcDbEntity
8
0-0
6
CONTINUOUS
62
3
100
AcDbLine
10
426.770000000000
20
447.490000000000
30
0.0
11
425.790000000000
21
457.190000000000
31
0.0
0
LINE
5
4d0
100
AcDbEntity
8
0-0
6
CONTINUOUS
62
3
100
AcDbLine
10
426.370000000000
20
447.450000000000
30
0.0
11
425.400000000000
21
457.150000000000
31
0.0
0
LINE
5
4d1
100
AcDbEntity
8
0-0
6
CONTINUOUS
62
4
100
AcDbLine
10
116.960000000000
20
415.620000000000
30
0.0
11
139.210000000000
21
415.620000000000
31
0.0
0
LINE
5
4d2
100
AcDbEntity
8
0-0
6
CONTINUOUS
62
4
100
AcDbLine
10
116.960000000000
20
426.080000000000
30
0.0
11
139.210000000000
21
426.080000000000
31
0.0
0
LINE
5
4d3
100
AcDbEntity
8
0-0
6
CONTINUOUS
62
4
100
AcDbLine
10
102.210000000000
20
446.350000000000
30
0.0
11
92.210000000000
21
446.350000000000
31
0.0
0
LINE
5
4d4
100
AcDbEntity
8
0-0
6
CONTINUOUS
62
3
100
AcDbLine
10
410.300000000000
20
446.350000000000
30
0.0
11
404.050000000000
21
446.350000000000
31
0.0
0
LINE
5
4d5
100
AcDbEntity
8
0-0
6
CONTINUOUS
62
3
100
AcDbLine
10
410.300000000000
20
445.950000000000
30
0.0
11
404.050000000000
21
445.950000000000
31
0.0
0
LINE
5
4d6
100
AcDbEntity
8
0-0
6
CONTINUOUS
62
3
100
AcDbLine
10
411.300000000000
20
447.250000000000
30
0.0
11
412.300000000000
21
457.190000000000
31
0.0
0
LINE
5
4d7
100
AcDbEntity
8
0-0
6
CONTINUOUS
62
3
100
AcDbLine
10
412.700000000000
20
457.150000000000
30
0.0
11
411.700000000000
21
447.210000000000
31
0.0
0
LINE
5
4d8
100
AcDbEntity
8
0-0
6
CONTINUOUS
62
4
100
AcDbLine
10
92.210000000000
20
446.350000000000
30
0.0
11
92.210000000000
21
458.450000000000
31
0.0
0
LINE
5
4d9
100
AcDbEntity
8
0-0
6
CONTINUOUS
62
3
100
AcDbLine
10
397.790000000000
20
446.350000000000
30
0.0
11
404.050000000000
21
446.350000000000
31
0.0
0
LINE
5
4da
100
AcDbEntity
8
0-0
6
CONTINUOUS
62
3
100
AcDbLine
10
397.790000000000
20
445.950000000000
30
0.0
11
404.050000000000
21
445.950000000000
31
0.0
0
LINE
5
4db
100
AcDbEntity
8
0-0
6
CONTINUOUS
62
3
100
AcDbLine
10
394.400000000000
20
458.450000000000
30
0.0
11
389.050000000000
21
458.450000000000
31
0.0
0
LINE
5
4dc
100
AcDbEntity
8
0-0
6
CONTINUOUS
62
3
100
AcDbLine
10
396.800000000000
20
447.250000000000
30
0.0
11
395.790000000000
21
457.190000000000
31
0.0
0
LINE
5
4dd
100
AcDbEntity
8
0-0
6
CONTINUOUS
62
3
100
AcDbLine
10
394.400000000000
20
458.050000000000
30
0.0
11
389.050000000000
21
458.050000000000
31
0.0
0
LINE
5
4de
100
AcDbEntity
8
0-0
6
CONTINUOUS
62
3
100
AcDbLine
10
395.400000000000
20
457.150000000000
30
0.0
11
396.400000000000
21
447.210000000000
31
0.0
0
LINE
5
4df
100
AcDbEntity
8
0-0
6
CONTINUOUS
62
3
100
AcDbLine
10
117.560000000000
20
445.150000000000
30
0.0
11
123.940000000000
21
445.550000000000
31
0.0
0
LINE
5
4e0
100
AcDbEntity
8
0-0
6
CONTINUOUS
62
3
100
AcDbLine
10
138.430000000000
20
445.950000000000
30
0.0
11
117.560000000000
21
445.950000000000
31
0.0
0
LINE
5
4e1
100
AcDbEntity
8
0-0
6
CONTINUOUS
62
3
100
AcDbLine
10
123.540000000000
20
445.950000000000
30
0.0
11
117.610000000000
21
445.950000000000
31
0.0
0
LINE
5
4e2
100
AcDbEntity
8
0-0
6
CONTINUOUS
62
3
100
AcDbLine
10
425.380000000000
20
446.350000000000
30
0.0
11
419.450000000000
21
446.350000000000
31
0.0
0
LINE
5
4e3
100
AcDbEntity
8
0-0
6
CONTINUOUS
62
3
100
AcDbLine
10
428.800000000000
20
443.850000000000
30
0.0
11
419.450000000000
21
443.850000000000
31
0.0
0
LINE
5
4e4
100
AcDbEntity
8
0-0
6
CONTINUOUS
62
3
100
AcDbLine
10
428.880000000000
20
443.450000000000
30
0.0
11
419.450000000000
21
443.450000000000
31
0.0
0
LINE
5
4e5
100
AcDbEntity
8
0-0
6
CONTINUOUS
62
3
100
AcDbLine
10
428.880000000000
20
443.450000000000
30
0.0
11
432.550000000000
21
445.010000000000
31
0.0
0
LINE
5
4e6
100
AcDbEntity
8
0-0
6
CONTINUOUS
62
3
100
AcDbLine
10
428.800000000000
20
443.850000000000
30
0.0
11
432.550000000000
21
445.450000000000
31
0.0
0
LINE
5
4e7
100
AcDbEntity
8
0-0
6
CONTINUOUS
62
3
100
AcDbLine
10
436.300000000000
20
443.850000000000
30
0.0
11
432.550000000000
21
445.450000000000
31
0.0
0
LINE
5
4e8
100
AcDbEntity
8
0-0
6
CONTINUOUS
62
3
100
AcDbLine
10
436.220000000000
20
443.450000000000
30
0.0
11
432.550000000000
21
445.010000000000
31
0.0
0
LINE
5
4e9
100
AcDbEntity
8
0-0
6
CONTINUOUS
62
4
100
AcDbLine
10
140.460000000000
20
487.950000000000
30
0.0
11
153.960000000000
21
487.950000000000
31
0.0
0
LINE
5
4ea
100
AcDbEntity
8
0-0
6
CONTINUOUS
62
4
100
AcDbLine
10
153.960000000000
20
487.950000000000
30
0.0
11
170.460000000000
21
487.950000000000
31
0.0
0
LINE
5
4eb
100
AcDbEntity
8
0-0
6
CONTINUOUS
62
4
100
AcDbLine
10
183.960000000000
20
477.950000000000
30
0.0
11
183.960000000000
21
487.950000000000
31
0.0
0
LINE
5
4ec
100
AcDbEntity
8
0-0
6
CONTINUOUS
62
4
100
AcDbLine
10
200.460000000000
20
477.950000000000
30
0.0
11
200.460000000000
21
487.950000000000
31
0.0
0
LINE
5
4ed
100
AcDbEntity
8
0-0
6
CONTINUOUS
62
3
100
AcDbLine
10
185.960000000000
20
446.350000000000
30
0.0
11
192.210000000000
21
446.350000000000
31
0.0
0
LINE
5
4ee
100
AcDbEntity
8
0-0
6
CONTINUOUS
62
3
100
AcDbLine
10
185.960000000000
20
445.950000000000
30
0.0
11
192.210000000000
21
445.950000000000
31
0.0
0
LINE
5
4ef
100
AcDbEntity
8
0-0
6
CONTINUOUS
62
3
100
AcDbLine
10
182.570000000000
20
458.450000000000
30
0.0
11
177.210000000000
21
458.450000000000
31
0.0
0
LINE
5
4f0
100
AcDbEntity
8
0-0
6
CONTINUOUS
62
3
100
AcDbLine
10
184.960000000000
20
447.250000000000
30
0.0
11
183.960000000000
21
457.190000000000
31
0.0
0
LINE
5
4f1
100
AcDbEntity
8
0-0
6
CONTINUOUS
62
3
100
AcDbLine
10
182.570000000000
20
458.050000000000
30
0.0
11
177.210000000000
21
458.050000000000
31
0.0
0
LINE
5
4f2
100
AcDbEntity
8
0-0
6
CONTINUOUS
62
3
100
AcDbLine
10
183.560000000000
20
457.150000000000
30
0.0
11
184.560000000000
21
447.210000000000
31
0.0
0
LINE
5
4f3
100
AcDbEntity
8
0-0
6
CONTINUOUS
62
3
100
AcDbLine
10
198.470000000000
20
446.350000000000
30
0.0
11
192.210000000000
21
446.350000000000
31
0.0
0
LINE
5
4f4
100
AcDbEntity
8
0-0
6
CONTINUOUS
62
3
100
AcDbLine
10
198.470000000000
20
445.950000000000
30
0.0
11
192.210000000000
21
445.950000000000
31
0.0
0
LINE
5
4f5
100
AcDbEntity
8
0-0
6
CONTINUOUS
62
3
100
AcDbLine
10
199.460000000000
20
447.250000000000
30
0.0
11
200.470000000000
21
457.190000000000
31
0.0
0
LINE
5
4f6
100
AcDbEntity
8
0-0
6
CONTINUOUS
62
3
100
AcDbLine
10
200.860000000000
20
457.150000000000
30
0.0
11
199.860000000000
21
447.210000000000
31
0.0
0
LINE
5
4f7
100
AcDbEntity
8
0-0
6
CONTINUOUS
62
3
100
AcDbLine
10
201.860000000000
20
458.450000000000
30
0.0
11
207.210000000000
21
458.450000000000
31
0.0
0
LINE
5
4f8
100
AcDbEntity
8
0-0
6
CONTINUOUS
62
3
100
AcDbLine
10
201.860000000000
20
458.050000000000
30
0.0
11
207.210000000000
21
458.050000000000
31
0.0
0
LINE
5
4f9
100
AcDbEntity
8
0-0
6
CONTINUOUS
62
4
100
AcDbLine
10
170.460000000000
20
487.950000000000
30
0.0
11
183.960000000000
21
487.950000000000
31
0.0
0
LINE
5
4fa
100
AcDbEntity
8
0-0
6
CONTINUOUS
62
4
100
AcDbLine
10
183.960000000000
20
487.950000000000
30
0.0
11
200.460000000000
21
487.950000000000
31
0.0
0
LINE
5
4fb
100
AcDbEntity
8
0-0
6
CONTINUOUS
62
4
100
AcDbLine
10
213.960000000000
20
477.950000000000
30
0.0
11
213.960000000000
21
487.950000000000
31
0.0
0
LINE
5
4fc
100
AcDbEntity
8
0-0
6
CONTINUOUS
62
4
100
AcDbLine
10
230.460000000000
20
477.950000000000
30
0.0
11
230.460000000000
21
487.950000000000
31
0.0
0
LINE
5
4fd
100
AcDbEntity
8
0-0
6
CONTINUOUS
62
3
100
AcDbLine
10
215.960000000000
20
446.350000000000
30
0.0
11
222.210000000000
21
446.350000000000
31
0.0
0
LINE
5
4fe
100
AcDbEntity
8
0-0
6
CONTINUOUS
62
3
100
AcDbLine
10
215.960000000000
20
445.950000000000
30
0.0
11
222.210000000000
21
445.950000000000
31
0.0
0
LINE
5
4ff
100
AcDbEntity
8
0-0
6
CONTINUOUS
62
3
100
AcDbLine
10
212.570000000000
20
458.450000000000
30
0.0
11
207.210000000000
21
458.450000000000
31
0.0
0
LINE
5
500
100
AcDbEntity
8
0-0
6
CONTINUOUS
62
3
100
AcDbLine
10
214.960000000000
20
447.250000000000
30
0.0
11
213.960000000000
21
457.190000000000
31
0.0
0
LINE
5
501
100
AcDbEntity
8
0-0
6
CONTINUOUS
62
3
100
AcDbLine
10
212.570000000000
20
458.050000000000
30
0.0
11
207.210000000000
21
458.050000000000
31
0.0
0
LINE
5
502
100
AcDbEntity
8
0-0
6
CONTINUOUS
62
3
100
AcDbLine
10
213.560000000000
20
457.150000000000
30
0.0
11
214.560000000000
21
447.210000000000
31
0.0
0
LINE
5
503
100
AcDbEntity
8
0-0
6
CONTINUOUS
62
3
100
AcDbLine
10
228.470000000000
20
446.350000000000
30
0.0
11
222.210000000000
21
446.350000000000
31
0.0
0
LINE
5
504
100
AcDbEntity
8
0-0
6
CONTINUOUS
62
3
100
AcDbLine
10
228.470000000000
20
445.950000000000
30
0.0
11
222.210000000000
21
445.950000000000
31
0.0
0
LINE
5
505
100
AcDbEntity
8
0-0
6
CONTINUOUS
62
3
100
AcDbLine
10
229.460000000000
20
447.250000000000
30
0.0
11
230.470000000000
21
457.190000000000
31
0.0
0
LINE
5
506
100
AcDbEntity
8
0-0
6
CONTINUOUS
62
3
100
AcDbLine
10
230.860000000000
20
457.150000000000
30
0.0
11
229.860000000000
21
447.210000000000
31
0.0
0
LINE
5
507
100
AcDbEntity
8
0-0
6
CONTINUOUS
62
3
100
AcDbLine
10
231.860000000000
20
458.450000000000
30
0.0
11
237.210000000000
21
458.450000000000
31
0.0
0
LINE
5
508
100
AcDbEntity
8
0-0
6
CONTINUOUS
62
3
100
AcDbLine
10
231.860000000000
20
458.050000000000
30
0.0
11
237.210000000000
21
458.050000000000
31
0.0
0
LINE
5
509
100
AcDbEntity
8
0-0
6
CONTINUOUS
62
4
100
AcDbLine
10
200.460000000000
20
487.950000000000
30
0.0
11
213.960000000000
21
487.950000000000
31
0.0
0
LINE
5
50a
100
AcDbEntity
8
0-0
6
CONTINUOUS
62
4
100
AcDbLine
10
213.960000000000
20
487.950000000000
30
0.0
11
230.460000000000
21
487.950000000000
31
0.0
0
LINE
5
50b
100
AcDbEntity
8
0-0
6
CONTINUOUS
62
4
100
AcDbLine
10
243.960000000000
20
477.950000000000
30
0.0
11
243.960000000000
21
487.950000000000
31
0.0
0
LINE
5
50c
100
AcDbEntity
8
0-0
6
CONTINUOUS
62
4
100
AcDbLine
10
260.460000000000
20
477.950000000000
30
0.0
11
260.460000000000
21
487.950000000000
31
0.0
0
LINE
5
50d
100
AcDbEntity
8
0-0
6
CONTINUOUS
62
3
100
AcDbLine
10
245.960000000000
20
446.350000000000
30
0.0
11
252.210000000000
21
446.350000000000
31
0.0
0
LINE
5
50e
100
AcDbEntity
8
0-0
6
CONTINUOUS
62
3
100
AcDbLine
10
245.960000000000
20
445.950000000000
30
0.0
11
252.210000000000
21
445.950000000000
31
0.0
0
LINE
5
50f
100
AcDbEntity
8
0-0
6
CONTINUOUS
62
3
100
AcDbLine
10
242.570000000000
20
458.450000000000
30
0.0
11
237.210000000000
21
458.450000000000
31
0.0
0
LINE
5
510
100
AcDbEntity
8
0-0
6
CONTINUOUS
62
3
100
AcDbLine
10
244.960000000000
20
447.250000000000
30
0.0
11
243.960000000000
21
457.190000000000
31
0.0
0
LINE
5
511
100
AcDbEntity
8
0-0
6
CONTINUOUS
62
3
100
AcDbLine
10
242.570000000000
20
458.050000000000
30
0.0
11
237.210000000000
21
458.050000000000
31
0.0
0
LINE
5
512
100
AcDbEntity
8
0-0
6
CONTINUOUS
62
3
100
AcDbLine
10
243.560000000000
20
457.150000000000
30
0.0
11
244.560000000000
21
447.210000000000
31
0.0
0
LINE
5
513
100
AcDbEntity
8
0-0
6
CONTINUOUS
62
3
100
AcDbLine
10
258.470000000000
20
446.350000000000
30
0.0
11
252.210000000000
21
446.350000000000
31
0.0
0
LINE
5
514
100
AcDbEntity
8
0-0
6
CONTINUOUS
62
3
100
AcDbLine
10
258.470000000000
20
445.950000000000
30
0.0
11
252.210000000000
21
445.950000000000
31
0.0
0
LINE
5
515
100
AcDbEntity
8
0-0
6
CONTINUOUS
62
3
100
AcDbLine
10
259.460000000000
20
447.250000000000
30
0.0
11
260.470000000000
21
457.190000000000
31
0.0
0
LINE
5
516
100
AcDbEntity
8
0-0
6
CONTINUOUS
62
3
100
AcDbLine
10
260.860000000000
20
457.150000000000
30
0.0
11
259.860000000000
21
447.210000000000
31
0.0
0
LINE
5
517
100
AcDbEntity
8
0-0
6
CONTINUOUS
62
3
100
AcDbLine
10
261.860000000000
20
458.450000000000
30
0.0
11
267.210000000000
21
458.450000000000
31
0.0
0
LINE
5
518
100
AcDbEntity
8
0-0
6
CONTINUOUS
62
3
100
AcDbLine
10
261.860000000000
20
458.050000000000
30
0.0
11
267.210000000000
21
458.050000000000
31
0.0
0
LINE
5
519
100
AcDbEntity
8
0-0
6
CONTINUOUS
62
4
100
AcDbLine
10
230.460000000000
20
487.950000000000
30
0.0
11
243.960000000000
21
487.950000000000
31
0.0
0
LINE
5
51a
100
AcDbEntity
8
0-0
6
CONTINUOUS
62
4
100
AcDbLine
10
243.960000000000
20
487.950000000000
30
0.0
11
260.460000000000
21
487.950000000000
31
0.0
0
LINE
5
51b
100
AcDbEntity
8
0-0
6
CONTINUOUS
62
4
100
AcDbLine
10
273.960000000000
20
477.950000000000
30
0.0
11
273.960000000000
21
487.950000000000
31
0.0
0
LINE
5
51c
100
AcDbEntity
8
0-0
6
CONTINUOUS
62
4
100
AcDbLine
10
290.460000000000
20
477.950000000000
30
0.0
11
290.460000000000
21
487.950000000000
31
0.0
0
LINE
5
51d
100
AcDbEntity
8
0-0
6
CONTINUOUS
62
4
100
AcDbLine
10
260.460000000000
20
487.950000000000
30
0.0
11
273.960000000000
21
487.950000000000
31
0.0
0
LINE
5
51e
100
AcDbEntity
8
0-0
6
CONTINUOUS
62
4
100
AcDbLine
10
273.960000000000
20
487.950000000000
30
0.0
11
290.460000000000
21
487.950000000000
31
0.0
0
LINE
5
51f
100
AcDbEntity
8
0-0
6
CONTINUOUS
62
4
100
AcDbLine
10
140.460000000000
20
502.950000000000
30
0.0
11
273.960000000000
21
502.950000000000
31
0.0
0
LINE
5
520
100
AcDbEntity
8
0-0
6
CONTINUOUS
62
4
100
AcDbLine
10
273.960000000000
20
492.950000000000
30
0.0
11
273.960000000000
21
502.950000000000
31
0.0
0
LINE
5
521
100
AcDbEntity
8
0-0
6
CONTINUOUS
62
3
100
AcDbLine
10
419.450000000000
20
445.950000000000
30
0.0
11
425.380000000000
21
445.950000000000
31
0.0
0
LINE
5
522
100
AcDbEntity
8
0-0
6
CONTINUOUS
62
3
100
AcDbLine
10
424.400000000000
20
458.450000000000
30
0.0
11
419.050000000000
21
458.450000000000
31
0.0
0
LINE
5
523
100
AcDbEntity
8
0-0
6
CONTINUOUS
62
3
100
AcDbLine
10
424.400000000000
20
458.050000000000
30
0.0
11
419.050000000000
21
458.050000000000
31
0.0
0
LINE
5
524
100
AcDbEntity
8
0-0
6
CONTINUOUS
62
3
100
AcDbLine
10
413.690000000000
20
458.450000000000
30
0.0
11
419.050000000000
21
458.450000000000
31
0.0
0
LINE
5
525
100
AcDbEntity
8
0-0
6
CONTINUOUS
62
3
100
AcDbLine
10
413.690000000000
20
458.050000000000
30
0.0
11
419.050000000000
21
458.050000000000
31
0.0
0
LINE
5
526
100
AcDbEntity
8
0-0
6
CONTINUOUS
62
3
100
AcDbLine
10
274.940000000000
20
447.490000000000
30
0.0
11
273.960000000000
21
457.190000000000
31
0.0
0
LINE
5
527
100
AcDbEntity
8
0-0
6
CONTINUOUS
62
3
100
AcDbLine
10
274.540000000000
20
447.450000000000
30
0.0
11
273.560000000000
21
457.150000000000
31
0.0
0
LINE
5
528
100
AcDbEntity
8
0-0
6
CONTINUOUS
62
3
100
AcDbLine
10
273.540000000000
20
446.350000000000
30
0.0
11
267.610000000000
21
446.350000000000
31
0.0
0
LINE
5
529
100
AcDbEntity
8
0-0
6
CONTINUOUS
62
3
100
AcDbLine
10
276.960000000000
20
443.850000000000
30
0.0
11
267.610000000000
21
443.850000000000
31
0.0
0
LINE
5
52a
100
AcDbEntity
8
0-0
6
CONTINUOUS
62
3
100
AcDbLine
10
277.040000000000
20
443.450000000000
30
0.0
11
267.610000000000
21
443.450000000000
31
0.0
0
LINE
5
52b
100
AcDbEntity
8
0-0
6
CONTINUOUS
62
3
100
AcDbLine
10
277.040000000000
20
443.450000000000
30
0.0
11
280.710000000000
21
445.010000000000
31
0.0
0
LINE
5
52c
100
AcDbEntity
8
0-0
6
CONTINUOUS
62
3
100
AcDbLine
10
276.960000000000
20
443.850000000000
30
0.0
11
280.710000000000
21
445.450000000000
31
0.0
0
LINE
5
52d
100
AcDbEntity
8
0-0
6
CONTINUOUS
62
3
100
AcDbLine
10
284.460000000000
20
443.850000000000
30
0.0
11
280.710000000000
21
445.450000000000
31
0.0
0
LINE
5
52e
100
AcDbEntity
8
0-0
6
CONTINUOUS
62
3
100
AcDbLine
10
284.380000000000
20
443.450000000000
30
0.0
11
280.710000000000
21
445.010000000000
31
0.0
0
LINE
5
52f
100
AcDbEntity
8
0-0
6
CONTINUOUS
62
3
100
AcDbLine
10
267.610000000000
20
445.950000000000
30
0.0
11
273.540000000000
21
445.950000000000
31
0.0
0
LINE
5
530
100
AcDbEntity
8
0-0
6
CONTINUOUS
62
3
100
AcDbLine
10
272.570000000000
20
458.450000000000
30
0.0
11
267.210000000000
21
458.450000000000
31
0.0
0
LINE
5
531
100
AcDbEntity
8
0-0
6
CONTINUOUS
62
3
100
AcDbLine
10
272.570000000000
20
458.050000000000
30
0.0
11
267.210000000000
21
458.050000000000
31
0.0
0
LINE
5
532
100
AcDbEntity
8
0-0
6
CONTINUOUS
62
4
100
AcDbLine
10
266.160000000000
20
415.620000000000
30
0.0
11
299.660000000000
21
415.620000000000
31
0.0
0
LINE
5
533
100
AcDbEntity
8
0-0
6
CONTINUOUS
62
4
100
AcDbLine
10
280.710000000000
20
426.080000000000
30
0.0
11
299.660000000000
21
426.080000000000
31
0.0
0
LINE
5
534
100
AcDbEntity
8
0-0
6
CONTINUOUS
62
4
100
AcDbLine
10
266.160000000000
20
426.080000000000
30
0.0
11
280.710000000000
21
426.080000000000
31
0.0
0
LINE
5
535
100
AcDbEntity
8
0-0
6
CONTINUOUS
62
3
100
AcDbLine
10
757.790000000000
20
446.350000000000
30
0.0
11
764.050000000000
21
446.350000000000
31
0.0
0
LINE
5
536
100
AcDbEntity
8
0-0
6
CONTINUOUS
62
3
100
AcDbLine
10
757.790000000000
20
445.950000000000
30
0.0
11
764.050000000000
21
445.950000000000
31
0.0
0
LINE
5
537
100
AcDbEntity
8
0-0
6
CONTINUOUS
62
3
100
AcDbLine
10
754.400000000000
20
458.450000000000
30
0.0
11
749.050000000000
21
458.450000000000
31
0.0
0
LINE
5
538
100
AcDbEntity
8
0-0
6
CONTINUOUS
62
3
100
AcDbLine
10
756.800000000000
20
447.250000000000
30
0.0
11
755.790000000000
21
457.190000000000
31
0.0
0
LINE
5
539
100
AcDbEntity
8
0-0
6
CONTINUOUS
62
3
100
AcDbLine
10
754.400000000000
20
458.050000000000
30
0.0
11
749.050000000000
21
458.050000000000
31
0.0
0
LINE
5
53a
100
AcDbEntity
8
0-0
6
CONTINUOUS
62
3
100
AcDbLine
10
755.400000000000
20
457.150000000000
30
0.0
11
756.400000000000
21
447.210000000000
31
0.0
0
LINE
5
53b
100
AcDbEntity
8
0-0
6
CONTINUOUS
62
3
100
AcDbLine
10
770.300000000000
20
446.350000000000
30
0.0
11
764.050000000000
21
446.350000000000
31
0.0
0
LINE
5
53c
100
AcDbEntity
8
0-0
6
CONTINUOUS
62
3
100
AcDbLine
10
770.300000000000
20
445.950000000000
30
0.0
11
764.050000000000
21
445.950000000000
31
0.0
0
LINE
5
53d
100
AcDbEntity
8
0-0
6
CONTINUOUS
62
3
100
AcDbLine
10
771.300000000000
20
447.250000000000
30
0.0
11
772.300000000000
21
457.190000000000
31
0.0
0
LINE
5
53e
100
AcDbEntity
8
0-0
6
CONTINUOUS
62
3
100
AcDbLine
10
772.700000000000
20
457.150000000000
30
0.0
11
771.700000000000
21
447.210000000000
31
0.0
0
LINE
5
53f
100
AcDbEntity
8
0-0
6
CONTINUOUS
62
3
100
AcDbLine
10
773.690000000000
20
458.450000000000
30
0.0
11
779.050000000000
21
458.450000000000
31
0.0
0
LINE
5
540
100
AcDbEntity
8
0-0
6
CONTINUOUS
62
3
100
AcDbLine
10
773.690000000000
20
458.050000000000
30
0.0
11
779.050000000000
21
458.050000000000
31
0.0
0
LINE
5
541
100
AcDbEntity
8
0-0
6
CONTINUOUS
62
3
100
AcDbLine
10
743.690000000000
20
458.450000000000
30
0.0
11
749.050000000000
21
458.450000000000
31
0.0
0
LINE
5
542
100
AcDbEntity
8
0-0
6
CONTINUOUS
62
3
100
AcDbLine
10
743.690000000000
20
458.050000000000
30
0.0
11
749.050000000000
21
458.050000000000
31
0.0
0
LINE
5
543
100
AcDbEntity
8
0-0
6
CONTINUOUS
62
3
100
AcDbLine
10
741.260000000000
20
446.850000000000
30
0.0
11
742.300000000000
21
457.190000000000
31
0.0
0
LINE
5
544
100
AcDbEntity
8
0-0
6
CONTINUOUS
62
3
100
AcDbLine
10
742.700000000000
20
457.150000000000
30
0.0
11
741.660000000000
21
446.810000000000
31
0.0
0
LINE
5
545
100
AcDbEntity
8
0-0
6
CONTINUOUS
62
3
100
AcDbLine
10
740.260000000000
20
445.550000000000
30
0.0
11
719.400000000000
21
445.550000000000
31
0.0
0
LINE
5
546
100
AcDbEntity
8
0-0
6
CONTINUOUS
62
3
100
AcDbLine
10
725.770000000000
20
445.550000000000
30
0.0
11
725.800000000000
21
445.150000000000
31
0.0
0
LINE
5
547
100
AcDbEntity
8
0-0
6
CONTINUOUS
62
3
100
AcDbLine
10
719.420000000000
20
444.750000000000
30
0.0
11
725.800000000000
21
445.150000000000
31
0.0
0
LINE
5
548
100
AcDbEntity
8
0-0
6
CONTINUOUS
62
3
100
AcDbLine
10
727.790000000000
20
445.950000000000
30
0.0
11
734.050000000000
21
445.950000000000
31
0.0
0
LINE
5
549
100
AcDbEntity
8
0-0
6
CONTINUOUS
62
3
100
AcDbLine
10
719.400000000000
20
445.150000000000
30
0.0
11
725.770000000000
21
445.550000000000
31
0.0
0
LINE
5
54a
100
AcDbEntity
8
0-0
6
CONTINUOUS
62
3
100
AcDbLine
10
740.260000000000
20
445.950000000000
30
0.0
11
719.400000000000
21
445.950000000000
31
0.0
0
LINE
5
54b
100
AcDbEntity
8
0-0
6
CONTINUOUS
62
3
100
AcDbLine
10
725.380000000000
20
445.950000000000
30
0.0
11
719.450000000000
21
445.950000000000
31
0.0
0
LINE
5
54c
100
AcDbEntity
8
0-0
6
CONTINUOUS
62
4
100
AcDbLine
10
154.960000000000
20
462.950000000000
30
0.0
11
154.960000000000
21
472.950000000000
31
0.0
0
LINE
5
54d
100
AcDbEntity
8
0-0
6
CONTINUOUS
62
4
100
AcDbLine
10
169.460000000000
20
462.950000000000
30
0.0
11
169.460000000000
21
472.950000000000
31
0.0
0
LINE
5
54e
100
AcDbEntity
8
0-0
6
CONTINUOUS
62
4
100
AcDbLine
10
154.960000000000
20
472.950000000000
30
0.0
11
169.460000000000
21
472.950000000000
31
0.0
0
LINE
5
54f
100
AcDbEntity
8
0-0
6
CONTINUOUS
62
4
100
AcDbLine
10
140.460000000000
20
477.950000000000
30
0.0
11
140.460000000000
21
487.950000000000
31
0.0
0
LINE
5
550
100
AcDbEntity
8
0-0
6
CONTINUOUS
62
4
100
AcDbLine
10
184.960000000000
20
462.950000000000
30
0.0
11
184.960000000000
21
472.950000000000
31
0.0
0
LINE
5
551
100
AcDbEntity
8
0-0
6
CONTINUOUS
62
4
100
AcDbLine
10
169.460000000000
20
472.950000000000
30
0.0
11
184.960000000000
21
472.950000000000
31
0.0
0
LINE
5
552
100
AcDbEntity
8
0-0
6
CONTINUOUS
62
4
100
AcDbLine
10
322.210000000000
20
443.450000000000
30
0.0
11
312.210000000000
21
443.450000000000
31
0.0
0
LINE
5
553
100
AcDbEntity
8
0-0
6
CONTINUOUS
62
4
100
AcDbLine
10
322.210000000000
20
443.450000000000
30
0.0
11
322.210000000000
21
458.450000000000
31
0.0
0
LINE
5
554
100
AcDbEntity
8
0-0
6
CONTINUOUS
62
3
100
AcDbLine
10
457.790000000000
20
446.350000000000
30
0.0
11
464.050000000000
21
446.350000000000
31
0.0
0
LINE
5
555
100
AcDbEntity
8
0-0
6
CONTINUOUS
62
3
100
AcDbLine
10
457.790000000000
20
445.950000000000
30
0.0
11
464.050000000000
21
445.950000000000
31
0.0
0
LINE
5
556
100
AcDbEntity
8
0-0
6
CONTINUOUS
62
3
100
AcDbLine
10
454.400000000000
20
458.450000000000
30
0.0
11
449.050000000000
21
458.450000000000
31
0.0
0
LINE
5
557
100
AcDbEntity
8
0-0
6
CONTINUOUS
62
3
100
AcDbLine
10
456.800000000000
20
447.250000000000
30
0.0
11
455.790000000000
21
457.190000000000
31
0.0
0
LINE
5
558
100
AcDbEntity
8
0-0
6
CONTINUOUS
62
3
100
AcDbLine
10
454.400000000000
20
458.050000000000
30
0.0
11
449.050000000000
21
458.050000000000
31
0.0
0
LINE
5
559
100
AcDbEntity
8
0-0
6
CONTINUOUS
62
3
100
AcDbLine
10
455.400000000000
20
457.150000000000
30
0.0
11
456.400000000000
21
447.210000000000
31
0.0
0
LINE
5
55a
100
AcDbEntity
8
0-0
6
CONTINUOUS
62
3
100
AcDbLine
10
470.300000000000
20
446.350000000000
30
0.0
11
464.050000000000
21
446.350000000000
31
0.0
0
LINE
5
55b
100
AcDbEntity
8
0-0
6
CONTINUOUS
62
3
100
AcDbLine
10
470.300000000000
20
445.950000000000
30
0.0
11
464.050000000000
21
445.950000000000
31
0.0
0
LINE
5
55c
100
AcDbEntity
8
0-0
6
CONTINUOUS
62
3
100
AcDbLine
10
471.300000000000
20
447.250000000000
30
0.0
11
472.300000000000
21
457.190000000000
31
0.0
0
LINE
5
55d
100
AcDbEntity
8
0-0
6
CONTINUOUS
62
3
100
AcDbLine
10
472.700000000000
20
457.150000000000
30
0.0
11
471.700000000000
21
447.210000000000
31
0.0
0
LINE
5
55e
100
AcDbEntity
8
0-0
6
CONTINUOUS
62
3
100
AcDbLine
10
473.690000000000
20
458.450000000000
30
0.0
11
479.050000000000
21
458.450000000000
31
0.0
0
LINE
5
55f
100
AcDbEntity
8
0-0
6
CONTINUOUS
62
3
100
AcDbLine
10
473.690000000000
20
458.050000000000
30
0.0
11
479.050000000000
21
458.050000000000
31
0.0
0
LINE
5
560
100
AcDbEntity
8
0-0
6
CONTINUOUS
62
3
100
AcDbLine
10
443.690000000000
20
458.450000000000
30
0.0
11
449.050000000000
21
458.450000000000
31
0.0
0
LINE
5
561
100
AcDbEntity
8
0-0
6
CONTINUOUS
62
3
100
AcDbLine
10
443.690000000000
20
458.050000000000
30
0.0
11
449.050000000000
21
458.050000000000
31
0.0
0
LINE
5
562
100
AcDbEntity
8
0-0
6
CONTINUOUS
62
3
100
AcDbLine
10
441.260000000000
20
446.850000000000
30
0.0
11
442.300000000000
21
457.190000000000
31
0.0
0
LINE
5
563
100
AcDbEntity
8
0-0
6
CONTINUOUS
62
3
100
AcDbLine
10
442.700000000000
20
457.150000000000
30
0.0
11
441.660000000000
21
446.810000000000
31
0.0
0
LINE
5
564
100
AcDbEntity
8
0-0
6
CONTINUOUS
62
3
100
AcDbLine
10
440.260000000000
20
445.550000000000
30
0.0
11
419.400000000000
21
445.550000000000
31
0.0
0
LINE
5
565
100
AcDbEntity
8
0-0
6
CONTINUOUS
62
3
100
AcDbLine
10
425.770000000000
20
445.550000000000
30
0.0
11
425.800000000000
21
445.150000000000
31
0.0
0
LINE
5
566
100
AcDbEntity
8
0-0
6
CONTINUOUS
62
3
100
AcDbLine
10
419.420000000000
20
444.750000000000
30
0.0
11
425.800000000000
21
445.150000000000
31
0.0
0
LINE
5
567
100
AcDbEntity
8
0-0
6
CONTINUOUS
62
3
100
AcDbLine
10
427.790000000000
20
445.950000000000
30
0.0
11
434.050000000000
21
445.950000000000
31
0.0
0
LINE
5
568
100
AcDbEntity
8
0-0
6
CONTINUOUS
62
3
100
AcDbLine
10
419.400000000000
20
445.150000000000
30
0.0
11
425.770000000000
21
445.550000000000
31
0.0
0
LINE
5
569
100
AcDbEntity
8
0-0
6
CONTINUOUS
62
3
100
AcDbLine
10
440.260000000000
20
445.950000000000
30
0.0
11
419.400000000000
21
445.950000000000
31
0.0
0
LINE
5
56a
100
AcDbEntity
8
0-0
6
CONTINUOUS
62
3
100
AcDbLine
10
425.380000000000
20
445.950000000000
30
0.0
11
419.450000000000
21
445.950000000000
31
0.0
0
LINE
5
56b
100
AcDbEntity
8
0-0
6
CONTINUOUS
62
3
100
AcDbLine
10
487.790000000000
20
446.350000000000
30
0.0
11
494.050000000000
21
446.350000000000
31
0.0
0
LINE
5
56c
100
AcDbEntity
8
0-0
6
CONTINUOUS
62
3
100
AcDbLine
10
487.790000000000
20
445.950000000000
30
0.0
11
494.050000000000
21
445.950000000000
31
0.0
0
LINE
5
56d
100
AcDbEntity
8
0-0
6
CONTINUOUS
62
3
100
AcDbLine
10
484.400000000000
20
458.450000000000
30
0.0
11
479.050000000000
21
458.450000000000
31
0.0
0
LINE
5
56e
100
AcDbEntity
8
0-0
6
CONTINUOUS
62
3
100
AcDbLine
10
486.800000000000
20
447.250000000000
30
0.0
11
485.790000000000
21
457.190000000000
31
0.0
0
LINE
5
56f
100
AcDbEntity
8
0-0
6
CONTINUOUS
62
3
100
AcDbLine
10
484.400000000000
20
458.050000000000
30
0.0
11
479.050000000000
21
458.050000000000
31
0.0
0
LINE
5
570
100
AcDbEntity
8
0-0
6
CONTINUOUS
62
3
100
AcDbLine
10
485.400000000000
20
457.150000000000
30
0.0
11
486.400000000000
21
447.210000000000
31
0.0
0
LINE
5
571
100
AcDbEntity
8
0-0
6
CONTINUOUS
62
3
100
AcDbLine
10
500.300000000000
20
446.350000000000
30
0.0
11
494.050000000000
21
446.350000000000
31
0.0
0
LINE
5
572
100
AcDbEntity
8
0-0
6
CONTINUOUS
62
3
100
AcDbLine
10
500.300000000000
20
445.950000000000
30
0.0
11
494.050000000000
21
445.950000000000
31
0.0
0
LINE
5
573
100
AcDbEntity
8
0-0
6
CONTINUOUS
62
3
100
AcDbLine
10
501.300000000000
20
447.250000000000
30
0.0
11
502.300000000000
21
457.190000000000
31
0.0
0
LINE
5
574
100
AcDbEntity
8
0-0
6
CONTINUOUS
62
3
100
AcDbLine
10
502.700000000000
20
457.150000000000
30
0.0
11
501.700000000000
21
447.210000000000
31
0.0
0
LINE
5
575
100
AcDbEntity
8
0-0
6
CONTINUOUS
62
3
100
AcDbLine
10
503.690000000000
20
458.450000000000
30
0.0
11
509.050000000000
21
458.450000000000
31
0.0
0
LINE
5
576
100
AcDbEntity
8
0-0
6
CONTINUOUS
62
3
100
AcDbLine
10
503.690000000000
20
458.050000000000
30
0.0
11
509.050000000000
21
458.050000000000
31
0.0
0
LINE
5
577
100
AcDbEntity
8
0-0
6
CONTINUOUS
62
3
100
AcDbLine
10
517.790000000000
20
446.350000000000
30
0.0
11
524.050000000000
21
446.350000000000
31
0.0
0
LINE
5
578
100
AcDbEntity
8
0-0
6
CONTINUOUS
62
3
100
AcDbLine
10
517.790000000000
20
445.950000000000
30
0.0
11
524.050000000000
21
445.950000000000
31
0.0
0
LINE
5
579
100
AcDbEntity
8
0-0
6
CONTINUOUS
62
3
100
AcDbLine
10
514.400000000000
20
458.450000000000
30
0.0
11
509.050000000000
21
458.450000000000
31
0.0
0
LINE
5
57a
100
AcDbEntity
8
0-0
6
CONTINUOUS
62
3
100
AcDbLine
10
516.800000000000
20
447.250000000000
30
0.0
11
515.790000000000
21
457.190000000000
31
0.0
0
LINE
5
57b
100
AcDbEntity
8
0-0
6
CONTINUOUS
62
3
100
AcDbLine
10
514.400000000000
20
458.050000000000
30
0.0
11
509.050000000000
21
458.050000000000
31
0.0
0
LINE
5
57c
100
AcDbEntity
8
0-0
6
CONTINUOUS
62
3
100
AcDbLine
10
515.400000000000
20
457.150000000000
30
0.0
11
516.400000000000
21
447.210000000000
31
0.0
0
LINE
5
57d
100
AcDbEntity
8
0-0
6
CONTINUOUS
62
3
100
AcDbLine
10
530.300000000000
20
446.350000000000
30
0.0
11
524.050000000000
21
446.350000000000
31
0.0
0
LINE
5
57e
100
AcDbEntity
8
0-0
6
CONTINUOUS
62
3
100
AcDbLine
10
530.300000000000
20
445.950000000000
30
0.0
11
524.050000000000
21
445.950000000000
31
0.0
0
LINE
5
57f
100
AcDbEntity
8
0-0
6
CONTINUOUS
62
3
100
AcDbLine
10
531.300000000000
20
447.250000000000
30
0.0
11
532.300000000000
21
457.190000000000
31
0.0
0
LINE
5
580
100
AcDbEntity
8
0-0
6
CONTINUOUS
62
3
100
AcDbLine
10
532.700000000000
20
457.150000000000
30
0.0
11
531.700000000000
21
447.210000000000
31
0.0
0
LINE
5
581
100
AcDbEntity
8
0-0
6
CONTINUOUS
62
3
100
AcDbLine
10
533.690000000000
20
458.450000000000
30
0.0
11
539.050000000000
21
458.450000000000
31
0.0
0
LINE
5
582
100
AcDbEntity
8
0-0
6
CONTINUOUS
62
3
100
AcDbLine
10
533.690000000000
20
458.050000000000
30
0.0
11
539.050000000000
21
458.050000000000
31
0.0
0
LINE
5
583
100
AcDbEntity
8
0-0
6
CONTINUOUS
62
3
100
AcDbLine
10
547.790000000000
20
446.350000000000
30
0.0
11
554.050000000000
21
446.350000000000
31
0.0
0
LINE
5
584
100
AcDbEntity
8
0-0
6
CONTINUOUS
62
3
100
AcDbLine
10
547.790000000000
20
445.950000000000
30
0.0
11
554.050000000000
21
445.950000000000
31
0.0
0
LINE
5
585
100
AcDbEntity
8
0-0
6
CONTINUOUS
62
3
100
AcDbLine
10
544.400000000000
20
458.450000000000
30
0.0
11
539.050000000000
21
458.450000000000
31
0.0
0
LINE
5
586
100
AcDbEntity
8
0-0
6
CONTINUOUS
62
3
100
AcDbLine
10
546.800000000000
20
447.250000000000
30
0.0
11
545.790000000000
21
457.190000000000
31
0.0
0
LINE
5
587
100
AcDbEntity
8
0-0
6
CONTINUOUS
62
3
100
AcDbLine
10
544.400000000000
20
458.050000000000
30
0.0
11
539.050000000000
21
458.050000000000
31
0.0
0
LINE
5
588
100
AcDbEntity
8
0-0
6
CONTINUOUS
62
3
100
AcDbLine
10
545.400000000000
20
457.150000000000
30
0.0
11
546.400000000000
21
447.210000000000
31
0.0
0
LINE
5
589
100
AcDbEntity
8
0-0
6
CONTINUOUS
62
3
100
AcDbLine
10
560.300000000000
20
446.350000000000
30
0.0
11
554.050000000000
21
446.350000000000
31
0.0
0
LINE
5
58a
100
AcDbEntity
8
0-0
6
CONTINUOUS
62
3
100
AcDbLine
10
560.300000000000
20
445.950000000000
30
0.0
11
554.050000000000
21
445.950000000000
31
0.0
0
LINE
5
58b
100
AcDbEntity
8
0-0
6
CONTINUOUS
62
3
100
AcDbLine
10
561.300000000000
20
447.250000000000
30
0.0
11
562.300000000000
21
457.190000000000
31
0.0
0
LINE
5
58c
100
AcDbEntity
8
0-0
6
CONTINUOUS
62
3
100
AcDbLine
10
562.700000000000
20
457.150000000000
30
0.0
11
561.700000000000
21
447.210000000000
31
0.0
0
LINE
5
58d
100
AcDbEntity
8
0-0
6
CONTINUOUS
62
3
100
AcDbLine
10
563.690000000000
20
458.450000000000
30
0.0
11
569.050000000000
21
458.450000000000
31
0.0
0
LINE
5
58e
100
AcDbEntity
8
0-0
6
CONTINUOUS
62
3
100
AcDbLine
10
563.690000000000
20
458.050000000000
30
0.0
11
569.050000000000
21
458.050000000000
31
0.0
0
LINE
5
58f
100
AcDbEntity
8
0-0
6
CONTINUOUS
62
3
100
AcDbLine
10
576.770000000000
20
447.490000000000
30
0.0
11
575.790000000000
21
457.190000000000
31
0.0
0
LINE
5
590
100
AcDbEntity
8
0-0
6
CONTINUOUS
62
3
100
AcDbLine
10
576.370000000000
20
447.450000000000
30
0.0
11
575.400000000000
21
457.150000000000
31
0.0
0
LINE
5
591
100
AcDbEntity
8
0-0
6
CONTINUOUS
62
3
100
AcDbLine
10
575.380000000000
20
446.350000000000
30
0.0
11
569.450000000000
21
446.350000000000
31
0.0
0
LINE
5
592
100
AcDbEntity
8
0-0
6
CONTINUOUS
62
3
100
AcDbLine
10
578.800000000000
20
443.850000000000
30
0.0
11
569.450000000000
21
443.850000000000
31
0.0
0
LINE
5
593
100
AcDbEntity
8
0-0
6
CONTINUOUS
62
3
100
AcDbLine
10
578.880000000000
20
443.450000000000
30
0.0
11
569.450000000000
21
443.450000000000
31
0.0
0
LINE
5
594
100
AcDbEntity
8
0-0
6
CONTINUOUS
62
3
100
AcDbLine
10
578.880000000000
20
443.450000000000
30
0.0
11
582.550000000000
21
445.010000000000
31
0.0
0
LINE
5
595
100
AcDbEntity
8
0-0
6
CONTINUOUS
62
3
100
AcDbLine
10
578.800000000000
20
443.850000000000
30
0.0
11
582.550000000000
21
445.450000000000
31
0.0
0
LINE
5
596
100
AcDbEntity
8
0-0
6
CONTINUOUS
62
3
100
AcDbLine
10
586.300000000000
20
443.850000000000
30
0.0
11
582.550000000000
21
445.450000000000
31
0.0
0
LINE
5
597
100
AcDbEntity
8
0-0
6
CONTINUOUS
62
3
100
AcDbLine
10
586.220000000000
20
443.450000000000
30
0.0
11
582.550000000000
21
445.010000000000
31
0.0
0
LINE
5
598
100
AcDbEntity
8
0-0
6
CONTINUOUS
62
3
100
AcDbLine
10
569.450000000000
20
445.950000000000
30
0.0
11
575.380000000000
21
445.950000000000
31
0.0
0
LINE
5
599
100
AcDbEntity
8
0-0
6
CONTINUOUS
62
3
100
AcDbLine
10
574.400000000000
20
458.450000000000
30
0.0
11
569.050000000000
21
458.450000000000
31
0.0
0
LINE
5
59a
100
AcDbEntity
8
0-0
6
CONTINUOUS
62
3
100
AcDbLine
10
574.400000000000
20
458.050000000000
30
0.0
11
569.050000000000
21
458.050000000000
31
0.0
0
LINE
5
59b
100
AcDbEntity
8
0-0
6
CONTINUOUS
62
3
100
AcDbLine
10
607.790000000000
20
446.350000000000
30
0.0
11
614.050000000000
21
446.350000000000
31
0.0
0
LINE
5
59c
100
AcDbEntity
8
0-0
6
CONTINUOUS
62
3
100
AcDbLine
10
607.790000000000
20
445.950000000000
30
0.0
11
614.050000000000
21
445.950000000000
31
0.0
0
LINE
5
59d
100
AcDbEntity
8
0-0
6
CONTINUOUS
62
3
100
AcDbLine
10
604.400000000000
20
458.450000000000
30
0.0
11
599.050000000000
21
458.450000000000
31
0.0
0
LINE
5
59e
100
AcDbEntity
8
0-0
6
CONTINUOUS
62
3
100
AcDbLine
10
606.800000000000
20
447.250000000000
30
0.0
11
605.790000000000
21
457.190000000000
31
0.0
0
LINE
5
59f
100
AcDbEntity
8
0-0
6
CONTINUOUS
62
3
100
AcDbLine
10
604.400000000000
20
458.050000000000
30
0.0
11
599.050000000000
21
458.050000000000
31
0.0
0
LINE
5
5a0
100
AcDbEntity
8
0-0
6
CONTINUOUS
62
3
100
AcDbLine
10
605.400000000000
20
457.150000000000
30
0.0
11
606.400000000000
21
447.210000000000
31
0.0
0
LINE
5
5a1
100
AcDbEntity
8
0-0
6
CONTINUOUS
62
3
100
AcDbLine
10
620.300000000000
20
446.350000000000
30
0.0
11
614.050000000000
21
446.350000000000
31
0.0
0
LINE
5
5a2
100
AcDbEntity
8
0-0
6
CONTINUOUS
62
3
100
AcDbLine
10
620.300000000000
20
445.950000000000
30
0.0
11
614.050000000000
21
445.950000000000
31
0.0
0
LINE
5
5a3
100
AcDbEntity
8
0-0
6
CONTINUOUS
62
3
100
AcDbLine
10
621.300000000000
20
447.250000000000
30
0.0
11
622.300000000000
21
457.190000000000
31
0.0
0
LINE
5
5a4
100
AcDbEntity
8
0-0
6
CONTINUOUS
62
3
100
AcDbLine
10
622.700000000000
20
457.150000000000
30
0.0
11
621.700000000000
21
447.210000000000
31
0.0
0
LINE
5
5a5
100
AcDbEntity
8
0-0
6
CONTINUOUS
62
3
100
AcDbLine
10
623.690000000000
20
458.450000000000
30
0.0
11
629.050000000000
21
458.450000000000
31
0.0
0
LINE
5
5a6
100
AcDbEntity
8
0-0
6
CONTINUOUS
62
3
100
AcDbLine
10
623.690000000000
20
458.050000000000
30
0.0
11
629.050000000000
21
458.050000000000
31
0.0
0
LINE
5
5a7
100
AcDbEntity
8
0-0
6
CONTINUOUS
62
3
100
AcDbLine
10
593.690000000000
20
458.450000000000
30
0.0
11
599.050000000000
21
458.450000000000
31
0.0
0
LINE
5
5a8
100
AcDbEntity
8
0-0
6
CONTINUOUS
62
3
100
AcDbLine
10
593.690000000000
20
458.050000000000
30
0.0
11
599.050000000000
21
458.050000000000
31
0.0
0
LINE
5
5a9
100
AcDbEntity
8
0-0
6
CONTINUOUS
62
3
100
AcDbLine
10
591.260000000000
20
446.850000000000
30
0.0
11
592.300000000000
21
457.190000000000
31
0.0
0
LINE
5
5aa
100
AcDbEntity
8
0-0
6
CONTINUOUS
62
3
100
AcDbLine
10
592.700000000000
20
457.150000000000
30
0.0
11
591.660000000000
21
446.810000000000
31
0.0
0
LINE
5
5ab
100
AcDbEntity
8
0-0
6
CONTINUOUS
62
3
100
AcDbLine
10
590.260000000000
20
445.550000000000
30
0.0
11
569.400000000000
21
445.550000000000
31
0.0
0
LINE
5
5ac
100
AcDbEntity
8
0-0
6
CONTINUOUS
62
3
100
AcDbLine
10
575.770000000000
20
445.550000000000
30
0.0
11
575.800000000000
21
445.150000000000
31
0.0
0
LINE
5
5ad
100
AcDbEntity
8
0-0
6
CONTINUOUS
62
3
100
AcDbLine
10
569.420000000000
20
444.750000000000
30
0.0
11
575.800000000000
21
445.150000000000
31
0.0
0
LINE
5
5ae
100
AcDbEntity
8
0-0
6
CONTINUOUS
62
3
100
AcDbLine
10
577.790000000000
20
445.950000000000
30
0.0
11
584.050000000000
21
445.950000000000
31
0.0
0
LINE
5
5af
100
AcDbEntity
8
0-0
6
CONTINUOUS
62
3
100
AcDbLine
10
569.400000000000
20
445.150000000000
30
0.0
11
575.770000000000
21
445.550000000000
31
0.0
0
LINE
5
5b0
100
AcDbEntity
8
0-0
6
CONTINUOUS
62
3
100
AcDbLine
10
590.260000000000
20
445.950000000000
30
0.0
11
569.400000000000
21
445.950000000000
31
0.0
0
LINE
5
5b1
100
AcDbEntity
8
0-0
6
CONTINUOUS
62
3
100
AcDbLine
10
575.380000000000
20
445.950000000000
30
0.0
11
569.450000000000
21
445.950000000000
31
0.0
0
LINE
5
5b2
100
AcDbEntity
8
0-0
6
CONTINUOUS
62
3
100
AcDbLine
10
637.790000000000
20
446.350000000000
30
0.0
11
644.050000000000
21
446.350000000000
31
0.0
0
LINE
5
5b3
100
AcDbEntity
8
0-0
6
CONTINUOUS
62
3
100
AcDbLine
10
637.790000000000
20
445.950000000000
30
0.0
11
644.050000000000
21
445.950000000000
31
0.0
0
LINE
5
5b4
100
AcDbEntity
8
0-0
6
CONTINUOUS
62
3
100
AcDbLine
10
634.400000000000
20
458.450000000000
30
0.0
11
629.050000000000
21
458.450000000000
31
0.0
0
LINE
5
5b5
100
AcDbEntity
8
0-0
6
CONTINUOUS
62
3
100
AcDbLine
10
636.800000000000
20
447.250000000000
30
0.0
11
635.790000000000
21
457.190000000000
31
0.0
0
LINE
5
5b6
100
AcDbEntity
8
0-0
6
CONTINUOUS
62
3
100
AcDbLine
10
634.400000000000
20
458.050000000000
30
0.0
11
629.050000000000
21
458.050000000000
31
0.0
0
LINE
5
5b7
100
AcDbEntity
8
0-0
6
CONTINUOUS
62
3
100
AcDbLine
10
635.400000000000
20
457.150000000000
30
0.0
11
636.400000000000
21
447.210000000000
31
0.0
0
LINE
5
5b8
100
AcDbEntity
8
0-0
6
CONTINUOUS
62
3
100
AcDbLine
10
650.300000000000
20
446.350000000000
30
0.0
11
644.050000000000
21
446.350000000000
31
0.0
0
LINE
5
5b9
100
AcDbEntity
8
0-0
6
CONTINUOUS
62
3
100
AcDbLine
10
650.300000000000
20
445.950000000000
30
0.0
11
644.050000000000
21
445.950000000000
31
0.0
0
LINE
5
5ba
100
AcDbEntity
8
0-0
6
CONTINUOUS
62
3
100
AcDbLine
10
651.300000000000
20
447.250000000000
30
0.0
11
652.300000000000
21
457.190000000000
31
0.0
0
LINE
5
5bb
100
AcDbEntity
8
0-0
6
CONTINUOUS
62
3
100
AcDbLine
10
652.700000000000
20
457.150000000000
30
0.0
11
651.700000000000
21
447.210000000000
31
0.0
0
LINE
5
5bc
100
AcDbEntity
8
0-0
6
CONTINUOUS
62
3
100
AcDbLine
10
653.690000000000
20
458.450000000000
30
0.0
11
659.050000000000
21
458.450000000000
31
0.0
0
LINE
5
5bd
100
AcDbEntity
8
0-0
6
CONTINUOUS
62
3
100
AcDbLine
10
653.690000000000
20
458.050000000000
30
0.0
11
659.050000000000
21
458.050000000000
31
0.0
0
LINE
5
5be
100
AcDbEntity
8
0-0
6
CONTINUOUS
62
3
100
AcDbLine
10
667.790000000000
20
446.350000000000
30
0.0
11
674.050000000000
21
446.350000000000
31
0.0
0
LINE
5
5bf
100
AcDbEntity
8
0-0
6
CONTINUOUS
62
3
100
AcDbLine
10
667.790000000000
20
445.950000000000
30
0.0
11
674.050000000000
21
445.950000000000
31
0.0
0
LINE
5
5c0
100
AcDbEntity
8
0-0
6
CONTINUOUS
62
3
100
AcDbLine
10
664.400000000000
20
458.450000000000
30
0.0
11
659.050000000000
21
458.450000000000
31
0.0
0
LINE
5
5c1
100
AcDbEntity
8
0-0
6
CONTINUOUS
62
3
100
AcDbLine
10
666.800000000000
20
447.250000000000
30
0.0
11
665.790000000000
21
457.190000000000
31
0.0
0
LINE
5
5c2
100
AcDbEntity
8
0-0
6
CONTINUOUS
62
3
100
AcDbLine
10
664.400000000000
20
458.050000000000
30
0.0
11
659.050000000000
21
458.050000000000
31
0.0
0
LINE
5
5c3
100
AcDbEntity
8
0-0
6
CONTINUOUS
62
3
100
AcDbLine
10
665.400000000000
20
457.150000000000
30
0.0
11
666.400000000000
21
447.210000000000
31
0.0
0
LINE
5
5c4
100
AcDbEntity
8
0-0
6
CONTINUOUS
62
3
100
AcDbLine
10
680.300000000000
20
446.350000000000
30
0.0
11
674.050000000000
21
446.350000000000
31
0.0
0
LINE
5
5c5
100
AcDbEntity
8
0-0
6
CONTINUOUS
62
3
100
AcDbLine
10
680.300000000000
20
445.950000000000
30
0.0
11
674.050000000000
21
445.950000000000
31
0.0
0
LINE
5
5c6
100
AcDbEntity
8
0-0
6
CONTINUOUS
62
3
100
AcDbLine
10
681.300000000000
20
447.250000000000
30
0.0
11
682.300000000000
21
457.190000000000
31
0.0
0
LINE
5
5c7
100
AcDbEntity
8
0-0
6
CONTINUOUS
62
3
100
AcDbLine
10
682.700000000000
20
457.150000000000
30
0.0
11
681.700000000000
21
447.210000000000
31
0.0
0
LINE
5
5c8
100
AcDbEntity
8
0-0
6
CONTINUOUS
62
3
100
AcDbLine
10
683.690000000000
20
458.450000000000
30
0.0
11
689.050000000000
21
458.450000000000
31
0.0
0
LINE
5
5c9
100
AcDbEntity
8
0-0
6
CONTINUOUS
62
3
100
AcDbLine
10
683.690000000000
20
458.050000000000
30
0.0
11
689.050000000000
21
458.050000000000
31
0.0
0
LINE
5
5ca
100
AcDbEntity
8
0-0
6
CONTINUOUS
62
3
100
AcDbLine
10
697.790000000000
20
446.350000000000
30
0.0
11
704.050000000000
21
446.350000000000
31
0.0
0
LINE
5
5cb
100
AcDbEntity
8
0-0
6
CONTINUOUS
62
3
100
AcDbLine
10
697.790000000000
20
445.950000000000
30
0.0
11
704.050000000000
21
445.950000000000
31
0.0
0
LINE
5
5cc
100
AcDbEntity
8
0-0
6
CONTINUOUS
62
3
100
AcDbLine
10
694.400000000000
20
458.450000000000
30
0.0
11
689.050000000000
21
458.450000000000
31
0.0
0
LINE
5
5cd
100
AcDbEntity
8
0-0
6
CONTINUOUS
62
3
100
AcDbLine
10
696.800000000000
20
447.250000000000
30
0.0
11
695.790000000000
21
457.190000000000
31
0.0
0
LINE
5
5ce
100
AcDbEntity
8
0-0
6
CONTINUOUS
62
3
100
AcDbLine
10
694.400000000000
20
458.050000000000
30
0.0
11
689.050000000000
21
458.050000000000
31
0.0
0
LINE
5
5cf
100
AcDbEntity
8
0-0
6
CONTINUOUS
62
3
100
AcDbLine
10
695.400000000000
20
457.150000000000
30
0.0
11
696.400000000000
21
447.210000000000
31
0.0
0
LINE
5
5d0
100
AcDbEntity
8
0-0
6
CONTINUOUS
62
3
100
AcDbLine
10
710.300000000000
20
446.350000000000
30
0.0
11
704.050000000000
21
446.350000000000
31
0.0
0
LINE
5
5d1
100
AcDbEntity
8
0-0
6
CONTINUOUS
62
3
100
AcDbLine
10
710.300000000000
20
445.950000000000
30
0.0
11
704.050000000000
21
445.950000000000
31
0.0
0
LINE
5
5d2
100
AcDbEntity
8
0-0
6
CONTINUOUS
62
3
100
AcDbLine
10
711.300000000000
20
447.250000000000
30
0.0
11
712.300000000000
21
457.190000000000
31
0.0
0
LINE
5
5d3
100
AcDbEntity
8
0-0
6
CONTINUOUS
62
3
100
AcDbLine
10
712.700000000000
20
457.150000000000
30
0.0
11
711.700000000000
21
447.210000000000
31
0.0
0
LINE
5
5d4
100
AcDbEntity
8
0-0
6
CONTINUOUS
62
3
100
AcDbLine
10
713.690000000000
20
458.450000000000
30
0.0
11
719.050000000000
21
458.450000000000
31
0.0
0
LINE
5
5d5
100
AcDbEntity
8
0-0
6
CONTINUOUS
62
3
100
AcDbLine
10
713.690000000000
20
458.050000000000
30
0.0
11
719.050000000000
21
458.050000000000
31
0.0
0
LINE
5
5d6
100
AcDbEntity
8
0-0
6
CONTINUOUS
62
3
100
AcDbLine
10
726.770000000000
20
447.490000000000
30
0.0
11
725.790000000000
21
457.190000000000
31
0.0
0
LINE
5
5d7
100
AcDbEntity
8
0-0
6
CONTINUOUS
62
3
100
AcDbLine
10
726.370000000000
20
447.450000000000
30
0.0
11
725.400000000000
21
457.150000000000
31
0.0
0
LINE
5
5d8
100
AcDbEntity
8
0-0
6
CONTINUOUS
62
3
100
AcDbLine
10
725.380000000000
20
446.350000000000
30
0.0
11
719.450000000000
21
446.350000000000
31
0.0
0
LINE
5
5d9
100
AcDbEntity
8
0-0
6
CONTINUOUS
62
3
100
AcDbLine
10
728.800000000000
20
443.850000000000
30
0.0
11
719.450000000000
21
443.850000000000
31
0.0
0
LINE
5
5da
100
AcDbEntity
8
0-0
6
CONTINUOUS
62
3
100
AcDbLine
10
728.880000000000
20
443.450000000000
30
0.0
11
719.450000000000
21
443.450000000000
31
0.0
0
LINE
5
5db
100
AcDbEntity
8
0-0
6
CONTINUOUS
62
3
100
AcDbLine
10
728.880000000000
20
443.450000000000
30
0.0
11
732.550000000000
21
445.010000000000
31
0.0
0
LINE
5
5dc
100
AcDbEntity
8
0-0
6
CONTINUOUS
62
3
100
AcDbLine
10
728.800000000000
20
443.850000000000
30
0.0
11
732.550000000000
21
445.450000000000
31
0.0
0
LINE
5
5dd
100
AcDbEntity
8
0-0
6
CONTINUOUS
62
3
100
AcDbLine
10
736.300000000000
20
443.850000000000
30
0.0
11
732.550000000000
21
445.450000000000
31
0.0
0
LINE
5
5de
100
AcDbEntity
8
0-0
6
CONTINUOUS
62
3
100
AcDbLine
10
736.210000000000
20
443.450000000000
30
0.0
11
732.550000000000
21
445.010000000000
31
0.0
0
LINE
5
5df
100
AcDbEntity
8
0-0
6
CONTINUOUS
62
3
100
AcDbLine
10
719.450000000000
20
445.950000000000
30
0.0
11
725.380000000000
21
445.950000000000
31
0.0
0
LINE
5
5e0
100
AcDbEntity
8
0-0
6
CONTINUOUS
62
3
100
AcDbLine
10
724.400000000000
20
458.450000000000
30
0.0
11
719.050000000000
21
458.450000000000
31
0.0
0
LINE
5
5e1
100
AcDbEntity
8
0-0
6
CONTINUOUS
62
3
100
AcDbLine
10
724.400000000000
20
458.050000000000
30
0.0
11
719.050000000000
21
458.050000000000
31
0.0
0
LINE
5
5e2
100
AcDbEntity
8
0-0
6
DASHED
62
4
100
AcDbLine
10
389.050000000000
20
443.450000000000
30
0.0
11
779.050000000000
21
443.450000000000
31
0.0
0
LINE
5
5e3
100
AcDbEntity
8
0-0
6
CONTINUOUS
62
7
100
AcDbLine
10
389.050000000000
20
442.450000000000
30
0.0
11
779.050000000000
21
442.450000000000
31
0.0
0
LINE
5
5e4
100
AcDbEntity
8
0-0
6
CONTINUOUS
62
4
100
AcDbLine
10
436.800000000000
20
444.750000000000
30
0.0
11
444.800000000000
21
444.750000000000
31
0.0
0
LINE
5
5e5
100
AcDbEntity
8
0-0
6
CONTINUOUS
62
4
100
AcDbLine
10
445.050000000000
20
444.100000000000
30
0.0
11
445.050000000000
21
444.500000000000
31
0.0
0
LINE
5
5e6
100
AcDbEntity
8
0-0
6
CONTINUOUS
62
4
100
AcDbLine
10
436.550000000000
20
444.100000000000
30
0.0
11
436.550000000000
21
444.500000000000
31
0.0
0
LINE
5
5e7
100
AcDbEntity
8
0-0
6
CONTINUOUS
62
4
100
AcDbLine
10
436.800000000000
20
443.850000000000
30
0.0
11
444.800000000000
21
443.850000000000
31
0.0
0
LINE
5
5e8
100
AcDbEntity
8
0-0
6
CONTINUOUS
62
4
100
AcDbLine
10
439.120000000000
20
442.350000000000
30
0.0
11
442.490000000000
21
442.350000000000
31
0.0
0
LINE
5
5e9
100
AcDbEntity
8
0-0
6
CONTINUOUS
62
4
100
AcDbLine
10
442.490000000000
20
440.850000000000
30
0.0
11
442.490000000000
21
442.350000000000
31
0.0
0
LINE
5
5ea
100
AcDbEntity
8
0-0
6
CONTINUOUS
62
4
100
AcDbLine
10
439.120000000000
20
440.850000000000
30
0.0
11
439.120000000000
21
442.350000000000
31
0.0
0
LINE
5
5eb
100
AcDbEntity
8
0-0
6
CONTINUOUS
62
4
100
AcDbLine
10
443.050000000000
20
443.850000000000
30
0.0
11
442.490000000000
21
442.350000000000
31
0.0
0
LINE
5
5ec
100
AcDbEntity
8
0-0
6
CONTINUOUS
62
4
100
AcDbLine
10
438.550000000000
20
443.850000000000
30
0.0
11
439.120000000000
21
442.350000000000
31
0.0
0
LINE
5
5ed
100
AcDbEntity
8
0-0
6
CONTINUOUS
62
4
100
AcDbLine
10
439.120000000000
20
440.850000000000
30
0.0
11
442.490000000000
21
440.850000000000
31
0.0
0
LINE
5
5ee
100
AcDbEntity
8
0-0
6
CONTINUOUS
62
4
100
AcDbLine
10
439.250000000000
20
422.190000000000
30
0.0
11
438.400000000000
21
422.680000000000
31
0.0
0
LINE
5
5ef
100
AcDbEntity
8
0-0
6
CONTINUOUS
62
4
100
AcDbLine
10
439.250000000000
20
423.170000000000
30
0.0
11
438.400000000000
21
422.680000000000
31
0.0
0
LINE
5
5f0
100
AcDbEntity
8
0-0
6
CONTINUOUS
62
4
100
AcDbLine
10
439.250000000000
20
419.020000000000
30
0.0
11
438.400000000000
21
419.510000000000
31
0.0
0
LINE
5
5f1
100
AcDbEntity
8
0-0
6
CONTINUOUS
62
4
100
AcDbLine
10
439.250000000000
20
420.000000000000
30
0.0
11
438.400000000000
21
419.510000000000
31
0.0
0
LINE
5
5f2
100
AcDbEntity
8
0-0
6
CONTINUOUS
62
4
100
AcDbLine
10
442.350000000000
20
423.780000000000
30
0.0
11
443.200000000000
21
424.270000000000
31
0.0
0
LINE
5
5f3
100
AcDbEntity
8
0-0
6
CONTINUOUS
62
4
100
AcDbLine
10
442.350000000000
20
424.760000000000
30
0.0
11
443.200000000000
21
424.270000000000
31
0.0
0
LINE
5
5f4
100
AcDbEntity
8
0-0
6
CONTINUOUS
62
4
100
AcDbLine
10
442.350000000000
20
420.600000000000
30
0.0
11
443.200000000000
21
421.090000000000
31
0.0
0
LINE
5
5f5
100
AcDbEntity
8
0-0
6
CONTINUOUS
62
4
100
AcDbLine
10
442.350000000000
20
421.590000000000
30
0.0
11
443.200000000000
21
421.090000000000
31
0.0
0
LINE
5
5f6
100
AcDbEntity
8
0-0
6
CONTINUOUS
62
4
100
AcDbLine
10
442.350000000000
20
423.780000000000
30
0.0
11
442.350000000000
21
421.590000000000
31
0.0
0
LINE
5
5f7
100
AcDbEntity
8
0-0
6
CONTINUOUS
62
4
100
AcDbLine
10
439.250000000000
20
422.190000000000
30
0.0
11
439.250000000000
21
420.000000000000
31
0.0
0
LINE
5
5f8
100
AcDbEntity
8
0-0
6
CONTINUOUS
62
4
100
AcDbLine
10
439.250000000000
20
420.000000000000
30
0.0
11
442.350000000000
21
421.590000000000
31
0.0
0
LINE
5
5f9
100
AcDbEntity
8
0-0
6
CONTINUOUS
62
4
100
AcDbLine
10
443.200000000000
20
421.090000000000
30
0.0
11
438.400000000000
21
419.510000000000
31
0.0
0
LINE
5
5fa
100
AcDbEntity
8
0-0
6
CONTINUOUS
62
4
100
AcDbLine
10
439.250000000000
20
419.020000000000
30
0.0
11
442.350000000000
21
420.600000000000
31
0.0
0
LINE
5
5fb
100
AcDbEntity
8
0-0
6
CONTINUOUS
62
4
100
AcDbLine
10
439.250000000000
20
422.190000000000
30
0.0
11
442.350000000000
21
423.780000000000
31
0.0
0
LINE
5
5fc
100
AcDbEntity
8
0-0
6
CONTINUOUS
62
4
100
AcDbLine
10
443.200000000000
20
424.270000000000
30
0.0
11
438.400000000000
21
422.680000000000
31
0.0
0
LINE
5
5fd
100
AcDbEntity
8
0-0
6
CONTINUOUS
62
4
100
AcDbLine
10
439.250000000000
20
423.170000000000
30
0.0
11
442.350000000000
21
424.760000000000
31
0.0
0
LINE
5
5fe
100
AcDbEntity
8
0-0
6
CONTINUOUS
62
4
100
AcDbLine
10
442.350000000000
20
418.560000000000
30
0.0
11
442.210000000000
21
417.960000000000
31
0.0
0
LINE
5
5ff
100
AcDbEntity
8
0-0
6
CONTINUOUS
62
4
100
AcDbLine
10
439.250000000000
20
418.560000000000
30
0.0
11
439.650000000000
21
416.820000000000
31
0.0
0
LINE
5
600
100
AcDbEntity
8
0-0
6
CONTINUOUS
62
4
100
AcDbLine
10
439.780000000000
20
416.250000000000
30
0.0
11
439.220000000000
21
416.420000000000
31
0.0
0
LINE
5
601
100
AcDbEntity
8
0-0
6
CONTINUOUS
62
4
100
AcDbLine
10
439.650000000000
20
416.820000000000
30
0.0
11
439.220000000000
21
416.420000000000
31
0.0
0
LINE
5
602
100
AcDbEntity
8
0-0
6
CONTINUOUS
62
4
100
AcDbLine
10
439.250000000000
20
418.560000000000
30
0.0
11
439.250000000000
21
419.020000000000
31
0.0
0
LINE
5
603
100
AcDbEntity
8
0-0
6
CONTINUOUS
62
4
100
AcDbLine
10
442.050000000000
20
417.280000000000
30
0.0
11
442.720000000000
21
417.660000000000
31
0.0
0
LINE
5
604
100
AcDbEntity
8
0-0
6
CONTINUOUS
62
4
100
AcDbLine
10
442.210000000000
20
417.960000000000
30
0.0
11
442.720000000000
21
417.660000000000
31
0.0
0
LINE
5
605
100
AcDbEntity
8
0-0
6
CONTINUOUS
62
4
100
AcDbLine
10
442.350000000000
20
418.560000000000
30
0.0
11
442.350000000000
21
420.600000000000
31
0.0
0
LINE
5
606
100
AcDbEntity
8
0-0
6
CONTINUOUS
62
4
100
AcDbLine
10
441.440000000000
20
414.640000000000
30
0.0
11
441.870000000000
21
414.390000000000
31
0.0
0
LINE
5
607
100
AcDbEntity
8
0-0
6
CONTINUOUS
62
4
100
AcDbLine
10
442.050000000000
20
417.280000000000
30
0.0
11
441.440000000000
21
414.640000000000
31
0.0
0
LINE
5
608
100
AcDbEntity
8
0-0
6
CONTINUOUS
62
4
100
AcDbLine
10
442.050000000000
20
417.280000000000
30
0.0
11
439.780000000000
21
416.250000000000
31
0.0
0
LINE
5
609
100
AcDbEntity
8
0-0
6
CONTINUOUS
62
4
100
AcDbLine
10
439.650000000000
20
416.820000000000
30
0.0
11
442.210000000000
21
417.960000000000
31
0.0
0
LINE
5
60a
100
AcDbEntity
8
0-0
6
CONTINUOUS
62
4
100
AcDbLine
10
442.720000000000
20
417.660000000000
30
0.0
11
439.220000000000
21
416.420000000000
31
0.0
0
LINE
5
60b
100
AcDbEntity
8
0-0
6
CONTINUOUS
62
4
100
AcDbLine
10
442.350000000000
20
426.950000000000
30
0.0
11
443.200000000000
21
427.440000000000
31
0.0
0
LINE
5
60c
100
AcDbEntity
8
0-0
6
CONTINUOUS
62
4
100
AcDbLine
10
442.350000000000
20
427.940000000000
30
0.0
11
443.200000000000
21
427.440000000000
31
0.0
0
LINE
5
60d
100
AcDbEntity
8
0-0
6
CONTINUOUS
62
4
100
AcDbLine
10
442.350000000000
20
426.950000000000
30
0.0
11
442.350000000000
21
424.760000000000
31
0.0
0
LINE
5
60e
100
AcDbEntity
8
0-0
6
CONTINUOUS
62
4
100
AcDbLine
10
439.250000000000
20
425.370000000000
30
0.0
11
442.350000000000
21
426.950000000000
31
0.0
0
LINE
5
60f
100
AcDbEntity
8
0-0
6
CONTINUOUS
62
4
100
AcDbLine
10
443.200000000000
20
427.440000000000
30
0.0
11
438.400000000000
21
425.860000000000
31
0.0
0
LINE
5
610
100
AcDbEntity
8
0-0
6
CONTINUOUS
62
4
100
AcDbLine
10
439.250000000000
20
426.350000000000
30
0.0
11
442.350000000000
21
427.940000000000
31
0.0
0
LINE
5
611
100
AcDbEntity
8
0-0
6
CONTINUOUS
62
4
100
AcDbLine
10
439.250000000000
20
425.370000000000
30
0.0
11
438.400000000000
21
425.860000000000
31
0.0
0
LINE
5
612
100
AcDbEntity
8
0-0
6
CONTINUOUS
62
4
100
AcDbLine
10
439.250000000000
20
426.350000000000
30
0.0
11
438.400000000000
21
425.860000000000
31
0.0
0
LINE
5
613
100
AcDbEntity
8
0-0
6
CONTINUOUS
62
4
100
AcDbLine
10
439.250000000000
20
425.370000000000
30
0.0
11
439.250000000000
21
423.170000000000
31
0.0
0
LINE
5
614
100
AcDbEntity
8
0-0
6
CONTINUOUS
62
4
100
AcDbLine
10
442.350000000000
20
430.130000000000
30
0.0
11
443.200000000000
21
430.620000000000
31
0.0
0
LINE
5
615
100
AcDbEntity
8
0-0
6
CONTINUOUS
62
4
100
AcDbLine
10
442.350000000000
20
431.110000000000
30
0.0
11
443.200000000000
21
430.620000000000
31
0.0
0
LINE
5
616
100
AcDbEntity
8
0-0
6
CONTINUOUS
62
4
100
AcDbLine
10
442.350000000000
20
430.130000000000
30
0.0
11
442.350000000000
21
427.940000000000
31
0.0
0
LINE
5
617
100
AcDbEntity
8
0-0
6
CONTINUOUS
62
4
100
AcDbLine
10
439.250000000000
20
428.540000000000
30
0.0
11
442.350000000000
21
430.130000000000
31
0.0
0
LINE
5
618
100
AcDbEntity
8
0-0
6
CONTINUOUS
62
4
100
AcDbLine
10
443.200000000000
20
430.620000000000
30
0.0
11
438.400000000000
21
429.030000000000
31
0.0
0
LINE
5
619
100
AcDbEntity
8
0-0
6
CONTINUOUS
62
4
100
AcDbLine
10
439.250000000000
20
429.520000000000
30
0.0
11
442.350000000000
21
431.110000000000
31
0.0
0
LINE
5
61a
100
AcDbEntity
8
0-0
6
CONTINUOUS
62
4
100
AcDbLine
10
439.250000000000
20
428.540000000000
30
0.0
11
438.400000000000
21
429.030000000000
31
0.0
0
LINE
5
61b
100
AcDbEntity
8
0-0
6
CONTINUOUS
62
4
100
AcDbLine
10
439.250000000000
20
429.520000000000
30
0.0
11
438.400000000000
21
429.030000000000
31
0.0
0
LINE
5
61c
100
AcDbEntity
8
0-0
6
CONTINUOUS
62
4
100
AcDbLine
10
439.250000000000
20
428.540000000000
30
0.0
11
439.250000000000
21
426.350000000000
31
0.0
0
LINE
5
61d
100
AcDbEntity
8
0-0
6
CONTINUOUS
62
4
100
AcDbLine
10
442.350000000000
20
433.300000000000
30
0.0
11
443.200000000000
21
433.790000000000
31
0.0
0
LINE
5
61e
100
AcDbEntity
8
0-0
6
CONTINUOUS
62
4
100
AcDbLine
10
442.350000000000
20
434.290000000000
30
0.0
11
443.200000000000
21
433.790000000000
31
0.0
0
LINE
5
61f
100
AcDbEntity
8
0-0
6
CONTINUOUS
62
4
100
AcDbLine
10
442.350000000000
20
433.300000000000
30
0.0
11
442.350000000000
21
431.110000000000
31
0.0
0
LINE
5
620
100
AcDbEntity
8
0-0
6
CONTINUOUS
62
4
100
AcDbLine
10
439.250000000000
20
431.720000000000
30
0.0
11
442.350000000000
21
433.300000000000
31
0.0
0
LINE
5
621
100
AcDbEntity
8
0-0
6
CONTINUOUS
62
4
100
AcDbLine
10
443.200000000000
20
433.790000000000
30
0.0
11
438.400000000000
21
432.210000000000
31
0.0
0
LINE
5
622
100
AcDbEntity
8
0-0
6
CONTINUOUS
62
4
100
AcDbLine
10
439.250000000000
20
432.700000000000
30
0.0
11
442.350000000000
21
434.290000000000
31
0.0
0
LINE
5
623
100
AcDbEntity
8
0-0
6
CONTINUOUS
62
4
100
AcDbLine
10
439.250000000000
20
431.720000000000
30
0.0
11
438.400000000000
21
432.210000000000
31
0.0
0
LINE
5
624
100
AcDbEntity
8
0-0
6
CONTINUOUS
62
4
100
AcDbLine
10
439.250000000000
20
432.700000000000
30
0.0
11
438.400000000000
21
432.210000000000
31
0.0
0
LINE
5
625
100
AcDbEntity
8
0-0
6
CONTINUOUS
62
4
100
AcDbLine
10
439.250000000000
20
431.720000000000
30
0.0
11
439.250000000000
21
429.520000000000
31
0.0
0
LINE
5
626
100
AcDbEntity
8
0-0
6
CONTINUOUS
62
4
100
AcDbLine
10
442.350000000000
20
436.480000000000
30
0.0
11
443.200000000000
21
436.970000000000
31
0.0
0
LINE
5
627
100
AcDbEntity
8
0-0
6
CONTINUOUS
62
4
100
AcDbLine
10
442.350000000000
20
437.460000000000
30
0.0
11
443.200000000000
21
436.970000000000
31
0.0
0
LINE
5
628
100
AcDbEntity
8
0-0
6
CONTINUOUS
62
4
100
AcDbLine
10
442.350000000000
20
436.480000000000
30
0.0
11
442.350000000000
21
434.290000000000
31
0.0
0
LINE
5
629
100
AcDbEntity
8
0-0
6
CONTINUOUS
62
4
100
AcDbLine
10
439.250000000000
20
434.890000000000
30
0.0
11
442.350000000000
21
436.480000000000
31
0.0
0
LINE
5
62a
100
AcDbEntity
8
0-0
6
CONTINUOUS
62
4
100
AcDbLine
10
443.200000000000
20
436.970000000000
30
0.0
11
438.400000000000
21
435.380000000000
31
0.0
0
LINE
5
62b
100
AcDbEntity
8
0-0
6
CONTINUOUS
62
4
100
AcDbLine
10
439.250000000000
20
435.870000000000
30
0.0
11
442.350000000000
21
437.460000000000
31
0.0
0
LINE
5
62c
100
AcDbEntity
8
0-0
6
CONTINUOUS
62
4
100
AcDbLine
10
439.250000000000
20
434.890000000000
30
0.0
11
438.400000000000
21
435.380000000000
31
0.0
0
LINE
5
62d
100
AcDbEntity
8
0-0
6
CONTINUOUS
62
4
100
AcDbLine
10
439.250000000000
20
435.870000000000
30
0.0
11
438.400000000000
21
435.380000000000
31
0.0
0
LINE
5
62e
100
AcDbEntity
8
0-0
6
CONTINUOUS
62
4
100
AcDbLine
10
439.250000000000
20
434.890000000000
30
0.0
11
439.250000000000
21
432.700000000000
31
0.0
0
LINE
5
62f
100
AcDbEntity
8
0-0
6
CONTINUOUS
62
4
100
AcDbLine
10
442.790000000000
20
439.910000000000
30
0.0
11
442.350000000000
21
439.650000000000
31
0.0
0
LINE
5
630
100
AcDbEntity
8
0-0
6
CONTINUOUS
62
4
100
AcDbLine
10
442.790000000000
20
440.380000000000
30
0.0
11
442.350000000000
21
440.640000000000
31
0.0
0
LINE
5
631
100
AcDbEntity
8
0-0
6
CONTINUOUS
62
4
100
AcDbLine
10
442.350000000000
20
439.650000000000
30
0.0
11
442.350000000000
21
437.460000000000
31
0.0
0
LINE
5
632
100
AcDbEntity
8
0-0
6
CONTINUOUS
62
4
100
AcDbLine
10
439.250000000000
20
438.070000000000
30
0.0
11
442.350000000000
21
439.650000000000
31
0.0
0
LINE
5
633
100
AcDbEntity
8
0-0
6
CONTINUOUS
62
4
100
AcDbLine
10
439.250000000000
20
439.050000000000
30
0.0
11
442.350000000000
21
440.640000000000
31
0.0
0
LINE
5
634
100
AcDbEntity
8
0-0
6
CONTINUOUS
62
4
100
AcDbLine
10
438.660000000000
20
438.400000000000
30
0.0
11
439.250000000000
21
438.070000000000
31
0.0
0
LINE
5
635
100
AcDbEntity
8
0-0
6
CONTINUOUS
62
4
100
AcDbLine
10
438.660000000000
20
438.710000000000
30
0.0
11
439.250000000000
21
439.050000000000
31
0.0
0
LINE
5
636
100
AcDbEntity
8
0-0
6
CONTINUOUS
62
4
100
AcDbLine
10
439.250000000000
20
438.070000000000
30
0.0
11
439.250000000000
21
435.870000000000
31
0.0
0
LINE
5
637
100
AcDbEntity
8
0-0
6
CONTINUOUS
62
4
100
AcDbLine
10
442.490000000000
20
440.850000000000
30
0.0
11
442.350000000000
21
440.640000000000
31
0.0
0
LINE
5
638
100
AcDbEntity
8
0-0
6
CONTINUOUS
62
4
100
AcDbLine
10
439.120000000000
20
440.850000000000
30
0.0
11
439.250000000000
21
439.050000000000
31
0.0
0
LINE
5
639
100
AcDbEntity
8
0-0
6
CONTINUOUS
62
4
100
AcDbLine
10
438.660000000000
20
438.710000000000
30
0.0
11
438.660000000000
21
438.400000000000
31
0.0
0
LINE
5
63a
100
AcDbEntity
8
0-0
6
CONTINUOUS
62
4
100
AcDbLine
10
442.790000000000
20
440.380000000000
30
0.0
11
442.790000000000
21
439.910000000000
31
0.0
0
LINE
5
63b
100
AcDbEntity
8
0-0
6
CONTINUOUS
62
4
100
AcDbLine
10
442.790000000000
20
439.910000000000
30
0.0
11
438.660000000000
21
438.400000000000
31
0.0
0
LINE
5
63c
100
AcDbEntity
8
0-0
6
CONTINUOUS
62
4
100
AcDbLine
10
438.660000000000
20
438.710000000000
30
0.0
11
442.790000000000
21
440.380000000000
31
0.0
0
LINE
5
63d
100
AcDbEntity
8
0-0
6
DOT
62
4
100
AcDbLine
10
442.850000000000
20
444.750000000000
30
0.0
11
441.950000000000
21
442.930000000000
31
0.0
0
LINE
5
63e
100
AcDbEntity
8
0-0
6
DOT
62
4
100
AcDbLine
10
441.950000000000
20
442.930000000000
30
0.0
11
440.800000000000
21
442.320000000000
31
0.0
0
LINE
5
63f
100
AcDbEntity
8
0-0
6
DOT
62
4
100
AcDbLine
10
440.800000000000
20
442.320000000000
30
0.0
11
439.660000000000
21
442.930000000000
31
0.0
0
LINE
5
640
100
AcDbEntity
8
0-0
6
DOT
62
4
100
AcDbLine
10
438.750000000000
20
444.750000000000
30
0.0
11
439.660000000000
21
442.930000000000
31
0.0
0
LINE
5
641
100
AcDbEntity
8
0-0
6
CONTINUOUS
62
4
100
AcDbLine
10
441.440000000000
20
414.640000000000
30
0.0
11
440.570000000000
21
412.850000000000
31
0.0
0
LINE
5
642
100
AcDbEntity
8
0-0
6
CONTINUOUS
62
4
100
AcDbLine
10
441.870000000000
20
414.390000000000
30
0.0
11
440.570000000000
21
412.850000000000
31
0.0
0
LINE
5
643
100
AcDbEntity
8
0-0
6
CONTINUOUS
62
4
100
AcDbLine
10
439.780000000000
20
416.250000000000
30
0.0
11
440.800000000000
21
411.850000000000
31
0.0
0
LINE
5
644
100
AcDbEntity
8
0-0
6
CENTER2
62
4
100
AcDbLine
10
440.800000000000
20
444.750000000000
30
0.0
11
440.800000000000
21
411.850000000000
31
0.0
0
LINE
5
645
100
AcDbEntity
8
0-0
6
CONTINUOUS
62
4
100
AcDbLine
10
441.210000000000
20
413.610000000000
30
0.0
11
440.800000000000
21
411.850000000000
31
0.0
0
LINE
5
646
100
AcDbEntity
8
0-0
6
CONTINUOUS
62
4
100
AcDbLine
10
586.800000000000
20
444.750000000000
30
0.0
11
594.800000000000
21
444.750000000000
31
0.0
0
LINE
5
647
100
AcDbEntity
8
0-0
6
CONTINUOUS
62
4
100
AcDbLine
10
595.050000000000
20
444.100000000000
30
0.0
11
595.050000000000
21
444.500000000000
31
0.0
0
LINE
5
648
100
AcDbEntity
8
0-0
6
CONTINUOUS
62
4
100
AcDbLine
10
586.550000000000
20
444.100000000000
30
0.0
11
586.550000000000
21
444.500000000000
31
0.0
0
LINE
5
649
100
AcDbEntity
8
0-0
6
CONTINUOUS
62
4
100
AcDbLine
10
586.800000000000
20
443.850000000000
30
0.0
11
594.800000000000
21
443.850000000000
31
0.0
0
LINE
5
64a
100
AcDbEntity
8
0-0
6
CONTINUOUS
62
4
100
AcDbLine
10
589.120000000000
20
442.350000000000
30
0.0
11
592.480000000000
21
442.350000000000
31
0.0
0
LINE
5
64b
100
AcDbEntity
8
0-0
6
CONTINUOUS
62
4
100
AcDbLine
10
592.480000000000
20
440.850000000000
30
0.0
11
592.480000000000
21
442.350000000000
31
0.0
0
LINE
5
64c
100
AcDbEntity
8
0-0
6
CONTINUOUS
62
4
100
AcDbLine
10
589.120000000000
20
440.850000000000
30
0.0
11
589.120000000000
21
442.350000000000
31
0.0
0
LINE
5
64d
100
AcDbEntity
8
0-0
6
CONTINUOUS
62
4
100
AcDbLine
10
593.050000000000
20
443.850000000000
30
0.0
11
592.480000000000
21
442.350000000000
31
0.0
0
LINE
5
64e
100
AcDbEntity
8
0-0
6
CONTINUOUS
62
4
100
AcDbLine
10
588.550000000000
20
443.850000000000
30
0.0
11
589.120000000000
21
442.350000000000
31
0.0
0
LINE
5
64f
100
AcDbEntity
8
0-0
6
CONTINUOUS
62
4
100
AcDbLine
10
589.120000000000
20
440.850000000000
30
0.0
11
592.480000000000
21
440.850000000000
31
0.0
0
LINE
5
650
100
AcDbEntity
8
0-0
6
CONTINUOUS
62
4
100
AcDbLine
10
589.250000000000
20
422.190000000000
30
0.0
11
588.400000000000
21
422.680000000000
31
0.0
0
LINE
5
651
100
AcDbEntity
8
0-0
6
CONTINUOUS
62
4
100
AcDbLine
10
589.250000000000
20
423.170000000000
30
0.0
11
588.400000000000
21
422.680000000000
31
0.0
0
LINE
5
652
100
AcDbEntity
8
0-0
6
CONTINUOUS
62
4
100
AcDbLine
10
589.250000000000
20
419.020000000000
30
0.0
11
588.400000000000
21
419.510000000000
31
0.0
0
LINE
5
653
100
AcDbEntity
8
0-0
6
CONTINUOUS
62
4
100
AcDbLine
10
589.250000000000
20
420.000000000000
30
0.0
11
588.400000000000
21
419.510000000000
31
0.0
0
LINE
5
654
100
AcDbEntity
8
0-0
6
CONTINUOUS
62
4
100
AcDbLine
10
592.350000000000
20
423.780000000000
30
0.0
11
593.200000000000
21
424.270000000000
31
0.0
0
LINE
5
655
100
AcDbEntity
8
0-0
6
CONTINUOUS
62
4
100
AcDbLine
10
592.350000000000
20
424.760000000000
30
0.0
11
593.200000000000
21
424.270000000000
31
0.0
0
LINE
5
656
100
AcDbEntity
8
0-0
6
CONTINUOUS
62
4
100
AcDbLine
10
592.350000000000
20
420.600000000000
30
0.0
11
593.200000000000
21
421.090000000000
31
0.0
0
LINE
5
657
100
AcDbEntity
8
0-0
6
CONTINUOUS
62
4
100
AcDbLine
10
592.350000000000
20
421.590000000000
30
0.0
11
593.200000000000
21
421.090000000000
31
0.0
0
LINE
5
658
100
AcDbEntity
8
0-0
6
CONTINUOUS
62
4
100
AcDbLine
10
592.350000000000
20
423.780000000000
30
0.0
11
592.350000000000
21
421.590000000000
31
0.0
0
LINE
5
659
100
AcDbEntity
8
0-0
6
CONTINUOUS
62
4
100
AcDbLine
10
589.250000000000
20
422.190000000000
30
0.0
11
589.250000000000
21
420.000000000000
31
0.0
0
LINE
5
65a
100
AcDbEntity
8
0-0
6
CONTINUOUS
62
4
100
AcDbLine
10
589.250000000000
20
420.000000000000
30
0.0
11
592.350000000000
21
421.590000000000
31
0.0
0
LINE
5
65b
100
AcDbEntity
8
0-0
6
CONTINUOUS
62
4
100
AcDbLine
10
593.200000000000
20
421.090000000000
30
0.0
11
588.400000000000
21
419.510000000000
31
0.0
0
LINE
5
65c
100
AcDbEntity
8
0-0
6
CONTINUOUS
62
4
100
AcDbLine
10
589.250000000000
20
419.020000000000
30
0.0
11
592.350000000000
21
420.600000000000
31
0.0
0
LINE
5
65d
100
AcDbEntity
8
0-0
6
CONTINUOUS
62
4
100
AcDbLine
10
589.250000000000
20
422.190000000000
30
0.0
11
592.350000000000
21
423.780000000000
31
0.0
0
LINE
5
65e
100
AcDbEntity
8
0-0
6
CONTINUOUS
62
4
100
AcDbLine
10
593.200000000000
20
424.270000000000
30
0.0
11
588.400000000000
21
422.680000000000
31
0.0
0
LINE
5
65f
100
AcDbEntity
8
0-0
6
CONTINUOUS
62
4
100
AcDbLine
10
589.250000000000
20
423.170000000000
30
0.0
11
592.350000000000
21
424.760000000000
31
0.0
0
LINE
5
660
100
AcDbEntity
8
0-0
6
CONTINUOUS
62
4
100
AcDbLine
10
592.350000000000
20
418.560000000000
30
0.0
11
592.210000000000
21
417.960000000000
31
0.0
0
LINE
5
661
100
AcDbEntity
8
0-0
6
CONTINUOUS
62
4
100
AcDbLine
10
589.250000000000
20
418.560000000000
30
0.0
11
589.650000000000
21
416.820000000000
31
0.0
0
LINE
5
662
100
AcDbEntity
8
0-0
6
CONTINUOUS
62
4
100
AcDbLine
10
589.780000000000
20
416.250000000000
30
0.0
11
589.220000000000
21
416.420000000000
31
0.0
0
LINE
5
663
100
AcDbEntity
8
0-0
6
CONTINUOUS
62
4
100
AcDbLine
10
589.650000000000
20
416.820000000000
30
0.0
11
589.220000000000
21
416.420000000000
31
0.0
0
LINE
5
664
100
AcDbEntity
8
0-0
6
CONTINUOUS
62
4
100
AcDbLine
10
589.250000000000
20
418.560000000000
30
0.0
11
589.250000000000
21
419.020000000000
31
0.0
0
LINE
5
665
100
AcDbEntity
8
0-0
6
CONTINUOUS
62
4
100
AcDbLine
10
592.050000000000
20
417.280000000000
30
0.0
11
592.720000000000
21
417.660000000000
31
0.0
0
LINE
5
666
100
AcDbEntity
8
0-0
6
CONTINUOUS
62
4
100
AcDbLine
10
592.210000000000
20
417.960000000000
30
0.0
11
592.720000000000
21
417.660000000000
31
0.0
0
LINE
5
667
100
AcDbEntity
8
0-0
6
CONTINUOUS
62
4
100
AcDbLine
10
592.350000000000
20
418.560000000000
30
0.0
11
592.350000000000
21
420.600000000000
31
0.0
0
LINE
5
668
100
AcDbEntity
8
0-0
6
CONTINUOUS
62
4
100
AcDbLine
10
591.440000000000
20
414.640000000000
30
0.0
11
591.870000000000
21
414.390000000000
31
0.0
0
LINE
5
669
100
AcDbEntity
8
0-0
6
CONTINUOUS
62
4
100
AcDbLine
10
592.050000000000
20
417.280000000000
30
0.0
11
591.440000000000
21
414.640000000000
31
0.0
0
LINE
5
66a
100
AcDbEntity
8
0-0
6
CONTINUOUS
62
4
100
AcDbLine
10
592.050000000000
20
417.280000000000
30
0.0
11
589.780000000000
21
416.250000000000
31
0.0
0
LINE
5
66b
100
AcDbEntity
8
0-0
6
CONTINUOUS
62
4
100
AcDbLine
10
589.650000000000
20
416.820000000000
30
0.0
11
592.210000000000
21
417.960000000000
31
0.0
0
LINE
5
66c
100
AcDbEntity
8
0-0
6
CONTINUOUS
62
4
100
AcDbLine
10
592.720000000000
20
417.660000000000
30
0.0
11
589.220000000000
21
416.420000000000
31
0.0
0
LINE
5
66d
100
AcDbEntity
8
0-0
6
CONTINUOUS
62
4
100
AcDbLine
10
592.350000000000
20
426.950000000000
30
0.0
11
593.200000000000
21
427.440000000000
31
0.0
0
LINE
5
66e
100
AcDbEntity
8
0-0
6
CONTINUOUS
62
4
100
AcDbLine
10
592.350000000000
20
427.940000000000
30
0.0
11
593.200000000000
21
427.440000000000
31
0.0
0
LINE
5
66f
100
AcDbEntity
8
0-0
6
CONTINUOUS
62
4
100
AcDbLine
10
592.350000000000
20
426.950000000000
30
0.0
11
592.350000000000
21
424.760000000000
31
0.0
0
LINE
5
670
100
AcDbEntity
8
0-0
6
CONTINUOUS
62
4
100
AcDbLine
10
589.250000000000
20
425.370000000000
30
0.0
11
592.350000000000
21
426.950000000000
31
0.0
0
LINE
5
671
100
AcDbEntity
8
0-0
6
CONTINUOUS
62
4
100
AcDbLine
10
593.200000000000
20
427.440000000000
30
0.0
11
588.400000000000
21
425.860000000000
31
0.0
0
LINE
5
672
100
AcDbEntity
8
0-0
6
CONTINUOUS
62
4
100
AcDbLine
10
589.250000000000
20
426.350000000000
30
0.0
11
592.350000000000
21
427.940000000000
31
0.0
0
LINE
5
673
100
AcDbEntity
8
0-0
6
CONTINUOUS
62
4
100
AcDbLine
10
589.250000000000
20
425.370000000000
30
0.0
11
588.400000000000
21
425.860000000000
31
0.0
0
LINE
5
674
100
AcDbEntity
8
0-0
6
CONTINUOUS
62
4
100
AcDbLine
10
589.250000000000
20
426.350000000000
30
0.0
11
588.400000000000
21
425.860000000000
31
0.0
0
LINE
5
675
100
AcDbEntity
8
0-0
6
CONTINUOUS
62
4
100
AcDbLine
10
589.250000000000
20
425.370000000000
30
0.0
11
589.250000000000
21
423.170000000000
31
0.0
0
LINE
5
676
100
AcDbEntity
8
0-0
6
CONTINUOUS
62
4
100
AcDbLine
10
592.350000000000
20
430.130000000000
30
0.0
11
593.200000000000
21
430.620000000000
31
0.0
0
LINE
5
677
100
AcDbEntity
8
0-0
6
CONTINUOUS
62
4
100
AcDbLine
10
592.350000000000
20
431.110000000000
30
0.0
11
593.200000000000
21
430.620000000000
31
0.0
0
LINE
5
678
100
AcDbEntity
8
0-0
6
CONTINUOUS
62
4
100
AcDbLine
10
592.350000000000
20
430.130000000000
30
0.0
11
592.350000000000
21
427.940000000000
31
0.0
0
LINE
5
679
100
AcDbEntity
8
0-0
6
CONTINUOUS
62
4
100
AcDbLine
10
589.250000000000
20
428.540000000000
30
0.0
11
592.350000000000
21
430.130000000000
31
0.0
0
LINE
5
67a
100
AcDbEntity
8
0-0
6
CONTINUOUS
62
4
100
AcDbLine
10
593.200000000000
20
430.620000000000
30
0.0
11
588.400000000000
21
429.030000000000
31
0.0
0
LINE
5
67b
100
AcDbEntity
8
0-0
6
CONTINUOUS
62
4
100
AcDbLine
10
589.250000000000
20
429.520000000000
30
0.0
11
592.350000000000
21
431.110000000000
31
0.0
0
LINE
5
67c
100
AcDbEntity
8
0-0
6
CONTINUOUS
62
4
100
AcDbLine
10
589.250000000000
20
428.540000000000
30
0.0
11
588.400000000000
21
429.030000000000
31
0.0
0
LINE
5
67d
100
AcDbEntity
8
0-0
6
CONTINUOUS
62
4
100
AcDbLine
10
589.250000000000
20
429.520000000000
30
0.0
11
588.400000000000
21
429.030000000000
31
0.0
0
LINE
5
67e
100
AcDbEntity
8
0-0
6
CONTINUOUS
62
4
100
AcDbLine
10
589.250000000000
20
428.540000000000
30
0.0
11
589.250000000000
21
426.350000000000
31
0.0
0
LINE
5
67f
100
AcDbEntity
8
0-0
6
CONTINUOUS
62
4
100
AcDbLine
10
592.350000000000
20
433.300000000000
30
0.0
11
593.200000000000
21
433.790000000000
31
0.0
0
LINE
5
680
100
AcDbEntity
8
0-0
6
CONTINUOUS
62
4
100
AcDbLine
10
592.350000000000
20
434.290000000000
30
0.0
11
593.200000000000
21
433.790000000000
31
0.0
0
LINE
5
681
100
AcDbEntity
8
0-0
6
CONTINUOUS
62
4
100
AcDbLine
10
592.350000000000
20
433.300000000000
30
0.0
11
592.350000000000
21
431.110000000000
31
0.0
0
LINE
5
682
100
AcDbEntity
8
0-0
6
CONTINUOUS
62
4
100
AcDbLine
10
589.250000000000
20
431.720000000000
30
0.0
11
592.350000000000
21
433.300000000000
31
0.0
0
LINE
5
683
100
AcDbEntity
8
0-0
6
CONTINUOUS
62
4
100
AcDbLine
10
593.200000000000
20
433.790000000000
30
0.0
11
588.400000000000
21
432.210000000000
31
0.0
0
LINE
5
684
100
AcDbEntity
8
0-0
6
CONTINUOUS
62
4
100
AcDbLine
10
589.250000000000
20
432.700000000000
30
0.0
11
592.350000000000
21
434.290000000000
31
0.0
0
LINE
5
685
100
AcDbEntity
8
0-0
6
CONTINUOUS
62
4
100
AcDbLine
10
589.250000000000
20
431.720000000000
30
0.0
11
588.400000000000
21
432.210000000000
31
0.0
0
LINE
5
686
100
AcDbEntity
8
0-0
6
CONTINUOUS
62
4
100
AcDbLine
10
589.250000000000
20
432.700000000000
30
0.0
11
588.400000000000
21
432.210000000000
31
0.0
0
LINE
5
687
100
AcDbEntity
8
0-0
6
CONTINUOUS
62
4
100
AcDbLine
10
589.250000000000
20
431.720000000000
30
0.0
11
589.250000000000
21
429.520000000000
31
0.0
0
LINE
5
688
100
AcDbEntity
8
0-0
6
CONTINUOUS
62
4
100
AcDbLine
10
592.350000000000
20
436.480000000000
30
0.0
11
593.200000000000
21
436.970000000000
31
0.0
0
LINE
5
689
100
AcDbEntity
8
0-0
6
CONTINUOUS
62
4
100
AcDbLine
10
592.350000000000
20
437.460000000000
30
0.0
11
593.200000000000
21
436.970000000000
31
0.0
0
LINE
5
68a
100
AcDbEntity
8
0-0
6
CONTINUOUS
62
4
100
AcDbLine
10
592.350000000000
20
436.480000000000
30
0.0
11
592.350000000000
21
434.290000000000
31
0.0
0
LINE
5
68b
100
AcDbEntity
8
0-0
6
CONTINUOUS
62
4
100
AcDbLine
10
589.250000000000
20
434.890000000000
30
0.0
11
592.350000000000
21
436.480000000000
31
0.0
0
LINE
5
68c
100
AcDbEntity
8
0-0
6
CONTINUOUS
62
4
100
AcDbLine
10
593.200000000000
20
436.970000000000
30
0.0
11
588.400000000000
21
435.380000000000
31
0.0
0
LINE
5
68d
100
AcDbEntity
8
0-0
6
CONTINUOUS
62
4
100
AcDbLine
10
589.250000000000
20
435.870000000000
30
0.0
11
592.350000000000
21
437.460000000000
31
0.0
0
LINE
5
68e
100
AcDbEntity
8
0-0
6
CONTINUOUS
62
4
100
AcDbLine
10
589.250000000000
20
434.890000000000
30
0.0
11
588.400000000000
21
435.380000000000
31
0.0
0
LINE
5
68f
100
AcDbEntity
8
0-0
6
CONTINUOUS
62
4
100
AcDbLine
10
589.250000000000
20
435.870000000000
30
0.0
11
588.400000000000
21
435.380000000000
31
0.0
0
LINE
5
690
100
AcDbEntity
8
0-0
6
CONTINUOUS
62
4
100
AcDbLine
10
589.250000000000
20
434.890000000000
30
0.0
11
589.250000000000
21
432.700000000000
31
0.0
0
LINE
5
691
100
AcDbEntity
8
0-0
6
CONTINUOUS
62
4
100
AcDbLine
10
592.790000000000
20
439.910000000000
30
0.0
11
592.350000000000
21
439.650000000000
31
0.0
0
LINE
5
692
100
AcDbEntity
8
0-0
6
CONTINUOUS
62
4
100
AcDbLine
10
592.790000000000
20
440.380000000000
30
0.0
11
592.350000000000
21
440.640000000000
31
0.0
0
LINE
5
693
100
AcDbEntity
8
0-0
6
CONTINUOUS
62
4
100
AcDbLine
10
592.350000000000
20
439.650000000000
30
0.0
11
592.350000000000
21
437.460000000000
31
0.0
0
LINE
5
694
100
AcDbEntity
8
0-0
6
CONTINUOUS
62
4
100
AcDbLine
10
589.250000000000
20
438.070000000000
30
0.0
11
592.350000000000
21
439.650000000000
31
0.0
0
LINE
5
695
100
AcDbEntity
8
0-0
6
CONTINUOUS
62
4
100
AcDbLine
10
589.250000000000
20
439.050000000000
30
0.0
11
592.350000000000
21
440.640000000000
31
0.0
0
LINE
5
696
100
AcDbEntity
8
0-0
6
CONTINUOUS
62
4
100
AcDbLine
10
588.660000000000
20
438.400000000000
30
0.0
11
589.250000000000
21
438.070000000000
31
0.0
0
LINE
5
697
100
AcDbEntity
8
0-0
6
CONTINUOUS
62
4
100
AcDbLine
10
588.660000000000
20
438.710000000000
30
0.0
11
589.250000000000
21
439.050000000000
31
0.0
0
LINE
5
698
100
AcDbEntity
8
0-0
6
CONTINUOUS
62
4
100
AcDbLine
10
589.250000000000
20
438.070000000000
30
0.0
11
589.250000000000
21
435.870000000000
31
0.0
0
LINE
5
699
100
AcDbEntity
8
0-0
6
CONTINUOUS
62
4
100
AcDbLine
10
592.480000000000
20
440.850000000000
30
0.0
11
592.350000000000
21
440.640000000000
31
0.0
0
LINE
5
69a
100
AcDbEntity
8
0-0
6
CONTINUOUS
62
4
100
AcDbLine
10
589.120000000000
20
440.850000000000
30
0.0
11
589.250000000000
21
439.050000000000
31
0.0
0
LINE
5
69b
100
AcDbEntity
8
0-0
6
CONTINUOUS
62
4
100
AcDbLine
10
588.660000000000
20
438.710000000000
30
0.0
11
588.660000000000
21
438.400000000000
31
0.0
0
LINE
5
69c
100
AcDbEntity
8
0-0
6
CONTINUOUS
62
4
100
AcDbLine
10
592.790000000000
20
440.380000000000
30
0.0
11
592.790000000000
21
439.910000000000
31
0.0
0
LINE
5
69d
100
AcDbEntity
8
0-0
6
CONTINUOUS
62
4
100
AcDbLine
10
592.790000000000
20
439.910000000000
30
0.0
11
588.660000000000
21
438.400000000000
31
0.0
0
LINE
5
69e
100
AcDbEntity
8
0-0
6
CONTINUOUS
62
4
100
AcDbLine
10
588.660000000000
20
438.710000000000
30
0.0
11
592.790000000000
21
440.380000000000
31
0.0
0
LINE
5
69f
100
AcDbEntity
8
0-0
6
DOT
62
4
100
AcDbLine
10
592.850000000000
20
444.750000000000
30
0.0
11
591.950000000000
21
442.930000000000
31
0.0
0
LINE
5
6a0
100
AcDbEntity
8
0-0
6
DOT
62
4
100
AcDbLine
10
591.950000000000
20
442.930000000000
30
0.0
11
590.800000000000
21
442.320000000000
31
0.0
0
LINE
5
6a1
100
AcDbEntity
8
0-0
6
DOT
62
4
100
AcDbLine
10
590.800000000000
20
442.320000000000
30
0.0
11
589.650000000000
21
442.930000000000
31
0.0
0
LINE
5
6a2
100
AcDbEntity
8
0-0
6
DOT
62
4
100
AcDbLine
10
588.750000000000
20
444.750000000000
30
0.0
11
589.650000000000
21
442.930000000000
31
0.0
0
LINE
5
6a3
100
AcDbEntity
8
0-0
6
CONTINUOUS
62
4
100
AcDbLine
10
591.440000000000
20
414.640000000000
30
0.0
11
590.570000000000
21
412.850000000000
31
0.0
0
LINE
5
6a4
100
AcDbEntity
8
0-0
6
CONTINUOUS
62
4
100
AcDbLine
10
591.870000000000
20
414.390000000000
30
0.0
11
590.570000000000
21
412.850000000000
31
0.0
0
LINE
5
6a5
100
AcDbEntity
8
0-0
6
CONTINUOUS
62
4
100
AcDbLine
10
589.780000000000
20
416.250000000000
30
0.0
11
590.800000000000
21
411.850000000000
31
0.0
0
LINE
5
6a6
100
AcDbEntity
8
0-0
6
CENTER2
62
4
100
AcDbLine
10
590.800000000000
20
444.750000000000
30
0.0
11
590.800000000000
21
411.850000000000
31
0.0
0
LINE
5
6a7
100
AcDbEntity
8
0-0
6
CONTINUOUS
62
4
100
AcDbLine
10
591.210000000000
20
413.610000000000
30
0.0
11
590.800000000000
21
411.850000000000
31
0.0
0
LINE
5
6a8
100
AcDbEntity
8
0-0
6
CONTINUOUS
62
4
100
AcDbLine
10
736.800000000000
20
444.750000000000
30
0.0
11
744.800000000000
21
444.750000000000
31
0.0
0
LINE
5
6a9
100
AcDbEntity
8
0-0
6
CONTINUOUS
62
4
100
AcDbLine
10
745.050000000000
20
444.100000000000
30
0.0
11
745.050000000000
21
444.500000000000
31
0.0
0
LINE
5
6aa
100
AcDbEntity
8
0-0
6
CONTINUOUS
62
4
100
AcDbLine
10
736.550000000000
20
444.100000000000
30
0.0
11
736.550000000000
21
444.500000000000
31
0.0
0
LINE
5
6ab
100
AcDbEntity
8
0-0
6
CONTINUOUS
62
4
100
AcDbLine
10
736.800000000000
20
443.850000000000
30
0.0
11
744.800000000000
21
443.850000000000
31
0.0
0
LINE
5
6ac
100
AcDbEntity
8
0-0
6
CONTINUOUS
62
4
100
AcDbLine
10
739.110000000000
20
442.350000000000
30
0.0
11
742.480000000000
21
442.350000000000
31
0.0
0
LINE
5
6ad
100
AcDbEntity
8
0-0
6
CONTINUOUS
62
4
100
AcDbLine
10
742.480000000000
20
440.850000000000
30
0.0
11
742.480000000000
21
442.350000000000
31
0.0
0
LINE
5
6ae
100
AcDbEntity
8
0-0
6
CONTINUOUS
62
4
100
AcDbLine
10
739.110000000000
20
440.850000000000
30
0.0
11
739.110000000000
21
442.350000000000
31
0.0
0
LINE
5
6af
100
AcDbEntity
8
0-0
6
CONTINUOUS
62
4
100
AcDbLine
10
743.050000000000
20
443.850000000000
30
0.0
11
742.480000000000
21
442.350000000000
31
0.0
0
LINE
5
6b0
100
AcDbEntity
8
0-0
6
CONTINUOUS
62
4
100
AcDbLine
10
738.550000000000
20
443.850000000000
30
0.0
11
739.110000000000
21
442.350000000000
31
0.0
0
LINE
5
6b1
100
AcDbEntity
8
0-0
6
CONTINUOUS
62
4
100
AcDbLine
10
739.110000000000
20
440.850000000000
30
0.0
11
742.480000000000
21
440.850000000000
31
0.0
0
LINE
5
6b2
100
AcDbEntity
8
0-0
6
CONTINUOUS
62
4
100
AcDbLine
10
739.250000000000
20
422.190000000000
30
0.0
11
738.400000000000
21
422.680000000000
31
0.0
0
LINE
5
6b3
100
AcDbEntity
8
0-0
6
CONTINUOUS
62
4
100
AcDbLine
10
739.250000000000
20
423.170000000000
30
0.0
11
738.400000000000
21
422.680000000000
31
0.0
0
LINE
5
6b4
100
AcDbEntity
8
0-0
6
CONTINUOUS
62
4
100
AcDbLine
10
739.250000000000
20
419.020000000000
30
0.0
11
738.400000000000
21
419.510000000000
31
0.0
0
LINE
5
6b5
100
AcDbEntity
8
0-0
6
CONTINUOUS
62
4
100
AcDbLine
10
739.250000000000
20
420.000000000000
30
0.0
11
738.400000000000
21
419.510000000000
31
0.0
0
LINE
5
6b6
100
AcDbEntity
8
0-0
6
CONTINUOUS
62
4
100
AcDbLine
10
742.350000000000
20
423.780000000000
30
0.0
11
743.200000000000
21
424.270000000000
31
0.0
0
LINE
5
6b7
100
AcDbEntity
8
0-0
6
CONTINUOUS
62
4
100
AcDbLine
10
742.350000000000
20
424.760000000000
30
0.0
11
743.200000000000
21
424.270000000000
31
0.0
0
LINE
5
6b8
100
AcDbEntity
8
0-0
6
CONTINUOUS
62
4
100
AcDbLine
10
742.350000000000
20
420.600000000000
30
0.0
11
743.200000000000
21
421.090000000000
31
0.0
0
LINE
5
6b9
100
AcDbEntity
8
0-0
6
CONTINUOUS
62
4
100
AcDbLine
10
742.350000000000
20
421.590000000000
30
0.0
11
743.200000000000
21
421.090000000000
31
0.0
0
LINE
5
6ba
100
AcDbEntity
8
0-0
6
CONTINUOUS
62
4
100
AcDbLine
10
742.350000000000
20
423.780000000000
30
0.0
11
742.350000000000
21
421.590000000000
31
0.0
0
LINE
5
6bb
100
AcDbEntity
8
0-0
6
CONTINUOUS
62
4
100
AcDbLine
10
739.250000000000
20
422.190000000000
30
0.0
11
739.250000000000
21
420.000000000000
31
0.0
0
LINE
5
6bc
100
AcDbEntity
8
0-0
6
CONTINUOUS
62
4
100
AcDbLine
10
739.250000000000
20
420.000000000000
30
0.0
11
742.350000000000
21
421.590000000000
31
0.0
0
LINE
5
6bd
100
AcDbEntity
8
0-0
6
CONTINUOUS
62
4
100
AcDbLine
10
743.200000000000
20
421.090000000000
30
0.0
11
738.400000000000
21
419.510000000000
31
0.0
0
LINE
5
6be
100
AcDbEntity
8
0-0
6
CONTINUOUS
62
4
100
AcDbLine
10
739.250000000000
20
419.020000000000
30
0.0
11
742.350000000000
21
420.600000000000
31
0.0
0
LINE
5
6bf
100
AcDbEntity
8
0-0
6
CONTINUOUS
62
4
100
AcDbLine
10
739.250000000000
20
422.190000000000
30
0.0
11
742.350000000000
21
423.780000000000
31
0.0
0
LINE
5
6c0
100
AcDbEntity
8
0-0
6
CONTINUOUS
62
4
100
AcDbLine
10
743.200000000000
20
424.270000000000
30
0.0
11
738.400000000000
21
422.680000000000
31
0.0
0
LINE
5
6c1
100
AcDbEntity
8
0-0
6
CONTINUOUS
62
4
100
AcDbLine
10
739.250000000000
20
423.170000000000
30
0.0
11
742.350000000000
21
424.760000000000
31
0.0
0
LINE
5
6c2
100
AcDbEntity
8
0-0
6
CONTINUOUS
62
4
100
AcDbLine
10
742.350000000000
20
418.560000000000
30
0.0
11
742.210000000000
21
417.960000000000
31
0.0
0
LINE
5
6c3
100
AcDbEntity
8
0-0
6
CONTINUOUS
62
4
100
AcDbLine
10
739.250000000000
20
418.560000000000
30
0.0
11
739.650000000000
21
416.820000000000
31
0.0
0
LINE
5
6c4
100
AcDbEntity
8
0-0
6
CONTINUOUS
62
4
100
AcDbLine
10
739.780000000000
20
416.250000000000
30
0.0
11
739.220000000000
21
416.420000000000
31
0.0
0
LINE
5
6c5
100
AcDbEntity
8
0-0
6
CONTINUOUS
62
4
100
AcDbLine
10
739.650000000000
20
416.820000000000
30
0.0
11
739.220000000000
21
416.420000000000
31
0.0
0
LINE
5
6c6
100
AcDbEntity
8
0-0
6
CONTINUOUS
62
4
100
AcDbLine
10
739.250000000000
20
418.560000000000
30
0.0
11
739.250000000000
21
419.020000000000
31
0.0
0
LINE
5
6c7
100
AcDbEntity
8
0-0
6
CONTINUOUS
62
4
100
AcDbLine
10
742.050000000000
20
417.280000000000
30
0.0
11
742.720000000000
21
417.660000000000
31
0.0
0
LINE
5
6c8
100
AcDbEntity
8
0-0
6
CONTINUOUS
62
4
100
AcDbLine
10
742.210000000000
20
417.960000000000
30
0.0
11
742.720000000000
21
417.660000000000
31
0.0
0
LINE
5
6c9
100
AcDbEntity
8
0-0
6
CONTINUOUS
62
4
100
AcDbLine
10
742.350000000000
20
418.560000000000
30
0.0
11
742.350000000000
21
420.600000000000
31
0.0
0
LINE
5
6ca
100
AcDbEntity
8
0-0
6
CONTINUOUS
62
4
100
AcDbLine
10
741.440000000000
20
414.640000000000
30
0.0
11
741.870000000000
21
414.390000000000
31
0.0
0
LINE
5
6cb
100
AcDbEntity
8
0-0
6
CONTINUOUS
62
4
100
AcDbLine
10
742.050000000000
20
417.280000000000
30
0.0
11
741.440000000000
21
414.640000000000
31
0.0
0
LINE
5
6cc
100
AcDbEntity
8
0-0
6
CONTINUOUS
62
4
100
AcDbLine
10
742.050000000000
20
417.280000000000
30
0.0
11
739.780000000000
21
416.250000000000
31
0.0
0
LINE
5
6cd
100
AcDbEntity
8
0-0
6
CONTINUOUS
62
4
100
AcDbLine
10
739.650000000000
20
416.820000000000
30
0.0
11
742.210000000000
21
417.960000000000
31
0.0
0
LINE
5
6ce
100
AcDbEntity
8
0-0
6
CONTINUOUS
62
4
100
AcDbLine
10
742.720000000000
20
417.660000000000
30
0.0
11
739.220000000000
21
416.420000000000
31
0.0
0
LINE
5
6cf
100
AcDbEntity
8
0-0
6
CONTINUOUS
62
4
100
AcDbLine
10
742.350000000000
20
426.950000000000
30
0.0
11
743.200000000000
21
427.440000000000
31
0.0
0
LINE
5
6d0
100
AcDbEntity
8
0-0
6
CONTINUOUS
62
4
100
AcDbLine
10
742.350000000000
20
427.940000000000
30
0.0
11
743.200000000000
21
427.440000000000
31
0.0
0
LINE
5
6d1
100
AcDbEntity
8
0-0
6
CONTINUOUS
62
4
100
AcDbLine
10
742.350000000000
20
426.950000000000
30
0.0
11
742.350000000000
21
424.760000000000
31
0.0
0
LINE
5
6d2
100
AcDbEntity
8
0-0
6
CONTINUOUS
62
4
100
AcDbLine
10
739.250000000000
20
425.370000000000
30
0.0
11
742.350000000000
21
426.950000000000
31
0.0
0
LINE
5
6d3
100
AcDbEntity
8
0-0
6
CONTINUOUS
62
4
100
AcDbLine
10
743.200000000000
20
427.440000000000
30
0.0
11
738.400000000000
21
425.860000000000
31
0.0
0
LINE
5
6d4
100
AcDbEntity
8
0-0
6
CONTINUOUS
62
4
100
AcDbLine
10
739.250000000000
20
426.350000000000
30
0.0
11
742.350000000000
21
427.940000000000
31
0.0
0
LINE
5
6d5
100
AcDbEntity
8
0-0
6
CONTINUOUS
62
4
100
AcDbLine
10
739.250000000000
20
425.370000000000
30
0.0
11
738.400000000000
21
425.860000000000
31
0.0
0
LINE
5
6d6
100
AcDbEntity
8
0-0
6
CONTINUOUS
62
4
100
AcDbLine
10
739.250000000000
20
426.350000000000
30
0.0
11
738.400000000000
21
425.860000000000
31
0.0
0
LINE
5
6d7
100
AcDbEntity
8
0-0
6
CONTINUOUS
62
4
100
AcDbLine
10
739.250000000000
20
425.370000000000
30
0.0
11
739.250000000000
21
423.170000000000
31
0.0
0
LINE
5
6d8
100
AcDbEntity
8
0-0
6
CONTINUOUS
62
4
100
AcDbLine
10
742.350000000000
20
430.130000000000
30
0.0
11
743.200000000000
21
430.620000000000
31
0.0
0
LINE
5
6d9
100
AcDbEntity
8
0-0
6
CONTINUOUS
62
4
100
AcDbLine
10
742.350000000000
20
431.110000000000
30
0.0
11
743.200000000000
21
430.620000000000
31
0.0
0
LINE
5
6da
100
AcDbEntity
8
0-0
6
CONTINUOUS
62
4
100
AcDbLine
10
742.350000000000
20
430.130000000000
30
0.0
11
742.350000000000
21
427.940000000000
31
0.0
0
LINE
5
6db
100
AcDbEntity
8
0-0
6
CONTINUOUS
62
4
100
AcDbLine
10
739.250000000000
20
428.540000000000
30
0.0
11
742.350000000000
21
430.130000000000
31
0.0
0
LINE
5
6dc
100
AcDbEntity
8
0-0
6
CONTINUOUS
62
4
100
AcDbLine
10
743.200000000000
20
430.620000000000
30
0.0
11
738.400000000000
21
429.030000000000
31
0.0
0
LINE
5
6dd
100
AcDbEntity
8
0-0
6
CONTINUOUS
62
4
100
AcDbLine
10
739.250000000000
20
429.520000000000
30
0.0
11
742.350000000000
21
431.110000000000
31
0.0
0
LINE
5
6de
100
AcDbEntity
8
0-0
6
CONTINUOUS
62
4
100
AcDbLine
10
739.250000000000
20
428.540000000000
30
0.0
11
738.400000000000
21
429.030000000000
31
0.0
0
LINE
5
6df
100
AcDbEntity
8
0-0
6
CONTINUOUS
62
4
100
AcDbLine
10
739.250000000000
20
429.520000000000
30
0.0
11
738.400000000000
21
429.030000000000
31
0.0
0
LINE
5
6e0
100
AcDbEntity
8
0-0
6
CONTINUOUS
62
4
100
AcDbLine
10
739.250000000000
20
428.540000000000
30
0.0
11
739.250000000000
21
426.350000000000
31
0.0
0
LINE
5
6e1
100
AcDbEntity
8
0-0
6
CONTINUOUS
62
4
100
AcDbLine
10
742.350000000000
20
433.300000000000
30
0.0
11
743.200000000000
21
433.790000000000
31
0.0
0
LINE
5
6e2
100
AcDbEntity
8
0-0
6
CONTINUOUS
62
4
100
AcDbLine
10
742.350000000000
20
434.290000000000
30
0.0
11
743.200000000000
21
433.790000000000
31
0.0
0
LINE
5
6e3
100
AcDbEntity
8
0-0
6
CONTINUOUS
62
4
100
AcDbLine
10
742.350000000000
20
433.300000000000
30
0.0
11
742.350000000000
21
431.110000000000
31
0.0
0
LINE
5
6e4
100
AcDbEntity
8
0-0
6
CONTINUOUS
62
4
100
AcDbLine
10
739.250000000000
20
431.720000000000
30
0.0
11
742.350000000000
21
433.300000000000
31
0.0
0
LINE
5
6e5
100
AcDbEntity
8
0-0
6
CONTINUOUS
62
4
100
AcDbLine
10
743.200000000000
20
433.790000000000
30
0.0
11
738.400000000000
21
432.210000000000
31
0.0
0
LINE
5
6e6
100
AcDbEntity
8
0-0
6
CONTINUOUS
62
4
100
AcDbLine
10
739.250000000000
20
432.700000000000
30
0.0
11
742.350000000000
21
434.290000000000
31
0.0
0
LINE
5
6e7
100
AcDbEntity
8
0-0
6
CONTINUOUS
62
4
100
AcDbLine
10
739.250000000000
20
431.720000000000
30
0.0
11
738.400000000000
21
432.210000000000
31
0.0
0
LINE
5
6e8
100
AcDbEntity
8
0-0
6
CONTINUOUS
62
4
100
AcDbLine
10
739.250000000000
20
432.700000000000
30
0.0
11
738.400000000000
21
432.210000000000
31
0.0
0
LINE
5
6e9
100
AcDbEntity
8
0-0
6
CONTINUOUS
62
4
100
AcDbLine
10
739.250000000000
20
431.720000000000
30
0.0
11
739.250000000000
21
429.520000000000
31
0.0
0
LINE
5
6ea
100
AcDbEntity
8
0-0
6
CONTINUOUS
62
4
100
AcDbLine
10
742.350000000000
20
436.480000000000
30
0.0
11
743.200000000000
21
436.970000000000
31
0.0
0
LINE
5
6eb
100
AcDbEntity
8
0-0
6
CONTINUOUS
62
4
100
AcDbLine
10
742.350000000000
20
437.460000000000
30
0.0
11
743.200000000000
21
436.970000000000
31
0.0
0
LINE
5
6ec
100
AcDbEntity
8
0-0
6
CONTINUOUS
62
4
100
AcDbLine
10
742.350000000000
20
436.480000000000
30
0.0
11
742.350000000000
21
434.290000000000
31
0.0
0
LINE
5
6ed
100
AcDbEntity
8
0-0
6
CONTINUOUS
62
4
100
AcDbLine
10
739.250000000000
20
434.890000000000
30
0.0
11
742.350000000000
21
436.480000000000
31
0.0
0
LINE
5
6ee
100
AcDbEntity
8
0-0
6
CONTINUOUS
62
4
100
AcDbLine
10
743.200000000000
20
436.970000000000
30
0.0
11
738.400000000000
21
435.380000000000
31
0.0
0
LINE
5
6ef
100
AcDbEntity
8
0-0
6
CONTINUOUS
62
4
100
AcDbLine
10
739.250000000000
20
435.870000000000
30
0.0
11
742.350000000000
21
437.460000000000
31
0.0
0
LINE
5
6f0
100
AcDbEntity
8
0-0
6
CONTINUOUS
62
4
100
AcDbLine
10
739.250000000000
20
434.890000000000
30
0.0
11
738.400000000000
21
435.380000000000
31
0.0
0
LINE
5
6f1
100
AcDbEntity
8
0-0
6
CONTINUOUS
62
4
100
AcDbLine
10
739.250000000000
20
435.870000000000
30
0.0
11
738.400000000000
21
435.380000000000
31
0.0
0
LINE
5
6f2
100
AcDbEntity
8
0-0
6
CONTINUOUS
62
4
100
AcDbLine
10
739.250000000000
20
434.890000000000
30
0.0
11
739.250000000000
21
432.700000000000
31
0.0
0
LINE
5
6f3
100
AcDbEntity
8
0-0
6
CONTINUOUS
62
4
100
AcDbLine
10
742.790000000000
20
439.910000000000
30
0.0
11
742.350000000000
21
439.650000000000
31
0.0
0
LINE
5
6f4
100
AcDbEntity
8
0-0
6
CONTINUOUS
62
4
100
AcDbLine
10
742.790000000000
20
440.380000000000
30
0.0
11
742.350000000000
21
440.640000000000
31
0.0
0
LINE
5
6f5
100
AcDbEntity
8
0-0
6
CONTINUOUS
62
4
100
AcDbLine
10
742.350000000000
20
439.650000000000
30
0.0
11
742.350000000000
21
437.460000000000
31
0.0
0
LINE
5
6f6
100
AcDbEntity
8
0-0
6
CONTINUOUS
62
4
100
AcDbLine
10
739.250000000000
20
438.070000000000
30
0.0
11
742.350000000000
21
439.650000000000
31
0.0
0
LINE
5
6f7
100
AcDbEntity
8
0-0
6
CONTINUOUS
62
4
100
AcDbLine
10
739.250000000000
20
439.050000000000
30
0.0
11
742.350000000000
21
440.640000000000
31
0.0
0
LINE
5
6f8
100
AcDbEntity
8
0-0
6
CONTINUOUS
62
4
100
AcDbLine
10
738.660000000000
20
438.400000000000
30
0.0
11
739.250000000000
21
438.070000000000
31
0.0
0
LINE
5
6f9
100
AcDbEntity
8
0-0
6
CONTINUOUS
62
4
100
AcDbLine
10
738.660000000000
20
438.710000000000
30
0.0
11
739.250000000000
21
439.050000000000
31
0.0
0
LINE
5
6fa
100
AcDbEntity
8
0-0
6
CONTINUOUS
62
4
100
AcDbLine
10
739.250000000000
20
438.070000000000
30
0.0
11
739.250000000000
21
435.870000000000
31
0.0
0
LINE
5
6fb
100
AcDbEntity
8
0-0
6
CONTINUOUS
62
4
100
AcDbLine
10
742.480000000000
20
440.850000000000
30
0.0
11
742.350000000000
21
440.640000000000
31
0.0
0
LINE
5
6fc
100
AcDbEntity
8
0-0
6
CONTINUOUS
62
4
100
AcDbLine
10
739.110000000000
20
440.850000000000
30
0.0
11
739.250000000000
21
439.050000000000
31
0.0
0
LINE
5
6fd
100
AcDbEntity
8
0-0
6
CONTINUOUS
62
4
100
AcDbLine
10
738.660000000000
20
438.710000000000
30
0.0
11
738.660000000000
21
438.400000000000
31
0.0
0
LINE
5
6fe
100
AcDbEntity
8
0-0
6
CONTINUOUS
62
4
100
AcDbLine
10
742.790000000000
20
440.380000000000
30
0.0
11
742.790000000000
21
439.910000000000
31
0.0
0
LINE
5
6ff
100
AcDbEntity
8
0-0
6
CONTINUOUS
62
4
100
AcDbLine
10
742.790000000000
20
439.910000000000
30
0.0
11
738.660000000000
21
438.400000000000
31
0.0
0
LINE
5
700
100
AcDbEntity
8
0-0
6
CONTINUOUS
62
4
100
AcDbLine
10
738.660000000000
20
438.710000000000
30
0.0
11
742.790000000000
21
440.380000000000
31
0.0
0
LINE
5
701
100
AcDbEntity
8
0-0
6
DOT
62
4
100
AcDbLine
10
742.850000000000
20
444.750000000000
30
0.0
11
741.940000000000
21
442.930000000000
31
0.0
0
LINE
5
702
100
AcDbEntity
8
0-0
6
DOT
62
4
100
AcDbLine
10
741.940000000000
20
442.930000000000
30
0.0
11
740.800000000000
21
442.320000000000
31
0.0
0
LINE
5
703
100
AcDbEntity
8
0-0
6
DOT
62
4
100
AcDbLine
10
740.800000000000
20
442.320000000000
30
0.0
11
739.650000000000
21
442.930000000000
31
0.0
0
LINE
5
704
100
AcDbEntity
8
0-0
6
DOT
62
4
100
AcDbLine
10
738.750000000000
20
444.750000000000
30
0.0
11
739.650000000000
21
442.930000000000
31
0.0
0
LINE
5
705
100
AcDbEntity
8
0-0
6
CONTINUOUS
62
4
100
AcDbLine
10
741.440000000000
20
414.640000000000
30
0.0
11
740.570000000000
21
412.850000000000
31
0.0
0
LINE
5
706
100
AcDbEntity
8
0-0
6
CONTINUOUS
62
4
100
AcDbLine
10
741.870000000000
20
414.390000000000
30
0.0
11
740.570000000000
21
412.850000000000
31
0.0
0
LINE
5
707
100
AcDbEntity
8
0-0
6
CONTINUOUS
62
4
100
AcDbLine
10
739.780000000000
20
416.250000000000
30
0.0
11
740.800000000000
21
411.850000000000
31
0.0
0
LINE
5
708
100
AcDbEntity
8
0-0
6
CENTER2
62
4
100
AcDbLine
10
740.800000000000
20
444.750000000000
30
0.0
11
740.800000000000
21
411.850000000000
31
0.0
0
LINE
5
709
100
AcDbEntity
8
0-0
6
CONTINUOUS
62
4
100
AcDbLine
10
741.210000000000
20
413.610000000000
30
0.0
11
740.800000000000
21
411.850000000000
31
0.0
0
LINE
5
70a
100
AcDbEntity
8
0-0
6
CONTINUOUS
62
3
100
AcDbLine
10
292.690000000000
20
443.850000000000
30
0.0
11
292.660000000000
21
444.250000000000
31
0.0
0
LINE
5
70b
100
AcDbEntity
8
0-0
6
CONTINUOUS
62
3
100
AcDbLine
10
299.040000000000
20
444.650000000000
30
0.0
11
292.660000000000
21
444.250000000000
31
0.0
0
LINE
5
70c
100
AcDbEntity
8
0-0
6
CONTINUOUS
62
3
100
AcDbLine
10
299.060000000000
20
444.250000000000
30
0.0
11
292.690000000000
21
443.850000000000
31
0.0
0
LINE
5
70d
100
AcDbEntity
8
0-0
6
CONTINUOUS
62
3
100
AcDbLine
10
284.460000000000
20
443.850000000000
30
0.0
11
299.060000000000
21
443.850000000000
31
0.0
0
LINE
5
70e
100
AcDbEntity
8
0-0
6
CONTINUOUS
62
3
100
AcDbLine
10
284.380000000000
20
443.450000000000
30
0.0
11
299.060000000000
21
443.450000000000
31
0.0
0
LINE
5
70f
100
AcDbEntity
8
0-0
6
CONTINUOUS
62
3
100
AcDbLine
10
444.520000000000
20
443.850000000000
30
0.0
11
444.500000000000
21
444.250000000000
31
0.0
0
LINE
5
710
100
AcDbEntity
8
0-0
6
CONTINUOUS
62
3
100
AcDbLine
10
450.870000000000
20
444.650000000000
30
0.0
11
444.500000000000
21
444.250000000000
31
0.0
0
LINE
5
711
100
AcDbEntity
8
0-0
6
CONTINUOUS
62
3
100
AcDbLine
10
450.900000000000
20
444.250000000000
30
0.0
11
444.520000000000
21
443.850000000000
31
0.0
0
LINE
5
712
100
AcDbEntity
8
0-0
6
CONTINUOUS
62
3
100
AcDbLine
10
594.520000000000
20
443.850000000000
30
0.0
11
594.500000000000
21
444.250000000000
31
0.0
0
LINE
5
713
100
AcDbEntity
8
0-0
6
CONTINUOUS
62
3
100
AcDbLine
10
600.870000000000
20
444.650000000000
30
0.0
11
594.500000000000
21
444.250000000000
31
0.0
0
LINE
5
714
100
AcDbEntity
8
0-0
6
CONTINUOUS
62
3
100
AcDbLine
10
600.900000000000
20
444.250000000000
30
0.0
11
594.520000000000
21
443.850000000000
31
0.0
0
LINE
5
715
100
AcDbEntity
8
0-0
6
CONTINUOUS
62
3
100
AcDbLine
10
744.520000000000
20
443.850000000000
30
0.0
11
744.500000000000
21
444.250000000000
31
0.0
0
LINE
5
716
100
AcDbEntity
8
0-0
6
CONTINUOUS
62
3
100
AcDbLine
10
750.870000000000
20
444.650000000000
30
0.0
11
744.500000000000
21
444.250000000000
31
0.0
0
LINE
5
717
100
AcDbEntity
8
0-0
6
CONTINUOUS
62
3
100
AcDbLine
10
750.900000000000
20
444.250000000000
30
0.0
11
744.520000000000
21
443.850000000000
31
0.0
0
LINE
5
718
100
AcDbEntity
8
0-0
6
CONTINUOUS
62
3
100
AcDbLine
10
736.300000000000
20
443.850000000000
30
0.0
11
750.900000000000
21
443.850000000000
31
0.0
0
LINE
5
719
100
AcDbEntity
8
0-0
6
CONTINUOUS
62
3
100
AcDbLine
10
736.210000000000
20
443.450000000000
30
0.0
11
750.900000000000
21
443.450000000000
31
0.0
0
LINE
5
71a
100
AcDbEntity
8
0-0
6
CONTINUOUS
62
3
100
AcDbLine
10
586.300000000000
20
443.850000000000
30
0.0
11
600.900000000000
21
443.850000000000
31
0.0
0
LINE
5
71b
100
AcDbEntity
8
0-0
6
CONTINUOUS
62
3
100
AcDbLine
10
586.220000000000
20
443.450000000000
30
0.0
11
600.900000000000
21
443.450000000000
31
0.0
0
LINE
5
71c
100
AcDbEntity
8
0-0
6
CONTINUOUS
62
3
100
AcDbLine
10
436.300000000000
20
443.850000000000
30
0.0
11
450.900000000000
21
443.850000000000
31
0.0
0
LINE
5
71d
100
AcDbEntity
8
0-0
6
CONTINUOUS
62
3
100
AcDbLine
10
436.220000000000
20
443.450000000000
30
0.0
11
450.900000000000
21
443.450000000000
31
0.0
0
LINE
5
71e
100
AcDbEntity
8
0-0
6
CONTINUOUS
62
7
100
AcDbLine
10
389.050000000000
20
427.450000000000
30
0.0
11
779.050000000000
21
427.450000000000
31
0.0
0
LINE
5
71f
100
AcDbEntity
8
0-0
6
DASHED2
62
7
100
AcDbLine
10
389.050000000000
20
430.450000000000
30
0.0
11
779.050000000000
21
430.450000000000
31
0.0
0
LINE
5
720
100
AcDbEntity
8
0-0
6
DASHED2
62
7
100
AcDbLine
10
389.050000000000
20
433.450000000000
30
0.0
11
779.050000000000
21
433.450000000000
31
0.0
0
LINE
5
721
100
AcDbEntity
8
0-0
6
DASHED2
62
7
100
AcDbLine
10
389.050000000000
20
436.450000000000
30
0.0
11
779.050000000000
21
436.450000000000
31
0.0
0
LINE
5
722
100
AcDbEntity
8
0-0
6
DASHED2
62
7
100
AcDbLine
10
389.050000000000
20
439.450000000000
30
0.0
11
779.050000000000
21
439.450000000000
31
0.0
0
LINE
5
723
100
AcDbEntity
8
0-0
6
CONTINUOUS
62
4
100
AcDbLine
10
880.300000000000
20
444.800000000000
30
0.0
11
889.800000000000
21
444.800000000000
31
0.0
0
LINE
5
724
100
AcDbEntity
8
0-0
6
CONTINUOUS
62
4
100
AcDbLine
10
880.300000000000
20
443.850000000000
30
0.0
11
889.800000000000
21
443.850000000000
31
0.0
0
LINE
5
725
100
AcDbEntity
8
0-0
6
CONTINUOUS
62
4
100
AcDbLine
10
890.050000000000
20
444.550000000000
30
0.0
11
890.050000000000
21
444.100000000000
31
0.0
0
LINE
5
726
100
AcDbEntity
8
0-0
6
CONTINUOUS
62
4
100
AcDbLine
10
880.050000000000
20
444.550000000000
30
0.0
11
880.050000000000
21
444.100000000000
31
0.0
0
LINE
5
727
100
AcDbEntity
8
0-0
6
CONTINUOUS
62
4
100
AcDbLine
10
887.410000000000
20
437.580000000000
30
0.0
11
886.800000000000
21
437.230000000000
31
0.0
0
LINE
5
728
100
AcDbEntity
8
0-0
6
CONTINUOUS
62
4
100
AcDbLine
10
887.410000000000
20
437.580000000000
30
0.0
11
886.800000000000
21
437.930000000000
31
0.0
0
LINE
5
729
100
AcDbEntity
8
0-0
6
CONTINUOUS
62
4
100
AcDbLine
10
887.410000000000
20
437.580000000000
30
0.0
11
882.700000000000
21
436.790000000000
31
0.0
0
LINE
5
72a
100
AcDbEntity
8
0-0
6
CONTINUOUS
62
4
100
AcDbLine
10
883.300000000000
20
437.140000000000
30
0.0
11
886.800000000000
21
437.930000000000
31
0.0
0
LINE
5
72b
100
AcDbEntity
8
0-0
6
CONTINUOUS
62
4
100
AcDbLine
10
883.300000000000
20
436.440000000000
30
0.0
11
886.800000000000
21
437.230000000000
31
0.0
0
LINE
5
72c
100
AcDbEntity
8
0-0
6
CONTINUOUS
62
4
100
AcDbLine
10
882.700000000000
20
436.790000000000
30
0.0
11
883.300000000000
21
437.140000000000
31
0.0
0
LINE
5
72d
100
AcDbEntity
8
0-0
6
CONTINUOUS
62
4
100
AcDbLine
10
882.700000000000
20
436.790000000000
30
0.0
11
883.300000000000
21
436.440000000000
31
0.0
0
LINE
5
72e
100
AcDbEntity
8
0-0
6
CONTINUOUS
62
4
100
AcDbLine
10
887.410000000000
20
439.170000000000
30
0.0
11
886.800000000000
21
438.820000000000
31
0.0
0
LINE
5
72f
100
AcDbEntity
8
0-0
6
CONTINUOUS
62
4
100
AcDbLine
10
887.410000000000
20
439.170000000000
30
0.0
11
886.800000000000
21
439.520000000000
31
0.0
0
LINE
5
730
100
AcDbEntity
8
0-0
6
CONTINUOUS
62
4
100
AcDbLine
10
887.410000000000
20
439.170000000000
30
0.0
11
882.700000000000
21
438.380000000000
31
0.0
0
LINE
5
731
100
AcDbEntity
8
0-0
6
CONTINUOUS
62
4
100
AcDbLine
10
883.300000000000
20
438.720000000000
30
0.0
11
886.800000000000
21
439.520000000000
31
0.0
0
LINE
5
732
100
AcDbEntity
8
0-0
6
CONTINUOUS
62
4
100
AcDbLine
10
883.300000000000
20
438.030000000000
30
0.0
11
886.800000000000
21
438.820000000000
31
0.0
0
LINE
5
733
100
AcDbEntity
8
0-0
6
CONTINUOUS
62
4
100
AcDbLine
10
886.800000000000
20
438.820000000000
30
0.0
11
886.800000000000
21
437.930000000000
31
0.0
0
LINE
5
734
100
AcDbEntity
8
0-0
6
CONTINUOUS
62
4
100
AcDbLine
10
882.700000000000
20
438.380000000000
30
0.0
11
883.300000000000
21
438.720000000000
31
0.0
0
LINE
5
735
100
AcDbEntity
8
0-0
6
CONTINUOUS
62
4
100
AcDbLine
10
882.700000000000
20
438.380000000000
30
0.0
11
883.300000000000
21
438.030000000000
31
0.0
0
LINE
5
736
100
AcDbEntity
8
0-0
6
CONTINUOUS
62
4
100
AcDbLine
10
883.300000000000
20
438.030000000000
30
0.0
11
883.300000000000
21
437.140000000000
31
0.0
0
LINE
5
737
100
AcDbEntity
8
0-0
6
CONTINUOUS
62
4
100
AcDbLine
10
887.410000000000
20
440.760000000000
30
0.0
11
886.800000000000
21
440.410000000000
31
0.0
0
LINE
5
738
100
AcDbEntity
8
0-0
6
CONTINUOUS
62
4
100
AcDbLine
10
886.840000000000
20
441.080000000000
30
0.0
11
887.410000000000
21
440.760000000000
31
0.0
0
LINE
5
739
100
AcDbEntity
8
0-0
6
CONTINUOUS
62
4
100
AcDbLine
10
886.800000000000
20
440.410000000000
30
0.0
11
886.800000000000
21
439.520000000000
31
0.0
0
LINE
5
73a
100
AcDbEntity
8
0-0
6
CONTINUOUS
62
4
100
AcDbLine
10
882.700000000000
20
439.960000000000
30
0.0
11
883.300000000000
21
440.310000000000
31
0.0
0
LINE
5
73b
100
AcDbEntity
8
0-0
6
CONTINUOUS
62
4
100
AcDbLine
10
882.700000000000
20
439.960000000000
30
0.0
11
883.300000000000
21
439.610000000000
31
0.0
0
LINE
5
73c
100
AcDbEntity
8
0-0
6
CONTINUOUS
62
4
100
AcDbLine
10
883.300000000000
20
439.610000000000
30
0.0
11
883.300000000000
21
438.720000000000
31
0.0
0
LINE
5
73d
100
AcDbEntity
8
0-0
6
CONTINUOUS
62
4
100
AcDbLine
10
887.310000000000
20
442.190000000000
30
0.0
11
887.020000000000
21
442.030000000000
31
0.0
0
LINE
5
73e
100
AcDbEntity
8
0-0
6
CONTINUOUS
62
4
100
AcDbLine
10
887.310000000000
20
442.490000000000
30
0.0
11
887.120000000000
21
442.600000000000
31
0.0
0
LINE
5
73f
100
AcDbEntity
8
0-0
6
CONTINUOUS
62
4
100
AcDbLine
10
883.130000000000
20
441.800000000000
30
0.0
11
882.850000000000
21
441.640000000000
31
0.0
0
LINE
5
740
100
AcDbEntity
8
0-0
6
CONTINUOUS
62
4
100
AcDbLine
10
883.230000000000
20
441.240000000000
30
0.0
11
882.850000000000
21
441.460000000000
31
0.0
0
LINE
5
741
100
AcDbEntity
8
0-0
6
CONTINUOUS
62
4
100
AcDbLine
10
882.840000000000
20
443.330000000000
30
0.0
11
882.800000000000
21
443.310000000000
31
0.0
0
LINE
5
742
100
AcDbEntity
8
0-0
6
CONTINUOUS
62
4
100
AcDbLine
10
882.930000000000
20
442.900000000000
30
0.0
11
882.800000000000
21
442.970000000000
31
0.0
0
LINE
5
743
100
AcDbEntity
8
0-0
6
CONTINUOUS
62
4
100
AcDbLine
10
886.040000000000
20
414.850000000000
30
0.0
11
886.040000000000
21
413.460000000000
31
0.0
0
LINE
5
744
100
AcDbEntity
8
0-0
6
CONTINUOUS
62
4
100
AcDbLine
10
886.040000000000
20
414.850000000000
30
0.0
11
883.050000000000
21
414.850000000000
31
0.0
0
LINE
5
745
100
AcDbEntity
8
0-0
6
CONTINUOUS
62
4
100
AcDbLine
10
887.050000000000
20
414.850000000000
30
0.0
11
886.930000000000
21
415.410000000000
31
0.0
0
LINE
5
746
100
AcDbEntity
8
0-0
6
CONTINUOUS
62
4
100
AcDbLine
10
886.930000000000
20
415.410000000000
30
0.0
11
886.820000000000
21
415.930000000000
31
0.0
0
LINE
5
747
100
AcDbEntity
8
0-0
6
CONTINUOUS
62
4
100
AcDbLine
10
886.820000000000
20
415.930000000000
30
0.0
11
886.700000000000
21
416.360000000000
31
0.0
0
LINE
5
748
100
AcDbEntity
8
0-0
6
CONTINUOUS
62
4
100
AcDbLine
10
886.700000000000
20
416.360000000000
30
0.0
11
886.590000000000
21
416.640000000000
31
0.0
0
LINE
5
749
100
AcDbEntity
8
0-0
6
CONTINUOUS
62
4
100
AcDbLine
10
886.590000000000
20
416.640000000000
30
0.0
11
886.490000000000
21
416.740000000000
31
0.0
0
LINE
5
74a
100
AcDbEntity
8
0-0
6
CONTINUOUS
62
4
100
AcDbLine
10
886.490000000000
20
416.740000000000
30
0.0
11
886.390000000000
21
416.630000000000
31
0.0
0
LINE
5
74b
100
AcDbEntity
8
0-0
6
CONTINUOUS
62
4
100
AcDbLine
10
886.390000000000
20
416.630000000000
30
0.0
11
886.300000000000
21
416.340000000000
31
0.0
0
LINE
5
74c
100
AcDbEntity
8
0-0
6
CONTINUOUS
62
4
100
AcDbLine
10
886.300000000000
20
416.340000000000
30
0.0
11
886.210000000000
21
415.920000000000
31
0.0
0
LINE
5
74d
100
AcDbEntity
8
0-0
6
CONTINUOUS
62
4
100
AcDbLine
10
886.210000000000
20
415.920000000000
30
0.0
11
886.120000000000
21
415.410000000000
31
0.0
0
LINE
5
74e
100
AcDbEntity
8
0-0
6
CONTINUOUS
62
4
100
AcDbLine
10
886.120000000000
20
415.410000000000
30
0.0
11
886.040000000000
21
414.850000000000
31
0.0
0
LINE
5
74f
100
AcDbEntity
8
0-0
6
CONTINUOUS
62
4
100
AcDbLine
10
883.300000000000
20
440.850000000000
30
0.0
11
883.230000000000
21
441.240000000000
31
0.0
0
LINE
5
750
100
AcDbEntity
8
0-0
6
CONTINUOUS
62
4
100
AcDbLine
10
886.840000000000
20
441.080000000000
30
0.0
11
887.020000000000
21
442.030000000000
31
0.0
0
LINE
5
751
100
AcDbEntity
8
0-0
6
CONTINUOUS
62
4
100
AcDbLine
10
883.300000000000
20
440.850000000000
30
0.0
11
883.300000000000
21
440.310000000000
31
0.0
0
LINE
5
752
100
AcDbEntity
8
0-0
6
CONTINUOUS
62
4
100
AcDbLine
10
883.300000000000
20
440.310000000000
30
0.0
11
886.840000000000
21
441.080000000000
31
0.0
0
LINE
5
753
100
AcDbEntity
8
0-0
6
CONTINUOUS
62
4
100
AcDbLine
10
887.410000000000
20
440.760000000000
30
0.0
11
882.700000000000
21
439.960000000000
31
0.0
0
LINE
5
754
100
AcDbEntity
8
0-0
6
CONTINUOUS
62
4
100
AcDbLine
10
883.300000000000
20
439.610000000000
30
0.0
11
886.800000000000
21
440.410000000000
31
0.0
0
LINE
5
755
100
AcDbEntity
8
0-0
6
CONTINUOUS
62
4
100
AcDbLine
10
887.310000000000
20
442.490000000000
30
0.0
11
887.310000000000
21
442.190000000000
31
0.0
0
LINE
5
756
100
AcDbEntity
8
0-0
6
CONTINUOUS
62
4
100
AcDbLine
10
882.850000000000
20
441.640000000000
30
0.0
11
882.850000000000
21
441.460000000000
31
0.0
0
LINE
5
757
100
AcDbEntity
8
0-0
6
CONTINUOUS
62
4
100
AcDbLine
10
882.800000000000
20
442.970000000000
30
0.0
11
882.800000000000
21
443.310000000000
31
0.0
0
LINE
5
758
100
AcDbEntity
8
0-0
6
CONTINUOUS
62
4
100
AcDbLine
10
883.130000000000
20
441.800000000000
30
0.0
11
882.930000000000
21
442.900000000000
31
0.0
0
LINE
5
759
100
AcDbEntity
8
0-0
6
CONTINUOUS
62
4
100
AcDbLine
10
887.120000000000
20
442.600000000000
30
0.0
11
887.310000000000
21
443.600000000000
31
0.0
0
LINE
5
75a
100
AcDbEntity
8
0-0
6
CONTINUOUS
62
4
100
AcDbLine
10
883.230000000000
20
441.240000000000
30
0.0
11
887.020000000000
21
442.030000000000
31
0.0
0
LINE
5
75b
100
AcDbEntity
8
0-0
6
CONTINUOUS
62
4
100
AcDbLine
10
887.310000000000
20
442.190000000000
30
0.0
11
882.850000000000
21
441.460000000000
31
0.0
0
LINE
5
75c
100
AcDbEntity
8
0-0
6
CONTINUOUS
62
4
100
AcDbLine
10
882.850000000000
20
441.640000000000
30
0.0
11
887.310000000000
21
442.490000000000
31
0.0
0
LINE
5
75d
100
AcDbEntity
8
0-0
6
CONTINUOUS
62
4
100
AcDbLine
10
887.120000000000
20
442.600000000000
30
0.0
11
883.130000000000
21
441.800000000000
31
0.0
0
LINE
5
75e
100
AcDbEntity
8
0-0
6
CONTINUOUS
62
4
100
AcDbLine
10
882.840000000000
20
443.330000000000
30
0.0
11
882.800000000000
21
443.600000000000
31
0.0
0
LINE
5
75f
100
AcDbEntity
8
0-0
6
CONTINUOUS
62
4
100
AcDbLine
10
882.840000000000
20
443.330000000000
30
0.0
11
887.310000000000
21
443.600000000000
31
0.0
0
LINE
5
760
100
AcDbEntity
8
0-0
6
CONTINUOUS
62
4
100
AcDbLine
10
887.310000000000
20
443.600000000000
30
0.0
11
882.930000000000
21
442.900000000000
31
0.0
0
LINE
5
761
100
AcDbEntity
8
0-0
6
CONTINUOUS
62
4
100
AcDbLine
10
882.800000000000
20
442.970000000000
30
0.0
11
887.310000000000
21
443.600000000000
31
0.0
0
LINE
5
762
100
AcDbEntity
8
0-0
6
CONTINUOUS
62
4
100
AcDbLine
10
882.800000000000
20
443.310000000000
30
0.0
11
887.310000000000
21
443.600000000000
31
0.0
0
LINE
5
763
100
AcDbEntity
8
0-0
6
CONTINUOUS
62
4
100
AcDbLine
10
887.410000000000
20
435.990000000000
30
0.0
11
886.800000000000
21
435.640000000000
31
0.0
0
LINE
5
764
100
AcDbEntity
8
0-0
6
CONTINUOUS
62
4
100
AcDbLine
10
887.410000000000
20
435.990000000000
30
0.0
11
886.800000000000
21
436.340000000000
31
0.0
0
LINE
5
765
100
AcDbEntity
8
0-0
6
CONTINUOUS
62
4
100
AcDbLine
10
887.410000000000
20
435.990000000000
30
0.0
11
882.700000000000
21
435.200000000000
31
0.0
0
LINE
5
766
100
AcDbEntity
8
0-0
6
CONTINUOUS
62
4
100
AcDbLine
10
883.300000000000
20
435.550000000000
30
0.0
11
886.800000000000
21
436.340000000000
31
0.0
0
LINE
5
767
100
AcDbEntity
8
0-0
6
CONTINUOUS
62
4
100
AcDbLine
10
883.300000000000
20
434.850000000000
30
0.0
11
886.800000000000
21
435.640000000000
31
0.0
0
LINE
5
768
100
AcDbEntity
8
0-0
6
CONTINUOUS
62
4
100
AcDbLine
10
886.800000000000
20
437.230000000000
30
0.0
11
886.800000000000
21
436.340000000000
31
0.0
0
LINE
5
769
100
AcDbEntity
8
0-0
6
CONTINUOUS
62
4
100
AcDbLine
10
882.700000000000
20
435.200000000000
30
0.0
11
883.300000000000
21
435.550000000000
31
0.0
0
LINE
5
76a
100
AcDbEntity
8
0-0
6
CONTINUOUS
62
4
100
AcDbLine
10
882.700000000000
20
435.200000000000
30
0.0
11
883.300000000000
21
434.850000000000
31
0.0
0
LINE
5
76b
100
AcDbEntity
8
0-0
6
CONTINUOUS
62
4
100
AcDbLine
10
883.300000000000
20
436.440000000000
30
0.0
11
883.300000000000
21
435.550000000000
31
0.0
0
LINE
5
76c
100
AcDbEntity
8
0-0
6
CONTINUOUS
62
4
100
AcDbLine
10
887.410000000000
20
434.410000000000
30
0.0
11
886.800000000000
21
434.060000000000
31
0.0
0
LINE
5
76d
100
AcDbEntity
8
0-0
6
CONTINUOUS
62
4
100
AcDbLine
10
887.410000000000
20
434.410000000000
30
0.0
11
886.800000000000
21
434.760000000000
31
0.0
0
LINE
5
76e
100
AcDbEntity
8
0-0
6
CONTINUOUS
62
4
100
AcDbLine
10
887.410000000000
20
434.410000000000
30
0.0
11
882.700000000000
21
433.610000000000
31
0.0
0
LINE
5
76f
100
AcDbEntity
8
0-0
6
CONTINUOUS
62
4
100
AcDbLine
10
883.300000000000
20
433.960000000000
30
0.0
11
886.800000000000
21
434.760000000000
31
0.0
0
LINE
5
770
100
AcDbEntity
8
0-0
6
CONTINUOUS
62
4
100
AcDbLine
10
883.300000000000
20
433.260000000000
30
0.0
11
886.800000000000
21
434.060000000000
31
0.0
0
LINE
5
771
100
AcDbEntity
8
0-0
6
CONTINUOUS
62
4
100
AcDbLine
10
886.800000000000
20
435.640000000000
30
0.0
11
886.800000000000
21
434.760000000000
31
0.0
0
LINE
5
772
100
AcDbEntity
8
0-0
6
CONTINUOUS
62
4
100
AcDbLine
10
882.700000000000
20
433.610000000000
30
0.0
11
883.300000000000
21
433.960000000000
31
0.0
0
LINE
5
773
100
AcDbEntity
8
0-0
6
CONTINUOUS
62
4
100
AcDbLine
10
882.700000000000
20
433.610000000000
30
0.0
11
883.300000000000
21
433.260000000000
31
0.0
0
LINE
5
774
100
AcDbEntity
8
0-0
6
CONTINUOUS
62
4
100
AcDbLine
10
883.300000000000
20
434.850000000000
30
0.0
11
883.300000000000
21
433.960000000000
31
0.0
0
LINE
5
775
100
AcDbEntity
8
0-0
6
CONTINUOUS
62
4
100
AcDbLine
10
887.410000000000
20
432.820000000000
30
0.0
11
882.700000000000
21
432.030000000000
31
0.0
0
LINE
5
776
100
AcDbEntity
8
0-0
6
CONTINUOUS
62
4
100
AcDbLine
10
883.300000000000
20
432.370000000000
30
0.0
11
886.800000000000
21
433.170000000000
31
0.0
0
LINE
5
777
100
AcDbEntity
8
0-0
6
CONTINUOUS
62
4
100
AcDbLine
10
883.300000000000
20
431.680000000000
30
0.0
11
886.800000000000
21
432.470000000000
31
0.0
0
LINE
5
778
100
AcDbEntity
8
0-0
6
CONTINUOUS
62
4
100
AcDbLine
10
882.700000000000
20
432.030000000000
30
0.0
11
883.300000000000
21
432.370000000000
31
0.0
0
LINE
5
779
100
AcDbEntity
8
0-0
6
CONTINUOUS
62
4
100
AcDbLine
10
882.700000000000
20
432.030000000000
30
0.0
11
883.300000000000
21
431.680000000000
31
0.0
0
LINE
5
77a
100
AcDbEntity
8
0-0
6
CONTINUOUS
62
4
100
AcDbLine
10
883.300000000000
20
433.260000000000
30
0.0
11
883.300000000000
21
432.370000000000
31
0.0
0
LINE
5
77b
100
AcDbEntity
8
0-0
6
CONTINUOUS
62
4
100
AcDbLine
10
887.410000000000
20
432.820000000000
30
0.0
11
886.800000000000
21
432.470000000000
31
0.0
0
LINE
5
77c
100
AcDbEntity
8
0-0
6
CONTINUOUS
62
4
100
AcDbLine
10
887.410000000000
20
432.820000000000
30
0.0
11
886.800000000000
21
433.170000000000
31
0.0
0
LINE
5
77d
100
AcDbEntity
8
0-0
6
CONTINUOUS
62
4
100
AcDbLine
10
886.800000000000
20
434.060000000000
30
0.0
11
886.800000000000
21
433.170000000000
31
0.0
0
LINE
5
77e
100
AcDbEntity
8
0-0
6
CONTINUOUS
62
4
100
AcDbLine
10
887.410000000000
20
431.230000000000
30
0.0
11
882.700000000000
21
430.440000000000
31
0.0
0
LINE
5
77f
100
AcDbEntity
8
0-0
6
CONTINUOUS
62
4
100
AcDbLine
10
883.300000000000
20
430.790000000000
30
0.0
11
886.800000000000
21
431.580000000000
31
0.0
0
LINE
5
780
100
AcDbEntity
8
0-0
6
CONTINUOUS
62
4
100
AcDbLine
10
883.300000000000
20
430.090000000000
30
0.0
11
886.800000000000
21
430.880000000000
31
0.0
0
LINE
5
781
100
AcDbEntity
8
0-0
6
CONTINUOUS
62
4
100
AcDbLine
10
882.700000000000
20
430.440000000000
30
0.0
11
883.300000000000
21
430.790000000000
31
0.0
0
LINE
5
782
100
AcDbEntity
8
0-0
6
CONTINUOUS
62
4
100
AcDbLine
10
882.700000000000
20
430.440000000000
30
0.0
11
883.300000000000
21
430.090000000000
31
0.0
0
LINE
5
783
100
AcDbEntity
8
0-0
6
CONTINUOUS
62
4
100
AcDbLine
10
883.300000000000
20
431.680000000000
30
0.0
11
883.300000000000
21
430.790000000000
31
0.0
0
LINE
5
784
100
AcDbEntity
8
0-0
6
CONTINUOUS
62
4
100
AcDbLine
10
887.410000000000
20
431.230000000000
30
0.0
11
886.800000000000
21
430.880000000000
31
0.0
0
LINE
5
785
100
AcDbEntity
8
0-0
6
CONTINUOUS
62
4
100
AcDbLine
10
887.410000000000
20
431.230000000000
30
0.0
11
886.800000000000
21
431.580000000000
31
0.0
0
LINE
5
786
100
AcDbEntity
8
0-0
6
CONTINUOUS
62
4
100
AcDbLine
10
886.800000000000
20
432.470000000000
30
0.0
11
886.800000000000
21
431.580000000000
31
0.0
0
LINE
5
787
100
AcDbEntity
8
0-0
6
CONTINUOUS
62
4
100
AcDbLine
10
887.410000000000
20
429.640000000000
30
0.0
11
882.700000000000
21
428.850000000000
31
0.0
0
LINE
5
788
100
AcDbEntity
8
0-0
6
CONTINUOUS
62
4
100
AcDbLine
10
883.300000000000
20
429.200000000000
30
0.0
11
886.800000000000
21
429.990000000000
31
0.0
0
LINE
5
789
100
AcDbEntity
8
0-0
6
CONTINUOUS
62
4
100
AcDbLine
10
883.300000000000
20
428.500000000000
30
0.0
11
886.800000000000
21
429.290000000000
31
0.0
0
LINE
5
78a
100
AcDbEntity
8
0-0
6
CONTINUOUS
62
4
100
AcDbLine
10
882.700000000000
20
428.850000000000
30
0.0
11
883.300000000000
21
429.200000000000
31
0.0
0
LINE
5
78b
100
AcDbEntity
8
0-0
6
CONTINUOUS
62
4
100
AcDbLine
10
882.700000000000
20
428.850000000000
30
0.0
11
883.300000000000
21
428.500000000000
31
0.0
0
LINE
5
78c
100
AcDbEntity
8
0-0
6
CONTINUOUS
62
4
100
AcDbLine
10
883.300000000000
20
430.090000000000
30
0.0
11
883.300000000000
21
429.200000000000
31
0.0
0
LINE
5
78d
100
AcDbEntity
8
0-0
6
CONTINUOUS
62
4
100
AcDbLine
10
887.410000000000
20
429.640000000000
30
0.0
11
886.800000000000
21
429.290000000000
31
0.0
0
LINE
5
78e
100
AcDbEntity
8
0-0
6
CONTINUOUS
62
4
100
AcDbLine
10
887.410000000000
20
429.640000000000
30
0.0
11
886.800000000000
21
429.990000000000
31
0.0
0
LINE
5
78f
100
AcDbEntity
8
0-0
6
CONTINUOUS
62
4
100
AcDbLine
10
886.800000000000
20
430.880000000000
30
0.0
11
886.800000000000
21
429.990000000000
31
0.0
0
LINE
5
790
100
AcDbEntity
8
0-0
6
CONTINUOUS
62
4
100
AcDbLine
10
887.410000000000
20
428.060000000000
30
0.0
11
882.700000000000
21
427.260000000000
31
0.0
0
LINE
5
791
100
AcDbEntity
8
0-0
6
CONTINUOUS
62
4
100
AcDbLine
10
883.300000000000
20
427.610000000000
30
0.0
11
886.800000000000
21
428.410000000000
31
0.0
0
LINE
5
792
100
AcDbEntity
8
0-0
6
CONTINUOUS
62
4
100
AcDbLine
10
883.300000000000
20
426.910000000000
30
0.0
11
886.800000000000
21
427.710000000000
31
0.0
0
LINE
5
793
100
AcDbEntity
8
0-0
6
CONTINUOUS
62
4
100
AcDbLine
10
882.700000000000
20
427.260000000000
30
0.0
11
883.300000000000
21
427.610000000000
31
0.0
0
LINE
5
794
100
AcDbEntity
8
0-0
6
CONTINUOUS
62
4
100
AcDbLine
10
882.700000000000
20
427.260000000000
30
0.0
11
883.300000000000
21
426.910000000000
31
0.0
0
LINE
5
795
100
AcDbEntity
8
0-0
6
CONTINUOUS
62
4
100
AcDbLine
10
883.300000000000
20
428.500000000000
30
0.0
11
883.300000000000
21
427.610000000000
31
0.0
0
LINE
5
796
100
AcDbEntity
8
0-0
6
CONTINUOUS
62
4
100
AcDbLine
10
887.410000000000
20
428.060000000000
30
0.0
11
886.800000000000
21
427.710000000000
31
0.0
0
LINE
5
797
100
AcDbEntity
8
0-0
6
CONTINUOUS
62
4
100
AcDbLine
10
887.410000000000
20
428.060000000000
30
0.0
11
886.800000000000
21
428.410000000000
31
0.0
0
LINE
5
798
100
AcDbEntity
8
0-0
6
CONTINUOUS
62
4
100
AcDbLine
10
886.800000000000
20
429.290000000000
30
0.0
11
886.800000000000
21
428.410000000000
31
0.0
0
LINE
5
799
100
AcDbEntity
8
0-0
6
CONTINUOUS
62
4
100
AcDbLine
10
887.410000000000
20
426.470000000000
30
0.0
11
882.700000000000
21
425.680000000000
31
0.0
0
LINE
5
79a
100
AcDbEntity
8
0-0
6
CONTINUOUS
62
4
100
AcDbLine
10
883.300000000000
20
426.020000000000
30
0.0
11
886.800000000000
21
426.820000000000
31
0.0
0
LINE
5
79b
100
AcDbEntity
8
0-0
6
CONTINUOUS
62
4
100
AcDbLine
10
883.300000000000
20
425.330000000000
30
0.0
11
886.800000000000
21
426.120000000000
31
0.0
0
LINE
5
79c
100
AcDbEntity
8
0-0
6
CONTINUOUS
62
4
100
AcDbLine
10
882.700000000000
20
425.680000000000
30
0.0
11
883.300000000000
21
426.020000000000
31
0.0
0
LINE
5
79d
100
AcDbEntity
8
0-0
6
CONTINUOUS
62
4
100
AcDbLine
10
882.700000000000
20
425.680000000000
30
0.0
11
883.300000000000
21
425.330000000000
31
0.0
0
LINE
5
79e
100
AcDbEntity
8
0-0
6
CONTINUOUS
62
4
100
AcDbLine
10
883.300000000000
20
426.910000000000
30
0.0
11
883.300000000000
21
426.020000000000
31
0.0
0
LINE
5
79f
100
AcDbEntity
8
0-0
6
CONTINUOUS
62
4
100
AcDbLine
10
887.410000000000
20
426.470000000000
30
0.0
11
886.800000000000
21
426.120000000000
31
0.0
0
LINE
5
7a0
100
AcDbEntity
8
0-0
6
CONTINUOUS
62
4
100
AcDbLine
10
887.410000000000
20
426.470000000000
30
0.0
11
886.800000000000
21
426.820000000000
31
0.0
0
LINE
5
7a1
100
AcDbEntity
8
0-0
6
CONTINUOUS
62
4
100
AcDbLine
10
886.800000000000
20
427.710000000000
30
0.0
11
886.800000000000
21
426.820000000000
31
0.0
0
LINE
5
7a2
100
AcDbEntity
8
0-0
6
CONTINUOUS
62
4
100
AcDbLine
10
887.410000000000
20
424.880000000000
30
0.0
11
882.700000000000
21
424.090000000000
31
0.0
0
LINE
5
7a3
100
AcDbEntity
8
0-0
6
CONTINUOUS
62
4
100
AcDbLine
10
883.300000000000
20
424.440000000000
30
0.0
11
886.800000000000
21
425.230000000000
31
0.0
0
LINE
5
7a4
100
AcDbEntity
8
0-0
6
CONTINUOUS
62
4
100
AcDbLine
10
883.300000000000
20
423.740000000000
30
0.0
11
886.800000000000
21
424.530000000000
31
0.0
0
LINE
5
7a5
100
AcDbEntity
8
0-0
6
CONTINUOUS
62
4
100
AcDbLine
10
882.700000000000
20
424.090000000000
30
0.0
11
883.300000000000
21
424.440000000000
31
0.0
0
LINE
5
7a6
100
AcDbEntity
8
0-0
6
CONTINUOUS
62
4
100
AcDbLine
10
882.700000000000
20
424.090000000000
30
0.0
11
883.300000000000
21
423.740000000000
31
0.0
0
LINE
5
7a7
100
AcDbEntity
8
0-0
6
CONTINUOUS
62
4
100
AcDbLine
10
883.300000000000
20
425.330000000000
30
0.0
11
883.300000000000
21
424.440000000000
31
0.0
0
LINE
5
7a8
100
AcDbEntity
8
0-0
6
CONTINUOUS
62
4
100
AcDbLine
10
887.410000000000
20
424.880000000000
30
0.0
11
886.800000000000
21
424.530000000000
31
0.0
0
LINE
5
7a9
100
AcDbEntity
8
0-0
6
CONTINUOUS
62
4
100
AcDbLine
10
887.410000000000
20
424.880000000000
30
0.0
11
886.800000000000
21
425.230000000000
31
0.0
0
LINE
5
7aa
100
AcDbEntity
8
0-0
6
CONTINUOUS
62
4
100
AcDbLine
10
886.800000000000
20
426.120000000000
30
0.0
11
886.800000000000
21
425.230000000000
31
0.0
0
LINE
5
7ab
100
AcDbEntity
8
0-0
6
CONTINUOUS
62
4
100
AcDbLine
10
887.410000000000
20
423.290000000000
30
0.0
11
882.700000000000
21
422.500000000000
31
0.0
0
LINE
5
7ac
100
AcDbEntity
8
0-0
6
CONTINUOUS
62
4
100
AcDbLine
10
883.300000000000
20
422.850000000000
30
0.0
11
886.800000000000
21
423.640000000000
31
0.0
0
LINE
5
7ad
100
AcDbEntity
8
0-0
6
CONTINUOUS
62
4
100
AcDbLine
10
883.300000000000
20
422.150000000000
30
0.0
11
886.800000000000
21
422.940000000000
31
0.0
0
LINE
5
7ae
100
AcDbEntity
8
0-0
6
CONTINUOUS
62
4
100
AcDbLine
10
882.700000000000
20
422.500000000000
30
0.0
11
883.300000000000
21
422.850000000000
31
0.0
0
LINE
5
7af
100
AcDbEntity
8
0-0
6
CONTINUOUS
62
4
100
AcDbLine
10
882.700000000000
20
422.500000000000
30
0.0
11
883.300000000000
21
422.150000000000
31
0.0
0
LINE
5
7b0
100
AcDbEntity
8
0-0
6
CONTINUOUS
62
4
100
AcDbLine
10
883.300000000000
20
423.740000000000
30
0.0
11
883.300000000000
21
422.850000000000
31
0.0
0
LINE
5
7b1
100
AcDbEntity
8
0-0
6
CONTINUOUS
62
4
100
AcDbLine
10
887.410000000000
20
423.290000000000
30
0.0
11
886.800000000000
21
422.940000000000
31
0.0
0
LINE
5
7b2
100
AcDbEntity
8
0-0
6
CONTINUOUS
62
4
100
AcDbLine
10
887.410000000000
20
423.290000000000
30
0.0
11
886.800000000000
21
423.640000000000
31
0.0
0
LINE
5
7b3
100
AcDbEntity
8
0-0
6
CONTINUOUS
62
4
100
AcDbLine
10
886.800000000000
20
424.530000000000
30
0.0
11
886.800000000000
21
423.640000000000
31
0.0
0
LINE
5
7b4
100
AcDbEntity
8
0-0
6
CONTINUOUS
62
4
100
AcDbLine
10
887.410000000000
20
421.710000000000
30
0.0
11
882.700000000000
21
420.910000000000
31
0.0
0
LINE
5
7b5
100
AcDbEntity
8
0-0
6
CONTINUOUS
62
4
100
AcDbLine
10
883.300000000000
20
421.260000000000
30
0.0
11
886.800000000000
21
422.060000000000
31
0.0
0
LINE
5
7b6
100
AcDbEntity
8
0-0
6
CONTINUOUS
62
4
100
AcDbLine
10
883.300000000000
20
420.560000000000
30
0.0
11
886.800000000000
21
421.360000000000
31
0.0
0
LINE
5
7b7
100
AcDbEntity
8
0-0
6
CONTINUOUS
62
4
100
AcDbLine
10
882.700000000000
20
420.910000000000
30
0.0
11
883.300000000000
21
421.260000000000
31
0.0
0
LINE
5
7b8
100
AcDbEntity
8
0-0
6
CONTINUOUS
62
4
100
AcDbLine
10
882.700000000000
20
420.910000000000
30
0.0
11
883.300000000000
21
420.560000000000
31
0.0
0
LINE
5
7b9
100
AcDbEntity
8
0-0
6
CONTINUOUS
62
4
100
AcDbLine
10
883.300000000000
20
422.150000000000
30
0.0
11
883.300000000000
21
421.260000000000
31
0.0
0
LINE
5
7ba
100
AcDbEntity
8
0-0
6
CONTINUOUS
62
4
100
AcDbLine
10
887.410000000000
20
421.710000000000
30
0.0
11
886.800000000000
21
421.360000000000
31
0.0
0
LINE
5
7bb
100
AcDbEntity
8
0-0
6
CONTINUOUS
62
4
100
AcDbLine
10
887.410000000000
20
421.710000000000
30
0.0
11
886.800000000000
21
422.060000000000
31
0.0
0
LINE
5
7bc
100
AcDbEntity
8
0-0
6
CONTINUOUS
62
4
100
AcDbLine
10
886.800000000000
20
422.940000000000
30
0.0
11
886.800000000000
21
422.060000000000
31
0.0
0
LINE
5
7bd
100
AcDbEntity
8
0-0
6
CONTINUOUS
62
4
100
AcDbLine
10
887.410000000000
20
420.120000000000
30
0.0
11
882.700000000000
21
419.330000000000
31
0.0
0
LINE
5
7be
100
AcDbEntity
8
0-0
6
CONTINUOUS
62
4
100
AcDbLine
10
883.300000000000
20
419.670000000000
30
0.0
11
886.800000000000
21
420.470000000000
31
0.0
0
LINE
5
7bf
100
AcDbEntity
8
0-0
6
CONTINUOUS
62
4
100
AcDbLine
10
883.300000000000
20
418.980000000000
30
0.0
11
886.800000000000
21
419.770000000000
31
0.0
0
LINE
5
7c0
100
AcDbEntity
8
0-0
6
CONTINUOUS
62
4
100
AcDbLine
10
882.700000000000
20
419.330000000000
30
0.0
11
883.300000000000
21
419.670000000000
31
0.0
0
LINE
5
7c1
100
AcDbEntity
8
0-0
6
CONTINUOUS
62
4
100
AcDbLine
10
882.700000000000
20
419.330000000000
30
0.0
11
883.300000000000
21
418.980000000000
31
0.0
0
LINE
5
7c2
100
AcDbEntity
8
0-0
6
CONTINUOUS
62
4
100
AcDbLine
10
883.300000000000
20
420.560000000000
30
0.0
11
883.300000000000
21
419.670000000000
31
0.0
0
LINE
5
7c3
100
AcDbEntity
8
0-0
6
CONTINUOUS
62
4
100
AcDbLine
10
887.410000000000
20
420.120000000000
30
0.0
11
886.800000000000
21
419.770000000000
31
0.0
0
LINE
5
7c4
100
AcDbEntity
8
0-0
6
CONTINUOUS
62
4
100
AcDbLine
10
887.410000000000
20
420.120000000000
30
0.0
11
886.800000000000
21
420.470000000000
31
0.0
0
LINE
5
7c5
100
AcDbEntity
8
0-0
6
CONTINUOUS
62
4
100
AcDbLine
10
886.800000000000
20
421.360000000000
30
0.0
11
886.800000000000
21
420.470000000000
31
0.0
0
LINE
5
7c6
100
AcDbEntity
8
0-0
6
CONTINUOUS
62
4
100
AcDbLine
10
887.410000000000
20
418.530000000000
30
0.0
11
882.700000000000
21
417.740000000000
31
0.0
0
LINE
5
7c7
100
AcDbEntity
8
0-0
6
CONTINUOUS
62
4
100
AcDbLine
10
883.300000000000
20
418.090000000000
30
0.0
11
886.800000000000
21
418.880000000000
31
0.0
0
LINE
5
7c8
100
AcDbEntity
8
0-0
6
CONTINUOUS
62
4
100
AcDbLine
10
883.300000000000
20
417.390000000000
30
0.0
11
886.800000000000
21
418.180000000000
31
0.0
0
LINE
5
7c9
100
AcDbEntity
8
0-0
6
CONTINUOUS
62
4
100
AcDbLine
10
882.700000000000
20
417.740000000000
30
0.0
11
883.300000000000
21
418.090000000000
31
0.0
0
LINE
5
7ca
100
AcDbEntity
8
0-0
6
CONTINUOUS
62
4
100
AcDbLine
10
882.700000000000
20
417.740000000000
30
0.0
11
883.300000000000
21
417.390000000000
31
0.0
0
LINE
5
7cb
100
AcDbEntity
8
0-0
6
CONTINUOUS
62
4
100
AcDbLine
10
883.300000000000
20
418.980000000000
30
0.0
11
883.300000000000
21
418.090000000000
31
0.0
0
LINE
5
7cc
100
AcDbEntity
8
0-0
6
CONTINUOUS
62
4
100
AcDbLine
10
887.410000000000
20
418.530000000000
30
0.0
11
886.800000000000
21
418.180000000000
31
0.0
0
LINE
5
7cd
100
AcDbEntity
8
0-0
6
CONTINUOUS
62
4
100
AcDbLine
10
887.410000000000
20
418.530000000000
30
0.0
11
886.800000000000
21
418.880000000000
31
0.0
0
LINE
5
7ce
100
AcDbEntity
8
0-0
6
CONTINUOUS
62
4
100
AcDbLine
10
886.800000000000
20
419.770000000000
30
0.0
11
886.800000000000
21
418.880000000000
31
0.0
0
LINE
5
7cf
100
AcDbEntity
8
0-0
6
CONTINUOUS
62
4
100
AcDbLine
10
887.410000000000
20
416.940000000000
30
0.0
11
882.700000000000
21
416.150000000000
31
0.0
0
LINE
5
7d0
100
AcDbEntity
8
0-0
6
CONTINUOUS
62
4
100
AcDbLine
10
883.300000000000
20
416.500000000000
30
0.0
11
886.800000000000
21
417.290000000000
31
0.0
0
LINE
5
7d1
100
AcDbEntity
8
0-0
6
CONTINUOUS
62
4
100
AcDbLine
10
883.300000000000
20
415.800000000000
30
0.0
11
886.340000000000
21
416.490000000000
31
0.0
0
LINE
5
7d2
100
AcDbEntity
8
0-0
6
CONTINUOUS
62
4
100
AcDbLine
10
882.700000000000
20
416.150000000000
30
0.0
11
883.300000000000
21
416.500000000000
31
0.0
0
LINE
5
7d3
100
AcDbEntity
8
0-0
6
CONTINUOUS
62
4
100
AcDbLine
10
882.700000000000
20
416.150000000000
30
0.0
11
883.300000000000
21
415.800000000000
31
0.0
0
LINE
5
7d4
100
AcDbEntity
8
0-0
6
CONTINUOUS
62
4
100
AcDbLine
10
883.300000000000
20
417.390000000000
30
0.0
11
883.300000000000
21
416.500000000000
31
0.0
0
LINE
5
7d5
100
AcDbEntity
8
0-0
6
CONTINUOUS
62
4
100
AcDbLine
10
887.410000000000
20
416.940000000000
30
0.0
11
886.800000000000
21
416.590000000000
31
0.0
0
LINE
5
7d6
100
AcDbEntity
8
0-0
6
CONTINUOUS
62
4
100
AcDbLine
10
887.410000000000
20
416.940000000000
30
0.0
11
886.800000000000
21
417.290000000000
31
0.0
0
LINE
5
7d7
100
AcDbEntity
8
0-0
6
CONTINUOUS
62
4
100
AcDbLine
10
886.800000000000
20
418.180000000000
30
0.0
11
886.800000000000
21
417.290000000000
31
0.0
0
LINE
5
7d8
100
AcDbEntity
8
0-0
6
CONTINUOUS
62
4
100
AcDbLine
10
887.160000000000
20
415.210000000000
30
0.0
11
887.010000000000
21
415.130000000000
31
0.0
0
LINE
5
7d9
100
AcDbEntity
8
0-0
6
CONTINUOUS
62
4
100
AcDbLine
10
887.160000000000
20
415.500000000000
30
0.0
11
886.940000000000
21
415.630000000000
31
0.0
0
LINE
5
7da
100
AcDbEntity
8
0-0
6
CONTINUOUS
62
4
100
AcDbLine
10
883.300000000000
20
415.800000000000
30
0.0
11
883.050000000000
21
414.850000000000
31
0.0
0
LINE
5
7db
100
AcDbEntity
8
0-0
6
CONTINUOUS
62
4
100
AcDbLine
10
886.800000000000
20
416.590000000000
30
0.0
11
886.940000000000
21
415.630000000000
31
0.0
0
LINE
5
7dc
100
AcDbEntity
8
0-0
6
CONTINUOUS
62
4
100
AcDbLine
10
887.160000000000
20
415.500000000000
30
0.0
11
887.160000000000
21
415.210000000000
31
0.0
0
LINE
5
7dd
100
AcDbEntity
8
0-0
6
CONTINUOUS
62
4
100
AcDbLine
10
887.010000000000
20
415.130000000000
30
0.0
11
887.050000000000
21
414.850000000000
31
0.0
0
LINE
5
7de
100
AcDbEntity
8
0-0
6
CONTINUOUS
62
4
100
AcDbLine
10
887.010000000000
20
415.130000000000
30
0.0
11
886.990000000000
21
415.130000000000
31
0.0
0
LINE
5
7df
100
AcDbEntity
8
0-0
6
CONTINUOUS
62
4
100
AcDbLine
10
883.050000000000
20
414.850000000000
30
0.0
11
886.130000000000
21
415.460000000000
31
0.0
0
LINE
5
7e0
100
AcDbEntity
8
0-0
6
CONTINUOUS
62
4
100
AcDbLine
10
887.160000000000
20
415.500000000000
30
0.0
11
886.920000000000
21
415.460000000000
31
0.0
0
LINE
5
7e1
100
AcDbEntity
8
0-0
6
CONTINUOUS
62
4
100
AcDbLine
10
883.050000000000
20
414.850000000000
30
0.0
11
886.080000000000
21
415.120000000000
31
0.0
0
LINE
5
7e2
100
AcDbEntity
8
0-0
6
CONTINUOUS
62
4
100
AcDbLine
10
886.630000000000
20
416.560000000000
30
0.0
11
886.800000000000
21
416.590000000000
31
0.0
0
LINE
5
7e3
100
AcDbEntity
8
0-0
6
CONTINUOUS
62
4
100
AcDbLine
10
886.890000000000
20
415.620000000000
30
0.0
11
886.940000000000
21
415.630000000000
31
0.0
0
LINE
5
7e4
100
AcDbEntity
8
0-0
6
CONTINUOUS
62
4
100
AcDbLine
10
886.110000000000
20
415.330000000000
30
0.0
11
883.050000000000
21
414.850000000000
31
0.0
0
LINE
5
7e5
100
AcDbEntity
8
0-0
6
CONTINUOUS
62
4
100
AcDbLine
10
886.980000000000
20
415.200000000000
30
0.0
11
887.160000000000
21
415.210000000000
31
0.0
0
LINE
5
7e6
100
AcDbEntity
8
0-0
6
CONTINUOUS
62
4
100
AcDbLine
10
886.070000000000
20
415.060000000000
30
0.0
11
883.050000000000
21
414.850000000000
31
0.0
0
LINE
5
7e7
100
AcDbEntity
8
0-0
6
DOT
62
4
100
AcDbLine
10
887.250000000000
20
444.800000000000
30
0.0
11
886.200000000000
21
442.680000000000
31
0.0
0
LINE
5
7e8
100
AcDbEntity
8
0-0
6
DOT
62
4
100
AcDbLine
10
886.200000000000
20
442.680000000000
30
0.0
11
885.050000000000
21
442.070000000000
31
0.0
0
LINE
5
7e9
100
AcDbEntity
8
0-0
6
DOT
62
4
100
AcDbLine
10
885.050000000000
20
442.070000000000
30
0.0
11
883.910000000000
21
442.680000000000
31
0.0
0
LINE
5
7ea
100
AcDbEntity
8
0-0
6
DOT
62
4
100
AcDbLine
10
882.850000000000
20
444.800000000000
30
0.0
11
883.910000000000
21
442.680000000000
31
0.0
0
LINE
5
7eb
100
AcDbEntity
8
0-0
6
CENTER2
62
4
100
AcDbLine
10
885.050000000000
20
445.800000000000
30
0.0
11
885.050000000000
21
407.850000000000
31
0.0
0
LINE
5
7ec
100
AcDbEntity
8
0-0
6
CONTINUOUS
62
4
100
AcDbLine
10
885.300000000000
20
408.850000000000
30
0.0
11
884.800000000000
21
408.850000000000
31
0.0
0
LINE
5
7ed
100
AcDbEntity
8
0-0
6
CONTINUOUS
62
4
100
AcDbLine
10
883.050000000000
20
410.320000000000
30
0.0
11
883.340000000000
21
410.560000000000
31
0.0
0
LINE
5
7ee
100
AcDbEntity
8
0-0
6
CONTINUOUS
62
4
100
AcDbLine
10
883.340000000000
20
410.560000000000
30
0.0
11
883.650000000000
21
410.830000000000
31
0.0
0
LINE
5
7ef
100
AcDbEntity
8
0-0
6
CONTINUOUS
62
4
100
AcDbLine
10
883.650000000000
20
410.830000000000
30
0.0
11
883.960000000000
21
411.090000000000
31
0.0
0
LINE
5
7f0
100
AcDbEntity
8
0-0
6
CONTINUOUS
62
4
100
AcDbLine
10
883.960000000000
20
411.090000000000
30
0.0
11
884.260000000000
21
411.310000000000
31
0.0
0
LINE
5
7f1
100
AcDbEntity
8
0-0
6
CONTINUOUS
62
4
100
AcDbLine
10
884.260000000000
20
411.310000000000
30
0.0
11
884.520000000000
21
411.480000000000
31
0.0
0
LINE
5
7f2
100
AcDbEntity
8
0-0
6
CONTINUOUS
62
4
100
AcDbLine
10
884.520000000000
20
411.480000000000
30
0.0
11
884.740000000000
21
411.560000000000
31
0.0
0
LINE
5
7f3
100
AcDbEntity
8
0-0
6
CONTINUOUS
62
4
100
AcDbLine
10
884.740000000000
20
411.560000000000
30
0.0
11
884.880000000000
21
411.530000000000
31
0.0
0
LINE
5
7f4
100
AcDbEntity
8
0-0
6
CONTINUOUS
62
4
100
AcDbLine
10
884.880000000000
20
411.530000000000
30
0.0
11
884.970000000000
21
411.340000000000
31
0.0
0
LINE
5
7f5
100
AcDbEntity
8
0-0
6
CONTINUOUS
62
4
100
AcDbLine
10
884.970000000000
20
411.340000000000
30
0.0
11
885.020000000000
21
410.990000000000
31
0.0
0
LINE
5
7f6
100
AcDbEntity
8
0-0
6
CONTINUOUS
62
4
100
AcDbLine
10
885.020000000000
20
410.990000000000
30
0.0
11
885.040000000000
21
410.570000000000
31
0.0
0
LINE
5
7f7
100
AcDbEntity
8
0-0
6
CONTINUOUS
62
4
100
AcDbLine
10
885.040000000000
20
410.570000000000
30
0.0
11
885.050000000000
21
410.150000000000
31
0.0
0
LINE
5
7f8
100
AcDbEntity
8
0-0
6
CONTINUOUS
62
4
100
AcDbLine
10
885.050000000000
20
410.150000000000
30
0.0
11
885.050000000000
21
409.780000000000
31
0.0
0
LINE
5
7f9
100
AcDbEntity
8
0-0
6
CONTINUOUS
62
4
100
AcDbLine
10
884.910000000000
20
409.260000000000
30
0.0
11
887.050000000000
21
411.060000000000
31
0.0
0
LINE
5
7fa
100
AcDbEntity
8
0-0
6
CONTINUOUS
62
4
100
AcDbLine
10
886.040000000000
20
413.460000000000
30
0.0
11
885.050000000000
21
409.780000000000
31
0.0
0
LINE
5
7fb
100
AcDbEntity
8
0-0
6
CONTINUOUS
62
4
100
AcDbLine
10
885.050000000000
20
408.850000000000
30
0.0
11
885.000000000000
21
408.950000000000
31
0.0
0
LINE
5
7fc
100
AcDbEntity
8
0-0
6
CONTINUOUS
62
4
100
AcDbLine
10
885.000000000000
20
408.950000000000
30
0.0
11
884.960000000000
21
409.050000000000
31
0.0
0
LINE
5
7fd
100
AcDbEntity
8
0-0
6
CONTINUOUS
62
4
100
AcDbLine
10
884.960000000000
20
409.050000000000
30
0.0
11
884.930000000000
21
409.160000000000
31
0.0
0
LINE
5
7fe
100
AcDbEntity
8
0-0
6
CONTINUOUS
62
4
100
AcDbLine
10
884.930000000000
20
409.160000000000
30
0.0
11
884.910000000000
21
409.260000000000
31
0.0
0
LINE
5
7ff
100
AcDbEntity
8
0-0
6
CONTINUOUS
62
4
100
AcDbLine
10
884.910000000000
20
409.260000000000
30
0.0
11
884.920000000000
21
409.390000000000
31
0.0
0
LINE
5
800
100
AcDbEntity
8
0-0
6
CONTINUOUS
62
4
100
AcDbLine
10
884.920000000000
20
409.390000000000
30
0.0
11
884.950000000000
21
409.520000000000
31
0.0
0
LINE
5
801
100
AcDbEntity
8
0-0
6
CONTINUOUS
62
4
100
AcDbLine
10
884.950000000000
20
409.520000000000
30
0.0
11
885.000000000000
21
409.650000000000
31
0.0
0
LINE
5
802
100
AcDbEntity
8
0-0
6
CONTINUOUS
62
4
100
AcDbLine
10
885.000000000000
20
409.650000000000
30
0.0
11
885.050000000000
21
409.780000000000
31
0.0
0
LINE
5
803
100
AcDbEntity
8
0-0
6
CONTINUOUS
62
4
100
AcDbLine
10
887.050000000000
20
414.850000000000
30
0.0
11
887.050000000000
21
410.320000000000
31
0.0
0
LINE
5
804
100
AcDbEntity
8
0-0
6
CONTINUOUS
62
4
100
AcDbLine
10
883.050000000000
20
414.850000000000
30
0.0
11
883.050000000000
21
410.320000000000
31
0.0
0
LINE
5
805
100
AcDbEntity
8
0-0
6
CONTINUOUS
62
4
100
AcDbLine
10
887.050000000000
20
410.320000000000
30
0.0
11
885.300000000000
21
408.850000000000
31
0.0
0
LINE
5
806
100
AcDbEntity
8
0-0
6
CONTINUOUS
62
4
100
AcDbLine
10
883.050000000000
20
410.320000000000
30
0.0
11
884.800000000000
21
408.850000000000
31
0.0
0
LINE
5
807
100
AcDbEntity
8
0-0
6
CONTINUOUS
62
4
100
AcDbLine
10
858.010000000000
20
444.750000000000
30
0.0
11
866.010000000000
21
444.750000000000
31
0.0
0
LINE
5
808
100
AcDbEntity
8
0-0
6
CONTINUOUS
62
4
100
AcDbLine
10
866.260000000000
20
444.100000000000
30
0.0
11
866.260000000000
21
444.500000000000
31
0.0
0
LINE
5
809
100
AcDbEntity
8
0-0
6
CONTINUOUS
62
4
100
AcDbLine
10
857.760000000000
20
444.100000000000
30
0.0
11
857.760000000000
21
444.500000000000
31
0.0
0
LINE
5
80a
100
AcDbEntity
8
0-0
6
CONTINUOUS
62
4
100
AcDbLine
10
858.010000000000
20
443.850000000000
30
0.0
11
866.010000000000
21
443.850000000000
31
0.0
0
LINE
5
80b
100
AcDbEntity
8
0-0
6
CONTINUOUS
62
4
100
AcDbLine
10
860.330000000000
20
442.350000000000
30
0.0
11
863.700000000000
21
442.350000000000
31
0.0
0
LINE
5
80c
100
AcDbEntity
8
0-0
6
CONTINUOUS
62
4
100
AcDbLine
10
863.700000000000
20
440.850000000000
30
0.0
11
863.700000000000
21
442.350000000000
31
0.0
0
LINE
5
80d
100
AcDbEntity
8
0-0
6
CONTINUOUS
62
4
100
AcDbLine
10
860.330000000000
20
440.850000000000
30
0.0
11
860.330000000000
21
442.350000000000
31
0.0
0
LINE
5
80e
100
AcDbEntity
8
0-0
6
CONTINUOUS
62
4
100
AcDbLine
10
864.260000000000
20
443.850000000000
30
0.0
11
863.700000000000
21
442.350000000000
31
0.0
0
LINE
5
80f
100
AcDbEntity
8
0-0
6
CONTINUOUS
62
4
100
AcDbLine
10
859.760000000000
20
443.850000000000
30
0.0
11
860.330000000000
21
442.350000000000
31
0.0
0
LINE
5
810
100
AcDbEntity
8
0-0
6
CONTINUOUS
62
4
100
AcDbLine
10
860.330000000000
20
440.850000000000
30
0.0
11
863.700000000000
21
440.850000000000
31
0.0
0
LINE
5
811
100
AcDbEntity
8
0-0
6
CONTINUOUS
62
4
100
AcDbLine
10
860.460000000000
20
422.190000000000
30
0.0
11
859.610000000000
21
422.680000000000
31
0.0
0
LINE
5
812
100
AcDbEntity
8
0-0
6
CONTINUOUS
62
4
100
AcDbLine
10
860.460000000000
20
423.170000000000
30
0.0
11
859.610000000000
21
422.680000000000
31
0.0
0
LINE
5
813
100
AcDbEntity
8
0-0
6
CONTINUOUS
62
4
100
AcDbLine
10
860.460000000000
20
419.020000000000
30
0.0
11
859.610000000000
21
419.510000000000
31
0.0
0
LINE
5
814
100
AcDbEntity
8
0-0
6
CONTINUOUS
62
4
100
AcDbLine
10
860.460000000000
20
420.000000000000
30
0.0
11
859.610000000000
21
419.510000000000
31
0.0
0
LINE
5
815
100
AcDbEntity
8
0-0
6
CONTINUOUS
62
4
100
AcDbLine
10
863.560000000000
20
423.780000000000
30
0.0
11
864.410000000000
21
424.270000000000
31
0.0
0
LINE
5
816
100
AcDbEntity
8
0-0
6
CONTINUOUS
62
4
100
AcDbLine
10
863.560000000000
20
424.760000000000
30
0.0
11
864.410000000000
21
424.270000000000
31
0.0
0
LINE
5
817
100
AcDbEntity
8
0-0
6
CONTINUOUS
62
4
100
AcDbLine
10
863.560000000000
20
420.600000000000
30
0.0
11
864.410000000000
21
421.090000000000
31
0.0
0
LINE
5
818
100
AcDbEntity
8
0-0
6
CONTINUOUS
62
4
100
AcDbLine
10
863.560000000000
20
421.590000000000
30
0.0
11
864.410000000000
21
421.090000000000
31
0.0
0
LINE
5
819
100
AcDbEntity
8
0-0
6
CONTINUOUS
62
4
100
AcDbLine
10
863.560000000000
20
423.780000000000
30
0.0
11
863.560000000000
21
421.590000000000
31
0.0
0
LINE
5
81a
100
AcDbEntity
8
0-0
6
CONTINUOUS
62
4
100
AcDbLine
10
860.460000000000
20
422.190000000000
30
0.0
11
860.460000000000
21
420.000000000000
31
0.0
0
LINE
5
81b
100
AcDbEntity
8
0-0
6
CONTINUOUS
62
4
100
AcDbLine
10
860.460000000000
20
420.000000000000
30
0.0
11
863.560000000000
21
421.590000000000
31
0.0
0
LINE
5
81c
100
AcDbEntity
8
0-0
6
CONTINUOUS
62
4
100
AcDbLine
10
864.410000000000
20
421.090000000000
30
0.0
11
859.610000000000
21
419.510000000000
31
0.0
0
LINE
5
81d
100
AcDbEntity
8
0-0
6
CONTINUOUS
62
4
100
AcDbLine
10
860.460000000000
20
419.020000000000
30
0.0
11
863.560000000000
21
420.600000000000
31
0.0
0
LINE
5
81e
100
AcDbEntity
8
0-0
6
CONTINUOUS
62
4
100
AcDbLine
10
860.460000000000
20
422.190000000000
30
0.0
11
863.560000000000
21
423.780000000000
31
0.0
0
LINE
5
81f
100
AcDbEntity
8
0-0
6
CONTINUOUS
62
4
100
AcDbLine
10
864.410000000000
20
424.270000000000
30
0.0
11
859.610000000000
21
422.680000000000
31
0.0
0
LINE
5
820
100
AcDbEntity
8
0-0
6
CONTINUOUS
62
4
100
AcDbLine
10
860.460000000000
20
423.170000000000
30
0.0
11
863.560000000000
21
424.760000000000
31
0.0
0
LINE
5
821
100
AcDbEntity
8
0-0
6
CONTINUOUS
62
4
100
AcDbLine
10
863.560000000000
20
418.560000000000
30
0.0
11
863.420000000000
21
417.960000000000
31
0.0
0
LINE
5
822
100
AcDbEntity
8
0-0
6
CONTINUOUS
62
4
100
AcDbLine
10
860.460000000000
20
418.560000000000
30
0.0
11
860.860000000000
21
416.820000000000
31
0.0
0
LINE
5
823
100
AcDbEntity
8
0-0
6
CONTINUOUS
62
4
100
AcDbLine
10
861.000000000000
20
416.250000000000
30
0.0
11
860.430000000000
21
416.420000000000
31
0.0
0
LINE
5
824
100
AcDbEntity
8
0-0
6
CONTINUOUS
62
4
100
AcDbLine
10
860.860000000000
20
416.820000000000
30
0.0
11
860.430000000000
21
416.420000000000
31
0.0
0
LINE
5
825
100
AcDbEntity
8
0-0
6
CONTINUOUS
62
4
100
AcDbLine
10
860.460000000000
20
418.560000000000
30
0.0
11
860.460000000000
21
419.020000000000
31
0.0
0
LINE
5
826
100
AcDbEntity
8
0-0
6
CONTINUOUS
62
4
100
AcDbLine
10
863.270000000000
20
417.280000000000
30
0.0
11
863.930000000000
21
417.660000000000
31
0.0
0
LINE
5
827
100
AcDbEntity
8
0-0
6
CONTINUOUS
62
4
100
AcDbLine
10
863.420000000000
20
417.960000000000
30
0.0
11
863.930000000000
21
417.660000000000
31
0.0
0
LINE
5
828
100
AcDbEntity
8
0-0
6
CONTINUOUS
62
4
100
AcDbLine
10
863.560000000000
20
418.560000000000
30
0.0
11
863.560000000000
21
420.600000000000
31
0.0
0
LINE
5
829
100
AcDbEntity
8
0-0
6
CONTINUOUS
62
4
100
AcDbLine
10
862.660000000000
20
414.640000000000
30
0.0
11
863.080000000000
21
414.390000000000
31
0.0
0
LINE
5
82a
100
AcDbEntity
8
0-0
6
CONTINUOUS
62
4
100
AcDbLine
10
863.270000000000
20
417.280000000000
30
0.0
11
862.660000000000
21
414.640000000000
31
0.0
0
LINE
5
82b
100
AcDbEntity
8
0-0
6
CONTINUOUS
62
4
100
AcDbLine
10
863.270000000000
20
417.280000000000
30
0.0
11
861.000000000000
21
416.250000000000
31
0.0
0
LINE
5
82c
100
AcDbEntity
8
0-0
6
CONTINUOUS
62
4
100
AcDbLine
10
860.860000000000
20
416.820000000000
30
0.0
11
863.420000000000
21
417.960000000000
31
0.0
0
LINE
5
82d
100
AcDbEntity
8
0-0
6
CONTINUOUS
62
4
100
AcDbLine
10
863.930000000000
20
417.660000000000
30
0.0
11
860.430000000000
21
416.420000000000
31
0.0
0
LINE
5
82e
100
AcDbEntity
8
0-0
6
CONTINUOUS
62
4
100
AcDbLine
10
863.560000000000
20
426.950000000000
30
0.0
11
864.410000000000
21
427.440000000000
31
0.0
0
LINE
5
82f
100
AcDbEntity
8
0-0
6
CONTINUOUS
62
4
100
AcDbLine
10
863.560000000000
20
427.940000000000
30
0.0
11
864.410000000000
21
427.440000000000
31
0.0
0
LINE
5
830
100
AcDbEntity
8
0-0
6
CONTINUOUS
62
4
100
AcDbLine
10
863.560000000000
20
426.950000000000
30
0.0
11
863.560000000000
21
424.760000000000
31
0.0
0
LINE
5
831
100
AcDbEntity
8
0-0
6
CONTINUOUS
62
4
100
AcDbLine
10
860.460000000000
20
425.370000000000
30
0.0
11
863.560000000000
21
426.950000000000
31
0.0
0
LINE
5
832
100
AcDbEntity
8
0-0
6
CONTINUOUS
62
4
100
AcDbLine
10
864.410000000000
20
427.440000000000
30
0.0
11
859.610000000000
21
425.860000000000
31
0.0
0
LINE
5
833
100
AcDbEntity
8
0-0
6
CONTINUOUS
62
4
100
AcDbLine
10
860.460000000000
20
426.350000000000
30
0.0
11
863.560000000000
21
427.940000000000
31
0.0
0
LINE
5
834
100
AcDbEntity
8
0-0
6
CONTINUOUS
62
4
100
AcDbLine
10
860.460000000000
20
425.370000000000
30
0.0
11
859.610000000000
21
425.860000000000
31
0.0
0
LINE
5
835
100
AcDbEntity
8
0-0
6
CONTINUOUS
62
4
100
AcDbLine
10
860.460000000000
20
426.350000000000
30
0.0
11
859.610000000000
21
425.860000000000
31
0.0
0
LINE
5
836
100
AcDbEntity
8
0-0
6
CONTINUOUS
62
4
100
AcDbLine
10
860.460000000000
20
425.370000000000
30
0.0
11
860.460000000000
21
423.170000000000
31
0.0
0
LINE
5
837
100
AcDbEntity
8
0-0
6
CONTINUOUS
62
4
100
AcDbLine
10
863.560000000000
20
430.130000000000
30
0.0
11
864.410000000000
21
430.620000000000
31
0.0
0
LINE
5
838
100
AcDbEntity
8
0-0
6
CONTINUOUS
62
4
100
AcDbLine
10
863.560000000000
20
431.110000000000
30
0.0
11
864.410000000000
21
430.620000000000
31
0.0
0
LINE
5
839
100
AcDbEntity
8
0-0
6
CONTINUOUS
62
4
100
AcDbLine
10
863.560000000000
20
430.130000000000
30
0.0
11
863.560000000000
21
427.940000000000
31
0.0
0
LINE
5
83a
100
AcDbEntity
8
0-0
6
CONTINUOUS
62
4
100
AcDbLine
10
860.460000000000
20
428.540000000000
30
0.0
11
863.560000000000
21
430.130000000000
31
0.0
0
LINE
5
83b
100
AcDbEntity
8
0-0
6
CONTINUOUS
62
4
100
AcDbLine
10
864.410000000000
20
430.620000000000
30
0.0
11
859.610000000000
21
429.030000000000
31
0.0
0
LINE
5
83c
100
AcDbEntity
8
0-0
6
CONTINUOUS
62
4
100
AcDbLine
10
860.460000000000
20
429.520000000000
30
0.0
11
863.560000000000
21
431.110000000000
31
0.0
0
LINE
5
83d
100
AcDbEntity
8
0-0
6
CONTINUOUS
62
4
100
AcDbLine
10
860.460000000000
20
428.540000000000
30
0.0
11
859.610000000000
21
429.030000000000
31
0.0
0
LINE
5
83e
100
AcDbEntity
8
0-0
6
CONTINUOUS
62
4
100
AcDbLine
10
860.460000000000
20
429.520000000000
30
0.0
11
859.610000000000
21
429.030000000000
31
0.0
0
LINE
5
83f
100
AcDbEntity
8
0-0
6
CONTINUOUS
62
4
100
AcDbLine
10
860.460000000000
20
428.540000000000
30
0.0
11
860.460000000000
21
426.350000000000
31
0.0
0
LINE
5
840
100
AcDbEntity
8
0-0
6
CONTINUOUS
62
4
100
AcDbLine
10
863.560000000000
20
433.300000000000
30
0.0
11
864.410000000000
21
433.790000000000
31
0.0
0
LINE
5
841
100
AcDbEntity
8
0-0
6
CONTINUOUS
62
4
100
AcDbLine
10
863.560000000000
20
434.290000000000
30
0.0
11
864.410000000000
21
433.790000000000
31
0.0
0
LINE
5
842
100
AcDbEntity
8
0-0
6
CONTINUOUS
62
4
100
AcDbLine
10
863.560000000000
20
433.300000000000
30
0.0
11
863.560000000000
21
431.110000000000
31
0.0
0
LINE
5
843
100
AcDbEntity
8
0-0
6
CONTINUOUS
62
4
100
AcDbLine
10
860.460000000000
20
431.720000000000
30
0.0
11
863.560000000000
21
433.300000000000
31
0.0
0
LINE
5
844
100
AcDbEntity
8
0-0
6
CONTINUOUS
62
4
100
AcDbLine
10
864.410000000000
20
433.790000000000
30
0.0
11
859.610000000000
21
432.210000000000
31
0.0
0
LINE
5
845
100
AcDbEntity
8
0-0
6
CONTINUOUS
62
4
100
AcDbLine
10
860.460000000000
20
432.700000000000
30
0.0
11
863.560000000000
21
434.290000000000
31
0.0
0
LINE
5
846
100
AcDbEntity
8
0-0
6
CONTINUOUS
62
4
100
AcDbLine
10
860.460000000000
20
431.720000000000
30
0.0
11
859.610000000000
21
432.210000000000
31
0.0
0
LINE
5
847
100
AcDbEntity
8
0-0
6
CONTINUOUS
62
4
100
AcDbLine
10
860.460000000000
20
432.700000000000
30
0.0
11
859.610000000000
21
432.210000000000
31
0.0
0
LINE
5
848
100
AcDbEntity
8
0-0
6
CONTINUOUS
62
4
100
AcDbLine
10
860.460000000000
20
431.720000000000
30
0.0
11
860.460000000000
21
429.520000000000
31
0.0
0
LINE
5
849
100
AcDbEntity
8
0-0
6
CONTINUOUS
62
4
100
AcDbLine
10
863.560000000000
20
436.480000000000
30
0.0
11
864.410000000000
21
436.970000000000
31
0.0
0
LINE
5
84a
100
AcDbEntity
8
0-0
6
CONTINUOUS
62
4
100
AcDbLine
10
863.560000000000
20
437.460000000000
30
0.0
11
864.410000000000
21
436.970000000000
31
0.0
0
LINE
5
84b
100
AcDbEntity
8
0-0
6
CONTINUOUS
62
4
100
AcDbLine
10
863.560000000000
20
436.480000000000
30
0.0
11
863.560000000000
21
434.290000000000
31
0.0
0
LINE
5
84c
100
AcDbEntity
8
0-0
6
CONTINUOUS
62
4
100
AcDbLine
10
860.460000000000
20
434.890000000000
30
0.0
11
863.560000000000
21
436.480000000000
31
0.0
0
LINE
5
84d
100
AcDbEntity
8
0-0
6
CONTINUOUS
62
4
100
AcDbLine
10
864.410000000000
20
436.970000000000
30
0.0
11
859.610000000000
21
435.380000000000
31
0.0
0
LINE
5
84e
100
AcDbEntity
8
0-0
6
CONTINUOUS
62
4
100
AcDbLine
10
860.460000000000
20
435.870000000000
30
0.0
11
863.560000000000
21
437.460000000000
31
0.0
0
LINE
5
84f
100
AcDbEntity
8
0-0
6
CONTINUOUS
62
4
100
AcDbLine
10
860.460000000000
20
434.890000000000
30
0.0
11
859.610000000000
21
435.380000000000
31
0.0
0
LINE
5
850
100
AcDbEntity
8
0-0
6
CONTINUOUS
62
4
100
AcDbLine
10
860.460000000000
20
435.870000000000
30
0.0
11
859.610000000000
21
435.380000000000
31
0.0
0
LINE
5
851
100
AcDbEntity
8
0-0
6
CONTINUOUS
62
4
100
AcDbLine
10
860.460000000000
20
434.890000000000
30
0.0
11
860.460000000000
21
432.700000000000
31
0.0
0
LINE
5
852
100
AcDbEntity
8
0-0
6
CONTINUOUS
62
4
100
AcDbLine
10
864.000000000000
20
439.910000000000
30
0.0
11
863.560000000000
21
439.650000000000
31
0.0
0
LINE
5
853
100
AcDbEntity
8
0-0
6
CONTINUOUS
62
4
100
AcDbLine
10
864.000000000000
20
440.380000000000
30
0.0
11
863.560000000000
21
440.640000000000
31
0.0
0
LINE
5
854
100
AcDbEntity
8
0-0
6
CONTINUOUS
62
4
100
AcDbLine
10
863.560000000000
20
439.650000000000
30
0.0
11
863.560000000000
21
437.460000000000
31
0.0
0
LINE
5
855
100
AcDbEntity
8
0-0
6
CONTINUOUS
62
4
100
AcDbLine
10
860.460000000000
20
438.070000000000
30
0.0
11
863.560000000000
21
439.650000000000
31
0.0
0
LINE
5
856
100
AcDbEntity
8
0-0
6
CONTINUOUS
62
4
100
AcDbLine
10
860.460000000000
20
439.050000000000
30
0.0
11
863.560000000000
21
440.640000000000
31
0.0
0
LINE
5
857
100
AcDbEntity
8
0-0
6
CONTINUOUS
62
4
100
AcDbLine
10
859.880000000000
20
438.400000000000
30
0.0
11
860.460000000000
21
438.070000000000
31
0.0
0
LINE
5
858
100
AcDbEntity
8
0-0
6
CONTINUOUS
62
4
100
AcDbLine
10
859.880000000000
20
438.710000000000
30
0.0
11
860.460000000000
21
439.050000000000
31
0.0
0
LINE
5
859
100
AcDbEntity
8
0-0
6
CONTINUOUS
62
4
100
AcDbLine
10
860.460000000000
20
438.070000000000
30
0.0
11
860.460000000000
21
435.870000000000
31
0.0
0
LINE
5
85a
100
AcDbEntity
8
0-0
6
CONTINUOUS
62
4
100
AcDbLine
10
863.700000000000
20
440.850000000000
30
0.0
11
863.560000000000
21
440.640000000000
31
0.0
0
LINE
5
85b
100
AcDbEntity
8
0-0
6
CONTINUOUS
62
4
100
AcDbLine
10
860.330000000000
20
440.850000000000
30
0.0
11
860.460000000000
21
439.050000000000
31
0.0
0
LINE
5
85c
100
AcDbEntity
8
0-0
6
CONTINUOUS
62
4
100
AcDbLine
10
859.880000000000
20
438.710000000000
30
0.0
11
859.880000000000
21
438.400000000000
31
0.0
0
LINE
5
85d
100
AcDbEntity
8
0-0
6
CONTINUOUS
62
4
100
AcDbLine
10
864.000000000000
20
440.380000000000
30
0.0
11
864.000000000000
21
439.910000000000
31
0.0
0
LINE
5
85e
100
AcDbEntity
8
0-0
6
CONTINUOUS
62
4
100
AcDbLine
10
864.000000000000
20
439.910000000000
30
0.0
11
859.880000000000
21
438.400000000000
31
0.0
0
LINE
5
85f
100
AcDbEntity
8
0-0
6
CONTINUOUS
62
4
100
AcDbLine
10
859.880000000000
20
438.710000000000
30
0.0
11
864.000000000000
21
440.380000000000
31
0.0
0
LINE
5
860
100
AcDbEntity
8
0-0
6
DOT
62
4
100
AcDbLine
10
864.060000000000
20
444.750000000000
30
0.0
11
863.160000000000
21
442.930000000000
31
0.0
0
LINE
5
861
100
AcDbEntity
8
0-0
6
DOT
62
4
100
AcDbLine
10
863.160000000000
20
442.930000000000
30
0.0
11
862.010000000000
21
442.320000000000
31
0.0
0
LINE
5
862
100
AcDbEntity
8
0-0
6
DOT
62
4
100
AcDbLine
10
862.010000000000
20
442.320000000000
30
0.0
11
860.870000000000
21
442.930000000000
31
0.0
0
LINE
5
863
100
AcDbEntity
8
0-0
6
DOT
62
4
100
AcDbLine
10
859.960000000000
20
444.750000000000
30
0.0
11
860.870000000000
21
442.930000000000
31
0.0
0
LINE
5
864
100
AcDbEntity
8
0-0
6
CONTINUOUS
62
4
100
AcDbLine
10
862.660000000000
20
414.640000000000
30
0.0
11
861.780000000000
21
412.850000000000
31
0.0
0
LINE
5
865
100
AcDbEntity
8
0-0
6
CONTINUOUS
62
4
100
AcDbLine
10
863.080000000000
20
414.390000000000
30
0.0
11
861.780000000000
21
412.850000000000
31
0.0
0
LINE
5
866
100
AcDbEntity
8
0-0
6
CONTINUOUS
62
4
100
AcDbLine
10
861.000000000000
20
416.250000000000
30
0.0
11
862.010000000000
21
411.850000000000
31
0.0
0
LINE
5
867
100
AcDbEntity
8
0-0
6
CENTER2
62
4
100
AcDbLine
10
862.010000000000
20
444.750000000000
30
0.0
11
862.010000000000
21
411.850000000000
31
0.0
0
LINE
5
868
100
AcDbEntity
8
0-0
6
CONTINUOUS
62
4
100
AcDbLine
10
862.420000000000
20
413.610000000000
30
0.0
11
862.010000000000
21
411.850000000000
31
0.0
0
LINE
5
869
100
AcDbEntity
8
0-1
6
CONTINUOUS
62
3
100
AcDbLine
10
455.160000000000
20
347.780000000000
30
0.0
11
455.660000000000
21
347.780000000000
31
0.0
0
LINE
5
86a
100
AcDbEntity
8
0-1
6
CONTINUOUS
62
3
100
AcDbLine
10
471.660000000000
20
278.280000000000
30
0.0
11
472.160000000000
21
278.280000000000
31
0.0
0
LINE
5
86b
100
AcDbEntity
8
0-1
6
CONTINUOUS
62
3
100
AcDbLine
10
455.660000000000
20
298.780000000000
30
0.0
11
455.660000000000
21
347.780000000000
31
0.0
0
LINE
5
86c
100
AcDbEntity
8
0-1
6
CONTINUOUS
62
3
100
AcDbLine
10
479.660000000000
20
270.780000000000
30
0.0
11
472.660000000000
21
270.780000000000
31
0.0
0
LINE
5
86d
100
AcDbEntity
8
0-1
6
CONTINUOUS
62
3
100
AcDbLine
10
479.660000000000
20
270.280000000000
30
0.0
11
472.660000000000
21
270.280000000000
31
0.0
0
LINE
5
86e
100
AcDbEntity
8
0-1
6
CONTINUOUS
62
3
100
AcDbLine
10
455.160000000000
20
298.780000000000
30
0.0
11
455.160000000000
21
347.780000000000
31
0.0
0
LINE
5
86f
100
AcDbEntity
8
0-1
6
CONTINUOUS
62
4
100
AcDbLine
10
445.160000000000
20
297.780000000000
30
0.0
11
445.160000000000
21
347.780000000000
31
0.0
0
LINE
5
870
100
AcDbEntity
8
0-1
6
CONTINUOUS
62
4
100
AcDbLine
10
450.160000000000
20
297.780000000000
30
0.0
11
445.160000000000
21
297.780000000000
31
0.0
0
LINE
5
871
100
AcDbEntity
8
0-1
6
CONTINUOUS
62
4
100
AcDbLine
10
450.160000000000
20
347.780000000000
30
0.0
11
445.160000000000
21
347.780000000000
31
0.0
0
LINE
5
872
100
AcDbEntity
8
0-1
6
CONTINUOUS
62
4
100
AcDbLine
10
469.160000000000
20
278.280000000000
30
0.0
11
464.160000000000
21
278.280000000000
31
0.0
0
LINE
5
873
100
AcDbEntity
8
0-1
6
CONTINUOUS
62
4
100
AcDbLine
10
469.160000000000
20
270.280000000000
30
0.0
11
464.160000000000
21
270.280000000000
31
0.0
0
LINE
5
874
100
AcDbEntity
8
0-1
6
CONTINUOUS
62
4
100
AcDbLine
10
485.660000000000
20
295.280000000000
30
0.0
11
490.660000000000
21
295.280000000000
31
0.0
0
LINE
5
875
100
AcDbEntity
8
0-1
6
CONTINUOUS
62
4
100
AcDbLine
10
471.660000000000
20
260.280000000000
30
0.0
11
480.660000000000
21
260.280000000000
31
0.0
0
LINE
5
876
100
AcDbEntity
8
0-1
6
CONTINUOUS
62
4
100
AcDbLine
10
471.660000000000
20
265.280000000000
30
0.0
11
471.660000000000
21
260.280000000000
31
0.0
0
LINE
5
877
100
AcDbEntity
8
0-1
6
CONTINUOUS
62
4
100
AcDbLine
10
480.660000000000
20
265.280000000000
30
0.0
11
480.660000000000
21
260.280000000000
31
0.0
0
LINE
5
878
100
AcDbEntity
8
0-1
6
CONTINUOUS
62
4
100
AcDbLine
10
485.660000000000
20
270.280000000000
30
0.0
11
490.660000000000
21
270.280000000000
31
0.0
0
LINE
5
879
100
AcDbEntity
8
0-2
6
CONTINUOUS
62
4
100
AcDbLine
10
613.750000000000
20
151.070000000000
30
0.0
11
613.750000000000
21
146.070000000000
31
0.0
0
LINE
5
87a
100
AcDbEntity
8
0-2
6
CONTINUOUS
62
4
100
AcDbLine
10
624.250000000000
20
151.070000000000
30
0.0
11
624.250000000000
21
146.070000000000
31
0.0
0
LINE
5
87b
100
AcDbEntity
8
0-2
6
CONTINUOUS
62
4
100
AcDbLine
10
627.750000000000
20
169.570000000000
30
0.0
11
630.250000000000
21
169.570000000000
31
0.0
0
LINE
5
87c
100
AcDbEntity
8
0-2
6
CONTINUOUS
62
4
100
AcDbLine
10
603.750000000000
20
178.070000000000
30
0.0
11
603.750000000000
21
169.070000000000
31
0.0
0
LINE
5
87d
100
AcDbEntity
8
0-2
6
CONTINUOUS
62
4
100
AcDbLine
10
608.750000000000
20
178.070000000000
30
0.0
11
603.750000000000
21
178.070000000000
31
0.0
0
LINE
5
87e
100
AcDbEntity
8
0-2
6
CONTINUOUS
62
4
100
AcDbLine
10
608.750000000000
20
169.070000000000
30
0.0
11
603.750000000000
21
169.070000000000
31
0.0
0
LINE
5
87f
100
AcDbEntity
8
0-2
6
CONTINUOUS
62
4
100
AcDbLine
10
613.750000000000
20
183.070000000000
30
0.0
11
613.750000000000
21
188.070000000000
31
0.0
0
LINE
5
880
100
AcDbEntity
8
0-2
6
CONTINUOUS
62
4
100
AcDbLine
10
671.750000000000
20
183.070000000000
30
0.0
11
671.750000000000
21
188.070000000000
31
0.0
0
LINE
5
881
100
AcDbEntity
8
0-2
6
CONTINUOUS
62
4
100
AcDbLine
10
677.250000000000
20
120.070000000000
30
0.0
11
682.250000000000
21
120.070000000000
31
0.0
0
LINE
5
882
100
AcDbEntity
8
0-2
6
CONTINUOUS
62
4
100
AcDbLine
10
677.250000000000
20
178.070000000000
30
0.0
11
682.250000000000
21
178.070000000000
31
0.0
0
LINE
5
883
100
AcDbEntity
8
0-2
6
CONTINUOUS
62
4
100
AcDbLine
10
671.750000000000
20
110.070000000000
30
0.0
11
662.750000000000
21
110.070000000000
31
0.0
0
LINE
5
884
100
AcDbEntity
8
0-2
6
CONTINUOUS
62
4
100
AcDbLine
10
671.750000000000
20
115.070000000000
30
0.0
11
671.750000000000
21
110.070000000000
31
0.0
0
LINE
5
885
100
AcDbEntity
8
0-2
6
CONTINUOUS
62
4
100
AcDbLine
10
662.750000000000
20
115.070000000000
30
0.0
11
662.750000000000
21
110.070000000000
31
0.0
0
LINE
5
886
100
AcDbEntity
8
0-2
6
CONTINUOUS
62
3
100
AcDbLine
10
614.250000000000
20
177.070000000000
30
0.0
11
614.250000000000
21
170.070000000000
31
0.0
0
LINE
5
887
100
AcDbEntity
8
0-2
6
CONTINUOUS
62
3
100
AcDbLine
10
614.750000000000
20
169.570000000000
30
0.0
11
623.250000000000
21
169.570000000000
31
0.0
0
LINE
5
888
100
AcDbEntity
8
0-2
6
CONTINUOUS
62
3
100
AcDbLine
10
623.250000000000
20
169.070000000000
30
0.0
11
614.750000000000
21
169.070000000000
31
0.0
0
LINE
5
889
100
AcDbEntity
8
0-2
6
CONTINUOUS
62
3
100
AcDbLine
10
613.750000000000
20
177.070000000000
30
0.0
11
613.750000000000
21
170.070000000000
31
0.0
0
LINE
5
88a
100
AcDbEntity
8
0-2
6
CONTINUOUS
62
3
100
AcDbLine
10
663.750000000000
20
120.570000000000
30
0.0
11
670.750000000000
21
120.570000000000
31
0.0
0
LINE
5
88b
100
AcDbEntity
8
0-2
6
CONTINUOUS
62
3
100
AcDbLine
10
662.750000000000
20
129.570000000000
30
0.0
11
662.750000000000
21
121.070000000000
31
0.0
0
LINE
5
88c
100
AcDbEntity
8
0-2
6
CONTINUOUS
62
3
100
AcDbLine
10
670.750000000000
20
120.070000000000
30
0.0
11
663.750000000000
21
120.070000000000
31
0.0
0
LINE
5
88d
100
AcDbEntity
8
0-2
6
CONTINUOUS
62
3
100
AcDbLine
10
663.250000000000
20
121.070000000000
30
0.0
11
663.250000000000
21
129.570000000000
31
0.0
0
LINE
5
88e
100
AcDbEntity
8
0-1
6
CONTINUOUS
62
4
100
AcDbLine
10
485.660000000000
20
298.280000000000
30
0.0
11
490.660000000000
21
298.280000000000
31
0.0
0
LINE
5
88f
100
AcDbEntity
8
0-1
6
CONTINUOUS
62
3
100
AcDbLine
10
480.160000000000
20
294.370000000000
30
0.0
11
480.160000000000
21
271.280000000000
31
0.0
0
LINE
5
890
100
AcDbEntity
8
0-1
6
CONTINUOUS
62
3
100
AcDbLine
10
480.660000000000
20
294.370000000000
30
0.0
11
480.660000000000
21
271.280000000000
31
0.0
0
LINE
5
891
100
AcDbEntity
8
0-1
6
CONTINUOUS
62
4
100
AcDbLine
10
490.660000000000
20
298.280000000000
30
0.0
11
490.660000000000
21
270.280000000000
31
0.0
0
LINE
5
892
100
AcDbEntity
8
0-1
6
CONTINUOUS
62
3
100
AcDbLine
10
479.750000000000
20
295.370000000000
30
0.0
11
456.120000000000
21
298.280000000000
31
0.0
0
LINE
5
893
100
AcDbEntity
8
0-1
6
CONTINUOUS
62
3
100
AcDbLine
10
456.080000000000
20
297.780000000000
30
0.0
11
479.700000000000
21
294.870000000000
31
0.0
0
LINE
5
894
100
AcDbEntity
8
0-1
6
CONTINUOUS
62
4
100
AcDbLine
10
455.660000000000
20
308.280000000000
30
0.0
11
480.660000000000
21
308.280000000000
31
0.0
0
LINE
5
895
100
AcDbEntity
8
0-1
6
CONTINUOUS
62
4
100
AcDbLine
10
480.660000000000
20
303.280000000000
30
0.0
11
480.660000000000
21
308.280000000000
31
0.0
0
LINE
5
896
100
AcDbEntity
8
0-2
6
CONTINUOUS
62
3
100
AcDbLine
10
624.250000000000
20
168.570000000000
30
0.0
11
624.250000000000
21
154.570000000000
31
0.0
0
LINE
5
897
100
AcDbEntity
8
0-2
6
CONTINUOUS
62
3
100
AcDbLine
10
623.750000000000
20
168.570000000000
30
0.0
11
623.750000000000
21
154.570000000000
31
0.0
0
LINE
5
898
100
AcDbEntity
8
0-2
6
CONTINUOUS
62
4
100
AcDbLine
10
627.750000000000
20
153.570000000000
30
0.0
11
630.250000000000
21
153.570000000000
31
0.0
0
LINE
5
899
100
AcDbEntity
8
0-2
6
CONTINUOUS
62
4
100
AcDbLine
10
630.250000000000
20
153.570000000000
30
0.0
11
630.250000000000
21
169.570000000000
31
0.0
0
LINE
5
89a
100
AcDbEntity
8
0-2
6
CONTINUOUS
62
4
100
AcDbLine
10
629.750000000000
20
85.570000000000
30
0.0
11
629.750000000000
21
130.570000000000
31
0.0
0
LINE
5
89b
100
AcDbEntity
8
0-2
6
CONTINUOUS
62
4
100
AcDbLine
10
644.750000000000
20
130.570000000000
30
0.0
11
639.750000000000
21
130.570000000000
31
0.0
0
LINE
5
89c
100
AcDbEntity
8
0-2
6
CONTINUOUS
62
4
100
AcDbLine
10
663.250000000000
20
134.070000000000
30
0.0
11
663.250000000000
21
136.570000000000
31
0.0
0
LINE
5
89d
100
AcDbEntity
8
0-2
6
CONTINUOUS
62
3
100
AcDbLine
10
662.250000000000
20
130.570000000000
30
0.0
11
648.250000000000
21
130.570000000000
31
0.0
0
LINE
5
89e
100
AcDbEntity
8
0-2
6
CONTINUOUS
62
3
100
AcDbLine
10
662.250000000000
20
130.070000000000
30
0.0
11
648.250000000000
21
130.070000000000
31
0.0
0
LINE
5
89f
100
AcDbEntity
8
0-2
6
CONTINUOUS
62
4
100
AcDbLine
10
647.250000000000
20
134.070000000000
30
0.0
11
647.250000000000
21
136.570000000000
31
0.0
0
LINE
5
8a0
100
AcDbEntity
8
0-2
6
CONTINUOUS
62
4
100
AcDbLine
10
647.250000000000
20
136.570000000000
30
0.0
11
663.250000000000
21
136.570000000000
31
0.0
0
LINE
5
8a1
100
AcDbEntity
8
0-1
6
CONTINUOUS
62
4
100
AcDbLine
10
258.560000000000
20
344.780000000000
30
0.0
11
318.560000000000
21
344.780000000000
31
0.0
0
LINE
5
8a2
100
AcDbEntity
8
0-1
6
CONTINUOUS
62
4
100
AcDbLine
10
258.560000000000
20
339.780000000000
30
0.0
11
258.560000000000
21
344.780000000000
31
0.0
0
LINE
5
8a3
100
AcDbEntity
8
0-1
6
CONTINUOUS
62
4
100
AcDbLine
10
318.560000000000
20
339.780000000000
30
0.0
11
318.560000000000
21
344.780000000000
31
0.0
0
LINE
5
8a4
100
AcDbEntity
8
0-1
6
CONTINUOUS
62
3
100
AcDbLine
10
258.560000000000
20
334.780000000000
30
0.0
11
258.560000000000
21
334.280000000000
31
0.0
0
LINE
5
8a5
100
AcDbEntity
8
0-1
6
CONTINUOUS
62
4
100
AcDbLine
10
274.560000000000
20
310.780000000000
30
0.0
11
274.560000000000
21
305.780000000000
31
0.0
0
LINE
5
8a6
100
AcDbEntity
8
0-1
6
CONTINUOUS
62
4
100
AcDbLine
10
304.560000000000
20
310.780000000000
30
0.0
11
304.560000000000
21
305.780000000000
31
0.0
0
LINE
5
8a7
100
AcDbEntity
8
0-1
6
CONTINUOUS
62
4
100
AcDbLine
10
304.560000000000
20
295.780000000000
30
0.0
11
304.560000000000
21
290.780000000000
31
0.0
0
LINE
5
8a8
100
AcDbEntity
8
0-1
6
CONTINUOUS
62
4
100
AcDbLine
10
274.560000000000
20
295.780000000000
30
0.0
11
274.560000000000
21
290.780000000000
31
0.0
0
LINE
5
8a9
100
AcDbEntity
8
0-1
6
CONTINUOUS
62
4
100
AcDbLine
10
274.560000000000
20
290.780000000000
30
0.0
11
304.560000000000
21
290.780000000000
31
0.0
0
LINE
5
8aa
100
AcDbEntity
8
0-1
6
CONTINUOUS
62
4
100
AcDbLine
10
282.560000000000
20
310.780000000000
30
0.0
11
282.560000000000
21
305.780000000000
31
0.0
0
LINE
5
8ab
100
AcDbEntity
8
0-1
6
CONTINUOUS
62
4
100
AcDbLine
10
288.560000000000
20
310.780000000000
30
0.0
11
288.560000000000
21
305.780000000000
31
0.0
0
LINE
5
8ac
100
AcDbEntity
8
0-1
6
CONTINUOUS
62
4
100
AcDbLine
10
274.560000000000
20
305.780000000000
30
0.0
11
282.560000000000
21
305.780000000000
31
0.0
0
LINE
5
8ad
100
AcDbEntity
8
0-1
6
CONTINUOUS
62
4
100
AcDbLine
10
288.560000000000
20
305.780000000000
30
0.0
11
304.560000000000
21
305.780000000000
31
0.0
0
LINE
5
8ae
100
AcDbEntity
8
0-1
6
CONTINUOUS
62
4
100
AcDbLine
10
322.310000000000
20
333.280000000000
30
0.0
11
327.310000000000
21
333.280000000000
31
0.0
0
LINE
5
8af
100
AcDbEntity
8
0-1
6
CONTINUOUS
62
3
100
AcDbLine
10
258.560000000000
20
334.780000000000
30
0.0
11
317.810000000000
21
334.780000000000
31
0.0
0
LINE
5
8b0
100
AcDbEntity
8
0-1
6
CONTINUOUS
62
3
100
AcDbLine
10
289.560000000000
20
333.280000000000
30
0.0
11
317.810000000000
21
333.280000000000
31
0.0
0
LINE
5
8b1
100
AcDbEntity
8
0-1
6
CONTINUOUS
62
3
100
AcDbLine
10
258.560000000000
20
334.280000000000
30
0.0
11
317.810000000000
21
334.280000000000
31
0.0
0
LINE
5
8b2
100
AcDbEntity
8
0-1
6
CONTINUOUS
62
3
100
AcDbLine
10
289.560000000000
20
333.780000000000
30
0.0
11
317.810000000000
21
333.780000000000
31
0.0
0
LINE
5
8b3
100
AcDbEntity
8
0-1
6
CONTINUOUS
62
3
100
AcDbLine
10
289.560000000000
20
317.280000000000
30
0.0
11
303.810000000000
21
317.280000000000
31
0.0
0
LINE
5
8b4
100
AcDbEntity
8
0-1
6
CONTINUOUS
62
3
100
AcDbLine
10
303.810000000000
20
316.780000000000
30
0.0
11
289.560000000000
21
316.780000000000
31
0.0
0
LINE
5
8b5
100
AcDbEntity
8
0-1
6
CONTINUOUS
62
3
100
AcDbLine
10
275.310000000000
20
316.780000000000
30
0.0
11
282.560000000000
21
316.780000000000
31
0.0
0
LINE
5
8b6
100
AcDbEntity
8
0-1
6
CONTINUOUS
62
3
100
AcDbLine
10
282.560000000000
20
317.280000000000
30
0.0
11
275.310000000000
21
317.280000000000
31
0.0
0
LINE
5
8b7
100
AcDbEntity
8
0-1
6
CONTINUOUS
62
3
100
AcDbLine
10
282.560000000000
20
317.280000000000
30
0.0
11
282.560000000000
21
316.780000000000
31
0.0
0
LINE
5
8b8
100
AcDbEntity
8
0-1
6
CONTINUOUS
62
3
100
AcDbLine
10
275.310000000000
20
316.280000000000
30
0.0
11
303.810000000000
21
316.280000000000
31
0.0
0
LINE
5
8b9
100
AcDbEntity
8
0-1
6
CONTINUOUS
62
3
100
AcDbLine
10
275.310000000000
20
315.780000000000
30
0.0
11
303.810000000000
21
315.780000000000
31
0.0
0
LINE
5
8ba
100
AcDbEntity
8
0-1
6
CONTINUOUS
62
3
100
AcDbLine
10
288.560000000000
20
332.780000000000
30
0.0
11
288.560000000000
21
317.780000000000
31
0.0
0
LINE
5
8bb
100
AcDbEntity
8
0-1
6
CONTINUOUS
62
3
100
AcDbLine
10
289.060000000000
20
332.780000000000
30
0.0
11
289.060000000000
21
317.780000000000
31
0.0
0
LINE
5
8bc
100
AcDbEntity
8
0-1
6
CONTINUOUS
62
4
100
AcDbLine
10
322.310000000000
20
317.280000000000
30
0.0
11
327.310000000000
21
317.280000000000
31
0.0
0
LINE
5
8bd
100
AcDbEntity
8
0-1
6
CONTINUOUS
62
4
100
AcDbLine
10
327.310000000000
20
333.280000000000
30
0.0
11
327.310000000000
21
317.280000000000
31
0.0
0
LINE
5
8be
100
AcDbEntity
8
0-1
6
CONTINUOUS
62
3
100
AcDbLine
10
142.650000000000
20
308.280000000000
30
0.0
11
124.650000000000
21
308.280000000000
31
0.0
0
LINE
5
8bf
100
AcDbEntity
8
0-1
6
CONTINUOUS
62
3
100
AcDbLine
10
143.150000000000
20
308.780000000000
30
0.0
11
143.150000000000
21
315.780000000000
31
0.0
0
LINE
5
8c0
100
AcDbEntity
8
0-1
6
CONTINUOUS
62
3
100
AcDbLine
10
143.650000000000
20
308.780000000000
30
0.0
11
143.650000000000
21
315.780000000000
31
0.0
0
LINE
5
8c1
100
AcDbEntity
8
0-1
6
CONTINUOUS
62
3
100
AcDbLine
10
124.650000000000
20
307.780000000000
30
0.0
11
142.650000000000
21
307.780000000000
31
0.0
0
LINE
5
8c2
100
AcDbEntity
8
0-1
6
CONTINUOUS
62
4
100
AcDbLine
10
123.650000000000
20
342.780000000000
30
0.0
11
173.650000000000
21
342.780000000000
31
0.0
0
LINE
5
8c3
100
AcDbEntity
8
0-1
6
CONTINUOUS
62
4
100
AcDbLine
10
123.650000000000
20
337.780000000000
30
0.0
11
123.650000000000
21
342.780000000000
31
0.0
0
LINE
5
8c4
100
AcDbEntity
8
0-1
6
CONTINUOUS
62
4
100
AcDbLine
10
173.650000000000
20
337.780000000000
30
0.0
11
173.650000000000
21
342.780000000000
31
0.0
0
LINE
5
8c5
100
AcDbEntity
8
0-1
6
CONTINUOUS
62
4
100
AcDbLine
10
143.650000000000
20
302.780000000000
30
0.0
11
143.650000000000
21
297.780000000000
31
0.0
0
LINE
5
8c6
100
AcDbEntity
8
0-1
6
CONTINUOUS
62
4
100
AcDbLine
10
118.650000000000
20
332.780000000000
30
0.0
11
113.650000000000
21
332.780000000000
31
0.0
0
LINE
5
8c7
100
AcDbEntity
8
0-1
6
CONTINUOUS
62
4
100
AcDbLine
10
153.650000000000
20
316.780000000000
30
0.0
11
153.650000000000
21
307.780000000000
31
0.0
0
LINE
5
8c8
100
AcDbEntity
8
0-1
6
CONTINUOUS
62
4
100
AcDbLine
10
148.650000000000
20
316.780000000000
30
0.0
11
153.650000000000
21
316.780000000000
31
0.0
0
LINE
5
8c9
100
AcDbEntity
8
0-1
6
CONTINUOUS
62
4
100
AcDbLine
10
148.650000000000
20
307.780000000000
30
0.0
11
153.650000000000
21
307.780000000000
31
0.0
0
LINE
5
8ca
100
AcDbEntity
8
0-1
6
CONTINUOUS
62
4
100
AcDbLine
10
113.650000000000
20
332.780000000000
30
0.0
11
113.650000000000
21
307.780000000000
31
0.0
0
LINE
5
8cb
100
AcDbEntity
8
0-1
6
CONTINUOUS
62
4
100
AcDbLine
10
118.650000000000
20
307.780000000000
30
0.0
11
113.650000000000
21
307.780000000000
31
0.0
0
LINE
5
8cc
100
AcDbEntity
8
0-1
6
CONTINUOUS
62
3
100
AcDbLine
10
124.150000000000
20
308.780000000000
30
0.0
11
124.150000000000
21
331.780000000000
31
0.0
0
LINE
5
8cd
100
AcDbEntity
8
0-1
6
CONTINUOUS
62
3
100
AcDbLine
10
123.650000000000
20
308.780000000000
30
0.0
11
123.650000000000
21
331.780000000000
31
0.0
0
LINE
5
8ce
100
AcDbEntity
8
0-1
6
CONTINUOUS
62
3
100
AcDbLine
10
124.650000000000
20
332.780000000000
30
0.0
11
173.650000000000
21
332.780000000000
31
0.0
0
LINE
5
8cf
100
AcDbEntity
8
0-1
6
CONTINUOUS
62
3
100
AcDbLine
10
124.650000000000
20
332.280000000000
30
0.0
11
173.650000000000
21
332.280000000000
31
0.0
0
LINE
5
8d0
100
AcDbEntity
8
0-1
6
CONTINUOUS
62
3
100
AcDbLine
10
173.650000000000
20
332.780000000000
30
0.0
11
173.650000000000
21
332.280000000000
31
0.0
0
LINE
5
8d1
100
AcDbEntity
8
0-1
6
CONTINUOUS
62
3
100
AcDbLine
10
135.650000000000
20
316.780000000000
30
0.0
11
135.650000000000
21
316.280000000000
31
0.0
0
LINE
5
8d2
100
AcDbEntity
8
0-1
6
CONTINUOUS
62
3
100
AcDbLine
10
135.650000000000
20
316.780000000000
30
0.0
11
142.650000000000
21
316.780000000000
31
0.0
0
LINE
5
8d3
100
AcDbEntity
8
0-1
6
CONTINUOUS
62
3
100
AcDbLine
10
142.650000000000
20
316.280000000000
30
0.0
11
135.650000000000
21
316.280000000000
31
0.0
0
LINE
5
8d4
100
AcDbEntity
8
0-1
6
CONTINUOUS
62
4
100
AcDbLine
10
123.650000000000
20
282.780000000000
30
0.0
11
143.650000000000
21
282.780000000000
31
0.0
0
LINE
5
8d5
100
AcDbEntity
8
0-1
6
CONTINUOUS
62
4
100
AcDbLine
10
123.650000000000
20
287.780000000000
30
0.0
11
123.650000000000
21
282.780000000000
31
0.0
0
LINE
5
8d6
100
AcDbEntity
8
0-1
6
CONTINUOUS
62
4
100
AcDbLine
10
143.650000000000
20
287.780000000000
30
0.0
11
143.650000000000
21
282.780000000000
31
0.0
0
LINE
5
8d7
100
AcDbEntity
8
0-1
6
CONTINUOUS
62
4
100
AcDbLine
10
135.650000000000
20
302.780000000000
30
0.0
11
135.650000000000
21
297.780000000000
31
0.0
0
LINE
5
8d8
100
AcDbEntity
8
0-1
6
CONTINUOUS
62
4
100
AcDbLine
10
135.650000000000
20
297.780000000000
30
0.0
11
143.650000000000
21
297.780000000000
31
0.0
0
LINE
5
8d9
100
AcDbEntity
8
0-1
6
CONTINUOUS
62
4
100
AcDbLine
10
464.160000000000
20
278.280000000000
30
0.0
11
464.160000000000
21
270.280000000000
31
0.0
0
LINE
5
8da
100
AcDbEntity
8
0-1
6
CONTINUOUS
62
3
100
AcDbLine
10
471.660000000000
20
278.280000000000
30
0.0
11
471.660000000000
21
271.280000000000
31
0.0
0
LINE
5
8db
100
AcDbEntity
8
0-1
6
CONTINUOUS
62
3
100
AcDbLine
10
472.160000000000
20
271.280000000000
30
0.0
11
472.160000000000
21
278.280000000000
31
0.0
0
LINE
5
8dc
100
AcDbEntity
8
0-2
6
CONTINUOUS
62
3
100
AcDbLine
10
347.170000000000
20
104.580000000000
30
0.0
11
347.600000000000
21
105.640000000000
31
0.0
0
LINE
5
8dd
100
AcDbEntity
8
0-2
6
CONTINUOUS
62
3
100
AcDbLine
10
348.060000000000
20
105.450000000000
30
0.0
11
347.600000000000
21
105.640000000000
31
0.0
0
LINE
5
8de
100
AcDbEntity
8
0-2
6
CONTINUOUS
62
3
100
AcDbLine
10
348.060000000000
20
105.450000000000
30
0.0
11
347.640000000000
21
104.390000000000
31
0.0
0
LINE
5
8df
100
AcDbEntity
8
0-2
6
CONTINUOUS
62
3
100
AcDbLine
10
327.060000000000
20
106.950000000000
30
0.0
11
333.560000000000
21
106.950000000000
31
0.0
0
LINE
5
8e0
100
AcDbEntity
8
0-2
6
CONTINUOUS
62
3
100
AcDbLine
10
333.560000000000
20
107.450000000000
30
0.0
11
327.060000000000
21
107.450000000000
31
0.0
0
LINE
5
8e1
100
AcDbEntity
8
0-2
6
CONTINUOUS
62
3
100
AcDbLine
10
327.060000000000
20
103.950000000000
30
0.0
11
336.770000000000
21
103.950000000000
31
0.0
0
LINE
5
8e2
100
AcDbEntity
8
0-2
6
CONTINUOUS
62
3
100
AcDbLine
10
336.770000000000
20
103.450000000000
30
0.0
11
327.060000000000
21
103.450000000000
31
0.0
0
LINE
5
8e3
100
AcDbEntity
8
0-2
6
CONTINUOUS
62
3
100
AcDbLine
10
341.350000000000
20
103.950000000000
30
0.0
11
346.250000000000
21
103.950000000000
31
0.0
0
LINE
5
8e4
100
AcDbEntity
8
0-2
6
CONTINUOUS
62
3
100
AcDbLine
10
341.350000000000
20
103.450000000000
30
0.0
11
346.250000000000
21
103.450000000000
31
0.0
0
LINE
5
8e5
100
AcDbEntity
8
0-2
6
CONTINUOUS
62
3
100
AcDbLine
10
271.560000000000
20
190.070000000000
30
0.0
11
271.060000000000
21
190.070000000000
31
0.0
0
LINE
5
8e6
100
AcDbEntity
8
0-2
6
CONTINUOUS
62
3
100
AcDbLine
10
271.560000000000
20
170.950000000000
30
0.0
11
271.560000000000
21
190.070000000000
31
0.0
0
LINE
5
8e7
100
AcDbEntity
8
0-2
6
CONTINUOUS
62
3
100
AcDbLine
10
271.060000000000
20
190.070000000000
30
0.0
11
271.060000000000
21
170.950000000000
31
0.0
0
LINE
5
8e8
100
AcDbEntity
8
0-2
6
CONTINUOUS
62
3
100
AcDbLine
10
281.060000000000
20
169.450000000000
30
0.0
11
272.560000000000
21
169.450000000000
31
0.0
0
LINE
5
8e9
100
AcDbEntity
8
0-2
6
CONTINUOUS
62
3
100
AcDbLine
10
272.560000000000
20
169.950000000000
30
0.0
11
281.060000000000
21
169.950000000000
31
0.0
0
LINE
5
8ea
100
AcDbEntity
8
0-2
6
CONTINUOUS
62
3
100
AcDbLine
10
334.560000000000
20
115.950000000000
30
0.0
11
334.560000000000
21
108.450000000000
31
0.0
0
LINE
5
8eb
100
AcDbEntity
8
0-2
6
CONTINUOUS
62
3
100
AcDbLine
10
335.060000000000
20
108.450000000000
30
0.0
11
335.060000000000
21
115.950000000000
31
0.0
0
LINE
5
8ec
100
AcDbEntity
8
0-2
6
CONTINUOUS
62
4
100
AcDbLine
10
335.060000000000
20
127.450000000000
30
0.0
11
335.060000000000
21
137.450000000000
31
0.0
0
LINE
5
8ed
100
AcDbEntity
8
0-2
6
CONTINUOUS
62
4
100
AcDbLine
10
258.560000000000
20
190.070000000000
30
0.0
11
248.560000000000
21
190.070000000000
31
0.0
0
LINE
5
8ee
100
AcDbEntity
8
0-2
6
CONTINUOUS
62
4
100
AcDbLine
10
258.560000000000
20
169.950000000000
30
0.0
11
248.560000000000
21
169.950000000000
31
0.0
0
LINE
5
8ef
100
AcDbEntity
8
0-2
6
CONTINUOUS
62
4
100
AcDbLine
10
325.060000000000
20
93.450000000000
30
0.0
11
325.060000000000
21
83.450000000000
31
0.0
0
LINE
5
8f0
100
AcDbEntity
8
0-2
6
CONTINUOUS
62
4
100
AcDbLine
10
325.060000000000
20
83.450000000000
30
0.0
11
335.060000000000
21
83.450000000000
31
0.0
0
LINE
5
8f1
100
AcDbEntity
8
0-2
6
CONTINUOUS
62
4
100
AcDbLine
10
335.060000000000
20
93.450000000000
30
0.0
11
335.060000000000
21
83.450000000000
31
0.0
0
LINE
5
8f2
100
AcDbEntity
8
0-2
6
CONTINUOUS
62
4
100
AcDbLine
10
335.060000000000
20
83.450000000000
30
0.0
11
348.060000000000
21
83.450000000000
31
0.0
0
LINE
5
8f3
100
AcDbEntity
8
0-2
6
CONTINUOUS
62
4
100
AcDbLine
10
348.060000000000
20
93.450000000000
30
0.0
11
348.060000000000
21
83.450000000000
31
0.0
0
LINE
5
8f4
100
AcDbEntity
8
0-2
6
CONTINUOUS
62
4
100
AcDbLine
10
368.060000000000
20
103.450000000000
30
0.0
11
368.060000000000
21
117.450000000000
31
0.0
0
LINE
5
8f5
100
AcDbEntity
8
0-2
6
CONTINUOUS
62
4
100
AcDbLine
10
358.060000000000
20
103.450000000000
30
0.0
11
368.060000000000
21
103.450000000000
31
0.0
0
LINE
5
8f6
100
AcDbEntity
8
0-2
6
CONTINUOUS
62
4
100
AcDbLine
10
358.060000000000
20
117.450000000000
30
0.0
11
368.060000000000
21
117.450000000000
31
0.0
0
LINE
5
8f7
100
AcDbEntity
8
0-2
6
CONTINUOUS
62
4
100
AcDbLine
10
339.060000000000
20
93.450000000000
30
0.0
11
339.060000000000
21
83.450000000000
31
0.0
0
LINE
5
8f8
100
AcDbEntity
8
0-2
6
CONTINUOUS
62
4
100
AcDbLine
10
325.060000000000
20
73.450000000000
30
0.0
11
348.060000000000
21
73.450000000000
31
0.0
0
LINE
5
8f9
100
AcDbEntity
8
0-2
6
CONTINUOUS
62
4
100
AcDbLine
10
325.060000000000
20
83.450000000000
30
0.0
11
325.060000000000
21
73.450000000000
31
0.0
0
LINE
5
8fa
100
AcDbEntity
8
0-2
6
CONTINUOUS
62
4
100
AcDbLine
10
348.060000000000
20
83.450000000000
30
0.0
11
348.060000000000
21
73.450000000000
31
0.0
0
LINE
5
8fb
100
AcDbEntity
8
0-2
6
CONTINUOUS
62
4
100
AcDbLine
10
315.060000000000
20
103.450000000000
30
0.0
11
315.060000000000
21
107.450000000000
31
0.0
0
LINE
5
8fc
100
AcDbEntity
8
0-2
6
CONTINUOUS
62
4
100
AcDbLine
10
320.060000000000
20
103.450000000000
30
0.0
11
315.060000000000
21
103.450000000000
31
0.0
0
LINE
5
8fd
100
AcDbEntity
8
0-2
6
CONTINUOUS
62
4
100
AcDbLine
10
320.060000000000
20
107.450000000000
30
0.0
11
315.060000000000
21
107.450000000000
31
0.0
0
LINE
5
8fe
100
AcDbEntity
8
0-2
6
CONTINUOUS
62
3
100
AcDbLine
10
283.560000000000
20
117.450000000000
30
0.0
11
333.560000000000
21
117.450000000000
31
0.0
0
LINE
5
8ff
100
AcDbEntity
8
0-2
6
CONTINUOUS
62
3
100
AcDbLine
10
333.560000000000
20
116.950000000000
30
0.0
11
283.560000000000
21
116.950000000000
31
0.0
0
LINE
5
900
100
AcDbEntity
8
0-2
6
CONTINUOUS
62
3
100
AcDbLine
10
282.060000000000
20
118.450000000000
30
0.0
11
282.060000000000
21
168.450000000000
31
0.0
0
LINE
5
901
100
AcDbEntity
8
0-2
6
CONTINUOUS
62
4
100
AcDbLine
10
248.560000000000
20
190.070000000000
30
0.0
11
248.560000000000
21
117.450000000000
31
0.0
0
LINE
5
902
100
AcDbEntity
8
0-2
6
CONTINUOUS
62
4
100
AcDbLine
10
258.560000000000
20
117.450000000000
30
0.0
11
248.560000000000
21
117.450000000000
31
0.0
0
LINE
5
903
100
AcDbEntity
8
0-2
6
CONTINUOUS
62
3
100
AcDbLine
10
282.560000000000
20
118.450000000000
30
0.0
11
282.560000000000
21
168.450000000000
31
0.0
0
LINE
5
904
100
AcDbEntity
8
0-2
6
CONTINUOUS
62
4
100
AcDbLine
10
282.560000000000
20
137.450000000000
30
0.0
11
335.060000000000
21
137.450000000000
31
0.0
0
LINE
5
905
100
AcDbEntity
8
0-2
6
CONTINUOUS
62
3
100
AcDbLine
10
188.260000000000
20
157.200000000000
30
0.0
11
188.690000000000
21
158.260000000000
31
0.0
0
LINE
5
906
100
AcDbEntity
8
0-2
6
CONTINUOUS
62
3
100
AcDbLine
10
189.150000000000
20
158.070000000000
30
0.0
11
188.690000000000
21
158.260000000000
31
0.0
0
LINE
5
907
100
AcDbEntity
8
0-2
6
CONTINUOUS
62
3
100
AcDbLine
10
189.150000000000
20
158.070000000000
30
0.0
11
188.730000000000
21
157.010000000000
31
0.0
0
LINE
5
908
100
AcDbEntity
8
0-2
6
CONTINUOUS
62
3
100
AcDbLine
10
168.150000000000
20
159.570000000000
30
0.0
11
174.650000000000
21
159.570000000000
31
0.0
0
LINE
5
909
100
AcDbEntity
8
0-2
6
CONTINUOUS
62
3
100
AcDbLine
10
174.650000000000
20
160.070000000000
30
0.0
11
168.150000000000
21
160.070000000000
31
0.0
0
LINE
5
90a
100
AcDbEntity
8
0-2
6
CONTINUOUS
62
3
100
AcDbLine
10
168.150000000000
20
156.570000000000
30
0.0
11
177.860000000000
21
156.570000000000
31
0.0
0
LINE
5
90b
100
AcDbEntity
8
0-2
6
CONTINUOUS
62
3
100
AcDbLine
10
177.860000000000
20
156.070000000000
30
0.0
11
168.150000000000
21
156.070000000000
31
0.0
0
LINE
5
90c
100
AcDbEntity
8
0-2
6
CONTINUOUS
62
3
100
AcDbLine
10
182.440000000000
20
156.570000000000
30
0.0
11
187.330000000000
21
156.570000000000
31
0.0
0
LINE
5
90d
100
AcDbEntity
8
0-2
6
CONTINUOUS
62
3
100
AcDbLine
10
182.440000000000
20
156.070000000000
30
0.0
11
187.330000000000
21
156.070000000000
31
0.0
0
LINE
5
90e
100
AcDbEntity
8
0-2
6
CONTINUOUS
62
3
100
AcDbLine
10
134.150000000000
20
96.950000000000
30
0.0
11
134.650000000000
21
96.950000000000
31
0.0
0
LINE
5
90f
100
AcDbEntity
8
0-2
6
CONTINUOUS
62
3
100
AcDbLine
10
134.150000000000
20
116.070000000000
30
0.0
11
134.150000000000
21
96.950000000000
31
0.0
0
LINE
5
910
100
AcDbEntity
8
0-2
6
CONTINUOUS
62
3
100
AcDbLine
10
134.650000000000
20
96.950000000000
30
0.0
11
134.650000000000
21
116.070000000000
31
0.0
0
LINE
5
911
100
AcDbEntity
8
0-2
6
CONTINUOUS
62
3
100
AcDbLine
10
124.650000000000
20
117.570000000000
30
0.0
11
133.150000000000
21
117.570000000000
31
0.0
0
LINE
5
912
100
AcDbEntity
8
0-2
6
CONTINUOUS
62
3
100
AcDbLine
10
133.150000000000
20
117.070000000000
30
0.0
11
124.650000000000
21
117.070000000000
31
0.0
0
LINE
5
913
100
AcDbEntity
8
0-2
6
CONTINUOUS
62
3
100
AcDbLine
10
175.650000000000
20
168.570000000000
30
0.0
11
175.650000000000
21
161.070000000000
31
0.0
0
LINE
5
914
100
AcDbEntity
8
0-2
6
CONTINUOUS
62
3
100
AcDbLine
10
176.150000000000
20
161.070000000000
30
0.0
11
176.150000000000
21
168.570000000000
31
0.0
0
LINE
5
915
100
AcDbEntity
8
0-2
6
CONTINUOUS
62
4
100
AcDbLine
10
176.150000000000
20
180.070000000000
30
0.0
11
176.150000000000
21
190.070000000000
31
0.0
0
LINE
5
916
100
AcDbEntity
8
0-2
6
CONTINUOUS
62
4
100
AcDbLine
10
109.650000000000
20
96.950000000000
30
0.0
11
99.650000000000
21
96.950000000000
31
0.0
0
LINE
5
917
100
AcDbEntity
8
0-2
6
CONTINUOUS
62
4
100
AcDbLine
10
109.650000000000
20
117.070000000000
30
0.0
11
99.650000000000
21
117.070000000000
31
0.0
0
LINE
5
918
100
AcDbEntity
8
0-2
6
CONTINUOUS
62
4
100
AcDbLine
10
166.150000000000
20
146.070000000000
30
0.0
11
166.150000000000
21
136.070000000000
31
0.0
0
LINE
5
919
100
AcDbEntity
8
0-2
6
CONTINUOUS
62
4
100
AcDbLine
10
166.150000000000
20
136.070000000000
30
0.0
11
176.150000000000
21
136.070000000000
31
0.0
0
LINE
5
91a
100
AcDbEntity
8
0-2
6
CONTINUOUS
62
4
100
AcDbLine
10
176.150000000000
20
146.070000000000
30
0.0
11
176.150000000000
21
136.070000000000
31
0.0
0
LINE
5
91b
100
AcDbEntity
8
0-2
6
CONTINUOUS
62
4
100
AcDbLine
10
176.150000000000
20
136.070000000000
30
0.0
11
189.150000000000
21
136.070000000000
31
0.0
0
LINE
5
91c
100
AcDbEntity
8
0-2
6
CONTINUOUS
62
4
100
AcDbLine
10
189.150000000000
20
146.070000000000
30
0.0
11
189.150000000000
21
136.070000000000
31
0.0
0
LINE
5
91d
100
AcDbEntity
8
0-2
6
CONTINUOUS
62
4
100
AcDbLine
10
209.150000000000
20
156.070000000000
30
0.0
11
209.150000000000
21
170.070000000000
31
0.0
0
LINE
5
91e
100
AcDbEntity
8
0-2
6
CONTINUOUS
62
4
100
AcDbLine
10
199.150000000000
20
156.070000000000
30
0.0
11
209.150000000000
21
156.070000000000
31
0.0
0
LINE
5
91f
100
AcDbEntity
8
0-2
6
CONTINUOUS
62
4
100
AcDbLine
10
199.150000000000
20
170.070000000000
30
0.0
11
209.150000000000
21
170.070000000000
31
0.0
0
LINE
5
920
100
AcDbEntity
8
0-2
6
CONTINUOUS
62
4
100
AcDbLine
10
180.150000000000
20
146.070000000000
30
0.0
11
180.150000000000
21
136.070000000000
31
0.0
0
LINE
5
921
100
AcDbEntity
8
0-2
6
CONTINUOUS
62
4
100
AcDbLine
10
166.150000000000
20
126.070000000000
30
0.0
11
189.150000000000
21
126.070000000000
31
0.0
0
LINE
5
922
100
AcDbEntity
8
0-2
6
CONTINUOUS
62
4
100
AcDbLine
10
166.150000000000
20
136.070000000000
30
0.0
11
166.150000000000
21
126.070000000000
31
0.0
0
LINE
5
923
100
AcDbEntity
8
0-2
6
CONTINUOUS
62
4
100
AcDbLine
10
189.150000000000
20
136.070000000000
30
0.0
11
189.150000000000
21
126.070000000000
31
0.0
0
LINE
5
924
100
AcDbEntity
8
0-2
6
CONTINUOUS
62
4
100
AcDbLine
10
156.150000000000
20
156.070000000000
30
0.0
11
156.150000000000
21
160.070000000000
31
0.0
0
LINE
5
925
100
AcDbEntity
8
0-2
6
CONTINUOUS
62
4
100
AcDbLine
10
161.150000000000
20
156.070000000000
30
0.0
11
156.150000000000
21
156.070000000000
31
0.0
0
LINE
5
926
100
AcDbEntity
8
0-2
6
CONTINUOUS
62
4
100
AcDbLine
10
161.150000000000
20
160.070000000000
30
0.0
11
156.150000000000
21
160.070000000000
31
0.0
0
LINE
5
927
100
AcDbEntity
8
0-2
6
CONTINUOUS
62
3
100
AcDbLine
10
124.650000000000
20
170.070000000000
30
0.0
11
174.650000000000
21
170.070000000000
31
0.0
0
LINE
5
928
100
AcDbEntity
8
0-2
6
CONTINUOUS
62
3
100
AcDbLine
10
174.650000000000
20
169.570000000000
30
0.0
11
124.650000000000
21
169.570000000000
31
0.0
0
LINE
5
929
100
AcDbEntity
8
0-2
6
CONTINUOUS
62
3
100
AcDbLine
10
123.150000000000
20
168.570000000000
30
0.0
11
123.150000000000
21
118.570000000000
31
0.0
0
LINE
5
92a
100
AcDbEntity
8
0-2
6
CONTINUOUS
62
4
100
AcDbLine
10
99.650000000000
20
96.950000000000
30
0.0
11
99.650000000000
21
169.570000000000
31
0.0
0
LINE
5
92b
100
AcDbEntity
8
0-2
6
CONTINUOUS
62
4
100
AcDbLine
10
109.650000000000
20
169.570000000000
30
0.0
11
99.650000000000
21
169.570000000000
31
0.0
0
LINE
5
92c
100
AcDbEntity
8
0-2
6
CONTINUOUS
62
3
100
AcDbLine
10
123.650000000000
20
168.570000000000
30
0.0
11
123.650000000000
21
118.570000000000
31
0.0
0
LINE
5
92d
100
AcDbEntity
8
0-2
6
CONTINUOUS
62
4
100
AcDbLine
10
123.650000000000
20
190.070000000000
30
0.0
11
176.150000000000
21
190.070000000000
31
0.0
0
LINE
5
92e
100
AcDbEntity
8
0-2
6
CONTINUOUS
62
4
100
AcDbLine
10
123.650000000000
20
180.070000000000
30
0.0
11
123.650000000000
21
190.070000000000
31
0.0
0
LINE
5
92f
100
AcDbEntity
8
0-2
6
CONTINUOUS
62
4
100
AcDbLine
10
271.560000000000
20
181.620000000000
30
0.0
11
282.560000000000
21
181.620000000000
31
0.0
0
LINE
5
930
100
AcDbEntity
8
0-2
6
CONTINUOUS
62
4
100
AcDbLine
10
282.560000000000
20
176.620000000000
30
0.0
11
282.560000000000
21
181.620000000000
31
0.0
0
LINE
5
931
100
AcDbEntity
8
0-2
6
CONTINUOUS
62
4
100
AcDbLine
10
134.150000000000
20
105.410000000000
30
0.0
11
123.150000000000
21
105.410000000000
31
0.0
0
LINE
5
932
100
AcDbEntity
8
0-2
6
CONTINUOUS
62
4
100
AcDbLine
10
123.150000000000
20
110.410000000000
30
0.0
11
123.150000000000
21
105.410000000000
31
0.0
0
LINE
5
933
100
AcDbEntity
8
0-2
6
CONTINUOUS
62
3
100
AcDbLine
10
458.410000000000
20
201.070000000000
30
0.0
11
458.910000000000
21
201.070000000000
31
0.0
0
LINE
5
934
100
AcDbEntity
8
0-2
6
CONTINUOUS
62
3
100
AcDbLine
10
411.410000000000
20
115.570000000000
30
0.0
11
411.410000000000
21
115.070000000000
31
0.0
0
LINE
5
935
100
AcDbEntity
8
0-2
6
CONTINUOUS
62
3
100
AcDbLine
10
426.410000000000
20
98.570000000000
30
0.0
11
426.410000000000
21
91.570000000000
31
0.0
0
LINE
5
936
100
AcDbEntity
8
0-2
6
CONTINUOUS
62
3
100
AcDbLine
10
435.410000000000
20
115.070000000000
30
0.0
11
411.410000000000
21
115.070000000000
31
0.0
0
LINE
5
937
100
AcDbEntity
8
0-2
6
CONTINUOUS
62
4
100
AcDbLine
10
453.410000000000
20
201.070000000000
30
0.0
11
448.410000000000
21
201.070000000000
31
0.0
0
LINE
5
938
100
AcDbEntity
8
0-2
6
CONTINUOUS
62
4
100
AcDbLine
10
453.410000000000
20
151.070000000000
30
0.0
11
448.410000000000
21
151.070000000000
31
0.0
0
LINE
5
939
100
AcDbEntity
8
0-2
6
CONTINUOUS
62
4
100
AcDbLine
10
483.910000000000
20
156.570000000000
30
0.0
11
483.910000000000
21
161.570000000000
31
0.0
0
LINE
5
93a
100
AcDbEntity
8
0-2
6
CONTINUOUS
62
4
100
AcDbLine
10
411.410000000000
20
126.070000000000
30
0.0
11
436.410000000000
21
126.070000000000
31
0.0
0
LINE
5
93b
100
AcDbEntity
8
0-2
6
CONTINUOUS
62
4
100
AcDbLine
10
411.410000000000
20
121.070000000000
30
0.0
11
411.410000000000
21
126.070000000000
31
0.0
0
LINE
5
93c
100
AcDbEntity
8
0-2
6
CONTINUOUS
62
4
100
AcDbLine
10
436.410000000000
20
121.070000000000
30
0.0
11
436.410000000000
21
126.070000000000
31
0.0
0
LINE
5
93d
100
AcDbEntity
8
0-2
6
CONTINUOUS
62
4
100
AcDbLine
10
425.910000000000
20
85.570000000000
30
0.0
11
425.910000000000
21
80.570000000000
31
0.0
0
LINE
5
93e
100
AcDbEntity
8
0-2
6
CONTINUOUS
62
4
100
AcDbLine
10
435.910000000000
20
85.570000000000
30
0.0
11
435.910000000000
21
80.570000000000
31
0.0
0
LINE
5
93f
100
AcDbEntity
8
0-2
6
CONTINUOUS
62
4
100
AcDbLine
10
425.910000000000
20
80.570000000000
30
0.0
11
435.910000000000
21
80.570000000000
31
0.0
0
LINE
5
940
100
AcDbEntity
8
0-2
6
CONTINUOUS
62
4
100
AcDbLine
10
418.410000000000
20
90.570000000000
30
0.0
11
418.410000000000
21
99.570000000000
31
0.0
0
LINE
5
941
100
AcDbEntity
8
0-2
6
CONTINUOUS
62
4
100
AcDbLine
10
423.410000000000
20
90.570000000000
30
0.0
11
418.410000000000
21
90.570000000000
31
0.0
0
LINE
5
942
100
AcDbEntity
8
0-2
6
CONTINUOUS
62
4
100
AcDbLine
10
423.410000000000
20
99.570000000000
30
0.0
11
418.410000000000
21
99.570000000000
31
0.0
0
LINE
5
943
100
AcDbEntity
8
0-2
6
CONTINUOUS
62
4
100
AcDbLine
10
406.410000000000
20
99.570000000000
30
0.0
11
401.410000000000
21
99.570000000000
31
0.0
0
LINE
5
944
100
AcDbEntity
8
0-2
6
CONTINUOUS
62
4
100
AcDbLine
10
488.910000000000
20
148.570000000000
30
0.0
11
493.910000000000
21
148.570000000000
31
0.0
0
LINE
5
945
100
AcDbEntity
8
0-2
6
CONTINUOUS
62
3
100
AcDbLine
10
411.410000000000
20
115.570000000000
30
0.0
11
435.410000000000
21
115.570000000000
31
0.0
0
LINE
5
946
100
AcDbEntity
8
0-2
6
CONTINUOUS
62
3
100
AcDbLine
10
426.910000000000
20
99.070000000000
30
0.0
11
435.410000000000
21
99.070000000000
31
0.0
0
LINE
5
947
100
AcDbEntity
8
0-2
6
CONTINUOUS
62
3
100
AcDbLine
10
435.410000000000
20
99.570000000000
30
0.0
11
426.910000000000
21
99.570000000000
31
0.0
0
LINE
5
948
100
AcDbEntity
8
0-2
6
CONTINUOUS
62
3
100
AcDbLine
10
425.910000000000
20
98.570000000000
30
0.0
11
425.910000000000
21
91.570000000000
31
0.0
0
LINE
5
949
100
AcDbEntity
8
0-2
6
CONTINUOUS
62
4
100
AcDbLine
10
488.910000000000
20
151.570000000000
30
0.0
11
493.910000000000
21
151.570000000000
31
0.0
0
LINE
5
94a
100
AcDbEntity
8
0-2
6
CONTINUOUS
62
3
100
AcDbLine
10
436.410000000000
20
114.570000000000
30
0.0
11
436.410000000000
21
100.070000000000
31
0.0
0
LINE
5
94b
100
AcDbEntity
8
0-2
6
CONTINUOUS
62
3
100
AcDbLine
10
435.910000000000
20
114.570000000000
30
0.0
11
435.910000000000
21
100.070000000000
31
0.0
0
LINE
5
94c
100
AcDbEntity
8
0-2
6
CONTINUOUS
62
4
100
AcDbLine
10
406.410000000000
20
115.570000000000
30
0.0
11
401.410000000000
21
115.570000000000
31
0.0
0
LINE
5
94d
100
AcDbEntity
8
0-2
6
CONTINUOUS
62
4
100
AcDbLine
10
401.410000000000
20
99.570000000000
30
0.0
11
401.410000000000
21
115.570000000000
31
0.0
0
LINE
5
94e
100
AcDbEntity
8
0-2
6
CONTINUOUS
62
4
100
AcDbLine
10
458.910000000000
20
161.570000000000
30
0.0
11
483.910000000000
21
161.570000000000
31
0.0
0
LINE
5
94f
100
AcDbEntity
8
0-2
6
CONTINUOUS
62
3
100
AcDbLine
10
482.980000000000
20
148.640000000000
30
0.0
11
459.370000000000
21
151.040000000000
31
0.0
0
LINE
5
950
100
AcDbEntity
8
0-2
6
CONTINUOUS
62
3
100
AcDbLine
10
459.330000000000
20
150.540000000000
30
0.0
11
482.940000000000
21
148.140000000000
31
0.0
0
LINE
5
951
100
AcDbEntity
8
0-2
6
CONTINUOUS
62
4
100
AcDbLine
10
488.910000000000
20
90.570000000000
30
0.0
11
493.910000000000
21
90.570000000000
31
0.0
0
LINE
5
952
100
AcDbEntity
8
0-2
6
CONTINUOUS
62
4
100
AcDbLine
10
448.410000000000
20
201.070000000000
30
0.0
11
448.410000000000
21
151.070000000000
31
0.0
0
LINE
5
953
100
AcDbEntity
8
0-2
6
CONTINUOUS
62
3
100
AcDbLine
10
458.410000000000
20
201.070000000000
30
0.0
11
458.410000000000
21
151.540000000000
31
0.0
0
LINE
5
954
100
AcDbEntity
8
0-2
6
CONTINUOUS
62
3
100
AcDbLine
10
458.910000000000
20
151.540000000000
30
0.0
11
458.910000000000
21
201.070000000000
31
0.0
0
LINE
5
955
100
AcDbEntity
8
0-2
6
CONTINUOUS
62
4
100
AcDbLine
10
483.910000000000
20
70.570000000000
30
0.0
11
483.910000000000
21
65.570000000000
31
0.0
0
LINE
5
956
100
AcDbEntity
8
0-2
6
CONTINUOUS
62
4
100
AcDbLine
10
425.910000000000
20
70.570000000000
30
0.0
11
425.910000000000
21
65.570000000000
31
0.0
0
LINE
5
957
100
AcDbEntity
8
0-2
6
CONTINUOUS
62
4
100
AcDbLine
10
493.910000000000
20
90.570000000000
30
0.0
11
493.910000000000
21
151.570000000000
31
0.0
0
LINE
5
958
100
AcDbEntity
8
0-2
6
CONTINUOUS
62
4
100
AcDbLine
10
425.910000000000
20
65.570000000000
30
0.0
11
483.910000000000
21
65.570000000000
31
0.0
0
LINE
5
959
100
AcDbEntity
8
0-2
6
CONTINUOUS
62
3
100
AcDbLine
10
426.910000000000
20
91.070000000000
30
0.0
11
482.910000000000
21
91.070000000000
31
0.0
0
LINE
5
95a
100
AcDbEntity
8
0-2
6
CONTINUOUS
62
3
100
AcDbLine
10
483.410000000000
20
147.640000000000
30
0.0
11
483.410000000000
21
91.570000000000
31
0.0
0
LINE
5
95b
100
AcDbEntity
8
0-2
6
CONTINUOUS
62
3
100
AcDbLine
10
426.910000000000
20
90.570000000000
30
0.0
11
482.910000000000
21
90.570000000000
31
0.0
0
LINE
5
95c
100
AcDbEntity
8
0-2
6
CONTINUOUS
62
3
100
AcDbLine
10
483.910000000000
20
147.640000000000
30
0.0
11
483.910000000000
21
91.570000000000
31
0.0
0
LINE
5
95d
100
AcDbEntity
8
0-2
6
CONTINUOUS
62
4
100
AcDbLine
10
613.750000000000
20
188.070000000000
30
0.0
11
671.750000000000
21
188.070000000000
31
0.0
0
LINE
5
95e
100
AcDbEntity
8
0-2
6
CONTINUOUS
62
3
100
AcDbLine
10
614.750000000000
20
178.070000000000
30
0.0
11
670.750000000000
21
178.070000000000
31
0.0
0
LINE
5
95f
100
AcDbEntity
8
0-2
6
CONTINUOUS
62
3
100
AcDbLine
10
670.750000000000
20
177.570000000000
30
0.0
11
614.750000000000
21
177.570000000000
31
0.0
0
LINE
5
960
100
AcDbEntity
8
0-2
6
CONTINUOUS
62
4
100
AcDbLine
10
579.250000000000
20
141.070000000000
30
0.0
11
579.250000000000
21
136.070000000000
31
0.0
0
LINE
5
961
100
AcDbEntity
8
0-2
6
CONTINUOUS
62
4
100
AcDbLine
10
579.250000000000
20
136.070000000000
30
0.0
11
624.250000000000
21
136.070000000000
31
0.0
0
LINE
5
962
100
AcDbEntity
8
0-2
6
CONTINUOUS
62
4
100
AcDbLine
10
624.250000000000
20
141.070000000000
30
0.0
11
624.250000000000
21
136.070000000000
31
0.0
0
LINE
5
963
100
AcDbEntity
8
0-2
6
CONTINUOUS
62
4
100
AcDbLine
10
613.750000000000
20
146.070000000000
30
0.0
11
624.250000000000
21
146.070000000000
31
0.0
0
LINE
5
964
100
AcDbEntity
8
0-2
6
CONTINUOUS
62
3
100
AcDbLine
10
579.250000000000
20
153.570000000000
30
0.0
11
623.250000000000
21
153.570000000000
31
0.0
0
LINE
5
965
100
AcDbEntity
8
0-2
6
CONTINUOUS
62
3
100
AcDbLine
10
623.250000000000
20
154.070000000000
30
0.0
11
579.250000000000
21
154.070000000000
31
0.0
0
LINE
5
966
100
AcDbEntity
8
0-2
6
CONTINUOUS
62
3
100
AcDbLine
10
579.250000000000
20
153.570000000000
30
0.0
11
579.250000000000
21
154.070000000000
31
0.0
0
LINE
5
967
100
AcDbEntity
8
0-2
6
CONTINUOUS
62
3
100
AcDbLine
10
647.250000000000
20
85.570000000000
30
0.0
11
647.250000000000
21
129.570000000000
31
0.0
0
LINE
5
968
100
AcDbEntity
8
0-2
6
CONTINUOUS
62
3
100
AcDbLine
10
647.750000000000
20
129.570000000000
30
0.0
11
647.750000000000
21
85.570000000000
31
0.0
0
LINE
5
969
100
AcDbEntity
8
0-2
6
CONTINUOUS
62
3
100
AcDbLine
10
647.250000000000
20
85.570000000000
30
0.0
11
647.750000000000
21
85.570000000000
31
0.0
0
LINE
5
96a
100
AcDbEntity
8
0-2
6
CONTINUOUS
62
4
100
AcDbLine
10
634.750000000000
20
130.570000000000
30
0.0
11
629.750000000000
21
130.570000000000
31
0.0
0
LINE
5
96b
100
AcDbEntity
8
0-2
6
CONTINUOUS
62
4
100
AcDbLine
10
634.750000000000
20
85.570000000000
30
0.0
11
629.750000000000
21
85.570000000000
31
0.0
0
LINE
5
96c
100
AcDbEntity
8
0-2
6
CONTINUOUS
62
4
100
AcDbLine
10
639.750000000000
20
120.070000000000
30
0.0
11
639.750000000000
21
130.570000000000
31
0.0
0
LINE
5
96d
100
AcDbEntity
8
0-2
6
CONTINUOUS
62
4
100
AcDbLine
10
682.250000000000
20
120.070000000000
30
0.0
11
682.250000000000
21
178.070000000000
31
0.0
0
LINE
5
96e
100
AcDbEntity
8
0-2
6
CONTINUOUS
62
3
100
AcDbLine
10
671.250000000000
20
121.070000000000
30
0.0
11
671.250000000000
21
177.070000000000
31
0.0
0
LINE
5
96f
100
AcDbEntity
8
0-2
6
CONTINUOUS
62
3
100
AcDbLine
10
671.750000000000
20
121.070000000000
30
0.0
11
671.750000000000
21
177.070000000000
31
0.0
0
LINE
5
970
100
AcDbEntity
8
0-2
6
CONTINUOUS
62
4
100
AcDbLine
10
644.750000000000
20
120.070000000000
30
0.0
11
639.750000000000
21
120.070000000000
31
0.0
0
CIRCLE
5
971
100
AcDbEntity
8
0-3
6
CONTINUOUS
62
3
100
AcDbCircle
10
39.860000000000
20
33.550000000000
30
0.0
40
5.656899781463
0
CIRCLE
5
972
100
AcDbEntity
8
0-3
6
CONTINUOUS
62
3
100
AcDbCircle
10
39.860000000000
20
33.550000000000
30
0.0
40
6.456899924157
0
CIRCLE
5
973
100
AcDbEntity
8
0-3
6
CONTINUOUS
62
4
100
AcDbCircle
10
39.860000000000
20
33.550000000000
30
0.0
40
5.736899795732
0
CIRCLE
5
974
100
AcDbEntity
8
0-3
6
CONTINUOUS
62
4
100
AcDbCircle
10
39.860000000000
20
33.550000000000
30
0.0
40
5.896900211356
0
CIRCLE
5
975
100
AcDbEntity
8
0-3
6
CONTINUOUS
62
4
100
AcDbCircle
10
39.860000000000
20
33.550000000000
30
0.0
40
6.056900239895
0
CIRCLE
5
976
100
AcDbEntity
8
0-3
6
CONTINUOUS
62
4
100
AcDbCircle
10
39.860000000000
20
33.550000000000
30
0.0
40
6.216900268434
0
CIRCLE
5
977
100
AcDbEntity
8
0-3
6
CONTINUOUS
62
4
100
AcDbCircle
10
39.860000000000
20
33.550000000000
30
0.0
40
6.376899909887
0
ARC
5
978
100
AcDbEntity
8
0-0
6
CONTINUOUS
62
3
100
AcDbCircle
10
152.570000000000
20
457.050000000000
30
0.0
40
0.999999984825
100
AcDbArc
50
4.723510742188
51
90.000000000000
0
ARC
5
979
100
AcDbEntity
8
0-0
6
CONTINUOUS
62
3
100
AcDbCircle
10
152.570000000000
20
457.050000000000
30
0.0
40
1.399999959401
100
AcDbArc
50
4.723510742188
51
90.000000000000
0
ARC
5
97a
100
AcDbEntity
8
0-0
6
CONTINUOUS
62
3
100
AcDbCircle
10
155.960000000000
20
447.350000000000
30
0.0
40
0.999999984825
100
AcDbArc
50
185.749786376953
51
270.000000000000
0
ARC
5
97b
100
AcDbEntity
8
0-0
6
CONTINUOUS
62
3
100
AcDbCircle
10
155.960000000000
20
447.350000000000
30
0.0
40
1.399999959401
100
AcDbArc
50
185.749786376953
51
270.000000000000
0
ARC
5
97c
100
AcDbEntity
8
0-0
6
CONTINUOUS
62
3
100
AcDbCircle
10
171.860000000000
20
457.050000000000
30
0.0
40
0.999999984825
100
AcDbArc
50
90.000000000000
51
175.276489257813
0
ARC
5
97d
100
AcDbEntity
8
0-0
6
CONTINUOUS
62
3
100
AcDbCircle
10
171.860000000000
20
457.050000000000
30
0.0
40
1.399999959401
100
AcDbArc
50
90.000000000000
51
175.276489257813
0
ARC
5
97e
100
AcDbEntity
8
0-0
6
CONTINUOUS
62
3
100
AcDbCircle
10
168.470000000000
20
447.350000000000
30
0.0
40
0.999999984825
100
AcDbArc
50
270.000000000000
51
354.250213623047
0
ARC
5
97f
100
AcDbEntity
8
0-0
6
CONTINUOUS
62
3
100
AcDbCircle
10
168.470000000000
20
447.350000000000
30
0.0
40
1.399999959401
100
AcDbArc
50
270.000000000000
51
354.250213623047
0
ARC
5
980
100
AcDbEntity
8
0-0
6
CONTINUOUS
62
3
100
AcDbCircle
10
141.860000000000
20
457.050000000000
30
0.0
40
0.999999984825
100
AcDbArc
50
90.000000000000
51
175.276489257813
0
ARC
5
981
100
AcDbEntity
8
0-0
6
CONTINUOUS
62
3
100
AcDbCircle
10
141.860000000000
20
457.050000000000
30
0.0
40
1.399999959401
100
AcDbArc
50
90.000000000000
51
175.276489257813
0
ARC
5
982
100
AcDbEntity
8
0-0
6
CONTINUOUS
62
3
100
AcDbCircle
10
138.430000000000
20
446.950000000000
30
0.0
40
0.999999984825
100
AcDbArc
50
270.000000000000
51
354.250213623047
0
ARC
5
983
100
AcDbEntity
8
0-0
6
CONTINUOUS
62
3
100
AcDbCircle
10
138.430000000000
20
446.950000000000
30
0.0
40
1.399999959401
100
AcDbArc
50
270.000000000000
51
354.250213623047
0
ARC
5
984
100
AcDbEntity
8
0-0
6
CONTINUOUS
62
3
100
AcDbCircle
10
117.560000000000
20
445.350000000000
30
0.0
40
0.600000010249
100
AcDbArc
50
90.000000000000
51
270.000000000000
0
ARC
5
985
100
AcDbEntity
8
0-0
6
CONTINUOUS
62
3
100
AcDbCircle
10
117.560000000000
20
445.350000000000
30
0.0
40
0.199999999384
100
AcDbArc
50
90.000000000000
51
270.000000000000
0
ARC
5
986
100
AcDbEntity
8
0-0
6
CONTINUOUS
62
3
100
AcDbCircle
10
424.400000000000
20
457.050000000000
30
0.0
40
0.999999984825
100
AcDbArc
50
4.723510742188
51
90.000000000000
0
ARC
5
987
100
AcDbEntity
8
0-0
6
CONTINUOUS
62
3
100
AcDbCircle
10
424.400000000000
20
457.050000000000
30
0.0
40
1.399999959401
100
AcDbArc
50
4.723510742188
51
90.000000000000
0
ARC
5
988
100
AcDbEntity
8
0-0
6
CONTINUOUS
62
3
100
AcDbCircle
10
425.380000000000
20
447.350000000000
30
0.0
40
0.999999984825
100
AcDbArc
50
270.000000000000
51
365.749786376953
0
ARC
5
989
100
AcDbEntity
8
0-0
6
CONTINUOUS
62
3
100
AcDbCircle
10
425.380000000000
20
447.350000000000
30
0.0
40
1.399999959401
100
AcDbArc
50
270.000000000000
51
365.749786376953
0
ARC
5
98a
100
AcDbEntity
8
0-0
6
CONTINUOUS
62
3
100
AcDbCircle
10
413.690000000000
20
457.050000000000
30
0.0
40
0.999999984825
100
AcDbArc
50
90.000000000000
51
175.276489257813
0
ARC
5
98b
100
AcDbEntity
8
0-0
6
CONTINUOUS
62
3
100
AcDbCircle
10
413.690000000000
20
457.050000000000
30
0.0
40
1.399999959401
100
AcDbArc
50
90.000000000000
51
175.276489257813
0
ARC
5
98c
100
AcDbEntity
8
0-0
6
CONTINUOUS
62
3
100
AcDbCircle
10
410.300000000000
20
447.350000000000
30
0.0
40
0.999999984825
100
AcDbArc
50
270.000000000000
51
354.250213623047
0
ARC
5
98d
100
AcDbEntity
8
0-0
6
CONTINUOUS
62
3
100
AcDbCircle
10
410.300000000000
20
447.350000000000
30
0.0
40
1.399999959401
100
AcDbArc
50
270.000000000000
51
354.250213623047
0
ARC
5
98e
100
AcDbEntity
8
0-0
6
CONTINUOUS
62
3
100
AcDbCircle
10
394.400000000000
20
457.050000000000
30
0.0
40
0.999999984825
100
AcDbArc
50
4.723510742188
51
90.000000000000
0
ARC
5
98f
100
AcDbEntity
8
0-0
6
CONTINUOUS
62
3
100
AcDbCircle
10
394.400000000000
20
457.050000000000
30
0.0
40
1.399999959401
100
AcDbArc
50
4.723510742188
51
90.000000000000
0
ARC
5
990
100
AcDbEntity
8
0-0
6
CONTINUOUS
62
3
100
AcDbCircle
10
397.790000000000
20
447.350000000000
30
0.0
40
0.999999984825
100
AcDbArc
50
185.749786376953
51
270.000000000000
0
ARC
5
991
100
AcDbEntity
8
0-0
6
CONTINUOUS
62
3
100
AcDbCircle
10
397.790000000000
20
447.350000000000
30
0.0
40
1.399999959401
100
AcDbArc
50
185.749786376953
51
270.000000000000
0
ARC
5
992
100
AcDbEntity
8
0-0
6
CONTINUOUS
62
3
100
AcDbCircle
10
419.450000000000
20
444.900000000000
30
0.0
40
1.450000016705
100
AcDbArc
50
90.000000000000
51
270.000000000000
0
ARC
5
993
100
AcDbEntity
8
0-0
6
CONTINUOUS
62
3
100
AcDbCircle
10
419.450000000000
20
444.900000000000
30
0.0
40
1.050000042129
100
AcDbArc
50
90.000000000000
51
270.000000000000
0
ARC
5
994
100
AcDbEntity
8
0-0
6
CONTINUOUS
62
3
100
AcDbCircle
10
182.570000000000
20
457.050000000000
30
0.0
40
0.999999984825
100
AcDbArc
50
4.723510742188
51
90.000000000000
0
ARC
5
995
100
AcDbEntity
8
0-0
6
CONTINUOUS
62
3
100
AcDbCircle
10
182.570000000000
20
457.050000000000
30
0.0
40
1.399999959401
100
AcDbArc
50
4.723510742188
51
90.000000000000
0
ARC
5
996
100
AcDbEntity
8
0-0
6
CONTINUOUS
62
3
100
AcDbCircle
10
185.960000000000
20
447.350000000000
30
0.0
40
0.999999984825
100
AcDbArc
50
185.749786376953
51
270.000000000000
0
ARC
5
997
100
AcDbEntity
8
0-0
6
CONTINUOUS
62
3
100
AcDbCircle
10
185.960000000000
20
447.350000000000
30
0.0
40
1.399999959401
100
AcDbArc
50
185.749786376953
51
270.000000000000
0
ARC
5
998
100
AcDbEntity
8
0-0
6
CONTINUOUS
62
3
100
AcDbCircle
10
201.860000000000
20
457.050000000000
30
0.0
40
0.999999984825
100
AcDbArc
50
90.000000000000
51
175.276489257813
0
ARC
5
999
100
AcDbEntity
8
0-0
6
CONTINUOUS
62
3
100
AcDbCircle
10
201.860000000000
20
457.050000000000
30
0.0
40
1.399999959401
100
AcDbArc
50
90.000000000000
51
175.276489257813
0
ARC
5
99a
100
AcDbEntity
8
0-0
6
CONTINUOUS
62
3
100
AcDbCircle
10
198.470000000000
20
447.350000000000
30
0.0
40
0.999999984825
100
AcDbArc
50
270.000000000000
51
354.250213623047
0
ARC
5
99b
100
AcDbEntity
8
0-0
6
CONTINUOUS
62
3
100
AcDbCircle
10
198.470000000000
20
447.350000000000
30
0.0
40
1.399999959401
100
AcDbArc
50
270.000000000000
51
354.250213623047
0
ARC
5
99c
100
AcDbEntity
8
0-0
6
CONTINUOUS
62
3
100
AcDbCircle
10
212.570000000000
20
457.050000000000
30
0.0
40
0.999999984825
100
AcDbArc
50
4.723510742188
51
90.000000000000
0
ARC
5
99d
100
AcDbEntity
8
0-0
6
CONTINUOUS
62
3
100
AcDbCircle
10
212.570000000000
20
457.050000000000
30
0.0
40
1.399999959401
100
AcDbArc
50
4.723510742188
51
90.000000000000
0
ARC
5
99e
100
AcDbEntity
8
0-0
6
CONTINUOUS
62
3
100
AcDbCircle
10
215.960000000000
20
447.350000000000
30
0.0
40
0.999999984825
100
AcDbArc
50
185.749786376953
51
270.000000000000
0
ARC
5
99f
100
AcDbEntity
8
0-0
6
CONTINUOUS
62
3
100
AcDbCircle
10
215.960000000000
20
447.350000000000
30
0.0
40
1.399999959401
100
AcDbArc
50
185.749786376953
51
270.000000000000
0
ARC
5
9a0
100
AcDbEntity
8
0-0
6
CONTINUOUS
62
3
100
AcDbCircle
10
231.860000000000
20
457.050000000000
30
0.0
40
0.999999984825
100
AcDbArc
50
90.000000000000
51
175.276489257813
0
ARC
5
9a1
100
AcDbEntity
8
0-0
6
CONTINUOUS
62
3
100
AcDbCircle
10
231.860000000000
20
457.050000000000
30
0.0
40
1.399999959401
100
AcDbArc
50
90.000000000000
51
175.276489257813
0
ARC
5
9a2
100
AcDbEntity
8
0-0
6
CONTINUOUS
62
3
100
AcDbCircle
10
228.470000000000
20
447.350000000000
30
0.0
40
0.999999984825
100
AcDbArc
50
270.000000000000
51
354.250213623047
0
ARC
5
9a3
100
AcDbEntity
8
0-0
6
CONTINUOUS
62
3
100
AcDbCircle
10
228.470000000000
20
447.350000000000
30
0.0
40
1.399999959401
100
AcDbArc
50
270.000000000000
51
354.250213623047
0
ARC
5
9a4
100
AcDbEntity
8
0-0
6
CONTINUOUS
62
3
100
AcDbCircle
10
242.570000000000
20
457.050000000000
30
0.0
40
0.999999984825
100
AcDbArc
50
4.723510742188
51
90.000000000000
0
ARC
5
9a5
100
AcDbEntity
8
0-0
6
CONTINUOUS
62
3
100
AcDbCircle
10
242.570000000000
20
457.050000000000
30
0.0
40
1.399999959401
100
AcDbArc
50
4.723510742188
51
90.000000000000
0
ARC
5
9a6
100
AcDbEntity
8
0-0
6
CONTINUOUS
62
3
100
AcDbCircle
10
245.960000000000
20
447.350000000000
30
0.0
40
0.999999984825
100
AcDbArc
50
185.749786376953
51
270.000000000000
0
ARC
5
9a7
100
AcDbEntity
8
0-0
6
CONTINUOUS
62
3
100
AcDbCircle
10
245.960000000000
20
447.350000000000
30
0.0
40
1.399999959401
100
AcDbArc
50
185.749786376953
51
270.000000000000
0
ARC
5
9a8
100
AcDbEntity
8
0-0
6
CONTINUOUS
62
3
100
AcDbCircle
10
261.860000000000
20
457.050000000000
30
0.0
40
0.999999984825
100
AcDbArc
50
90.000000000000
51
175.276489257813
0
ARC
5
9a9
100
AcDbEntity
8
0-0
6
CONTINUOUS
62
3
100
AcDbCircle
10
261.860000000000
20
457.050000000000
30
0.0
40
1.399999959401
100
AcDbArc
50
90.000000000000
51
175.276489257813
0
ARC
5
9aa
100
AcDbEntity
8
0-0
6
CONTINUOUS
62
3
100
AcDbCircle
10
258.470000000000
20
447.350000000000
30
0.0
40
0.999999984825
100
AcDbArc
50
270.000000000000
51
354.250213623047
0
ARC
5
9ab
100
AcDbEntity
8
0-0
6
CONTINUOUS
62
3
100
AcDbCircle
10
258.470000000000
20
447.350000000000
30
0.0
40
1.399999959401
100
AcDbArc
50
270.000000000000
51
354.250213623047
0
ARC
5
9ac
100
AcDbEntity
8
0-0
6
CONTINUOUS
62
3
100
AcDbCircle
10
272.570000000000
20
457.050000000000
30
0.0
40
0.999999984825
100
AcDbArc
50
4.723510742188
51
90.000000000000
0
ARC
5
9ad
100
AcDbEntity
8
0-0
6
CONTINUOUS
62
3
100
AcDbCircle
10
272.570000000000
20
457.050000000000
30
0.0
40
1.399999959401
100
AcDbArc
50
4.723510742188
51
90.000000000000
0
ARC
5
9ae
100
AcDbEntity
8
0-0
6
CONTINUOUS
62
3
100
AcDbCircle
10
273.540000000000
20
447.350000000000
30
0.0
40
0.999999984825
100
AcDbArc
50
270.000000000000
51
365.749786376953
0
ARC
5
9af
100
AcDbEntity
8
0-0
6
CONTINUOUS
62
3
100
AcDbCircle
10
273.540000000000
20
447.350000000000
30
0.0
40
1.399999959401
100
AcDbArc
50
270.000000000000
51
365.749786376953
0
ARC
5
9b0
100
AcDbEntity
8
0-0
6
CONTINUOUS
62
3
100
AcDbCircle
10
267.610000000000
20
444.900000000000
30
0.0
40
1.450000016705
100
AcDbArc
50
90.000000000000
51
270.000000000000
0
ARC
5
9b1
100
AcDbEntity
8
0-0
6
CONTINUOUS
62
3
100
AcDbCircle
10
267.610000000000
20
444.900000000000
30
0.0
40
1.050000042129
100
AcDbArc
50
90.000000000000
51
270.000000000000
0
ARC
5
9b2
100
AcDbEntity
8
0-0
6
CONTINUOUS
62
3
100
AcDbCircle
10
754.400000000000
20
457.050000000000
30
0.0
40
0.999999984825
100
AcDbArc
50
4.723510742188
51
90.000000000000
0
ARC
5
9b3
100
AcDbEntity
8
0-0
6
CONTINUOUS
62
3
100
AcDbCircle
10
754.400000000000
20
457.050000000000
30
0.0
40
1.399999959401
100
AcDbArc
50
4.723510742188
51
90.000000000000
0
ARC
5
9b4
100
AcDbEntity
8
0-0
6
CONTINUOUS
62
3
100
AcDbCircle
10
757.790000000000
20
447.350000000000
30
0.0
40
0.999999984825
100
AcDbArc
50
185.749786376953
51
270.000000000000
0
ARC
5
9b5
100
AcDbEntity
8
0-0
6
CONTINUOUS
62
3
100
AcDbCircle
10
757.790000000000
20
447.350000000000
30
0.0
40
1.399999959401
100
AcDbArc
50
185.749786376953
51
270.000000000000
0
ARC
5
9b6
100
AcDbEntity
8
0-0
6
CONTINUOUS
62
3
100
AcDbCircle
10
773.690000000000
20
457.050000000000
30
0.0
40
0.999999984825
100
AcDbArc
50
90.000000000000
51
175.276489257813
0
ARC
5
9b7
100
AcDbEntity
8
0-0
6
CONTINUOUS
62
3
100
AcDbCircle
10
773.690000000000
20
457.050000000000
30
0.0
40
1.399999959401
100
AcDbArc
50
90.000000000000
51
175.276489257813
0
ARC
5
9b8
100
AcDbEntity
8
0-0
6
CONTINUOUS
62
3
100
AcDbCircle
10
770.300000000000
20
447.350000000000
30
0.0
40
0.999999984825
100
AcDbArc
50
270.000000000000
51
354.250213623047
0
ARC
5
9b9
100
AcDbEntity
8
0-0
6
CONTINUOUS
62
3
100
AcDbCircle
10
770.300000000000
20
447.350000000000
30
0.0
40
1.399999959401
100
AcDbArc
50
270.000000000000
51
354.250213623047
0
ARC
5
9ba
100
AcDbEntity
8
0-0
6
CONTINUOUS
62
3
100
AcDbCircle
10
743.690000000000
20
457.050000000000
30
0.0
40
0.999999984825
100
AcDbArc
50
90.000000000000
51
175.276489257813
0
ARC
5
9bb
100
AcDbEntity
8
0-0
6
CONTINUOUS
62
3
100
AcDbCircle
10
743.690000000000
20
457.050000000000
30
0.0
40
1.399999959401
100
AcDbArc
50
90.000000000000
51
175.276489257813
0
ARC
5
9bc
100
AcDbEntity
8
0-0
6
CONTINUOUS
62
3
100
AcDbCircle
10
740.260000000000
20
446.950000000000
30
0.0
40
0.999999984825
100
AcDbArc
50
270.000000000000
51
354.250213623047
0
ARC
5
9bd
100
AcDbEntity
8
0-0
6
CONTINUOUS
62
3
100
AcDbCircle
10
740.260000000000
20
446.950000000000
30
0.0
40
1.399999959401
100
AcDbArc
50
270.000000000000
51
354.250213623047
0
ARC
5
9be
100
AcDbEntity
8
0-0
6
CONTINUOUS
62
3
100
AcDbCircle
10
719.400000000000
20
445.350000000000
30
0.0
40
0.600000010249
100
AcDbArc
50
90.000000000000
51
270.000000000000
0
ARC
5
9bf
100
AcDbEntity
8
0-0
6
CONTINUOUS
62
3
100
AcDbCircle
10
719.400000000000
20
445.350000000000
30
0.0
40
0.199999999384
100
AcDbArc
50
90.000000000000
51
270.000000000000
0
ARC
5
9c0
100
AcDbEntity
8
0-0
6
CONTINUOUS
62
3
100
AcDbCircle
10
454.400000000000
20
457.050000000000
30
0.0
40
0.999999984825
100
AcDbArc
50
4.723510742188
51
90.000000000000
0
ARC
5
9c1
100
AcDbEntity
8
0-0
6
CONTINUOUS
62
3
100
AcDbCircle
10
454.400000000000
20
457.050000000000
30
0.0
40
1.399999959401
100
AcDbArc
50
4.723510742188
51
90.000000000000
0
ARC
5
9c2
100
AcDbEntity
8
0-0
6
CONTINUOUS
62
3
100
AcDbCircle
10
457.790000000000
20
447.350000000000
30
0.0
40
0.999999984825
100
AcDbArc
50
185.749786376953
51
270.000000000000
0
ARC
5
9c3
100
AcDbEntity
8
0-0
6
CONTINUOUS
62
3
100
AcDbCircle
10
457.790000000000
20
447.350000000000
30
0.0
40
1.399999959401
100
AcDbArc
50
185.749786376953
51
270.000000000000
0
ARC
5
9c4
100
AcDbEntity
8
0-0
6
CONTINUOUS
62
3
100
AcDbCircle
10
473.690000000000
20
457.050000000000
30
0.0
40
0.999999984825
100
AcDbArc
50
90.000000000000
51
175.276489257813
0
ARC
5
9c5
100
AcDbEntity
8
0-0
6
CONTINUOUS
62
3
100
AcDbCircle
10
473.690000000000
20
457.050000000000
30
0.0
40
1.399999959401
100
AcDbArc
50
90.000000000000
51
175.276489257813
0
ARC
5
9c6
100
AcDbEntity
8
0-0
6
CONTINUOUS
62
3
100
AcDbCircle
10
470.300000000000
20
447.350000000000
30
0.0
40
0.999999984825
100
AcDbArc
50
270.000000000000
51
354.250213623047
0
ARC
5
9c7
100
AcDbEntity
8
0-0
6
CONTINUOUS
62
3
100
AcDbCircle
10
470.300000000000
20
447.350000000000
30
0.0
40
1.399999959401
100
AcDbArc
50
270.000000000000
51
354.250213623047
0
ARC
5
9c8
100
AcDbEntity
8
0-0
6
CONTINUOUS
62
3
100
AcDbCircle
10
443.690000000000
20
457.050000000000
30
0.0
40
0.999999984825
100
AcDbArc
50
90.000000000000
51
175.276489257813
0
ARC
5
9c9
100
AcDbEntity
8
0-0
6
CONTINUOUS
62
3
100
AcDbCircle
10
443.690000000000
20
457.050000000000
30
0.0
40
1.399999959401
100
AcDbArc
50
90.000000000000
51
175.276489257813
0
ARC
5
9ca
100
AcDbEntity
8
0-0
6
CONTINUOUS
62
3
100
AcDbCircle
10
440.260000000000
20
446.950000000000
30
0.0
40
0.999999984825
100
AcDbArc
50
270.000000000000
51
354.250213623047
0
ARC
5
9cb
100
AcDbEntity
8
0-0
6
CONTINUOUS
62
3
100
AcDbCircle
10
440.260000000000
20
446.950000000000
30
0.0
40
1.399999959401
100
AcDbArc
50
270.000000000000
51
354.250213623047
0
ARC
5
9cc
100
AcDbEntity
8
0-0
6
CONTINUOUS
62
3
100
AcDbCircle
10
419.400000000000
20
445.350000000000
30
0.0
40
0.600000010249
100
AcDbArc
50
90.000000000000
51
270.000000000000
0
ARC
5
9cd
100
AcDbEntity
8
0-0
6
CONTINUOUS
62
3
100
AcDbCircle
10
419.400000000000
20
445.350000000000
30
0.0
40
0.199999999384
100
AcDbArc
50
90.000000000000
51
270.000000000000
0
ARC
5
9ce
100
AcDbEntity
8
0-0
6
CONTINUOUS
62
3
100
AcDbCircle
10
484.400000000000
20
457.050000000000
30
0.0
40
0.999999984825
100
AcDbArc
50
4.723510742188
51
90.000000000000
0
ARC
5
9cf
100
AcDbEntity
8
0-0
6
CONTINUOUS
62
3
100
AcDbCircle
10
484.400000000000
20
457.050000000000
30
0.0
40
1.399999959401
100
AcDbArc
50
4.723510742188
51
90.000000000000
0
ARC
5
9d0
100
AcDbEntity
8
0-0
6
CONTINUOUS
62
3
100
AcDbCircle
10
487.790000000000
20
447.350000000000
30
0.0
40
0.999999984825
100
AcDbArc
50
185.749786376953
51
270.000000000000
0
ARC
5
9d1
100
AcDbEntity
8
0-0
6
CONTINUOUS
62
3
100
AcDbCircle
10
487.790000000000
20
447.350000000000
30
0.0
40
1.399999959401
100
AcDbArc
50
185.749786376953
51
270.000000000000
0
ARC
5
9d2
100
AcDbEntity
8
0-0
6
CONTINUOUS
62
3
100
AcDbCircle
10
503.690000000000
20
457.050000000000
30
0.0
40
0.999999984825
100
AcDbArc
50
90.000000000000
51
175.276489257813
0
ARC
5
9d3
100
AcDbEntity
8
0-0
6
CONTINUOUS
62
3
100
AcDbCircle
10
503.690000000000
20
457.050000000000
30
0.0
40
1.399999959401
100
AcDbArc
50
90.000000000000
51
175.276489257813
0
ARC
5
9d4
100
AcDbEntity
8
0-0
6
CONTINUOUS
62
3
100
AcDbCircle
10
500.300000000000
20
447.350000000000
30
0.0
40
0.999999984825
100
AcDbArc
50
270.000000000000
51
354.250213623047
0
ARC
5
9d5
100
AcDbEntity
8
0-0
6
CONTINUOUS
62
3
100
AcDbCircle
10
500.300000000000
20
447.350000000000
30
0.0
40
1.399999959401
100
AcDbArc
50
270.000000000000
51
354.250213623047
0
ARC
5
9d6
100
AcDbEntity
8
0-0
6
CONTINUOUS
62
3
100
AcDbCircle
10
514.400000000000
20
457.050000000000
30
0.0
40
0.999999984825
100
AcDbArc
50
4.723510742188
51
90.000000000000
0
ARC
5
9d7
100
AcDbEntity
8
0-0
6
CONTINUOUS
62
3
100
AcDbCircle
10
514.400000000000
20
457.050000000000
30
0.0
40
1.399999959401
100
AcDbArc
50
4.723510742188
51
90.000000000000
0
ARC
5
9d8
100
AcDbEntity
8
0-0
6
CONTINUOUS
62
3
100
AcDbCircle
10
517.790000000000
20
447.350000000000
30
0.0
40
0.999999984825
100
AcDbArc
50
185.749786376953
51
270.000000000000
0
ARC
5
9d9
100
AcDbEntity
8
0-0
6
CONTINUOUS
62
3
100
AcDbCircle
10
517.790000000000
20
447.350000000000
30
0.0
40
1.399999959401
100
AcDbArc
50
185.749786376953
51
270.000000000000
0
ARC
5
9da
100
AcDbEntity
8
0-0
6
CONTINUOUS
62
3
100
AcDbCircle
10
533.690000000000
20
457.050000000000
30
0.0
40
0.999999984825
100
AcDbArc
50
90.000000000000
51
175.276489257813
0
ARC
5
9db
100
AcDbEntity
8
0-0
6
CONTINUOUS
62
3
100
AcDbCircle
10
533.690000000000
20
457.050000000000
30
0.0
40
1.399999959401
100
AcDbArc
50
90.000000000000
51
175.276489257813
0
ARC
5
9dc
100
AcDbEntity
8
0-0
6
CONTINUOUS
62
3
100
AcDbCircle
10
530.300000000000
20
447.350000000000
30
0.0
40
0.999999984825
100
AcDbArc
50
270.000000000000
51
354.250213623047
0
ARC
5
9dd
100
AcDbEntity
8
0-0
6
CONTINUOUS
62
3
100
AcDbCircle
10
530.300000000000
20
447.350000000000
30
0.0
40
1.399999959401
100
AcDbArc
50
270.000000000000
51
354.250213623047
0
ARC
5
9de
100
AcDbEntity
8
0-0
6
CONTINUOUS
62
3
100
AcDbCircle
10
544.400000000000
20
457.050000000000
30
0.0
40
0.999999984825
100
AcDbArc
50
4.723510742188
51
90.000000000000
0
ARC
5
9df
100
AcDbEntity
8
0-0
6
CONTINUOUS
62
3
100
AcDbCircle
10
544.400000000000
20
457.050000000000
30
0.0
40
1.399999959401
100
AcDbArc
50
4.723510742188
51
90.000000000000
0
ARC
5
9e0
100
AcDbEntity
8
0-0
6
CONTINUOUS
62
3
100
AcDbCircle
10
547.790000000000
20
447.350000000000
30
0.0
40
0.999999984825
100
AcDbArc
50
185.749786376953
51
270.000000000000
0
ARC
5
9e1
100
AcDbEntity
8
0-0
6
CONTINUOUS
62
3
100
AcDbCircle
10
547.790000000000
20
447.350000000000
30
0.0
40
1.399999959401
100
AcDbArc
50
185.749786376953
51
270.000000000000
0
ARC
5
9e2
100
AcDbEntity
8
0-0
6
CONTINUOUS
62
3
100
AcDbCircle
10
563.690000000000
20
457.050000000000
30
0.0
40
0.999999984825
100
AcDbArc
50
90.000000000000
51
175.276489257813
0
ARC
5
9e3
100
AcDbEntity
8
0-0
6
CONTINUOUS
62
3
100
AcDbCircle
10
563.690000000000
20
457.050000000000
30
0.0
40
1.399999959401
100
AcDbArc
50
90.000000000000
51
175.276489257813
0
ARC
5
9e4
100
AcDbEntity
8
0-0
6
CONTINUOUS
62
3
100
AcDbCircle
10
560.300000000000
20
447.350000000000
30
0.0
40
0.999999984825
100
AcDbArc
50
270.000000000000
51
354.250213623047
0
ARC
5
9e5
100
AcDbEntity
8
0-0
6
CONTINUOUS
62
3
100
AcDbCircle
10
560.300000000000
20
447.350000000000
30
0.0
40
1.399999959401
100
AcDbArc
50
270.000000000000
51
354.250213623047
0
ARC
5
9e6
100
AcDbEntity
8
0-0
6
CONTINUOUS
62
3
100
AcDbCircle
10
574.400000000000
20
457.050000000000
30
0.0
40
0.999999984825
100
AcDbArc
50
4.723510742188
51
90.000000000000
0
ARC
5
9e7
100
AcDbEntity
8
0-0
6
CONTINUOUS
62
3
100
AcDbCircle
10
574.400000000000
20
457.050000000000
30
0.0
40
1.399999959401
100
AcDbArc
50
4.723510742188
51
90.000000000000
0
ARC
5
9e8
100
AcDbEntity
8
0-0
6
CONTINUOUS
62
3
100
AcDbCircle
10
575.380000000000
20
447.350000000000
30
0.0
40
0.999999984825
100
AcDbArc
50
270.000000000000
51
365.749786376953
0
ARC
5
9e9
100
AcDbEntity
8
0-0
6
CONTINUOUS
62
3
100
AcDbCircle
10
575.380000000000
20
447.350000000000
30
0.0
40
1.399999959401
100
AcDbArc
50
270.000000000000
51
365.749786376953
0
ARC
5
9ea
100
AcDbEntity
8
0-0
6
CONTINUOUS
62
3
100
AcDbCircle
10
569.450000000000
20
444.900000000000
30
0.0
40
1.450000016705
100
AcDbArc
50
90.000000000000
51
270.000000000000
0
ARC
5
9eb
100
AcDbEntity
8
0-0
6
CONTINUOUS
62
3
100
AcDbCircle
10
569.450000000000
20
444.900000000000
30
0.0
40
1.050000042129
100
AcDbArc
50
90.000000000000
51
270.000000000000
0
ARC
5
9ec
100
AcDbEntity
8
0-0
6
CONTINUOUS
62
3
100
AcDbCircle
10
604.400000000000
20
457.050000000000
30
0.0
40
0.999999984825
100
AcDbArc
50
4.723510742188
51
90.000000000000
0
ARC
5
9ed
100
AcDbEntity
8
0-0
6
CONTINUOUS
62
3
100
AcDbCircle
10
604.400000000000
20
457.050000000000
30
0.0
40
1.399999959401
100
AcDbArc
50
4.723510742188
51
90.000000000000
0
ARC
5
9ee
100
AcDbEntity
8
0-0
6
CONTINUOUS
62
3
100
AcDbCircle
10
607.790000000000
20
447.350000000000
30
0.0
40
0.999999984825
100
AcDbArc
50
185.749786376953
51
270.000000000000
0
ARC
5
9ef
100
AcDbEntity
8
0-0
6
CONTINUOUS
62
3
100
AcDbCircle
10
607.790000000000
20
447.350000000000
30
0.0
40
1.399999959401
100
AcDbArc
50
185.749786376953
51
270.000000000000
0
ARC
5
9f0
100
AcDbEntity
8
0-0
6
CONTINUOUS
62
3
100
AcDbCircle
10
623.690000000000
20
457.050000000000
30
0.0
40
0.999999984825
100
AcDbArc
50
90.000000000000
51
175.276489257813
0
ARC
5
9f1
100
AcDbEntity
8
0-0
6
CONTINUOUS
62
3
100
AcDbCircle
10
623.690000000000
20
457.050000000000
30
0.0
40
1.399999959401
100
AcDbArc
50
90.000000000000
51
175.276489257813
0
ARC
5
9f2
100
AcDbEntity
8
0-0
6
CONTINUOUS
62
3
100
AcDbCircle
10
620.300000000000
20
447.350000000000
30
0.0
40
0.999999984825
100
AcDbArc
50
270.000000000000
51
354.250213623047
0
ARC
5
9f3
100
AcDbEntity
8
0-0
6
CONTINUOUS
62
3
100
AcDbCircle
10
620.300000000000
20
447.350000000000
30
0.0
40
1.399999959401
100
AcDbArc
50
270.000000000000
51
354.250213623047
0
ARC
5
9f4
100
AcDbEntity
8
0-0
6
CONTINUOUS
62
3
100
AcDbCircle
10
593.690000000000
20
457.050000000000
30
0.0
40
0.999999984825
100
AcDbArc
50
90.000000000000
51
175.276489257813
0
ARC
5
9f5
100
AcDbEntity
8
0-0
6
CONTINUOUS
62
3
100
AcDbCircle
10
593.690000000000
20
457.050000000000
30
0.0
40
1.399999959401
100
AcDbArc
50
90.000000000000
51
175.276489257813
0
ARC
5
9f6
100
AcDbEntity
8
0-0
6
CONTINUOUS
62
3
100
AcDbCircle
10
590.260000000000
20
446.950000000000
30
0.0
40
0.999999984825
100
AcDbArc
50
270.000000000000
51
354.250213623047
0
ARC
5
9f7
100
AcDbEntity
8
0-0
6
CONTINUOUS
62
3
100
AcDbCircle
10
590.260000000000
20
446.950000000000
30
0.0
40
1.399999959401
100
AcDbArc
50
270.000000000000
51
354.250213623047
0
ARC
5
9f8
100
AcDbEntity
8
0-0
6
CONTINUOUS
62
3
100
AcDbCircle
10
569.400000000000
20
445.350000000000
30
0.0
40
0.600000010249
100
AcDbArc
50
90.000000000000
51
270.000000000000
0
ARC
5
9f9
100
AcDbEntity
8
0-0
6
CONTINUOUS
62
3
100
AcDbCircle
10
569.400000000000
20
445.350000000000
30
0.0
40
0.199999999384
100
AcDbArc
50
90.000000000000
51
270.000000000000
0
ARC
5
9fa
100
AcDbEntity
8
0-0
6
CONTINUOUS
62
3
100
AcDbCircle
10
634.400000000000
20
457.050000000000
30
0.0
40
0.999999984825
100
AcDbArc
50
4.723510742188
51
90.000000000000
0
ARC
5
9fb
100
AcDbEntity
8
0-0
6
CONTINUOUS
62
3
100
AcDbCircle
10
634.400000000000
20
457.050000000000
30
0.0
40
1.399999959401
100
AcDbArc
50
4.723510742188
51
90.000000000000
0
ARC
5
9fc
100
AcDbEntity
8
0-0
6
CONTINUOUS
62
3
100
AcDbCircle
10
637.790000000000
20
447.350000000000
30
0.0
40
0.999999984825
100
AcDbArc
50
185.749786376953
51
270.000000000000
0
ARC
5
9fd
100
AcDbEntity
8
0-0
6
CONTINUOUS
62
3
100
AcDbCircle
10
637.790000000000
20
447.350000000000
30
0.0
40
1.399999959401
100
AcDbArc
50
185.749786376953
51
270.000000000000
0
ARC
5
9fe
100
AcDbEntity
8
0-0
6
CONTINUOUS
62
3
100
AcDbCircle
10
653.690000000000
20
457.050000000000
30
0.0
40
0.999999984825
100
AcDbArc
50
90.000000000000
51
175.276489257813
0
ARC
5
9ff
100
AcDbEntity
8
0-0
6
CONTINUOUS
62
3
100
AcDbCircle
10
653.690000000000
20
457.050000000000
30
0.0
40
1.399999959401
100
AcDbArc
50
90.000000000000
51
175.276489257813
0
ARC
5
a00
100
AcDbEntity
8
0-0
6
CONTINUOUS
62
3
100
AcDbCircle
10
650.300000000000
20
447.350000000000
30
0.0
40
0.999999984825
100
AcDbArc
50
270.000000000000
51
354.250213623047
0
ARC
5
a01
100
AcDbEntity
8
0-0
6
CONTINUOUS
62
3
100
AcDbCircle
10
650.300000000000
20
447.350000000000
30
0.0
40
1.399999959401
100
AcDbArc
50
270.000000000000
51
354.250213623047
0
ARC
5
a02
100
AcDbEntity
8
0-0
6
CONTINUOUS
62
3
100
AcDbCircle
10
664.400000000000
20
457.050000000000
30
0.0
40
0.999999984825
100
AcDbArc
50
4.723510742188
51
90.000000000000
0
ARC
5
a03
100
AcDbEntity
8
0-0
6
CONTINUOUS
62
3
100
AcDbCircle
10
664.400000000000
20
457.050000000000
30
0.0
40
1.399999959401
100
AcDbArc
50
4.723510742188
51
90.000000000000
0
ARC
5
a04
100
AcDbEntity
8
0-0
6
CONTINUOUS
62
3
100
AcDbCircle
10
667.790000000000
20
447.350000000000
30
0.0
40
0.999999984825
100
AcDbArc
50
185.749786376953
51
270.000000000000
0
ARC
5
a05
100
AcDbEntity
8
0-0
6
CONTINUOUS
62
3
100
AcDbCircle
10
667.790000000000
20
447.350000000000
30
0.0
40
1.399999959401
100
AcDbArc
50
185.749786376953
51
270.000000000000
0
ARC
5
a06
100
AcDbEntity
8
0-0
6
CONTINUOUS
62
3
100
AcDbCircle
10
683.690000000000
20
457.050000000000
30
0.0
40
0.999999984825
100
AcDbArc
50
90.000000000000
51
175.276489257813
0
ARC
5
a07
100
AcDbEntity
8
0-0
6
CONTINUOUS
62
3
100
AcDbCircle
10
683.690000000000
20
457.050000000000
30
0.0
40
1.399999959401
100
AcDbArc
50
90.000000000000
51
175.276489257813
0
ARC
5
a08
100
AcDbEntity
8
0-0
6
CONTINUOUS
62
3
100
AcDbCircle
10
680.300000000000
20
447.350000000000
30
0.0
40
0.999999984825
100
AcDbArc
50
270.000000000000
51
354.250213623047
0
ARC
5
a09
100
AcDbEntity
8
0-0
6
CONTINUOUS
62
3
100
AcDbCircle
10
680.300000000000
20
447.350000000000
30
0.0
40
1.399999959401
100
AcDbArc
50
270.000000000000
51
354.250213623047
0
ARC
5
a0a
100
AcDbEntity
8
0-0
6
CONTINUOUS
62
3
100
AcDbCircle
10
694.400000000000
20
457.050000000000
30
0.0
40
0.999999984825
100
AcDbArc
50
4.723510742188
51
90.000000000000
0
ARC
5
a0b
100
AcDbEntity
8
0-0
6
CONTINUOUS
62
3
100
AcDbCircle
10
694.400000000000
20
457.050000000000
30
0.0
40
1.399999959401
100
AcDbArc
50
4.723510742188
51
90.000000000000
0
ARC
5
a0c
100
AcDbEntity
8
0-0
6
CONTINUOUS
62
3
100
AcDbCircle
10
697.790000000000
20
447.350000000000
30
0.0
40
0.999999984825
100
AcDbArc
50
185.749786376953
51
270.000000000000
0
ARC
5
a0d
100
AcDbEntity
8
0-0
6
CONTINUOUS
62
3
100
AcDbCircle
10
697.790000000000
20
447.350000000000
30
0.0
40
1.399999959401
100
AcDbArc
50
185.749786376953
51
270.000000000000
0
ARC
5
a0e
100
AcDbEntity
8
0-0
6
CONTINUOUS
62
3
100
AcDbCircle
10
713.690000000000
20
457.050000000000
30
0.0
40
0.999999984825
100
AcDbArc
50
90.000000000000
51
175.276489257813
0
ARC
5
a0f
100
AcDbEntity
8
0-0
6
CONTINUOUS
62
3
100
AcDbCircle
10
713.690000000000
20
457.050000000000
30
0.0
40
1.399999959401
100
AcDbArc
50
90.000000000000
51
175.276489257813
0
ARC
5
a10
100
AcDbEntity
8
0-0
6
CONTINUOUS
62
3
100
AcDbCircle
10
710.300000000000
20
447.350000000000
30
0.0
40
0.999999984825
100
AcDbArc
50
270.000000000000
51
354.250213623047
0
ARC
5
a11
100
AcDbEntity
8
0-0
6
CONTINUOUS
62
3
100
AcDbCircle
10
710.300000000000
20
447.350000000000
30
0.0
40
1.399999959401
100
AcDbArc
50
270.000000000000
51
354.250213623047
0
ARC
5
a12
100
AcDbEntity
8
0-0
6
CONTINUOUS
62
3
100
AcDbCircle
10
724.400000000000
20
457.050000000000
30
0.0
40
0.999999984825
100
AcDbArc
50
4.723510742188
51
90.000000000000
0
ARC
5
a13
100
AcDbEntity
8
0-0
6
CONTINUOUS
62
3
100
AcDbCircle
10
724.400000000000
20
457.050000000000
30
0.0
40
1.399999959401
100
AcDbArc
50
4.723510742188
51
90.000000000000
0
ARC
5
a14
100
AcDbEntity
8
0-0
6
CONTINUOUS
62
3
100
AcDbCircle
10
725.380000000000
20
447.350000000000
30
0.0
40
0.999999984825
100
AcDbArc
50
270.000000000000
51
365.749786376953
0
ARC
5
a15
100
AcDbEntity
8
0-0
6
CONTINUOUS
62
3
100
AcDbCircle
10
725.380000000000
20
447.350000000000
30
0.0
40
1.399999959401
100
AcDbArc
50
270.000000000000
51
365.749786376953
0
ARC
5
a16
100
AcDbEntity
8
0-0
6
CONTINUOUS
62
3
100
AcDbCircle
10
719.450000000000
20
444.900000000000
30
0.0
40
1.450000016705
100
AcDbArc
50
90.000000000000
51
270.000000000000
0
ARC
5
a17
100
AcDbEntity
8
0-0
6
CONTINUOUS
62
3
100
AcDbCircle
10
719.450000000000
20
444.900000000000
30
0.0
40
1.050000042129
100
AcDbArc
50
90.000000000000
51
270.000000000000
0
ARC
5
a18
100
AcDbEntity
8
0-0
6
CONTINUOUS
62
4
100
AcDbCircle
10
444.800000000000
20
444.500000000000
30
0.0
40
0.249999996206
100
AcDbArc
50
360.000000000000
51
450.000000000000
0
ARC
5
a19
100
AcDbEntity
8
0-0
6
CONTINUOUS
62
4
100
AcDbCircle
10
444.800000000000
20
444.100000000000
30
0.0
40
0.249999996206
100
AcDbArc
50
270.000000000000
51
360.000000000000
0
ARC
5
a1a
100
AcDbEntity
8
0-0
6
CONTINUOUS
62
4
100
AcDbCircle
10
436.800000000000
20
444.500000000000
30
0.0
40
0.249999996206
100
AcDbArc
50
90.000000000000
51
180.000000000000
0
ARC
5
a1b
100
AcDbEntity
8
0-0
6
CONTINUOUS
62
4
100
AcDbCircle
10
436.800000000000
20
444.100000000000
30
0.0
40
0.249999996206
100
AcDbArc
50
180.000000000000
51
270.000000000000
0
ARC
5
a1c
100
AcDbEntity
8
0-0
6
CONTINUOUS
62
4
100
AcDbCircle
10
594.800000000000
20
444.500000000000
30
0.0
40
0.249999996206
100
AcDbArc
50
360.000000000000
51
450.000000000000
0
ARC
5
a1d
100
AcDbEntity
8
0-0
6
CONTINUOUS
62
4
100
AcDbCircle
10
594.800000000000
20
444.100000000000
30
0.0
40
0.249999996206
100
AcDbArc
50
270.000000000000
51
360.000000000000
0
ARC
5
a1e
100
AcDbEntity
8
0-0
6
CONTINUOUS
62
4
100
AcDbCircle
10
586.800000000000
20
444.500000000000
30
0.0
40
0.249999996206
100
AcDbArc
50
90.000000000000
51
180.000000000000
0
ARC
5
a1f
100
AcDbEntity
8
0-0
6
CONTINUOUS
62
4
100
AcDbCircle
10
586.800000000000
20
444.100000000000
30
0.0
40
0.249999996206
100
AcDbArc
50
180.000000000000
51
270.000000000000
0
ARC
5
a20
100
AcDbEntity
8
0-0
6
CONTINUOUS
62
4
100
AcDbCircle
10
744.800000000000
20
444.500000000000
30
0.0
40
0.249999996206
100
AcDbArc
50
360.000000000000
51
450.000000000000
0
ARC
5
a21
100
AcDbEntity
8
0-0
6
CONTINUOUS
62
4
100
AcDbCircle
10
744.800000000000
20
444.100000000000
30
0.0
40
0.249999996206
100
AcDbArc
50
270.000000000000
51
360.000000000000
0
ARC
5
a22
100
AcDbEntity
8
0-0
6
CONTINUOUS
62
4
100
AcDbCircle
10
736.800000000000
20
444.500000000000
30
0.0
40
0.249999996206
100
AcDbArc
50
90.000000000000
51
180.000000000000
0
ARC
5
a23
100
AcDbEntity
8
0-0
6
CONTINUOUS
62
4
100
AcDbCircle
10
736.800000000000
20
444.100000000000
30
0.0
40
0.249999996206
100
AcDbArc
50
180.000000000000
51
270.000000000000
0
ARC
5
a24
100
AcDbEntity
8
0-0
6
CONTINUOUS
62
3
100
AcDbCircle
10
299.060000000000
20
444.050000000000
30
0.0
40
0.600000010249
100
AcDbArc
50
270.000000000000
51
450.000000000000
0
ARC
5
a25
100
AcDbEntity
8
0-0
6
CONTINUOUS
62
3
100
AcDbCircle
10
299.060000000000
20
444.050000000000
30
0.0
40
0.199999999384
100
AcDbArc
50
270.000000000000
51
450.000000000000
0
ARC
5
a26
100
AcDbEntity
8
0-0
6
CONTINUOUS
62
3
100
AcDbCircle
10
450.900000000000
20
444.050000000000
30
0.0
40
0.600000010249
100
AcDbArc
50
270.000000000000
51
450.000000000000
0
ARC
5
a27
100
AcDbEntity
8
0-0
6
CONTINUOUS
62
3
100
AcDbCircle
10
450.900000000000
20
444.050000000000
30
0.0
40
0.199999999384
100
AcDbArc
50
270.000000000000
51
450.000000000000
0
ARC
5
a28
100
AcDbEntity
8
0-0
6
CONTINUOUS
62
3
100
AcDbCircle
10
600.900000000000
20
444.050000000000
30
0.0
40
0.600000010249
100
AcDbArc
50
270.000000000000
51
450.000000000000
0
ARC
5
a29
100
AcDbEntity
8
0-0
6
CONTINUOUS
62
3
100
AcDbCircle
10
600.900000000000
20
444.050000000000
30
0.0
40
0.199999999384
100
AcDbArc
50
270.000000000000
51
450.000000000000
0
ARC
5
a2a
100
AcDbEntity
8
0-0
6
CONTINUOUS
62
3
100
AcDbCircle
10
750.900000000000
20
444.050000000000
30
0.0
40
0.600000010249
100
AcDbArc
50
270.000000000000
51
450.000000000000
0
ARC
5
a2b
100
AcDbEntity
8
0-0
6
CONTINUOUS
62
3
100
AcDbCircle
10
750.900000000000
20
444.050000000000
30
0.0
40
0.199999999384
100
AcDbArc
50
270.000000000000
51
450.000000000000
0
ARC
5
a2c
100
AcDbEntity
8
0-0
6
CONTINUOUS
62
4
100
AcDbCircle
10
882.500000000000
20
443.550000000000
30
0.0
40
0.300000005125
100
AcDbArc
50
10.386993408203
51
90.000000000000
0
ARC
5
a2d
100
AcDbEntity
8
0-0
6
CONTINUOUS
62
4
100
AcDbCircle
10
887.600000000000
20
443.550000000000
30
0.0
40
0.300000005125
100
AcDbArc
50
90.000000000000
51
169.608993530273
0
ARC
5
a2e
100
AcDbEntity
8
0-0
6
CONTINUOUS
62
4
100
AcDbCircle
10
889.800000000000
20
444.550000000000
30
0.0
40
0.249999996206
100
AcDbArc
50
360.000000000000
51
450.000000000000
0
ARC
5
a2f
100
AcDbEntity
8
0-0
6
CONTINUOUS
62
4
100
AcDbCircle
10
889.800000000000
20
444.100000000000
30
0.0
40
0.249999996206
100
AcDbArc
50
270.000000000000
51
360.000000000000
0
ARC
5
a30
100
AcDbEntity
8
0-0
6
CONTINUOUS
62
4
100
AcDbCircle
10
880.300000000000
20
444.550000000000
30
0.0
40
0.249999996206
100
AcDbArc
50
90.000000000000
51
180.000000000000
0
ARC
5
a31
100
AcDbEntity
8
0-0
6
CONTINUOUS
62
4
100
AcDbCircle
10
880.300000000000
20
444.100000000000
30
0.0
40
0.249999996206
100
AcDbArc
50
180.000000000000
51
-90.000000000000
0
ARC
5
a32
100
AcDbEntity
8
0-0
6
CONTINUOUS
62
4
100
AcDbCircle
10
866.010000000000
20
444.500000000000
30
0.0
40
0.249999996206
100
AcDbArc
50
360.000000000000
51
450.000000000000
0
ARC
5
a33
100
AcDbEntity
8
0-0
6
CONTINUOUS
62
4
100
AcDbCircle
10
866.010000000000
20
444.100000000000
30
0.0
40
0.249999996206
100
AcDbArc
50
270.000000000000
51
360.000000000000
0
ARC
5
a34
100
AcDbEntity
8
0-0
6
CONTINUOUS
62
4
100
AcDbCircle
10
858.010000000000
20
444.500000000000
30
0.0
40
0.249999996206
100
AcDbArc
50
90.000000000000
51
180.000000000000
0
ARC
5
a35
100
AcDbEntity
8
0-0
6
CONTINUOUS
62
4
100
AcDbCircle
10
858.010000000000
20
444.100000000000
30
0.0
40
0.249999996206
100
AcDbArc
50
180.000000000000
51
270.000000000000
0
ARC
5
a36
100
AcDbEntity
8
0-1
6
CONTINUOUS
62
3
100
AcDbCircle
10
479.660000000000
20
271.280000000000
30
0.0
40
0.499999992412
100
AcDbArc
50
270.000000000000
51
360.000000000000
0
ARC
5
a37
100
AcDbEntity
8
0-1
6
CONTINUOUS
62
3
100
AcDbCircle
10
479.660000000000
20
271.280000000000
30
0.0
40
0.999999984825
100
AcDbArc
50
270.000000000000
51
360.000000000000
0
ARC
5
a38
100
AcDbEntity
8
0-1
6
CONTINUOUS
62
3
100
AcDbCircle
10
472.660000000000
20
271.280000000000
30
0.0
40
0.499999992412
100
AcDbArc
50
180.000000000000
51
270.000000000000
0
ARC
5
a39
100
AcDbEntity
8
0-1
6
CONTINUOUS
62
3
100
AcDbCircle
10
472.660000000000
20
271.280000000000
30
0.0
40
0.999999984825
100
AcDbArc
50
180.000000000000
51
270.000000000000
0
ARC
5
a3a
100
AcDbEntity
8
0-1
6
CONTINUOUS
62
3
100
AcDbCircle
10
479.660000000000
20
271.280000000000
30
0.0
40
0.499999992412
100
AcDbArc
50
270.000000000000
51
360.000000000000
0
ARC
5
a3b
100
AcDbEntity
8
0-2
6
CONTINUOUS
62
3
100
AcDbCircle
10
623.250000000000
20
154.570000000000
30
0.0
40
0.499999992412
100
AcDbArc
50
270.000000000000
51
360.000000000000
0
ARC
5
a3c
100
AcDbEntity
8
0-2
6
CONTINUOUS
62
3
100
AcDbCircle
10
623.250000000000
20
168.570000000000
30
0.0
40
0.499999992412
100
AcDbArc
50
360.000000000000
51
450.000000000000
0
ARC
5
a3d
100
AcDbEntity
8
0-2
6
CONTINUOUS
62
3
100
AcDbCircle
10
614.750000000000
20
170.070000000000
30
0.0
40
0.499999992412
100
AcDbArc
50
180.000000000000
51
270.000000000000
0
ARC
5
a3e
100
AcDbEntity
8
0-2
6
CONTINUOUS
62
3
100
AcDbCircle
10
614.750000000000
20
177.070000000000
30
0.0
40
0.499999992412
100
AcDbArc
50
90.000000000000
51
180.000000000000
0
ARC
5
a3f
100
AcDbEntity
8
0-2
6
CONTINUOUS
62
3
100
AcDbCircle
10
670.750000000000
20
177.070000000000
30
0.0
40
0.499999992412
100
AcDbArc
50
360.000000000000
51
450.000000000000
0
ARC
5
a40
100
AcDbEntity
8
0-2
6
CONTINUOUS
62
3
100
AcDbCircle
10
670.750000000000
20
177.070000000000
30
0.0
40
0.999999984825
100
AcDbArc
50
360.000000000000
51
450.000000000000
0
ARC
5
a41
100
AcDbEntity
8
0-2
6
CONTINUOUS
62
3
100
AcDbCircle
10
614.750000000000
20
177.070000000000
30
0.0
40
0.999999984825
100
AcDbArc
50
90.000000000000
51
180.000000000000
0
ARC
5
a42
100
AcDbEntity
8
0-2
6
CONTINUOUS
62
3
100
AcDbCircle
10
614.750000000000
20
170.070000000000
30
0.0
40
0.999999984825
100
AcDbArc
50
180.000000000000
51
270.000000000000
0
ARC
5
a43
100
AcDbEntity
8
0-2
6
CONTINUOUS
62
3
100
AcDbCircle
10
623.250000000000
20
168.570000000000
30
0.0
40
0.999999984825
100
AcDbArc
50
360.000000000000
51
450.000000000000
0
ARC
5
a44
100
AcDbEntity
8
0-2
6
CONTINUOUS
62
3
100
AcDbCircle
10
623.250000000000
20
154.570000000000
30
0.0
40
0.999999984825
100
AcDbArc
50
270.000000000000
51
360.000000000000
0
ARC
5
a45
100
AcDbEntity
8
0-2
6
CONTINUOUS
62
3
100
AcDbCircle
10
670.750000000000
20
121.070000000000
30
0.0
40
0.499999992412
100
AcDbArc
50
270.000000000000
51
360.000000000000
0
ARC
5
a46
100
AcDbEntity
8
0-2
6
CONTINUOUS
62
3
100
AcDbCircle
10
663.750000000000
20
121.070000000000
30
0.0
40
0.499999992412
100
AcDbArc
50
180.000000000000
51
270.000000000000
0
ARC
5
a47
100
AcDbEntity
8
0-2
6
CONTINUOUS
62
3
100
AcDbCircle
10
662.250000000000
20
129.570000000000
30
0.0
40
0.499999992412
100
AcDbArc
50
360.000000000000
51
450.000000000000
0
ARC
5
a48
100
AcDbEntity
8
0-2
6
CONTINUOUS
62
3
100
AcDbCircle
10
662.250000000000
20
129.570000000000
30
0.0
40
0.999999984825
100
AcDbArc
50
360.000000000000
51
450.000000000000
0
ARC
5
a49
100
AcDbEntity
8
0-2
6
CONTINUOUS
62
3
100
AcDbCircle
10
663.750000000000
20
121.070000000000
30
0.0
40
0.999999984825
100
AcDbArc
50
180.000000000000
51
270.000000000000
0
ARC
5
a4a
100
AcDbEntity
8
0-2
6
CONTINUOUS
62
3
100
AcDbCircle
10
670.750000000000
20
121.070000000000
30
0.0
40
0.999999984825
100
AcDbArc
50
270.000000000000
51
360.000000000000
0
ARC
5
a4b
100
AcDbEntity
8
0-1
6
CONTINUOUS
62
3
100
AcDbCircle
10
456.160000000000
20
298.780000000000
30
0.0
40
0.499999992412
100
AcDbArc
50
180.000000000000
51
265.914382934570
0
ARC
5
a4c
100
AcDbEntity
8
0-1
6
CONTINUOUS
62
3
100
AcDbCircle
10
456.160000000000
20
298.780000000000
30
0.0
40
0.999999984825
100
AcDbArc
50
180.000000000000
51
265.914382934570
0
ARC
5
a4d
100
AcDbEntity
8
0-1
6
CONTINUOUS
62
3
100
AcDbCircle
10
479.660000000000
20
294.370000000000
30
0.0
40
0.499999992412
100
AcDbArc
50
360.000000000000
51
444.387145996094
0
ARC
5
a4e
100
AcDbEntity
8
0-1
6
CONTINUOUS
62
3
100
AcDbCircle
10
479.660000000000
20
294.370000000000
30
0.0
40
0.999999984825
100
AcDbArc
50
360.000000000000
51
444.387145996094
0
ARC
5
a4f
100
AcDbEntity
8
0-2
6
CONTINUOUS
62
3
100
AcDbCircle
10
648.250000000000
20
129.570000000000
30
0.0
40
0.499999992412
100
AcDbArc
50
90.000000000000
51
180.000000000000
0
ARC
5
a50
100
AcDbEntity
8
0-2
6
CONTINUOUS
62
3
100
AcDbCircle
10
648.250000000000
20
129.570000000000
30
0.0
40
0.999999984825
100
AcDbArc
50
90.000000000000
51
180.000000000000
0
ARC
5
a51
100
AcDbEntity
8
0-1
6
CONTINUOUS
62
3
100
AcDbCircle
10
289.560000000000
20
317.780000000000
30
0.0
40
0.499999992412
100
AcDbArc
50
180.000000000000
51
270.000000000000
0
ARC
5
a52
100
AcDbEntity
8
0-1
6
CONTINUOUS
62
3
100
AcDbCircle
10
289.560000000000
20
317.780000000000
30
0.0
40
0.999999984825
100
AcDbArc
50
180.000000000000
51
270.000000000000
0
ARC
5
a53
100
AcDbEntity
8
0-1
6
CONTINUOUS
62
3
100
AcDbCircle
10
289.560000000000
20
332.780000000000
30
0.0
40
0.499999992412
100
AcDbArc
50
90.000000000000
51
180.000000000000
0
ARC
5
a54
100
AcDbEntity
8
0-1
6
CONTINUOUS
62
3
100
AcDbCircle
10
289.560000000000
20
332.780000000000
30
0.0
40
0.999999984825
100
AcDbArc
50
90.000000000000
51
180.000000000000
0
ARC
5
a55
100
AcDbEntity
8
0-1
6
CONTINUOUS
62
3
100
AcDbCircle
10
317.810000000000
20
334.030000000000
30
0.0
40
0.750003375612
100
AcDbArc
50
270.000000000000
51
90.000000000000
0
ARC
5
a56
100
AcDbEntity
8
0-1
6
CONTINUOUS
62
3
100
AcDbCircle
10
317.810000000000
20
334.030000000000
30
0.0
40
0.250001157461
100
AcDbArc
50
270.000000000000
51
90.000000000000
0
ARC
5
a57
100
AcDbEntity
8
0-1
6
CONTINUOUS
62
3
100
AcDbCircle
10
303.810000000000
20
316.530000000000
30
0.0
40
0.750003375612
100
AcDbArc
50
270.000000000000
51
90.000000000000
0
ARC
5
a58
100
AcDbEntity
8
0-1
6
CONTINUOUS
62
3
100
AcDbCircle
10
303.810000000000
20
316.530000000000
30
0.0
40
0.250001157461
100
AcDbArc
50
270.000000000000
51
90.000000000000
0
ARC
5
a59
100
AcDbEntity
8
0-1
6
CONTINUOUS
62
3
100
AcDbCircle
10
275.310000000000
20
316.530000000000
30
0.0
40
0.750003375612
100
AcDbArc
50
90.000000000000
51
-90.000000000000
0
ARC
5
a5a
100
AcDbEntity
8
0-1
6
CONTINUOUS
62
3
100
AcDbCircle
10
275.310000000000
20
316.530000000000
30
0.0
40
0.250001157461
100
AcDbArc
50
90.000000000000
51
-90.000000000000
0
ARC
5
a5b
100
AcDbEntity
8
0-1
6
CONTINUOUS
62
3
100
AcDbCircle
10
124.650000000000
20
331.780000000000
30
0.0
40
0.499999992412
100
AcDbArc
50
90.000000000000
51
180.000000000000
0
ARC
5
a5c
100
AcDbEntity
8
0-1
6
CONTINUOUS
62
3
100
AcDbCircle
10
124.650000000000
20
331.780000000000
30
0.0
40
0.499999992412
100
AcDbArc
50
90.000000000000
51
180.000000000000
0
ARC
5
a5d
100
AcDbEntity
8
0-1
6
CONTINUOUS
62
3
100
AcDbCircle
10
142.650000000000
20
308.780000000000
30
0.0
40
0.499999992412
100
AcDbArc
50
270.000000000000
51
360.000000000000
0
ARC
5
a5e
100
AcDbEntity
8
0-1
6
CONTINUOUS
62
3
100
AcDbCircle
10
124.650000000000
20
308.780000000000
30
0.0
40
0.499999992412
100
AcDbArc
50
180.000000000000
51
270.000000000000
0
ARC
5
a5f
100
AcDbEntity
8
0-1
6
CONTINUOUS
62
3
100
AcDbCircle
10
142.650000000000
20
308.780000000000
30
0.0
40
0.999999984825
100
AcDbArc
50
270.000000000000
51
360.000000000000
0
ARC
5
a60
100
AcDbEntity
8
0-1
6
CONTINUOUS
62
3
100
AcDbCircle
10
124.650000000000
20
331.780000000000
30
0.0
40
0.999999984825
100
AcDbArc
50
90.000000000000
51
180.000000000000
0
ARC
5
a61
100
AcDbEntity
8
0-1
6
CONTINUOUS
62
3
100
AcDbCircle
10
142.650000000000
20
315.780000000000
30
0.0
40
0.499999992412
100
AcDbArc
50
360.000000000000
51
450.000000000000
0
ARC
5
a62
100
AcDbEntity
8
0-1
6
CONTINUOUS
62
3
100
AcDbCircle
10
142.650000000000
20
315.780000000000
30
0.0
40
0.999999984825
100
AcDbArc
50
360.000000000000
51
450.000000000000
0
ARC
5
a63
100
AcDbEntity
8
0-1
6
CONTINUOUS
62
3
100
AcDbCircle
10
142.650000000000
20
308.780000000000
30
0.0
40
0.499999992412
100
AcDbArc
50
270.000000000000
51
360.000000000000
0
ARC
5
a64
100
AcDbEntity
8
0-1
6
CONTINUOUS
62
3
100
AcDbCircle
10
124.650000000000
20
308.780000000000
30
0.0
40
0.999999984825
100
AcDbArc
50
180.000000000000
51
270.000000000000
0
ARC
5
a65
100
AcDbEntity
8
0-2
6
CONTINUOUS
62
3
100
AcDbCircle
10
346.250000000000
20
104.950000000000
30
0.0
40
0.999999984825
100
AcDbArc
50
270.000000000000
51
338.087356567383
0
ARC
5
a66
100
AcDbEntity
8
0-2
6
CONTINUOUS
62
3
100
AcDbCircle
10
346.250000000000
20
104.950000000000
30
0.0
40
1.500000074009
100
AcDbArc
50
270.000000000000
51
338.087356567383
0
ARC
5
a67
100
AcDbEntity
8
0-2
6
CONTINUOUS
62
3
100
AcDbCircle
10
333.560000000000
20
108.450000000000
30
0.0
40
0.999999984825
100
AcDbArc
50
270.000000000000
51
360.000000000000
0
ARC
5
a68
100
AcDbEntity
8
0-2
6
CONTINUOUS
62
3
100
AcDbCircle
10
333.560000000000
20
108.450000000000
30
0.0
40
1.500000074009
100
AcDbArc
50
270.000000000000
51
360.000000000000
0
ARC
5
a69
100
AcDbEntity
8
0-2
6
CONTINUOUS
62
3
100
AcDbCircle
10
341.350000000000
20
104.950000000000
30
0.0
40
0.999999984825
100
AcDbArc
50
203.593902587891
51
270.000000000000
0
ARC
5
a6a
100
AcDbEntity
8
0-2
6
CONTINUOUS
62
3
100
AcDbCircle
10
341.350000000000
20
104.950000000000
30
0.0
40
1.500000074009
100
AcDbArc
50
203.593383789063
51
270.000000000000
0
ARC
5
a6b
100
AcDbEntity
8
0-2
6
CONTINUOUS
62
3
100
AcDbCircle
10
339.060000000000
20
103.950000000000
30
0.0
40
1.500000074009
100
AcDbArc
50
23.593383789063
51
90.000000000000
0
ARC
5
a6c
100
AcDbEntity
8
0-2
6
CONTINUOUS
62
3
100
AcDbCircle
10
339.060000000000
20
103.950000000000
30
0.0
40
0.999999984825
100
AcDbArc
50
23.593902587891
51
90.000000000000
0
ARC
5
a6d
100
AcDbEntity
8
0-2
6
CONTINUOUS
62
3
100
AcDbCircle
10
336.770000000000
20
104.950000000000
30
0.0
40
0.999999984825
100
AcDbArc
50
270.000000000000
51
336.406097412109
0
ARC
5
a6e
100
AcDbEntity
8
0-2
6
CONTINUOUS
62
3
100
AcDbCircle
10
336.770000000000
20
104.950000000000
30
0.0
40
1.500000074009
100
AcDbArc
50
270.000000000000
51
336.406616210938
0
ARC
5
a6f
100
AcDbEntity
8
0-2
6
CONTINUOUS
62
3
100
AcDbCircle
10
339.060000000000
20
103.950000000000
30
0.0
40
1.500000074009
100
AcDbArc
50
90.000000000000
51
156.406616210938
0
ARC
5
a70
100
AcDbEntity
8
0-2
6
CONTINUOUS
62
3
100
AcDbCircle
10
339.060000000000
20
103.950000000000
30
0.0
40
0.999999984825
100
AcDbArc
50
90.000000000000
51
156.406097412109
0
ARC
5
a71
100
AcDbEntity
8
0-2
6
CONTINUOUS
62
3
100
AcDbCircle
10
327.060000000000
20
105.450000000000
30
0.0
40
1.500000074009
100
AcDbArc
50
90.000000000000
51
270.000000000000
0
ARC
5
a72
100
AcDbEntity
8
0-2
6
CONTINUOUS
62
3
100
AcDbCircle
10
327.060000000000
20
105.450000000000
30
0.0
40
1.999999969650
100
AcDbArc
50
90.000000000000
51
270.000000000000
0
ARC
5
a73
100
AcDbEntity
8
0-2
6
CONTINUOUS
62
3
100
AcDbCircle
10
272.560000000000
20
170.950000000000
30
0.0
40
0.999999984825
100
AcDbArc
50
180.000000000000
51
270.000000000000
0
ARC
5
a74
100
AcDbEntity
8
0-2
6
CONTINUOUS
62
3
100
AcDbCircle
10
272.560000000000
20
170.950000000000
30
0.0
40
1.500000074009
100
AcDbArc
50
180.000000000000
51
270.000000000000
0
ARC
5
a75
100
AcDbEntity
8
0-2
6
CONTINUOUS
62
3
100
AcDbCircle
10
281.060000000000
20
168.450000000000
30
0.0
40
0.999999984825
100
AcDbArc
50
360.000000000000
51
450.000000000000
0
ARC
5
a76
100
AcDbEntity
8
0-2
6
CONTINUOUS
62
3
100
AcDbCircle
10
281.060000000000
20
168.450000000000
30
0.0
40
1.500000074009
100
AcDbArc
50
360.000000000000
51
450.000000000000
0
ARC
5
a77
100
AcDbEntity
8
0-2
6
CONTINUOUS
62
3
100
AcDbCircle
10
333.560000000000
20
115.950000000000
30
0.0
40
0.999999984825
100
AcDbArc
50
360.000000000000
51
450.000000000000
0
ARC
5
a78
100
AcDbEntity
8
0-2
6
CONTINUOUS
62
3
100
AcDbCircle
10
333.560000000000
20
115.950000000000
30
0.0
40
1.500000074009
100
AcDbArc
50
360.000000000000
51
450.000000000000
0
ARC
5
a79
100
AcDbEntity
8
0-2
6
CONTINUOUS
62
3
100
AcDbCircle
10
283.560000000000
20
118.450000000000
30
0.0
40
0.999999984825
100
AcDbArc
50
180.000000000000
51
270.000000000000
0
ARC
5
a7a
100
AcDbEntity
8
0-2
6
CONTINUOUS
62
3
100
AcDbCircle
10
283.560000000000
20
118.450000000000
30
0.0
40
1.500000074009
100
AcDbArc
50
180.000000000000
51
270.000000000000
0
ARC
5
a7b
100
AcDbEntity
8
0-2
6
CONTINUOUS
62
3
100
AcDbCircle
10
187.330000000000
20
157.570000000000
30
0.0
40
0.999999984825
100
AcDbArc
50
270.000000000000
51
338.087356567383
0
ARC
5
a7c
100
AcDbEntity
8
0-2
6
CONTINUOUS
62
3
100
AcDbCircle
10
187.330000000000
20
157.570000000000
30
0.0
40
1.500000074009
100
AcDbArc
50
270.000000000000
51
338.087356567383
0
ARC
5
a7d
100
AcDbEntity
8
0-2
6
CONTINUOUS
62
3
100
AcDbCircle
10
174.650000000000
20
161.070000000000
30
0.0
40
0.999999984825
100
AcDbArc
50
270.000000000000
51
360.000000000000
0
ARC
5
a7e
100
AcDbEntity
8
0-2
6
CONTINUOUS
62
3
100
AcDbCircle
10
174.650000000000
20
161.070000000000
30
0.0
40
1.500000074009
100
AcDbArc
50
270.000000000000
51
360.000000000000
0
ARC
5
a7f
100
AcDbEntity
8
0-2
6
CONTINUOUS
62
3
100
AcDbCircle
10
182.440000000000
20
157.570000000000
30
0.0
40
0.999999984825
100
AcDbArc
50
203.593902587891
51
270.000000000000
0
ARC
5
a80
100
AcDbEntity
8
0-2
6
CONTINUOUS
62
3
100
AcDbCircle
10
182.440000000000
20
157.570000000000
30
0.0
40
1.500000074009
100
AcDbArc
50
203.593383789063
51
270.000000000000
0
ARC
5
a81
100
AcDbEntity
8
0-2
6
CONTINUOUS
62
3
100
AcDbCircle
10
180.150000000000
20
156.570000000000
30
0.0
40
1.500000074009
100
AcDbArc
50
23.593383789063
51
90.000000000000
0
ARC
5
a82
100
AcDbEntity
8
0-2
6
CONTINUOUS
62
3
100
AcDbCircle
10
180.150000000000
20
156.570000000000
30
0.0
40
0.999999984825
100
AcDbArc
50
23.593902587891
51
90.000000000000
0
ARC
5
a83
100
AcDbEntity
8
0-2
6
CONTINUOUS
62
3
100
AcDbCircle
10
177.860000000000
20
157.570000000000
30
0.0
40
0.999999984825
100
AcDbArc
50
270.000000000000
51
336.406097412109
0
ARC
5
a84
100
AcDbEntity
8
0-2
6
CONTINUOUS
62
3
100
AcDbCircle
10
177.860000000000
20
157.570000000000
30
0.0
40
1.500000074009
100
AcDbArc
50
270.000000000000
51
336.406616210938
0
ARC
5
a85
100
AcDbEntity
8
0-2
6
CONTINUOUS
62
3
100
AcDbCircle
10
180.150000000000
20
156.570000000000
30
0.0
40
1.500000074009
100
AcDbArc
50
90.000000000000
51
156.406616210938
0
ARC
5
a86
100
AcDbEntity
8
0-2
6
CONTINUOUS
62
3
100
AcDbCircle
10
180.150000000000
20
156.570000000000
30
0.0
40
0.999999984825
100
AcDbArc
50
90.000000000000
51
156.406097412109
0
ARC
5
a87
100
AcDbEntity
8
0-2
6
CONTINUOUS
62
3
100
AcDbCircle
10
168.150000000000
20
158.070000000000
30
0.0
40
1.500000074009
100
AcDbArc
50
90.000000000000
51
270.000000000000
0
ARC
5
a88
100
AcDbEntity
8
0-2
6
CONTINUOUS
62
3
100
AcDbCircle
10
168.150000000000
20
158.070000000000
30
0.0
40
1.999999969650
100
AcDbArc
50
90.000000000000
51
270.000000000000
0
ARC
5
a89
100
AcDbEntity
8
0-2
6
CONTINUOUS
62
3
100
AcDbCircle
10
133.150000000000
20
116.070000000000
30
0.0
40
0.999999984825
100
AcDbArc
50
360.000000000000
51
450.000000000000
0
ARC
5
a8a
100
AcDbEntity
8
0-2
6
CONTINUOUS
62
3
100
AcDbCircle
10
133.150000000000
20
116.070000000000
30
0.0
40
1.500000074009
100
AcDbArc
50
360.000000000000
51
450.000000000000
0
ARC
5
a8b
100
AcDbEntity
8
0-2
6
CONTINUOUS
62
3
100
AcDbCircle
10
124.650000000000
20
118.570000000000
30
0.0
40
0.999999984825
100
AcDbArc
50
180.000000000000
51
270.000000000000
0
ARC
5
a8c
100
AcDbEntity
8
0-2
6
CONTINUOUS
62
3
100
AcDbCircle
10
124.650000000000
20
118.570000000000
30
0.0
40
1.500000074009
100
AcDbArc
50
180.000000000000
51
270.000000000000
0
ARC
5
a8d
100
AcDbEntity
8
0-2
6
CONTINUOUS
62
3
100
AcDbCircle
10
174.650000000000
20
168.570000000000
30
0.0
40
0.999999984825
100
AcDbArc
50
360.000000000000
51
450.000000000000
0
ARC
5
a8e
100
AcDbEntity
8
0-2
6
CONTINUOUS
62
3
100
AcDbCircle
10
174.650000000000
20
168.570000000000
30
0.0
40
1.500000074009
100
AcDbArc
50
360.000000000000
51
450.000000000000
0
ARC
5
a8f
100
AcDbEntity
8
0-2
6
CONTINUOUS
62
3
100
AcDbCircle
10
124.650000000000
20
168.570000000000
30
0.0
40
0.999999984825
100
AcDbArc
50
90.000000000000
51
180.000000000000
0
ARC
5
a90
100
AcDbEntity
8
0-2
6
CONTINUOUS
62
3
100
AcDbCircle
10
124.650000000000
20
168.570000000000
30
0.0
40
1.500000074009
100
AcDbArc
50
90.000000000000
51
180.000000000000
0
ARC
5
a91
100
AcDbEntity
8
0-2
6
CONTINUOUS
62
3
100
AcDbCircle
10
482.910000000000
20
91.570000000000
30
0.0
40
0.499999992412
100
AcDbArc
50
270.000000000000
51
360.000000000000
0
ARC
5
a92
100
AcDbEntity
8
0-2
6
CONTINUOUS
62
3
100
AcDbCircle
10
426.910000000000
20
91.570000000000
30
0.0
40
0.499999992412
100
AcDbArc
50
180.000000000000
51
270.000000000000
0
ARC
5
a93
100
AcDbEntity
8
0-2
6
CONTINUOUS
62
3
100
AcDbCircle
10
426.910000000000
20
98.570000000000
30
0.0
40
0.499999992412
100
AcDbArc
50
90.000000000000
51
180.000000000000
0
ARC
5
a94
100
AcDbEntity
8
0-2
6
CONTINUOUS
62
3
100
AcDbCircle
10
435.410000000000
20
100.070000000000
30
0.0
40
0.499999992412
100
AcDbArc
50
270.000000000000
51
360.000000000000
0
ARC
5
a95
100
AcDbEntity
8
0-2
6
CONTINUOUS
62
3
100
AcDbCircle
10
435.410000000000
20
114.570000000000
30
0.0
40
0.499999992412
100
AcDbArc
50
360.000000000000
51
450.000000000000
0
ARC
5
a96
100
AcDbEntity
8
0-2
6
CONTINUOUS
62
3
100
AcDbCircle
10
482.910000000000
20
91.570000000000
30
0.0
40
0.999999984825
100
AcDbArc
50
270.000000000000
51
360.000000000000
0
ARC
5
a97
100
AcDbEntity
8
0-2
6
CONTINUOUS
62
3
100
AcDbCircle
10
426.910000000000
20
91.570000000000
30
0.0
40
0.999999984825
100
AcDbArc
50
180.000000000000
51
270.000000000000
0
ARC
5
a98
100
AcDbEntity
8
0-2
6
CONTINUOUS
62
3
100
AcDbCircle
10
426.910000000000
20
98.570000000000
30
0.0
40
0.999999984825
100
AcDbArc
50
90.000000000000
51
180.000000000000
0
ARC
5
a99
100
AcDbEntity
8
0-2
6
CONTINUOUS
62
3
100
AcDbCircle
10
435.410000000000
20
100.070000000000
30
0.0
40
0.999999984825
100
AcDbArc
50
270.000000000000
51
360.000000000000
0
ARC
5
a9a
100
AcDbEntity
8
0-2
6
CONTINUOUS
62
3
100
AcDbCircle
10
435.410000000000
20
114.570000000000
30
0.0
40
0.999999984825
100
AcDbArc
50
360.000000000000
51
450.000000000000
0
ARC
5
a9b
100
AcDbEntity
8
0-2
6
CONTINUOUS
62
3
100
AcDbCircle
10
459.410000000000
20
151.540000000000
30
0.0
40
0.499999992412
100
AcDbArc
50
180.000000000000
51
265.914382934570
0
ARC
5
a9c
100
AcDbEntity
8
0-2
6
CONTINUOUS
62
3
100
AcDbCircle
10
482.910000000000
20
147.640000000000
30
0.0
40
0.499999992412
100
AcDbArc
50
360.000000000000
51
445.914382934570
0
ARC
5
a9d
100
AcDbEntity
8
0-2
6
CONTINUOUS
62
3
100
AcDbCircle
10
459.410000000000
20
151.540000000000
30
0.0
40
0.999999984825
100
AcDbArc
50
180.000000000000
51
265.914382934570
0
ARC
5
a9e
100
AcDbEntity
8
0-2
6
CONTINUOUS
62
3
100
AcDbCircle
10
482.910000000000
20
147.640000000000
30
0.0
40
0.999999984825
100
AcDbArc
50
360.000000000000
51
445.914382934570
0
TEXT
5
a9f
100
AcDbEntity
8
0-3
62
3
100
AcDbText
10
265.928
20
37.427
30
0.0
40
2.925
1
変　　　　　　更　　　　　　記　　　　　　事
41
1.167
50
0.000
100
AcDbText
0
TEXT
5
aa0
100
AcDbEntity
8
0-3
62
3
100
AcDbText
10
407.795
20
37.027
30
0.0
40
2.925
1
受領　　日附
41
1.167
50
0.000
100
AcDbText
0
TEXT
5
aa1
100
AcDbEntity
8
0-3
62
3
100
AcDbText
10
506.904
20
22.311
30
0.0
40
2.925
1
施工者
41
1.167
50
0.000
100
AcDbText
0
TEXT
5
aa2
100
AcDbEntity
8
0-3
62
3
100
AcDbText
10
506.904
20
37.126
30
0.0
40
2.925
1
設計者
41
1.167
50
0.000
100
AcDbText
0
TEXT
5
aa3
100
AcDbEntity
8
0-3
62
3
100
AcDbText
10
609.646
20
22.040
30
0.0
40
2.925
1
作図
41
1.167
50
0.000
100
AcDbText
0
TEXT
5
aa4
100
AcDbEntity
8
0-3
62
3
100
AcDbText
10
645.559
20
22.305
30
0.0
40
2.925
1
図面名
41
1.167
50
0.000
100
AcDbText
0
TEXT
5
aa5
100
AcDbEntity
8
0-3
62
3
100
AcDbText
10
609.646
20
36.854
30
0.0
40
2.925
1
日附
41
1.167
50
0.000
100
AcDbText
0
TEXT
5
aa6
100
AcDbEntity
8
0-3
62
3
100
AcDbText
10
645.559
20
37.120
30
0.0
40
2.925
1
工事件名
41
1.167
50
0.000
100
AcDbText
0
TEXT
5
aa7
100
AcDbEntity
8
0-3
62
3
100
AcDbText
10
620.714
20
36.729
30
0.0
40
2.925
1
年　月　日
41
1.167
50
0.000
100
AcDbText
0
TEXT
5
aa8
100
AcDbEntity
8
0-3
62
3
100
AcDbText
10
620.714
20
21.914
30
0.0
40
2.925
1
年　月　日
41
1.167
50
0.000
100
AcDbText
0
TEXT
5
aa9
100
AcDbEntity
8
0-3
62
3
100
AcDbText
10
771.731
20
37.120
30
0.0
40
2.925
1
設計番号
41
1.167
50
0.000
100
AcDbText
0
TEXT
5
aaa
100
AcDbEntity
8
0-3
62
3
100
AcDbText
10
193.389
20
33.735
30
0.0
40
2.925
1
. 　.　 
41
1.167
50
0.000
100
AcDbText
0
TEXT
5
aab
100
AcDbEntity
8
0-3
62
3
100
AcDbText
10
193.389
20
28.797
30
0.0
40
2.925
1
. 　.　 
41
1.167
50
0.000
100
AcDbText
0
TEXT
5
aac
100
AcDbEntity
8
0-3
62
3
100
AcDbText
10
193.389
20
23.859
30
0.0
40
2.925
1
. 　.　 
41
1.167
50
0.000
100
AcDbText
0
TEXT
5
aad
100
AcDbEntity
8
0-3
62
3
100
AcDbText
10
193.389
20
18.920
30
0.0
40
2.925
1
. 　.　 
41
1.167
50
0.000
100
AcDbText
0
TEXT
5
aae
100
AcDbEntity
8
0-3
62
3
100
AcDbText
10
193.389
20
13.982
30
0.0
40
2.925
1
. 　.　 
41
1.167
50
0.000
100
AcDbText
0
TEXT
5
aaf
100
AcDbEntity
8
0-3
62
3
100
AcDbText
10
517.035
20
30.588
30
0.0
40
3.900
1
　　　　　　　　　　
41
1.125
50
0.000
100
AcDbText
0
TEXT
5
ab0
100
AcDbEntity
8
0-3
62
3
100
AcDbText
10
517.035
20
15.773
30
0.0
40
3.900
1
　　　　　　　　　　
41
1.125
50
0.000
100
AcDbText
0
TEXT
5
ab1
100
AcDbEntity
8
0-3
62
3
100
AcDbText
10
658.767
20
31.362
30
0.0
40
3.900
1
　　　　　　　　　　　　　
41
1.125
50
0.000
100
AcDbText
0
TEXT
5
ab2
100
AcDbEntity
8
0-3
62
3
100
AcDbText
10
188.903
20
37.395
30
0.0
40
2.925
1
年　月　日
41
1.167
50
0.000
100
AcDbText
0
TEXT
5
ab3
100
AcDbEntity
8
0-3
62
3
100
AcDbText
10
436.381
20
36.735
30
0.0
40
2.925
1
年　　月　　日
41
1.167
50
0.000
100
AcDbText
0
TEXT
5
ab4
100
AcDbEntity
8
0-3
62
3
100
AcDbText
10
442.657
20
31.524
30
0.0
40
2.925
1
.　 　.
41
1.167
50
0.000
100
AcDbText
0
TEXT
5
ab5
100
AcDbEntity
8
0-3
62
3
100
AcDbText
10
407.795
20
22.212
30
0.0
40
2.925
1
受領　　日附
41
1.167
50
0.000
100
AcDbText
0
TEXT
5
ab6
100
AcDbEntity
8
0-3
62
3
100
AcDbText
10
436.381
20
21.920
30
0.0
40
2.925
1
年　　月　　日
41
1.167
50
0.000
100
AcDbText
0
TEXT
5
ab7
100
AcDbEntity
8
0-3
62
3
100
AcDbText
10
442.657
20
16.709
30
0.0
40
2.925
1
.　 　.
41
1.167
50
0.000
100
AcDbText
0
TEXT
5
ab8
100
AcDbEntity
8
0-3
62
3
100
AcDbText
10
624.100
20
30.667
30
0.0
40
2.925
1
.　　.　
41
1.167
50
0.000
100
AcDbText
0
TEXT
5
ab9
100
AcDbEntity
8
0-3
62
3
100
AcDbText
10
771.731
20
22.305
30
0.0
40
2.925
1
縮　尺
41
1.167
50
0.000
100
AcDbText
0
TEXT
5
aba
100
AcDbEntity
8
0-3
62
3
100
AcDbText
10
783.350
20
20.225
30
0.0
40
3.900
1
Ａ１－１／１　
41
1.125
50
0.000
100
AcDbText
0
TEXT
5
abb
100
AcDbEntity
8
0-3
62
3
100
AcDbText
10
783.350
20
12.817
30
0.0
40
3.900
1
Ａ３－１／２　
41
1.125
50
0.000
100
AcDbText
0
TEXT
5
abc
100
AcDbEntity
8
0-3
62
3
100
AcDbText
10
83.178
20
13.785
30
0.0
40
3.900
1
電話（０５４）２６３－２２８０（代表）
41
1.125
50
0.000
100
AcDbText
0
TEXT
5
abd
100
AcDbEntity
8
0-3
62
3
100
AcDbText
10
61.073
20
29.382
30
0.0
40
7.800
1
小　池　弥　太　郎　商　店
41
1.125
50
0.000
100
AcDbText
0
TEXT
5
abe
100
AcDbEntity
8
0-3
62
3
100
AcDbText
10
83.176
20
21.201
30
0.0
40
3.900
1
静岡県静岡市葵区流通センター１６番
41
1.125
50
0.000
100
AcDbText
0
TEXT
5
abf
100
AcDbEntity
8
0-3
62
3
100
AcDbText
10
49.950
20
33.676
30
0.0
40
2.925
1
株
41
1.167
50
0.000
100
AcDbText
0
TEXT
5
ac0
100
AcDbEntity
8
0-3
62
3
100
AcDbText
10
53.525
20
30.051
30
0.0
40
2.925
1
社
41
1.167
50
0.000
100
AcDbText
0
TEXT
5
ac1
100
AcDbEntity
8
0-3
62
3
100
AcDbText
10
49.925
20
30.051
30
0.0
40
2.925
1
会
41
1.167
50
0.000
100
AcDbText
0
TEXT
5
ac2
100
AcDbEntity
8
0-3
62
3
100
AcDbText
10
53.325
20
33.576
30
0.0
40
2.925
1
式
41
1.167
50
0.000
100
AcDbText
0
TEXT
5
ac3
100
AcDbEntity
8
0-0
62
3
100
AcDbText
10
209.713
20
518.948
30
0.0
40
5.850
1
150
41
1.167
50
0.000
100
AcDbText
0
TEXT
5
ac4
100
AcDbEntity
8
0-0
62
3
100
AcDbText
10
511.547
20
488.948
30
0.0
40
6.825
1
150
41
1.143
50
0.000
100
AcDbText
0
TEXT
5
ac5
100
AcDbEntity
8
0-0
62
3
100
AcDbText
10
661.547
20
488.948
30
0.0
40
6.825
1
150
41
1.143
50
0.000
100
AcDbText
0
TEXT
5
ac6
100
AcDbEntity
8
0-0
62
3
100
AcDbText
10
122.838
20
416.622
30
0.0
40
5.850
1
22.5
41
1.167
50
0.000
100
AcDbText
0
TEXT
5
ac7
100
AcDbEntity
8
0-0
62
3
100
AcDbText
10
81.956
20
448.783
30
0.0
40
5.850
1
12
41
1.167
50
0.000
100
AcDbText
0
TEXT
5
ac8
100
AcDbEntity
8
0-0
62
3
100
AcDbText
10
324.939
20
447.367
30
0.0
40
5.850
1
15
41
1.167
50
0.000
100
AcDbText
0
TEXT
5
ac9
100
AcDbEntity
8
0-0
62
3
100
AcDbText
10
141.838
20
488.948
30
0.0
40
4.875
1
13.5
41
1.100
50
0.000
100
AcDbText
0
TEXT
5
aca
100
AcDbEntity
8
0-0
62
3
100
AcDbText
10
156.838
20
488.948
30
0.0
40
4.875
1
16.5
41
1.100
50
0.000
100
AcDbText
0
TEXT
5
acb
100
AcDbEntity
8
0-0
62
3
100
AcDbText
10
171.838
20
488.948
30
0.0
40
4.875
1
13.5
41
1.100
50
0.000
100
AcDbText
0
TEXT
5
acc
100
AcDbEntity
8
0-0
62
3
100
AcDbText
10
186.838
20
488.948
30
0.0
40
4.875
1
16.5
41
1.100
50
0.000
100
AcDbText
0
TEXT
5
acd
100
AcDbEntity
8
0-0
62
3
100
AcDbText
10
201.838
20
488.948
30
0.0
40
4.875
1
13.5
41
1.100
50
0.000
100
AcDbText
0
TEXT
5
ace
100
AcDbEntity
8
0-0
62
3
100
AcDbText
10
216.838
20
488.948
30
0.0
40
4.875
1
16.5
41
1.100
50
0.000
100
AcDbText
0
TEXT
5
acf
100
AcDbEntity
8
0-0
62
3
100
AcDbText
10
231.838
20
488.948
30
0.0
40
4.875
1
13.5
41
1.100
50
0.000
100
AcDbText
0
TEXT
5
ad0
100
AcDbEntity
8
0-0
62
3
100
AcDbText
10
246.838
20
488.948
30
0.0
40
4.875
1
16.5
41
1.100
50
0.000
100
AcDbText
0
TEXT
5
ad1
100
AcDbEntity
8
0-0
62
3
100
AcDbText
10
261.838
20
488.948
30
0.0
40
4.875
1
13.5
41
1.100
50
0.000
100
AcDbText
0
TEXT
5
ad2
100
AcDbEntity
8
0-0
62
3
100
AcDbText
10
276.838
20
488.948
30
0.0
40
4.875
1
16.5
41
1.100
50
0.000
100
AcDbText
0
TEXT
5
ad3
100
AcDbEntity
8
0-0
62
3
100
AcDbText
10
200.463
20
503.948
30
0.0
40
5.850
1
133.5
41
1.167
50
0.000
100
AcDbText
0
TEXT
5
ad4
100
AcDbEntity
8
0-0
62
3
100
AcDbText
10
277.538
20
416.622
30
0.0
40
5.850
1
33.5
41
1.167
50
0.000
100
AcDbText
0
TEXT
5
ad5
100
AcDbEntity
8
0-0
62
3
100
AcDbText
10
268.063
20
427.083
30
0.0
40
4.875
1
14.5
41
1.100
50
0.000
100
AcDbText
0
TEXT
5
ad6
100
AcDbEntity
8
0-0
62
3
100
AcDbText
10
287.563
20
427.083
30
0.0
40
4.875
1
19
41
1.100
50
0.000
100
AcDbText
0
TEXT
5
ad7
100
AcDbEntity
8
0-0
62
3
100
AcDbText
10
156.838
20
473.948
30
0.0
40
4.875
1
14.5
41
1.100
50
0.000
100
AcDbText
0
TEXT
5
ad8
100
AcDbEntity
8
0-0
62
3
100
AcDbText
10
171.838
20
473.948
30
0.0
40
4.875
1
15.5
41
1.100
50
0.000
100
AcDbText
0
TEXT
5
ad9
100
AcDbEntity
8
0-3
62
3
100
AcDbText
10
774.222
20
29.844
30
0.0
40
4.875
1
ＮＲＳ－０１
41
1.100
50
0.000
100
AcDbText
0
TEXT
5
ada
100
AcDbEntity
8
0-0
62
3
100
AcDbText
10
119.213
20
427.083
30
0.0
40
4.875
1
7
41
1.100
50
0.000
100
AcDbText
0
TEXT
5
adb
100
AcDbEntity
8
0-0
62
3
100
AcDbText
10
126.338
20
427.083
30
0.0
40
4.875
1
15.5
41
1.100
50
0.000
100
AcDbText
0
TEXT
5
adc
100
AcDbEntity
8
0-0
62
3
100
AcDbText
10
97.463
20
545.423
30
0.0
40
6.825
1
新リブスパン１５０
41
1.143
50
0.000
100
AcDbText
0
TEXT
5
add
100
AcDbEntity
8
0-3
62
3
100
AcDbText
10
655.767
20
16.546
30
0.0
40
3.900
1
新リブスパン１５０　断面図
41
1.125
50
0.000
100
AcDbText
0
TEXT
5
ade
100
AcDbEntity
8
0-1
62
3
100
AcDbText
10
433.540
20
318.758
30
0.0
40
6.825
1
50
41
1.143
50
0.000
100
AcDbText
0
TEXT
5
adf
100
AcDbEntity
8
0-1
62
3
100
AcDbText
10
493.238
20
278.280
30
0.0
40
6.825
1
25
41
1.143
50
0.000
100
AcDbText
0
TEXT
5
ae0
100
AcDbEntity
8
0-1
62
3
100
AcDbText
10
474.156
20
251.279
30
0.0
40
6.825
1
9
41
1.143
50
0.000
100
AcDbText
0
TEXT
5
ae1
100
AcDbEntity
8
0-2
62
3
100
AcDbText
10
620.152
20
106.821
30
0.0
40
6.825
1
45
41
1.143
50
0.000
100
AcDbText
0
TEXT
5
ae2
100
AcDbEntity
8
0-2
62
3
100
AcDbText
10
614.998
20
139.070
30
0.0
40
6.825
1
10
41
1.143
50
0.000
100
AcDbText
0
TEXT
5
ae3
100
AcDbEntity
8
0-2
62
3
100
AcDbText
10
631.808
20
122.231
30
0.0
40
6.825
1
10
41
1.143
50
0.000
100
AcDbText
0
TEXT
5
ae4
100
AcDbEntity
8
0-2
62
3
100
AcDbText
10
665.498
20
102.070
30
0.0
40
6.825
1
9
41
1.143
50
0.000
100
AcDbText
0
TEXT
5
ae5
100
AcDbEntity
8
0-2
62
3
100
AcDbText
10
597.473
20
170.168
30
0.0
40
6.825
1
9
41
1.143
50
0.000
100
AcDbText
0
TEXT
5
ae6
100
AcDbEntity
8
0-2
62
3
100
AcDbText
10
418.967
20
212.645
30
0.0
40
6.825
1
Ｌ＝２０００～６０００
41
1.143
50
0.000
100
AcDbText
0
TEXT
5
ae7
100
AcDbEntity
8
0-1
62
3
100
AcDbText
10
491.541
20
293.588
30
0.0
40
6.825
1
 3
41
1.143
50
0.000
100
AcDbText
0
TEXT
5
ae8
100
AcDbEntity
8
0-2
62
3
100
AcDbText
10
418.967
20
222.645
30
0.0
40
6.825
1
ＲＳ－１５０（天井正面接続）
41
1.143
50
0.000
100
AcDbText
0
TEXT
5
ae9
100
AcDbEntity
8
0-1
62
3
100
AcDbText
10
418.967
20
369.355
30
0.0
40
6.825
1
ＲＳ－２０２（中間水切接続）
41
1.143
50
0.000
100
AcDbText
0
TEXT
5
aea
100
AcDbEntity
8
0-1
62
3
100
AcDbText
10
464.906
20
309.279
30
0.0
40
6.825
1
25
41
1.143
50
0.000
100
AcDbText
0
TEXT
5
aeb
100
AcDbEntity
8
0-2
62
3
100
AcDbText
10
585.560
20
222.645
30
0.0
40
6.825
1
ＲＳ－３００（横張用・出隅）
41
1.143
50
0.000
100
AcDbText
0
TEXT
5
aec
100
AcDbEntity
8
0-2
62
3
100
AcDbText
10
630.691
20
158.453
30
0.0
40
6.825
1
16
41
1.143
50
0.000
100
AcDbText
0
TEXT
5
aed
100
AcDbEntity
8
0-2
62
3
100
AcDbText
10
651.473
20
137.853
30
0.0
40
6.825
1
16
41
1.143
50
0.000
100
AcDbText
0
TEXT
5
aee
100
AcDbEntity
8
0-1
62
3
100
AcDbText
10
242.375
20
369.355
30
0.0
40
6.825
1
ＲＳ－４００（Ｈ型接続）
41
1.143
50
0.000
100
AcDbText
0
TEXT
5
aef
100
AcDbEntity
8
0-1
62
3
100
AcDbText
10
284.814
20
345.780
30
0.0
40
6.825
1
60
41
1.143
50
0.000
100
AcDbText
0
TEXT
5
af0
100
AcDbEntity
8
0-1
62
3
100
AcDbText
10
285.814
20
282.780
30
0.0
40
6.825
1
30
41
1.143
50
0.000
100
AcDbText
0
TEXT
5
af1
100
AcDbEntity
8
0-1
62
3
100
AcDbText
10
276.814
20
297.780
30
0.0
40
6.825
1
8
41
1.143
50
0.000
100
AcDbText
0
TEXT
5
af2
100
AcDbEntity
8
0-1
62
3
100
AcDbText
10
292.814
20
297.780
30
0.0
40
6.825
1
16
41
1.143
50
0.000
100
AcDbText
0
TEXT
5
af3
100
AcDbEntity
8
0-1
62
3
100
AcDbText
10
329.125
20
322.613
30
0.0
40
6.825
1
16
41
1.143
50
0.000
100
AcDbText
0
TEXT
5
af4
100
AcDbEntity
8
0-1
62
3
100
AcDbText
10
242.375
20
359.355
30
0.0
40
6.825
1
Ｌ＝２０００～３０００
41
1.143
50
0.000
100
AcDbText
0
TEXT
5
af5
100
AcDbEntity
8
0-1
62
3
100
AcDbText
10
144.402
20
343.779
30
0.0
40
6.825
1
50
41
1.143
50
0.000
100
AcDbText
0
TEXT
5
af6
100
AcDbEntity
8
0-1
62
3
100
AcDbText
10
156.152
20
308.779
30
0.0
40
6.825
1
9
41
1.143
50
0.000
100
AcDbText
0
TEXT
5
af7
100
AcDbEntity
8
0-1
62
3
100
AcDbText
10
97.463
20
369.355
30
0.0
40
6.825
1
ＲＳ－１０１（廻り縁）
41
1.143
50
0.000
100
AcDbText
0
TEXT
5
af8
100
AcDbEntity
8
0-1
62
3
100
AcDbText
10
104.156
20
316.790
30
0.0
40
6.825
1
25
41
1.143
50
0.000
100
AcDbText
0
TEXT
5
af9
100
AcDbEntity
8
0-1
62
3
100
AcDbText
10
129.902
20
274.779
30
0.0
40
6.825
1
20
41
1.143
50
0.000
100
AcDbText
0
TEXT
5
afa
100
AcDbEntity
8
0-1
62
3
100
AcDbText
10
137.902
20
289.779
30
0.0
40
6.825
1
8
41
1.143
50
0.000
100
AcDbText
0
TEXT
5
afb
100
AcDbEntity
8
0-1
62
3
100
AcDbText
10
97.463
20
359.355
30
0.0
40
6.825
1
Ｌ＝２０００～３０００
41
1.143
50
0.000
100
AcDbText
0
TEXT
5
afc
100
AcDbEntity
8
0-1
62
3
100
AcDbText
10
457.980
20
270.819
30
0.0
40
6.825
1
8
41
1.143
50
0.000
100
AcDbText
0
TEXT
5
afd
100
AcDbEntity
8
0-1
62
3
100
AcDbText
10
418.967
20
359.355
30
0.0
40
6.825
1
Ｌ＝２０００～３０００
41
1.143
50
0.000
100
AcDbText
0
TEXT
5
afe
100
AcDbEntity
8
0-2
62
3
100
AcDbText
10
326.314
20
84.452
30
0.0
40
6.825
1
10
41
1.143
50
0.000
100
AcDbText
0
TEXT
5
aff
100
AcDbEntity
8
0-2
62
3
100
AcDbText
10
367.064
20
106.702
30
0.0
40
6.825
1
14
41
1.143
50
90.000
100
AcDbText
0
TEXT
5
b00
100
AcDbEntity
8
0-2
62
3
100
AcDbText
10
273.314
20
182.616
30
0.0
40
6.825
1
12
41
1.143
50
0.000
100
AcDbText
0
TEXT
5
b01
100
AcDbEntity
8
0-2
62
3
100
AcDbText
10
335.314
20
84.452
30
0.0
40
6.825
1
4
41
1.143
50
0.000
100
AcDbText
0
TEXT
5
b02
100
AcDbEntity
8
0-2
62
3
100
AcDbText
10
341.814
20
84.452
30
0.0
40
6.825
1
9
41
1.143
50
0.000
100
AcDbText
0
TEXT
5
b03
100
AcDbEntity
8
0-2
62
3
100
AcDbText
10
332.814
20
74.452
30
0.0
40
6.825
1
23
41
1.143
50
0.000
100
AcDbText
0
TEXT
5
b04
100
AcDbEntity
8
0-2
62
3
100
AcDbText
10
314.064
20
103.702
30
0.0
40
6.825
1
4
41
1.143
50
90.000
100
AcDbText
0
TEXT
5
b05
100
AcDbEntity
8
0-2
62
3
100
AcDbText
10
305.064
20
138.452
30
0.0
40
6.825
1
52
41
1.143
50
0.000
100
AcDbText
0
TEXT
5
b06
100
AcDbEntity
8
0-2
62
3
100
AcDbText
10
247.564
20
139.952
30
0.0
40
6.825
1
52
41
1.143
50
90.000
100
AcDbText
0
TEXT
5
b07
100
AcDbEntity
8
0-2
62
3
100
AcDbText
10
247.564
20
176.261
30
0.0
40
6.825
1
21
41
1.143
50
90.000
100
AcDbText
0
TEXT
5
b08
100
AcDbEntity
8
0-2
62
3
100
AcDbText
10
167.402
20
137.070
30
0.0
40
6.825
1
10
41
1.143
50
0.000
100
AcDbText
0
TEXT
5
b09
100
AcDbEntity
8
0-2
62
3
100
AcDbText
10
208.152
20
159.320
30
0.0
40
6.825
1
14
41
1.143
50
90.000
100
AcDbText
0
TEXT
5
b0a
100
AcDbEntity
8
0-2
62
3
100
AcDbText
10
176.402
20
137.070
30
0.0
40
6.825
1
4
41
1.143
50
0.000
100
AcDbText
0
TEXT
5
b0b
100
AcDbEntity
8
0-2
62
3
100
AcDbText
10
182.902
20
137.070
30
0.0
40
6.825
1
9
41
1.143
50
0.000
100
AcDbText
0
TEXT
5
b0c
100
AcDbEntity
8
0-2
62
3
100
AcDbText
10
173.902
20
127.070
30
0.0
40
6.825
1
23
41
1.143
50
0.000
100
AcDbText
0
TEXT
5
b0d
100
AcDbEntity
8
0-2
62
3
100
AcDbText
10
155.152
20
156.320
30
0.0
40
6.825
1
4
41
1.143
50
90.000
100
AcDbText
0
TEXT
5
b0e
100
AcDbEntity
8
0-2
62
3
100
AcDbText
10
146.152
20
191.070
30
0.0
40
6.825
1
52
41
1.143
50
0.000
100
AcDbText
0
TEXT
5
b0f
100
AcDbEntity
8
0-2
62
3
100
AcDbText
10
98.652
20
139.570
30
0.0
40
6.825
1
52
41
1.143
50
90.000
100
AcDbText
0
TEXT
5
b10
100
AcDbEntity
8
0-2
62
3
100
AcDbText
10
98.652
20
103.261
30
0.0
40
6.825
1
21
41
1.143
50
90.000
100
AcDbText
0
TEXT
5
b11
100
AcDbEntity
8
0-2
62
3
100
AcDbText
10
124.902
20
97.406
30
0.0
40
6.825
1
12
41
1.143
50
0.000
100
AcDbText
0
TEXT
5
b12
100
AcDbEntity
8
0-2
62
3
100
AcDbText
10
142.152
20
182.070
30
0.0
40
6.825
1
(75)
41
1.143
50
0.000
100
AcDbText
0
TEXT
5
b13
100
AcDbEntity
8
0-2
62
3
100
AcDbText
10
107.652
20
135.570
30
0.0
40
6.825
1
(75)
41
1.143
50
90.000
100
AcDbText
0
TEXT
5
b14
100
AcDbEntity
8
0-2
62
3
100
AcDbText
10
301.064
20
129.452
30
0.0
40
6.825
1
(75)
41
1.143
50
0.000
100
AcDbText
0
TEXT
5
b15
100
AcDbEntity
8
0-2
62
3
100
AcDbText
10
256.564
20
135.952
30
0.0
40
6.825
1
(75)
41
1.143
50
90.000
100
AcDbText
0
TEXT
5
b16
100
AcDbEntity
8
0-2
62
3
100
AcDbText
10
97.463
20
212.645
30
0.0
40
6.825
1
Ｌ＝２０００～３０００
41
1.143
50
0.000
100
AcDbText
0
TEXT
5
b17
100
AcDbEntity
8
0-2
62
3
100
AcDbText
10
242.375
20
212.645
30
0.0
40
6.825
1
Ｌ＝２０００～３０００
41
1.143
50
0.000
100
AcDbText
0
TEXT
5
b18
100
AcDbEntity
8
0-2
62
3
100
AcDbText
10
419.656
20
127.070
30
0.0
40
6.825
1
25
41
1.143
50
0.000
100
AcDbText
0
TEXT
5
b19
100
AcDbEntity
8
0-2
62
3
100
AcDbText
10
412.329
20
91.437
30
0.0
40
6.825
1
9
41
1.143
50
0.000
100
AcDbText
0
TEXT
5
b1a
100
AcDbEntity
8
0-2
62
3
100
AcDbText
10
494.791
20
146.878
30
0.0
40
6.825
1
 3
41
1.143
50
0.000
100
AcDbText
0
TEXT
5
b1b
100
AcDbEntity
8
0-2
62
3
100
AcDbText
10
391.655
20
104.563
30
0.0
40
6.825
1
16
41
1.143
50
0.000
100
AcDbText
0
TEXT
5
b1c
100
AcDbEntity
8
0-2
62
3
100
AcDbText
10
467.656
20
162.570
30
0.0
40
6.825
1
25
41
1.143
50
0.000
100
AcDbText
0
TEXT
5
b1d
100
AcDbEntity
8
0-2
62
3
100
AcDbText
10
436.790
20
172.049
30
0.0
40
6.825
1
50
41
1.143
50
0.000
100
AcDbText
0
TEXT
5
b1e
100
AcDbEntity
8
0-2
62
3
100
AcDbText
10
427.156
20
73.070
30
0.0
40
6.825
1
10
41
1.143
50
0.000
100
AcDbText
0
TEXT
5
b1f
100
AcDbEntity
8
0-2
62
3
100
AcDbText
10
497.242
20
116.481
30
0.0
40
6.825
1
58
41
1.143
50
0.000
100
AcDbText
0
TEXT
5
b20
100
AcDbEntity
8
0-2
62
3
100
AcDbText
10
597.998
20
128.070
30
0.0
40
6.825
1
45
41
1.143
50
0.000
100
AcDbText
0
TEXT
5
b21
100
AcDbEntity
8
0-2
62
3
100
AcDbText
10
638.998
20
188.570
30
0.0
40
6.825
1
58
41
1.143
50
0.000
100
AcDbText
0
TEXT
5
b22
100
AcDbEntity
8
0-2
62
3
100
AcDbText
10
685.254
20
145.996
30
0.0
40
6.825
1
58
41
1.143
50
0.000
100
AcDbText
0
TEXT
5
b23
100
AcDbEntity
8
0-2
62
3
100
AcDbText
10
97.463
20
222.645
30
0.0
40
6.825
1
ＲＳＲ－３０３（出　隅）
41
1.143
50
0.000
100
AcDbText
0
TEXT
5
b24
100
AcDbEntity
8
0-2
62
3
100
AcDbText
10
242.375
20
222.645
30
0.0
40
6.825
1
ＲＳＲ－３０４（入　隅）
41
1.143
50
0.000
100
AcDbText
0
TEXT
5
b25
100
AcDbEntity
8
0-2
62
3
100
AcDbText
10
418.967
20
212.645
30
0.0
40
6.825
1
Ｌ＝２０００～３０００
41
1.143
50
0.000
100
AcDbText
0
TEXT
5
b26
100
AcDbEntity
8
0-2
62
3
100
AcDbText
10
585.560
20
212.645
30
0.0
40
6.825
1
Ｌ＝２０００～３０００
41
1.143
50
0.000
100
AcDbText
0
TEXT
5
b27
100
AcDbEntity
8
0-2
62
3
100
AcDbText
10
451.156
20
58.070
30
0.0
40
6.825
1
58
41
1.143
50
0.000
100
AcDbText
0
TEXT
5
b28
100
AcDbEntity
8
0-3
62
3
100
AcDbText
10
611.241
20
15.334
30
0.0
40
2.925
1
   2020-10-16
41
1.167
50
0.000
100
AcDbText
0
TEXT
5
b29
100
AcDbEntity
8
0-0
62
3
100
AcDbText
10
399.780
20
512.824
30
0.0
40
6.825
1
新リブスパン１５０（嵌合参考図）
41
1.143
50
0.000
100
AcDbText
0
POINT
5
b2a
100
AcDbEntity
8
F-F
62
3
100
AcDbPoint
10
27.380000000000
20
571.820000000000
30
0.0
0
POINT
5
b2b
100
AcDbEntity
8
0-0
62
3
100
AcDbPoint
10
140.460000000000
20
487.950000000000
30
0.0
0
POINT
5
b2c
100
AcDbEntity
8
0-0
62
3
100
AcDbPoint
10
153.960000000000
20
487.950000000000
30
0.0
0
POINT
5
b2d
100
AcDbEntity
8
0-0
62
3
100
AcDbPoint
10
170.460000000000
20
487.950000000000
30
0.0
0
POINT
5
b2e
100
AcDbEntity
8
0-0
62
3
100
AcDbPoint
10
140.460000000000
20
502.950000000000
30
0.0
0
POINT
5
b2f
100
AcDbEntity
8
0-0
62
3
100
AcDbPoint
10
273.960000000000
20
502.950000000000
30
0.0
0
POINT
5
b30
100
AcDbEntity
8
0-0
62
3
100
AcDbPoint
10
140.460000000000
20
517.950000000000
30
0.0
0
POINT
5
b31
100
AcDbEntity
8
0-0
62
3
100
AcDbPoint
10
290.460000000000
20
517.950000000000
30
0.0
0
POINT
5
b32
100
AcDbEntity
8
0-0
62
3
100
AcDbPoint
10
92.210000000000
20
446.350000000000
30
0.0
0
POINT
5
b33
100
AcDbEntity
8
0-0
62
3
100
AcDbPoint
10
92.210000000000
20
458.450000000000
30
0.0
0
POINT
5
b34
100
AcDbEntity
8
0-0
62
3
100
AcDbPoint
10
322.210000000000
20
443.450000000000
30
0.0
0
POINT
5
b35
100
AcDbEntity
8
0-0
62
3
100
AcDbPoint
10
322.210000000000
20
458.450000000000
30
0.0
0
POINT
5
b36
100
AcDbEntity
8
0-0
62
3
100
AcDbPoint
10
116.960000000000
20
426.080000000000
30
0.0
0
POINT
5
b37
100
AcDbEntity
8
0-0
62
3
100
AcDbPoint
10
139.460000000000
20
426.080000000000
30
0.0
0
POINT
5
b38
100
AcDbEntity
8
0-0
62
3
100
AcDbPoint
10
266.160000000000
20
426.080000000000
30
0.0
0
POINT
5
b39
100
AcDbEntity
8
0-0
62
3
100
AcDbPoint
10
299.660000000000
20
426.080000000000
30
0.0
0
POINT
5
b3a
100
AcDbEntity
8
0-0
62
3
100
AcDbPoint
10
299.660000000000
20
415.620000000000
30
0.0
0
POINT
5
b3b
100
AcDbEntity
8
0-0
62
3
100
AcDbPoint
10
266.160000000000
20
415.620000000000
30
0.0
0
POINT
5
b3c
100
AcDbEntity
8
0-0
62
3
100
AcDbPoint
10
280.710000000000
20
426.080000000000
30
0.0
0
POINT
5
b3d
100
AcDbEntity
8
0-0
62
3
100
AcDbPoint
10
116.960000000000
20
415.620000000000
30
0.0
0
POINT
5
b3e
100
AcDbEntity
8
0-0
62
3
100
AcDbPoint
10
139.460000000000
20
415.620000000000
30
0.0
0
POINT
5
b3f
100
AcDbEntity
8
0-0
62
3
100
AcDbPoint
10
123.960000000000
20
426.080000000000
30
0.0
0
POINT
5
b40
100
AcDbEntity
8
0-0
62
3
100
AcDbPoint
10
442.300000000000
20
487.950000000000
30
0.0
0
POINT
5
b41
100
AcDbEntity
8
0-0
62
3
100
AcDbPoint
10
592.300000000000
20
487.950000000000
30
0.0
0
POINT
5
b42
100
AcDbEntity
8
0-0
62
3
100
AcDbPoint
10
742.300000000000
20
487.950000000000
30
0.0
0
POINT
5
b43
100
AcDbEntity
8
0-0
62
3
100
AcDbPoint
10
183.960000000000
20
487.950000000000
30
0.0
0
POINT
5
b44
100
AcDbEntity
8
0-0
62
3
100
AcDbPoint
10
200.460000000000
20
487.950000000000
30
0.0
0
POINT
5
b45
100
AcDbEntity
8
0-0
62
3
100
AcDbPoint
10
213.960000000000
20
487.950000000000
30
0.0
0
POINT
5
b46
100
AcDbEntity
8
0-0
62
3
100
AcDbPoint
10
230.460000000000
20
487.950000000000
30
0.0
0
POINT
5
b47
100
AcDbEntity
8
0-0
62
3
100
AcDbPoint
10
243.960000000000
20
487.950000000000
30
0.0
0
POINT
5
b48
100
AcDbEntity
8
0-0
62
3
100
AcDbPoint
10
260.460000000000
20
487.950000000000
30
0.0
0
POINT
5
b49
100
AcDbEntity
8
0-0
62
3
100
AcDbPoint
10
273.960000000000
20
487.950000000000
30
0.0
0
POINT
5
b4a
100
AcDbEntity
8
0-0
62
3
100
AcDbPoint
10
290.460000000000
20
487.950000000000
30
0.0
0
POINT
5
b4b
100
AcDbEntity
8
0-0
62
3
100
AcDbPoint
10
742.300000000000
20
443.450000000000
30
0.0
0
POINT
5
b4c
100
AcDbEntity
8
0-0
62
3
100
AcDbPoint
10
154.960000000000
20
472.950000000000
30
0.0
0
POINT
5
b4d
100
AcDbEntity
8
0-0
62
3
100
AcDbPoint
10
169.460000000000
20
472.950000000000
30
0.0
0
POINT
5
b4e
100
AcDbEntity
8
0-0
62
3
100
AcDbPoint
10
184.960000000000
20
472.950000000000
30
0.0
0
POINT
5
b4f
100
AcDbEntity
8
0-0
62
3
100
AcDbPoint
10
169.460000000000
20
472.950000000000
30
0.0
0
POINT
5
b50
100
AcDbEntity
8
0-0
62
3
100
AcDbPoint
10
184.960000000000
20
472.950000000000
30
0.0
0
POINT
5
b51
100
AcDbEntity
8
0-0
62
3
100
AcDbPoint
10
442.300000000000
20
443.450000000000
30
0.0
0
POINT
5
b52
100
AcDbEntity
8
0-0
62
3
100
AcDbPoint
10
592.300000000000
20
443.450000000000
30
0.0
0
POINT
5
b53
100
AcDbEntity
8
0-0
62
3
100
AcDbPoint
10
592.300000000000
20
443.450000000000
30
0.0
0
POINT
5
b54
100
AcDbEntity
8
0-0
62
3
100
AcDbPoint
10
742.300000000000
20
443.450000000000
30
0.0
0
POINT
5
b55
100
AcDbEntity
8
0-0
62
3
100
AcDbPoint
10
592.300000000000
20
443.450000000000
30
0.0
0
POINT
5
b56
100
AcDbEntity
8
0-0
62
3
100
AcDbPoint
10
742.300000000000
20
443.450000000000
30
0.0
0
POINT
5
b57
100
AcDbEntity
8
0-1
62
3
100
AcDbPoint
10
445.160000000000
20
297.780000000000
30
0.0
0
POINT
5
b58
100
AcDbEntity
8
0-1
62
3
100
AcDbPoint
10
445.160000000000
20
347.780000000000
30
0.0
0
POINT
5
b59
100
AcDbEntity
8
0-1
62
3
100
AcDbPoint
10
464.160000000000
20
278.280000000000
30
0.0
0
POINT
5
b5a
100
AcDbEntity
8
0-1
62
3
100
AcDbPoint
10
464.160000000000
20
270.280000000000
30
0.0
0
POINT
5
b5b
100
AcDbEntity
8
0-1
62
3
100
AcDbPoint
10
490.660000000000
20
295.280000000000
30
0.0
0
POINT
5
b5c
100
AcDbEntity
8
0-1
62
3
100
AcDbPoint
10
490.660000000000
20
270.280000000000
30
0.0
0
POINT
5
b5d
100
AcDbEntity
8
0-1
62
3
100
AcDbPoint
10
455.660000000000
20
308.280000000000
30
0.0
0
POINT
5
b5e
100
AcDbEntity
8
0-1
62
3
100
AcDbPoint
10
480.660000000000
20
308.280000000000
30
0.0
0
POINT
5
b5f
100
AcDbEntity
8
0-1
62
3
100
AcDbPoint
10
471.660000000000
20
260.280000000000
30
0.0
0
POINT
5
b60
100
AcDbEntity
8
0-1
62
3
100
AcDbPoint
10
480.660000000000
20
260.280000000000
30
0.0
0
POINT
5
b61
100
AcDbEntity
8
0-2
62
3
100
AcDbPoint
10
613.750000000000
20
146.070000000000
30
0.0
0
POINT
5
b62
100
AcDbEntity
8
0-2
62
3
100
AcDbPoint
10
624.250000000000
20
146.070000000000
30
0.0
0
POINT
5
b63
100
AcDbEntity
8
0-2
62
3
100
AcDbPoint
10
630.250000000000
20
153.570000000000
30
0.0
0
POINT
5
b64
100
AcDbEntity
8
0-2
62
3
100
AcDbPoint
10
630.250000000000
20
169.570000000000
30
0.0
0
POINT
5
b65
100
AcDbEntity
8
0-2
62
3
100
AcDbPoint
10
603.750000000000
20
178.070000000000
30
0.0
0
POINT
5
b66
100
AcDbEntity
8
0-2
62
3
100
AcDbPoint
10
603.750000000000
20
169.070000000000
30
0.0
0
POINT
5
b67
100
AcDbEntity
8
0-2
62
3
100
AcDbPoint
10
613.750000000000
20
188.070000000000
30
0.0
0
POINT
5
b68
100
AcDbEntity
8
0-2
62
3
100
AcDbPoint
10
671.750000000000
20
188.070000000000
30
0.0
0
POINT
5
b69
100
AcDbEntity
8
0-2
62
3
100
AcDbPoint
10
682.250000000000
20
120.070000000000
30
0.0
0
POINT
5
b6a
100
AcDbEntity
8
0-2
62
3
100
AcDbPoint
10
682.250000000000
20
178.070000000000
30
0.0
0
POINT
5
b6b
100
AcDbEntity
8
0-2
62
3
100
AcDbPoint
10
671.750000000000
20
110.070000000000
30
0.0
0
POINT
5
b6c
100
AcDbEntity
8
0-2
62
3
100
AcDbPoint
10
662.750000000000
20
110.070000000000
30
0.0
0
POINT
5
b6d
100
AcDbEntity
8
0-1
62
3
100
AcDbPoint
10
490.660000000000
20
298.280000000000
30
0.0
0
POINT
5
b6e
100
AcDbEntity
8
0-2
62
3
100
AcDbPoint
10
639.750000000000
20
130.570000000000
30
0.0
0
POINT
5
b6f
100
AcDbEntity
8
0-2
62
3
100
AcDbPoint
10
647.250000000000
20
136.570000000000
30
0.0
0
POINT
5
b70
100
AcDbEntity
8
0-2
62
3
100
AcDbPoint
10
663.250000000000
20
136.570000000000
30
0.0
0
POINT
5
b71
100
AcDbEntity
8
0-2
62
3
100
AcDbPoint
10
639.750000000000
20
120.070000000000
30
0.0
0
POINT
5
b72
100
AcDbEntity
8
0-1
62
3
100
AcDbPoint
10
258.560000000000
20
344.780000000000
30
0.0
0
POINT
5
b73
100
AcDbEntity
8
0-1
62
3
100
AcDbPoint
10
318.560000000000
20
344.780000000000
30
0.0
0
POINT
5
b74
100
AcDbEntity
8
0-1
62
3
100
AcDbPoint
10
327.310000000000
20
333.280000000000
30
0.0
0
POINT
5
b75
100
AcDbEntity
8
0-1
62
3
100
AcDbPoint
10
327.310000000000
20
317.280000000000
30
0.0
0
POINT
5
b76
100
AcDbEntity
8
0-1
62
3
100
AcDbPoint
10
274.560000000000
20
305.780000000000
30
0.0
0
POINT
5
b77
100
AcDbEntity
8
0-1
62
3
100
AcDbPoint
10
304.560000000000
20
305.780000000000
30
0.0
0
POINT
5
b78
100
AcDbEntity
8
0-1
62
3
100
AcDbPoint
10
304.560000000000
20
290.780000000000
30
0.0
0
POINT
5
b79
100
AcDbEntity
8
0-1
62
3
100
AcDbPoint
10
274.560000000000
20
290.780000000000
30
0.0
0
POINT
5
b7a
100
AcDbEntity
8
0-1
62
3
100
AcDbPoint
10
282.560000000000
20
305.780000000000
30
0.0
0
POINT
5
b7b
100
AcDbEntity
8
0-1
62
3
100
AcDbPoint
10
288.560000000000
20
305.780000000000
30
0.0
0
POINT
5
b7c
100
AcDbEntity
8
0-1
62
3
100
AcDbPoint
10
123.650000000000
20
342.780000000000
30
0.0
0
POINT
5
b7d
100
AcDbEntity
8
0-1
62
3
100
AcDbPoint
10
123.650000000000
20
342.780000000000
30
0.0
0
POINT
5
b7e
100
AcDbEntity
8
0-1
62
3
100
AcDbPoint
10
173.650000000000
20
342.780000000000
30
0.0
0
POINT
5
b7f
100
AcDbEntity
8
0-1
62
3
100
AcDbPoint
10
135.650000000000
20
297.780000000000
30
0.0
0
POINT
5
b80
100
AcDbEntity
8
0-1
62
3
100
AcDbPoint
10
143.650000000000
20
297.780000000000
30
0.0
0
POINT
5
b81
100
AcDbEntity
8
0-1
62
3
100
AcDbPoint
10
113.650000000000
20
332.780000000000
30
0.0
0
POINT
5
b82
100
AcDbEntity
8
0-1
62
3
100
AcDbPoint
10
113.650000000000
20
307.780000000000
30
0.0
0
POINT
5
b83
100
AcDbEntity
8
0-1
62
3
100
AcDbPoint
10
153.650000000000
20
316.780000000000
30
0.0
0
POINT
5
b84
100
AcDbEntity
8
0-1
62
3
100
AcDbPoint
10
153.650000000000
20
307.780000000000
30
0.0
0
POINT
5
b85
100
AcDbEntity
8
0-1
62
3
100
AcDbPoint
10
123.650000000000
20
282.780000000000
30
0.0
0
POINT
5
b86
100
AcDbEntity
8
0-1
62
3
100
AcDbPoint
10
143.650000000000
20
282.780000000000
30
0.0
0
POINT
5
b87
100
AcDbEntity
8
0-2
62
3
100
AcDbPoint
10
335.060000000000
20
137.450000000000
30
0.0
0
POINT
5
b88
100
AcDbEntity
8
0-2
62
3
100
AcDbPoint
10
248.560000000000
20
190.070000000000
30
0.0
0
POINT
5
b89
100
AcDbEntity
8
0-2
62
3
100
AcDbPoint
10
248.560000000000
20
169.950000000000
30
0.0
0
POINT
5
b8a
100
AcDbEntity
8
0-2
62
3
100
AcDbPoint
10
325.060000000000
20
83.450000000000
30
0.0
0
POINT
5
b8b
100
AcDbEntity
8
0-2
62
3
100
AcDbPoint
10
335.060000000000
20
83.450000000000
30
0.0
0
POINT
5
b8c
100
AcDbEntity
8
0-2
62
3
100
AcDbPoint
10
348.060000000000
20
83.450000000000
30
0.0
0
POINT
5
b8d
100
AcDbEntity
8
0-2
62
3
100
AcDbPoint
10
368.060000000000
20
103.450000000000
30
0.0
0
POINT
5
b8e
100
AcDbEntity
8
0-2
62
3
100
AcDbPoint
10
368.060000000000
20
117.450000000000
30
0.0
0
POINT
5
b8f
100
AcDbEntity
8
0-2
62
3
100
AcDbPoint
10
339.060000000000
20
83.450000000000
30
0.0
0
POINT
5
b90
100
AcDbEntity
8
0-2
62
3
100
AcDbPoint
10
325.060000000000
20
73.450000000000
30
0.0
0
POINT
5
b91
100
AcDbEntity
8
0-2
62
3
100
AcDbPoint
10
348.060000000000
20
73.450000000000
30
0.0
0
POINT
5
b92
100
AcDbEntity
8
0-2
62
3
100
AcDbPoint
10
315.060000000000
20
103.450000000000
30
0.0
0
POINT
5
b93
100
AcDbEntity
8
0-2
62
3
100
AcDbPoint
10
315.060000000000
20
107.450000000000
30
0.0
0
POINT
5
b94
100
AcDbEntity
8
0-2
62
3
100
AcDbPoint
10
248.560000000000
20
117.450000000000
30
0.0
0
POINT
5
b95
100
AcDbEntity
8
0-2
62
3
100
AcDbPoint
10
282.560000000000
20
137.450000000000
30
0.0
0
POINT
5
b96
100
AcDbEntity
8
0-2
62
3
100
AcDbPoint
10
176.150000000000
20
190.070000000000
30
0.0
0
POINT
5
b97
100
AcDbEntity
8
0-2
62
3
100
AcDbPoint
10
99.650000000000
20
96.950000000000
30
0.0
0
POINT
5
b98
100
AcDbEntity
8
0-2
62
3
100
AcDbPoint
10
99.650000000000
20
117.070000000000
30
0.0
0
POINT
5
b99
100
AcDbEntity
8
0-2
62
3
100
AcDbPoint
10
166.150000000000
20
136.070000000000
30
0.0
0
POINT
5
b9a
100
AcDbEntity
8
0-2
62
3
100
AcDbPoint
10
176.150000000000
20
136.070000000000
30
0.0
0
POINT
5
b9b
100
AcDbEntity
8
0-2
62
3
100
AcDbPoint
10
189.150000000000
20
136.070000000000
30
0.0
0
POINT
5
b9c
100
AcDbEntity
8
0-2
62
3
100
AcDbPoint
10
209.150000000000
20
156.070000000000
30
0.0
0
POINT
5
b9d
100
AcDbEntity
8
0-2
62
3
100
AcDbPoint
10
209.150000000000
20
170.070000000000
30
0.0
0
POINT
5
b9e
100
AcDbEntity
8
0-2
62
3
100
AcDbPoint
10
180.150000000000
20
136.070000000000
30
0.0
0
POINT
5
b9f
100
AcDbEntity
8
0-2
62
3
100
AcDbPoint
10
166.150000000000
20
126.070000000000
30
0.0
0
POINT
5
ba0
100
AcDbEntity
8
0-2
62
3
100
AcDbPoint
10
189.150000000000
20
126.070000000000
30
0.0
0
POINT
5
ba1
100
AcDbEntity
8
0-2
62
3
100
AcDbPoint
10
156.150000000000
20
156.070000000000
30
0.0
0
POINT
5
ba2
100
AcDbEntity
8
0-2
62
3
100
AcDbPoint
10
156.150000000000
20
160.070000000000
30
0.0
0
POINT
5
ba3
100
AcDbEntity
8
0-2
62
3
100
AcDbPoint
10
99.650000000000
20
169.570000000000
30
0.0
0
POINT
5
ba4
100
AcDbEntity
8
0-2
62
3
100
AcDbPoint
10
123.650000000000
20
190.070000000000
30
0.0
0
POINT
5
ba5
100
AcDbEntity
8
0-2
62
3
100
AcDbPoint
10
271.560000000000
20
181.620000000000
30
0.0
0
POINT
5
ba6
100
AcDbEntity
8
0-2
62
3
100
AcDbPoint
10
282.560000000000
20
181.620000000000
30
0.0
0
POINT
5
ba7
100
AcDbEntity
8
0-2
62
3
100
AcDbPoint
10
134.150000000000
20
105.410000000000
30
0.0
0
POINT
5
ba8
100
AcDbEntity
8
0-2
62
3
100
AcDbPoint
10
123.150000000000
20
105.410000000000
30
0.0
0
POINT
5
ba9
100
AcDbEntity
8
0-2
62
3
100
AcDbPoint
10
448.410000000000
20
201.070000000000
30
0.0
0
POINT
5
baa
100
AcDbEntity
8
0-2
62
3
100
AcDbPoint
10
448.410000000000
20
151.070000000000
30
0.0
0
POINT
5
bab
100
AcDbEntity
8
0-2
62
3
100
AcDbPoint
10
458.910000000000
20
161.570000000000
30
0.0
0
POINT
5
bac
100
AcDbEntity
8
0-2
62
3
100
AcDbPoint
10
483.910000000000
20
161.570000000000
30
0.0
0
POINT
5
bad
100
AcDbEntity
8
0-2
62
3
100
AcDbPoint
10
411.410000000000
20
126.070000000000
30
0.0
0
POINT
5
bae
100
AcDbEntity
8
0-2
62
3
100
AcDbPoint
10
436.410000000000
20
126.070000000000
30
0.0
0
POINT
5
baf
100
AcDbEntity
8
0-2
62
3
100
AcDbPoint
10
425.910000000000
20
80.570000000000
30
0.0
0
POINT
5
bb0
100
AcDbEntity
8
0-2
62
3
100
AcDbPoint
10
435.910000000000
20
80.570000000000
30
0.0
0
POINT
5
bb1
100
AcDbEntity
8
0-2
62
3
100
AcDbPoint
10
418.410000000000
20
90.570000000000
30
0.0
0
POINT
5
bb2
100
AcDbEntity
8
0-2
62
3
100
AcDbPoint
10
418.410000000000
20
99.570000000000
30
0.0
0
POINT
5
bb3
100
AcDbEntity
8
0-2
62
3
100
AcDbPoint
10
401.410000000000
20
99.570000000000
30
0.0
0
POINT
5
bb4
100
AcDbEntity
8
0-2
62
3
100
AcDbPoint
10
401.410000000000
20
115.570000000000
30
0.0
0
POINT
5
bb5
100
AcDbEntity
8
0-2
62
3
100
AcDbPoint
10
493.910000000000
20
90.570000000000
30
0.0
0
POINT
5
bb6
100
AcDbEntity
8
0-2
62
3
100
AcDbPoint
10
493.910000000000
20
148.570000000000
30
0.0
0
POINT
5
bb7
100
AcDbEntity
8
0-2
62
3
100
AcDbPoint
10
493.910000000000
20
151.570000000000
30
0.0
0
POINT
5
bb8
100
AcDbEntity
8
0-2
62
3
100
AcDbPoint
10
483.910000000000
20
65.570000000000
30
0.0
0
POINT
5
bb9
100
AcDbEntity
8
0-2
62
3
100
AcDbPoint
10
425.910000000000
20
65.570000000000
30
0.0
0
POINT
5
bba
100
AcDbEntity
8
0-2
62
3
100
AcDbPoint
10
579.250000000000
20
136.070000000000
30
0.0
0
POINT
5
bbb
100
AcDbEntity
8
0-2
62
3
100
AcDbPoint
10
624.250000000000
20
136.070000000000
30
0.0
0
POINT
5
bbc
100
AcDbEntity
8
0-2
62
3
100
AcDbPoint
10
629.750000000000
20
130.570000000000
30
0.0
0
POINT
5
bbd
100
AcDbEntity
8
0-2
62
3
100
AcDbPoint
10
629.750000000000
20
85.570000000000
30
0.0
0
ENDSEC
0
EOF
