0
SECTION
2
HEADER
9
$ACADVER
1
AC1009
9
$DWGCODEPAGE
3
ANSI_932
9
$EXTMIN
10
0.000
20
0.000
30
0.0
9
$EXTMAX
10
2378.000
20
1682.000
30
0.0
9
$LTSCALE
40
2.000
9
$PDMODE
70
0
9
$PDSIZE
40
40.0
0
ENDSEC
0
SECTION
2
TABLES
0
TABLE
2
LTYPE
70
9
0
LTYPE
5
1f4
2
CONTINUOUS
70
64
3
SolidLine
72
65
73
0
40
0.0
0
LTYPE
5
1f5
2
DOT
70
64
3
--  --  --  --  --  --  --  --     
72
65
73
2
40
3.000
49
1.000
49
-2.000
0
LTYPE
5
1f6
2
DASHED
70
64
3
----    ----    ----    ----    
72
65
73
2
40
5.000
49
2.000
49
-3.000
0
LTYPE
5
1f7
2
DASHED2
70
64
3
------  ------  ------  ------ 
72
65
73
2
40
10.000
49
4.000
49
-6.000
0
LTYPE
5
1f8
2
CENTER
70
64
3
----- - ----- - ----- - ----- - 
72
65
73
4
40
10.000
49
6.000
49
-3.000
49
1.000
49
-3.000
0
LTYPE
5
1f9
2
CENTER2
70
64
3
----------  --  ----------  -- 
72
65
73
4
40
17.000
49
12.000
49
-5.000
49
2.000
49
-5.000
0
LTYPE
5
1fa
2
PHANTOM
70
64
3
--- - - --- - - --- - - --- - -
72
65
73
6
40
13.000
49
5.000
49
-3.000
49
1.000
49
-3.000
49
1.000
49
-3.000
0
LTYPE
5
1fb
2
PHANTOM2
70
64
3
--------  -  -  --------  -  -
72
65
73
6
40
20.000
49
6.000
49
-5.000
49
2.000
49
-5.000
49
2.000
49
-5.000
0
LTYPE
5
1fc
2
HIDDEN
70
64
3
-   -   -   -   -   -   -   -   
72
65
73
2
40
3.000
49
0.500
49
-2.500
0
ENDTAB
0
TABLE
2
STYLE
70
1
0
STYLE
5
1fd
100
AcDbSymbolTableRecord
100
AcDbTextStyleTableRecord
2
STANDARD
70
0
40
0.0
41
1.0
50
0.0
71
0
42
0.0
3
txt.shx
4
extfont.shx
0
STYLE
5
1fe
100
AcDbSymbolTableRecord
100
AcDbTextStyleTableRecord
2
TATEGAKI
70
4
40
0.0
41
1.0
50
0.0
71
0
42
0.0
3
txt.shx
4
extfont.shx
0
STYLE
5
1ff
100
AcDbSymbolTableRecord
100
AcDbTextStyleTableRecord
2
DIM
70
0
40
0.0
41
0.75
50
0.0
71
0
42
0.0
3
txt.shx
4
extfont.shx
0
STYLE
5
200
100
AcDbSymbolTableRecord
100
AcDbTextStyleTableRecord
2
_Gothic__
70
0
40
0.0
41
1.0
50
0.0
71
0
42
0.0
3
MS Gothic
4

0
STYLE
5
201
100
AcDbSymbolTableRecord
100
AcDbTextStyleTableRecord
2
_TateGothic_
70
4
40
0.0
41
1.0
50
0.0
71
0
42
0.0
3
@MS Gothic
4

0
ENDTAB
0
TABLE
2
LAYER
5
403
100
AcDbSymbolTable
70
10
0
LAYER
5
404
100
AcDbSymbolTableRecord
100
AcDbLayerTableRecord
2
0-000
70
0
62
7
6
CONTINUOUS
0
LAYER
5
405
100
AcDbSymbolTableRecord
100
AcDbLayerTableRecord
2
8-0
70
0
62
7
6
CONTINUOUS
0
LAYER
5
406
100
AcDbSymbolTableRecord
100
AcDbLayerTableRecord
2
F-F_J_ADD
70
0
62
-7
6
CONTINUOUS
0
ENDTAB
0
ENDSEC
0
SECTION
2
ENTITIES
0
LINE
5
407
100
AcDbEntity
8
0-000
6
CONTINUOUS
62
3
100
AcDbLine
10
54.760000000000
20
613.270000000000
30
0.0
11
1631.650000000000
21
613.270000000000
31
0.0
0
LINE
5
408
100
AcDbEntity
8
0-000
6
CONTINUOUS
62
3
100
AcDbLine
10
54.760000000000
20
1103.640000000000
30
0.0
11
1631.650000000000
21
1103.640000000000
31
0.0
0
LINE
5
409
100
AcDbEntity
8
0-000
6
CONTINUOUS
62
3
100
AcDbLine
10
54.760000000000
20
573.270000000000
30
0.0
11
1631.650000000000
21
573.270000000000
31
0.0
0
LINE
5
40a
100
AcDbEntity
8
0-000
6
CONTINUOUS
62
2
100
AcDbLine
10
54.760000000000
20
23.630000000000
30
0.0
11
54.760000000000
21
1143.640000000000
31
0.0
0
LINE
5
40b
100
AcDbEntity
8
0-000
6
CONTINUOUS
62
2
100
AcDbLine
10
1284.760000000000
20
82.890000000000
30
0.0
11
1284.760000000000
21
23.630000000000
31
0.0
0
LINE
5
40c
100
AcDbEntity
8
0-000
6
CONTINUOUS
62
2
100
AcDbLine
10
1214.540000000000
20
82.890000000000
30
0.0
11
1214.540000000000
21
23.630000000000
31
0.0
0
LINE
5
40d
100
AcDbEntity
8
0-000
6
CONTINUOUS
62
2
100
AcDbLine
10
1537.120000000000
20
23.630000000000
30
0.0
11
1537.120000000000
21
82.890000000000
31
0.0
0
LINE
5
40e
100
AcDbEntity
8
0-000
6
CONTINUOUS
62
2
100
AcDbLine
10
806.890000000000
20
82.890000000000
30
0.0
11
806.890000000000
21
23.630000000000
31
0.0
0
LINE
5
40f
100
AcDbEntity
8
0-000
6
CONTINUOUS
62
2
100
AcDbLine
10
1009.740000000000
20
82.890000000000
30
0.0
11
1009.740000000000
21
23.630000000000
31
0.0
0
LINE
5
410
100
AcDbEntity
8
0-000
6
CONTINUOUS
62
2
100
AcDbLine
10
806.890000000000
20
63.140000000000
30
0.0
11
369.760000000000
21
63.140000000000
31
0.0
0
LINE
5
411
100
AcDbEntity
8
0-000
6
CONTINUOUS
62
2
100
AcDbLine
10
806.890000000000
20
43.390000000000
30
0.0
11
369.760000000000
21
43.390000000000
31
0.0
0
LINE
5
412
100
AcDbEntity
8
0-000
6
CONTINUOUS
62
2
100
AcDbLine
10
806.890000000000
20
33.510000000000
30
0.0
11
369.760000000000
21
33.510000000000
31
0.0
0
LINE
5
413
100
AcDbEntity
8
0-000
6
CONTINUOUS
62
2
100
AcDbLine
10
806.890000000000
20
73.020000000000
30
0.0
11
369.760000000000
21
73.020000000000
31
0.0
0
LINE
5
414
100
AcDbEntity
8
0-000
6
CONTINUOUS
62
2
100
AcDbLine
10
422.420000000000
20
82.890000000000
30
0.0
11
422.420000000000
21
23.630000000000
31
0.0
0
LINE
5
415
100
AcDbEntity
8
0-000
6
CONTINUOUS
62
2
100
AcDbLine
10
369.760000000000
20
82.890000000000
30
0.0
11
369.760000000000
21
23.630000000000
31
0.0
0
LINE
5
416
100
AcDbEntity
8
0-000
6
CONTINUOUS
62
2
100
AcDbLine
10
1631.650000000000
20
23.630000000000
30
0.0
11
1631.650000000000
21
1143.640000000000
31
0.0
0
LINE
5
417
100
AcDbEntity
8
0-000
6
CONTINUOUS
62
2
100
AcDbLine
10
54.760000000000
20
1143.640000000000
30
0.0
11
1631.650000000000
21
1143.640000000000
31
0.0
0
LINE
5
418
100
AcDbEntity
8
0-000
6
CONTINUOUS
62
2
100
AcDbLine
10
54.760000000000
20
23.630000000000
30
0.0
11
1631.650000000000
21
23.630000000000
31
0.0
0
LINE
5
419
100
AcDbEntity
8
0-000
6
CONTINUOUS
62
2
100
AcDbLine
10
1631.650000000000
20
82.890000000000
30
0.0
11
54.760000000000
21
82.890000000000
31
0.0
0
LINE
5
41a
100
AcDbEntity
8
0-000
6
CONTINUOUS
62
2
100
AcDbLine
10
369.760000000000
20
53.260000000000
30
0.0
11
1631.650000000000
21
53.260000000000
31
0.0
0
LINE
5
41b
100
AcDbEntity
8
0-000
6
CONTINUOUS
62
7
100
AcDbLine
10
108.430000000000
20
902.600000000000
30
0.0
11
101.290000000000
21
907.310000000000
31
0.0
0
LINE
5
41c
100
AcDbEntity
8
0-000
6
CONTINUOUS
62
7
100
AcDbLine
10
107.880000000000
20
901.760000000000
30
0.0
11
100.740000000000
21
906.470000000000
31
0.0
0
LINE
5
41d
100
AcDbEntity
8
0-000
6
CONTINUOUS
62
7
100
AcDbLine
10
101.290000000000
20
907.310000000000
30
0.0
11
100.740000000000
21
906.470000000000
31
0.0
0
LINE
5
41e
100
AcDbEntity
8
0-000
6
CONTINUOUS
62
7
100
AcDbLine
10
497.990000000000
20
924.880000000000
30
0.0
11
467.420000000000
21
938.730000000000
31
0.0
0
LINE
5
41f
100
AcDbEntity
8
0-000
6
CONTINUOUS
62
7
100
AcDbLine
10
497.530000000000
20
923.990000000000
30
0.0
11
467.000000000000
21
937.820000000000
31
0.0
0
LINE
5
420
100
AcDbEntity
8
0-000
6
CONTINUOUS
62
7
100
AcDbLine
10
468.440000000000
20
941.490000000000
30
0.0
11
509.540000000000
21
932.990000000000
31
0.0
0
LINE
5
421
100
AcDbEntity
8
0-000
6
CONTINUOUS
62
7
100
AcDbLine
10
468.240000000000
20
940.510000000000
30
0.0
11
509.330000000000
21
932.010000000000
31
0.0
0
LINE
5
422
100
AcDbEntity
8
0-000
6
CONTINUOUS
62
7
100
AcDbLine
10
88.620000000000
20
922.130000000000
30
0.0
11
497.020000000000
21
922.130000000000
31
0.0
0
LINE
5
423
100
AcDbEntity
8
0-000
6
CONTINUOUS
62
7
100
AcDbLine
10
88.620000000000
20
921.130000000000
30
0.0
11
497.020000000000
21
921.130000000000
31
0.0
0
LINE
5
424
100
AcDbEntity
8
0-000
6
CONTINUOUS
62
7
100
AcDbLine
10
467.080000000000
20
968.440000000000
30
0.0
11
513.080000000000
21
968.440000000000
31
0.0
0
LINE
5
425
100
AcDbEntity
8
0-000
6
CONTINUOUS
62
7
100
AcDbLine
10
467.080000000000
20
953.440000000000
30
0.0
11
467.080000000000
21
968.440000000000
31
0.0
0
LINE
5
426
100
AcDbEntity
8
0-000
6
CONTINUOUS
62
7
100
AcDbLine
10
513.080000000000
20
953.440000000000
30
0.0
11
513.080000000000
21
968.440000000000
31
0.0
0
LINE
5
427
100
AcDbEntity
8
0-000
6
CONTINUOUS
62
7
100
AcDbLine
10
561.080000000000
20
953.440000000000
30
0.0
11
561.080000000000
21
968.440000000000
31
0.0
0
LINE
5
428
100
AcDbEntity
8
0-000
6
CONTINUOUS
62
7
100
AcDbLine
10
467.080000000000
20
968.440000000000
30
0.0
11
467.080000000000
21
990.940000000000
31
0.0
0
LINE
5
429
100
AcDbEntity
8
0-000
6
CONTINUOUS
62
7
100
AcDbLine
10
87.080000000000
20
990.940000000000
30
0.0
11
467.080000000000
21
990.940000000000
31
0.0
0
LINE
5
42a
100
AcDbEntity
8
0-000
6
CONTINUOUS
62
7
100
AcDbLine
10
87.080000000000
20
953.440000000000
30
0.0
11
87.080000000000
21
990.940000000000
31
0.0
0
LINE
5
42b
100
AcDbEntity
8
0-000
6
CONTINUOUS
62
7
100
AcDbLine
10
87.080000000000
20
953.440000000000
30
0.0
11
87.080000000000
21
986.030000000000
31
0.0
0
LINE
5
42c
100
AcDbEntity
8
0-000
6
CONTINUOUS
62
7
100
AcDbLine
10
467.080000000000
20
990.940000000000
30
0.0
11
561.080000000000
21
990.940000000000
31
0.0
0
LINE
5
42d
100
AcDbEntity
8
0-000
6
CONTINUOUS
62
7
100
AcDbLine
10
561.080000000000
20
968.440000000000
30
0.0
11
561.080000000000
21
990.940000000000
31
0.0
0
LINE
5
42e
100
AcDbEntity
8
0-000
6
CONTINUOUS
62
7
100
AcDbLine
10
551.080000000000
20
968.440000000000
30
0.0
11
561.080000000000
21
968.440000000000
31
0.0
0
LINE
5
42f
100
AcDbEntity
8
0-000
6
CONTINUOUS
62
7
100
AcDbLine
10
551.080000000000
20
953.440000000000
30
0.0
11
551.080000000000
21
968.440000000000
31
0.0
0
LINE
5
430
100
AcDbEntity
8
0-000
6
CONTINUOUS
62
7
100
AcDbLine
10
559.220000000000
20
924.670000000000
30
0.0
11
514.290000000000
21
931.030000000000
31
0.0
0
LINE
5
431
100
AcDbEntity
8
0-000
6
CONTINUOUS
62
7
100
AcDbLine
10
559.360000000000
20
925.660000000000
30
0.0
11
514.450000000000
21
932.020000000000
31
0.0
0
LINE
5
432
100
AcDbEntity
8
0-000
6
CONTINUOUS
62
7
100
AcDbLine
10
98.900000000000
20
880.530000000000
30
0.0
11
72.090000000000
21
894.000000000000
31
0.0
0
LINE
5
433
100
AcDbEntity
8
0-000
6
CONTINUOUS
62
7
100
AcDbLine
10
78.820000000000
20
907.400000000000
30
0.0
11
72.090000000000
21
894.000000000000
31
0.0
0
LINE
5
434
100
AcDbEntity
8
0-000
6
CONTINUOUS
62
7
100
AcDbLine
10
105.630000000000
20
893.940000000000
30
0.0
11
98.900000000000
21
880.530000000000
31
0.0
0
LINE
5
435
100
AcDbEntity
8
0-000
6
CONTINUOUS
62
7
100
AcDbLine
10
487.870000000000
20
900.920000000000
30
0.0
11
481.680000000000
21
887.250000000000
31
0.0
0
LINE
5
436
100
AcDbEntity
8
0-000
6
CONTINUOUS
62
7
100
AcDbLine
10
455.080000000000
20
915.770000000000
30
0.0
11
448.890000000000
21
902.110000000000
31
0.0
0
LINE
5
437
100
AcDbEntity
8
0-000
6
CONTINUOUS
62
7
100
AcDbLine
10
481.680000000000
20
887.250000000000
30
0.0
11
448.890000000000
21
902.110000000000
31
0.0
0
LINE
5
438
100
AcDbEntity
8
0-000
6
CONTINUOUS
62
7
100
AcDbLine
10
551.080000000000
20
928.350000000000
30
0.0
11
559.600000000000
21
927.640000000000
31
0.0
0
LINE
5
439
100
AcDbEntity
8
0-000
6
CONTINUOUS
62
7
100
AcDbLine
10
550.990000000000
20
927.350000000000
30
0.0
11
551.080000000000
21
928.350000000000
31
0.0
0
LINE
5
43a
100
AcDbEntity
8
0-000
6
CONTINUOUS
62
7
100
AcDbLine
10
550.990000000000
20
927.350000000000
30
0.0
11
559.520000000000
21
926.650000000000
31
0.0
0
LINE
5
43b
100
AcDbEntity
8
0-000
6
CONTINUOUS
62
7
100
AcDbLine
10
109.330000000000
20
904.390000000000
30
0.0
11
87.190000000000
21
915.510000000000
31
0.0
0
LINE
5
43c
100
AcDbEntity
8
0-000
6
CONTINUOUS
62
7
100
AcDbLine
10
108.880000000000
20
903.490000000000
30
0.0
11
86.730000000000
21
914.620000000000
31
0.0
0
LINE
5
43d
100
AcDbEntity
8
0-000
6
CONTINUOUS
62
7
100
AcDbLine
10
330.760000000000
20
759.680000000000
30
0.0
11
355.770000000000
21
756.500000000000
31
0.0
0
LINE
5
43e
100
AcDbEntity
8
0-000
6
CONTINUOUS
62
7
100
AcDbLine
10
330.540000000000
20
758.700000000000
30
0.0
11
355.510000000000
21
755.530000000000
31
0.0
0
LINE
5
43f
100
AcDbEntity
8
0-000
6
CONTINUOUS
62
7
100
AcDbLine
10
423.090000000000
20
756.620000000000
30
0.0
11
435.590000000000
21
756.620000000000
31
0.0
0
LINE
5
440
100
AcDbEntity
8
0-000
6
CONTINUOUS
62
7
100
AcDbLine
10
422.970000000000
20
757.620000000000
30
0.0
11
435.590000000000
21
757.620000000000
31
0.0
0
LINE
5
441
100
AcDbEntity
8
0-000
6
DOT
62
7
100
AcDbLine
10
353.030000000000
20
754.230000000000
30
0.0
11
330.500000000000
21
755.740000000000
31
0.0
0
LINE
5
442
100
AcDbEntity
8
0-000
6
DOT
62
7
100
AcDbLine
10
353.090000000000
20
755.230000000000
30
0.0
11
353.030000000000
21
754.230000000000
31
0.0
0
LINE
5
443
100
AcDbEntity
8
0-000
6
DOT
62
7
100
AcDbLine
10
353.090000000000
20
755.230000000000
30
0.0
11
330.580000000000
21
756.730000000000
31
0.0
0
LINE
5
444
100
AcDbEntity
8
0-000
6
CONTINUOUS
62
7
100
AcDbLine
10
329.090000000000
20
742.620000000000
30
0.0
11
329.090000000000
21
712.620000000000
31
0.0
0
LINE
5
445
100
AcDbEntity
8
0-000
6
CONTINUOUS
62
7
100
AcDbLine
10
329.090000000000
20
727.620000000000
30
0.0
11
357.090000000000
21
727.620000000000
31
0.0
0
LINE
5
446
100
AcDbEntity
8
0-000
6
CONTINUOUS
62
7
100
AcDbLine
10
357.090000000000
20
742.620000000000
30
0.0
11
357.090000000000
21
727.620000000000
31
0.0
0
LINE
5
447
100
AcDbEntity
8
0-000
6
CONTINUOUS
62
7
100
AcDbLine
10
422.970000000000
20
757.620000000000
30
0.0
11
331.090000000000
21
762.620000000000
31
0.0
0
LINE
5
448
100
AcDbEntity
8
0-000
6
CONTINUOUS
62
7
100
AcDbLine
10
422.910000000000
20
756.620000000000
30
0.0
11
331.040000000000
21
761.620000000000
31
0.0
0
LINE
5
449
100
AcDbEntity
8
0-000
6
CONTINUOUS
62
7
100
AcDbLine
10
417.110000000000
20
759.940000000000
30
0.0
11
435.530000000000
21
759.620000000000
31
0.0
0
LINE
5
44a
100
AcDbEntity
8
0-000
6
CONTINUOUS
62
7
100
AcDbLine
10
417.110000000000
20
759.940000000000
30
0.0
11
417.090000000000
21
758.940000000000
31
0.0
0
LINE
5
44b
100
AcDbEntity
8
0-000
6
CONTINUOUS
62
7
100
AcDbLine
10
417.090000000000
20
758.940000000000
30
0.0
11
435.510000000000
21
758.620000000000
31
0.0
0
LINE
5
44c
100
AcDbEntity
8
0-000
6
CONTINUOUS
62
7
100
AcDbLine
10
329.090000000000
20
712.620000000000
30
0.0
11
437.090000000000
21
712.620000000000
31
0.0
0
LINE
5
44d
100
AcDbEntity
8
0-000
6
CONTINUOUS
62
7
100
AcDbLine
10
437.090000000000
20
742.620000000000
30
0.0
11
437.090000000000
21
712.620000000000
31
0.0
0
LINE
5
44e
100
AcDbEntity
8
0-000
6
CONTINUOUS
62
7
100
AcDbLine
10
417.090000000000
20
742.620000000000
30
0.0
11
417.090000000000
21
727.620000000000
31
0.0
0
LINE
5
44f
100
AcDbEntity
8
0-000
6
CONTINUOUS
62
7
100
AcDbLine
10
417.090000000000
20
742.620000000000
30
0.0
11
417.090000000000
21
727.620000000000
31
0.0
0
LINE
5
450
100
AcDbEntity
8
0-000
6
CONTINUOUS
62
7
100
AcDbLine
10
417.090000000000
20
727.620000000000
30
0.0
11
437.090000000000
21
727.620000000000
31
0.0
0
LINE
5
451
100
AcDbEntity
8
0-000
6
DOT
62
7
100
AcDbLine
10
487.090000000000
20
763.520000000000
30
0.0
11
331.110000000000
21
764.620000000000
31
0.0
0
LINE
5
452
100
AcDbEntity
8
0-000
6
DOT
62
7
100
AcDbLine
10
487.090000000000
20
762.520000000000
30
0.0
11
331.100000000000
21
763.620000000000
31
0.0
0
LINE
5
453
100
AcDbEntity
8
0-000
6
CONTINUOUS
62
7
100
AcDbLine
10
355.090000000000
20
753.620000000000
30
0.0
11
279.090000000000
21
754.160000000000
31
0.0
0
LINE
5
454
100
AcDbEntity
8
0-000
6
CONTINUOUS
62
7
100
AcDbLine
10
355.090000000000
20
752.620000000000
30
0.0
11
279.090000000000
21
753.160000000000
31
0.0
0
LINE
5
455
100
AcDbEntity
8
0-000
6
CONTINUOUS
62
7
100
AcDbLine
10
102.600000000000
20
323.770000000000
30
0.0
11
104.200000000000
21
316.970000000000
31
0.0
0
LINE
5
456
100
AcDbEntity
8
0-000
6
CONTINUOUS
62
7
100
AcDbLine
10
111.800000000000
20
335.770000000000
30
0.0
11
112.190000000000
21
333.770000000000
31
0.0
0
LINE
5
457
100
AcDbEntity
8
0-000
6
CONTINUOUS
62
7
100
AcDbLine
10
104.200000000000
20
316.970000000000
30
0.0
11
111.800000000000
21
335.770000000000
31
0.0
0
LINE
5
458
100
AcDbEntity
8
0-000
6
CONTINUOUS
62
7
100
AcDbLine
10
101.400000000000
20
321.770000000000
30
0.0
11
102.600000000000
21
323.770000000000
31
0.0
0
LINE
5
459
100
AcDbEntity
8
0-000
6
CONTINUOUS
62
7
100
AcDbLine
10
102.600000000000
20
323.770000000000
30
0.0
11
106.950000000000
21
323.770000000000
31
0.0
0
LINE
5
45a
100
AcDbEntity
8
0-000
6
DOT
62
7
100
AcDbLine
10
101.400000000000
20
321.770000000000
30
0.0
11
106.600000000000
21
312.850000000000
31
0.0
0
LINE
5
45b
100
AcDbEntity
8
0-000
6
CONTINUOUS
62
7
100
AcDbLine
10
101.400000000000
20
321.770000000000
30
0.0
11
101.400000000000
21
240.970000000000
31
0.0
0
LINE
5
45c
100
AcDbEntity
8
0-000
6
DOT
62
7
100
AcDbLine
10
106.600000000000
20
312.850000000000
30
0.0
11
106.600000000000
21
240.970000000000
31
0.0
0
LINE
5
45d
100
AcDbEntity
8
0-000
6
DOT
62
7
100
AcDbLine
10
111.400000000000
20
247.770000000000
30
0.0
11
111.400000000000
21
244.970000000000
31
0.0
0
LINE
5
45e
100
AcDbEntity
8
0-000
6
CONTINUOUS
62
7
100
AcDbLine
10
601.400000000000
20
333.770000000000
30
0.0
11
601.400000000000
21
240.970000000000
31
0.0
0
LINE
5
45f
100
AcDbEntity
8
0-000
6
DOT
62
7
100
AcDbLine
10
601.400000000000
20
333.770000000000
30
0.0
11
601.400000000000
21
335.770000000000
31
0.0
0
LINE
5
460
100
AcDbEntity
8
0-000
6
CONTINUOUS
62
7
100
AcDbLine
10
351.400000000000
20
333.770000000000
30
0.0
11
351.400000000000
21
240.970000000000
31
0.0
0
LINE
5
461
100
AcDbEntity
8
0-000
6
DOT
62
7
100
AcDbLine
10
351.400000000000
20
333.770000000000
30
0.0
11
351.400000000000
21
335.770000000000
31
0.0
0
LINE
5
462
100
AcDbEntity
8
0-000
6
DOT
62
7
100
AcDbLine
10
607.000000000000
20
333.770000000000
30
0.0
11
607.000000000000
21
240.970000000000
31
0.0
0
LINE
5
463
100
AcDbEntity
8
0-000
6
CONTINUOUS
62
7
100
AcDbLine
10
607.000000000000
20
335.770000000000
30
0.0
11
607.000000000000
21
333.770000000000
31
0.0
0
LINE
5
464
100
AcDbEntity
8
0-000
6
DOT
62
7
100
AcDbLine
10
357.000000000000
20
333.770000000000
30
0.0
11
357.000000000000
21
240.970000000000
31
0.0
0
LINE
5
465
100
AcDbEntity
8
0-000
6
CONTINUOUS
62
7
100
AcDbLine
10
357.000000000000
20
335.770000000000
30
0.0
11
357.000000000000
21
333.770000000000
31
0.0
0
LINE
5
466
100
AcDbEntity
8
0-000
6
CONTINUOUS
62
7
100
AcDbLine
10
101.400000000000
20
367.770000000000
30
0.0
11
351.400000000000
21
367.770000000000
31
0.0
0
LINE
5
467
100
AcDbEntity
8
0-000
6
CONTINUOUS
62
7
100
AcDbLine
10
101.400000000000
20
347.770000000000
30
0.0
11
101.400000000000
21
367.770000000000
31
0.0
0
LINE
5
468
100
AcDbEntity
8
0-000
6
CONTINUOUS
62
7
100
AcDbLine
10
351.400000000000
20
347.770000000000
30
0.0
11
351.400000000000
21
367.770000000000
31
0.0
0
LINE
5
469
100
AcDbEntity
8
0-000
6
CONTINUOUS
62
7
100
AcDbLine
10
351.400000000000
20
367.770000000000
30
0.0
11
601.400000000000
21
367.770000000000
31
0.0
0
LINE
5
46a
100
AcDbEntity
8
0-000
6
CONTINUOUS
62
7
100
AcDbLine
10
601.400000000000
20
347.770000000000
30
0.0
11
601.400000000000
21
367.770000000000
31
0.0
0
LINE
5
46b
100
AcDbEntity
8
0-000
6
CONTINUOUS
62
7
100
AcDbLine
10
101.400000000000
20
367.770000000000
30
0.0
11
101.400000000000
21
387.770000000000
31
0.0
0
LINE
5
46c
100
AcDbEntity
8
0-000
6
CONTINUOUS
62
7
100
AcDbLine
10
69.400000000000
20
240.970000000000
30
0.0
11
69.400000000000
21
316.970000000000
31
0.0
0
LINE
5
46d
100
AcDbEntity
8
0-000
6
CONTINUOUS
62
7
100
AcDbLine
10
89.400000000000
20
240.970000000000
30
0.0
11
69.400000000000
21
240.970000000000
31
0.0
0
LINE
5
46e
100
AcDbEntity
8
0-000
6
CONTINUOUS
62
7
100
AcDbLine
10
89.400000000000
20
316.970000000000
30
0.0
11
69.400000000000
21
316.970000000000
31
0.0
0
LINE
5
46f
100
AcDbEntity
8
0-000
6
CONTINUOUS
62
7
100
AcDbLine
10
69.400000000000
20
316.970000000000
30
0.0
11
69.400000000000
21
335.770000000000
31
0.0
0
LINE
5
470
100
AcDbEntity
8
0-000
6
CONTINUOUS
62
7
100
AcDbLine
10
89.400000000000
20
335.770000000000
30
0.0
11
69.400000000000
21
335.770000000000
31
0.0
0
LINE
5
471
100
AcDbEntity
8
0-000
6
CONTINUOUS
62
7
100
AcDbLine
10
851.400000000000
20
333.770000000000
30
0.0
11
851.400000000000
21
240.970000000000
31
0.0
0
LINE
5
472
100
AcDbEntity
8
0-000
6
DOT
62
7
100
AcDbLine
10
851.400000000000
20
333.770000000000
30
0.0
11
851.400000000000
21
335.770000000000
31
0.0
0
LINE
5
473
100
AcDbEntity
8
0-000
6
DOT
62
7
100
AcDbLine
10
857.000000000000
20
333.770000000000
30
0.0
11
857.000000000000
21
240.970000000000
31
0.0
0
LINE
5
474
100
AcDbEntity
8
0-000
6
CONTINUOUS
62
7
100
AcDbLine
10
857.000000000000
20
335.770000000000
30
0.0
11
857.000000000000
21
333.770000000000
31
0.0
0
LINE
5
475
100
AcDbEntity
8
0-000
6
CONTINUOUS
62
7
100
AcDbLine
10
851.400000000000
20
347.770000000000
30
0.0
11
851.400000000000
21
367.770000000000
31
0.0
0
LINE
5
476
100
AcDbEntity
8
0-000
6
CONTINUOUS
62
7
100
AcDbLine
10
1101.400000000000
20
333.770000000000
30
0.0
11
1101.400000000000
21
240.970000000000
31
0.0
0
LINE
5
477
100
AcDbEntity
8
0-000
6
DOT
62
7
100
AcDbLine
10
1101.400000000000
20
333.770000000000
30
0.0
11
1101.400000000000
21
335.770000000000
31
0.0
0
LINE
5
478
100
AcDbEntity
8
0-000
6
DOT
62
7
100
AcDbLine
10
1107.000000000000
20
333.770000000000
30
0.0
11
1107.000000000000
21
240.970000000000
31
0.0
0
LINE
5
479
100
AcDbEntity
8
0-000
6
CONTINUOUS
62
7
100
AcDbLine
10
1107.000000000000
20
335.770000000000
30
0.0
11
1107.000000000000
21
333.770000000000
31
0.0
0
LINE
5
47a
100
AcDbEntity
8
0-000
6
CONTINUOUS
62
7
100
AcDbLine
10
1101.400000000000
20
347.770000000000
30
0.0
11
1101.400000000000
21
367.770000000000
31
0.0
0
LINE
5
47b
100
AcDbEntity
8
0-000
6
CONTINUOUS
62
7
100
AcDbLine
10
1351.400000000000
20
333.770000000000
30
0.0
11
1351.400000000000
21
240.970000000000
31
0.0
0
LINE
5
47c
100
AcDbEntity
8
0-000
6
DOT
62
7
100
AcDbLine
10
1351.400000000000
20
333.770000000000
30
0.0
11
1351.400000000000
21
335.770000000000
31
0.0
0
LINE
5
47d
100
AcDbEntity
8
0-000
6
DOT
62
7
100
AcDbLine
10
1357.000000000000
20
333.770000000000
30
0.0
11
1357.000000000000
21
240.970000000000
31
0.0
0
LINE
5
47e
100
AcDbEntity
8
0-000
6
CONTINUOUS
62
7
100
AcDbLine
10
1357.000000000000
20
335.770000000000
30
0.0
11
1357.000000000000
21
333.770000000000
31
0.0
0
LINE
5
47f
100
AcDbEntity
8
0-000
6
CONTINUOUS
62
7
100
AcDbLine
10
1101.400000000000
20
367.770000000000
30
0.0
11
1351.400000000000
21
367.770000000000
31
0.0
0
LINE
5
480
100
AcDbEntity
8
0-000
6
CONTINUOUS
62
7
100
AcDbLine
10
1351.400000000000
20
347.770000000000
30
0.0
11
1351.400000000000
21
367.770000000000
31
0.0
0
LINE
5
481
100
AcDbEntity
8
0-000
6
CONTINUOUS
62
7
100
AcDbLine
10
1607.800000000000
20
242.570000000000
30
0.0
11
1607.800000000000
21
240.970000000000
31
0.0
0
LINE
5
482
100
AcDbEntity
8
0-000
6
CONTINUOUS
62
7
100
AcDbLine
10
1602.200000000000
20
242.570000000000
30
0.0
11
1609.000000000000
21
242.570000000000
31
0.0
0
LINE
5
483
100
AcDbEntity
8
0-000
6
CONTINUOUS
62
7
100
AcDbLine
10
1609.000000000000
20
242.570000000000
30
0.0
11
1623.800000000000
21
246.970000000000
31
0.0
0
LINE
5
484
100
AcDbEntity
8
0-000
6
CONTINUOUS
62
7
100
AcDbLine
10
1619.800000000000
20
246.970000000000
30
0.0
11
1623.800000000000
21
246.970000000000
31
0.0
0
LINE
5
485
100
AcDbEntity
8
0-000
6
DOT
62
7
100
AcDbLine
10
1597.800000000000
20
247.770000000000
30
0.0
11
1597.800000000000
21
244.970000000000
31
0.0
0
LINE
5
486
100
AcDbEntity
8
0-000
6
CONTINUOUS
62
7
100
AcDbLine
10
1623.800000000000
20
335.770000000000
30
0.0
11
1623.800000000000
21
246.970000000000
31
0.0
0
LINE
5
487
100
AcDbEntity
8
0-000
6
CONTINUOUS
62
7
100
AcDbLine
10
1602.200000000000
20
333.770000000000
30
0.0
11
1602.200000000000
21
242.570000000000
31
0.0
0
LINE
5
488
100
AcDbEntity
8
0-000
6
DOT
62
7
100
AcDbLine
10
1602.200000000000
20
333.770000000000
30
0.0
11
1602.200000000000
21
335.770000000000
31
0.0
0
LINE
5
489
100
AcDbEntity
8
0-000
6
CONTINUOUS
62
7
100
AcDbLine
10
1619.800000000000
20
333.770000000000
30
0.0
11
1619.800000000000
21
246.970000000000
31
0.0
0
LINE
5
48a
100
AcDbEntity
8
0-000
6
DOT
62
7
100
AcDbLine
10
1619.800000000000
20
333.770000000000
30
0.0
11
1619.800000000000
21
335.770000000000
31
0.0
0
LINE
5
48b
100
AcDbEntity
8
0-000
6
CONTINUOUS
62
7
100
AcDbLine
10
1607.800000000000
20
335.770000000000
30
0.0
11
1607.800000000000
21
333.770000000000
31
0.0
0
LINE
5
48c
100
AcDbEntity
8
0-000
6
DOT
62
7
100
AcDbLine
10
1607.800000000000
20
333.770000000000
30
0.0
11
1607.800000000000
21
242.570000000000
31
0.0
0
LINE
5
48d
100
AcDbEntity
8
0-000
6
CONTINUOUS
62
7
100
AcDbLine
10
1351.400000000000
20
367.770000000000
30
0.0
11
1602.200000000000
21
367.770000000000
31
0.0
0
LINE
5
48e
100
AcDbEntity
8
0-000
6
CONTINUOUS
62
7
100
AcDbLine
10
1602.200000000000
20
347.770000000000
30
0.0
11
1602.200000000000
21
367.770000000000
31
0.0
0
LINE
5
48f
100
AcDbEntity
8
0-000
6
CONTINUOUS
62
7
100
AcDbLine
10
1602.200000000000
20
367.770000000000
30
0.0
11
1623.800000000000
21
367.770000000000
31
0.0
0
LINE
5
490
100
AcDbEntity
8
0-000
6
CONTINUOUS
62
7
100
AcDbLine
10
1623.800000000000
20
347.770000000000
30
0.0
11
1623.800000000000
21
367.770000000000
31
0.0
0
LINE
5
491
100
AcDbEntity
8
0-000
6
CONTINUOUS
62
7
100
AcDbLine
10
601.400000000000
20
367.770000000000
30
0.0
11
778.860000000000
21
367.770000000000
31
0.0
0
LINE
5
492
100
AcDbEntity
8
0-000
6
CONTINUOUS
62
7
100
AcDbLine
10
111.800000000000
20
335.770000000000
30
0.0
11
778.860000000000
21
335.770000000000
31
0.0
0
LINE
5
493
100
AcDbEntity
8
0-000
6
CONTINUOUS
62
7
100
AcDbLine
10
112.190000000000
20
333.770000000000
30
0.0
11
778.860000000000
21
333.770000000000
31
0.0
0
LINE
5
494
100
AcDbEntity
8
0-000
6
DOT
62
7
100
AcDbLine
10
106.950000000000
20
323.770000000000
30
0.0
11
778.860000000000
21
323.770000000000
31
0.0
0
LINE
5
495
100
AcDbEntity
8
0-000
6
CONTINUOUS
62
7
100
AcDbLine
10
104.200000000000
20
316.970000000000
30
0.0
11
778.860000000000
21
316.970000000000
31
0.0
0
LINE
5
496
100
AcDbEntity
8
0-000
6
DOT
62
7
100
AcDbLine
10
101.400000000000
20
247.770000000000
30
0.0
11
778.860000000000
21
247.770000000000
31
0.0
0
LINE
5
497
100
AcDbEntity
8
0-000
6
DOT
62
7
100
AcDbLine
10
111.400000000000
20
244.970000000000
30
0.0
11
778.860000000000
21
244.970000000000
31
0.0
0
LINE
5
498
100
AcDbEntity
8
0-000
6
CONTINUOUS
62
7
100
AcDbLine
10
101.400000000000
20
240.970000000000
30
0.0
11
778.860000000000
21
240.970000000000
31
0.0
0
LINE
5
499
100
AcDbEntity
8
0-000
6
CONTINUOUS
62
7
100
AcDbLine
10
778.860000000000
20
335.770000000000
30
0.0
11
1623.800000000000
21
335.770000000000
31
0.0
0
LINE
5
49a
100
AcDbEntity
8
0-000
6
CONTINUOUS
62
7
100
AcDbLine
10
778.860000000000
20
333.770000000000
30
0.0
11
1623.800000000000
21
333.770000000000
31
0.0
0
LINE
5
49b
100
AcDbEntity
8
0-000
6
CONTINUOUS
62
7
100
AcDbLine
10
778.860000000000
20
316.970000000000
30
0.0
11
1623.800000000000
21
316.970000000000
31
0.0
0
LINE
5
49c
100
AcDbEntity
8
0-000
6
DOT
62
7
100
AcDbLine
10
778.860000000000
20
247.770000000000
30
0.0
11
1607.800000000000
21
247.770000000000
31
0.0
0
LINE
5
49d
100
AcDbEntity
8
0-000
6
DOT
62
7
100
AcDbLine
10
778.860000000000
20
244.970000000000
30
0.0
11
1597.800000000000
21
244.970000000000
31
0.0
0
LINE
5
49e
100
AcDbEntity
8
0-000
6
CONTINUOUS
62
7
100
AcDbLine
10
778.860000000000
20
240.970000000000
30
0.0
11
1607.800000000000
21
240.970000000000
31
0.0
0
LINE
5
49f
100
AcDbEntity
8
0-000
6
CONTINUOUS
62
7
100
AcDbLine
10
778.860000000000
20
367.770000000000
30
0.0
11
1101.400000000000
21
367.770000000000
31
0.0
0
LINE
5
4a0
100
AcDbEntity
8
0-000
6
CONTINUOUS
62
7
100
AcDbLine
10
101.400000000000
20
387.770000000000
30
0.0
11
1602.200000000000
21
387.770000000000
31
0.0
0
LINE
5
4a1
100
AcDbEntity
8
0-000
6
CONTINUOUS
62
7
100
AcDbLine
10
1602.200000000000
20
367.770000000000
30
0.0
11
1602.200000000000
21
387.770000000000
31
0.0
0
LINE
5
4a2
100
AcDbEntity
8
0-000
6
CONTINUOUS
62
7
100
AcDbLine
10
718.020000000000
20
874.970000000000
30
0.0
11
719.620000000000
21
868.170000000000
31
0.0
0
LINE
5
4a3
100
AcDbEntity
8
0-000
6
CONTINUOUS
62
7
100
AcDbLine
10
727.220000000000
20
886.970000000000
30
0.0
11
727.610000000000
21
884.970000000000
31
0.0
0
LINE
5
4a4
100
AcDbEntity
8
0-000
6
CONTINUOUS
62
7
100
AcDbLine
10
719.620000000000
20
868.170000000000
30
0.0
11
727.220000000000
21
886.970000000000
31
0.0
0
LINE
5
4a5
100
AcDbEntity
8
0-000
6
CONTINUOUS
62
7
100
AcDbLine
10
716.820000000000
20
872.970000000000
30
0.0
11
718.020000000000
21
874.970000000000
31
0.0
0
LINE
5
4a6
100
AcDbEntity
8
0-000
6
CONTINUOUS
62
7
100
AcDbLine
10
718.020000000000
20
874.970000000000
30
0.0
11
722.370000000000
21
874.970000000000
31
0.0
0
LINE
5
4a7
100
AcDbEntity
8
0-000
6
DOT
62
7
100
AcDbLine
10
716.820000000000
20
872.970000000000
30
0.0
11
722.020000000000
21
864.060000000000
31
0.0
0
LINE
5
4a8
100
AcDbEntity
8
0-000
6
CONTINUOUS
62
7
100
AcDbLine
10
716.820000000000
20
872.970000000000
30
0.0
11
716.820000000000
21
792.170000000000
31
0.0
0
LINE
5
4a9
100
AcDbEntity
8
0-000
6
DOT
62
7
100
AcDbLine
10
722.020000000000
20
864.060000000000
30
0.0
11
722.020000000000
21
792.170000000000
31
0.0
0
LINE
5
4aa
100
AcDbEntity
8
0-000
6
DOT
62
7
100
AcDbLine
10
726.820000000000
20
798.970000000000
30
0.0
11
726.820000000000
21
796.170000000000
31
0.0
0
LINE
5
4ab
100
AcDbEntity
8
0-000
6
CONTINUOUS
62
7
100
AcDbLine
10
716.820000000000
20
792.170000000000
30
0.0
11
1473.220000000000
21
792.170000000000
31
0.0
0
LINE
5
4ac
100
AcDbEntity
8
0-000
6
CONTINUOUS
62
7
100
AcDbLine
10
1473.220000000000
20
793.770000000000
30
0.0
11
1473.220000000000
21
792.170000000000
31
0.0
0
LINE
5
4ad
100
AcDbEntity
8
0-000
6
CONTINUOUS
62
7
100
AcDbLine
10
1467.620000000000
20
793.770000000000
30
0.0
11
1474.420000000000
21
793.770000000000
31
0.0
0
LINE
5
4ae
100
AcDbEntity
8
0-000
6
CONTINUOUS
62
7
100
AcDbLine
10
1474.420000000000
20
793.770000000000
30
0.0
11
1489.220000000000
21
798.170000000000
31
0.0
0
LINE
5
4af
100
AcDbEntity
8
0-000
6
CONTINUOUS
62
7
100
AcDbLine
10
1485.220000000000
20
798.170000000000
30
0.0
11
1489.220000000000
21
798.170000000000
31
0.0
0
LINE
5
4b0
100
AcDbEntity
8
0-000
6
DOT
62
7
100
AcDbLine
10
726.820000000000
20
796.170000000000
30
0.0
11
1463.220000000000
21
796.170000000000
31
0.0
0
LINE
5
4b1
100
AcDbEntity
8
0-000
6
DOT
62
7
100
AcDbLine
10
1463.220000000000
20
798.970000000000
30
0.0
11
1463.220000000000
21
796.170000000000
31
0.0
0
LINE
5
4b2
100
AcDbEntity
8
0-000
6
DOT
62
7
100
AcDbLine
10
716.820000000000
20
798.970000000000
30
0.0
11
1473.220000000000
21
798.970000000000
31
0.0
0
LINE
5
4b3
100
AcDbEntity
8
0-000
6
CONTINUOUS
62
7
100
AcDbLine
10
1489.220000000000
20
886.970000000000
30
0.0
11
1489.220000000000
21
798.170000000000
31
0.0
0
LINE
5
4b4
100
AcDbEntity
8
0-000
6
CONTINUOUS
62
7
100
AcDbLine
10
727.220000000000
20
886.970000000000
30
0.0
11
1489.220000000000
21
886.970000000000
31
0.0
0
LINE
5
4b5
100
AcDbEntity
8
0-000
6
CONTINUOUS
62
7
100
AcDbLine
10
727.610000000000
20
884.970000000000
30
0.0
11
1489.220000000000
21
884.970000000000
31
0.0
0
LINE
5
4b6
100
AcDbEntity
8
0-000
6
CONTINUOUS
62
7
100
AcDbLine
10
1467.620000000000
20
884.970000000000
30
0.0
11
1467.620000000000
21
793.770000000000
31
0.0
0
LINE
5
4b7
100
AcDbEntity
8
0-000
6
DOT
62
7
100
AcDbLine
10
1467.620000000000
20
884.970000000000
30
0.0
11
1467.620000000000
21
886.970000000000
31
0.0
0
LINE
5
4b8
100
AcDbEntity
8
0-000
6
CONTINUOUS
62
7
100
AcDbLine
10
1485.220000000000
20
884.970000000000
30
0.0
11
1485.220000000000
21
798.170000000000
31
0.0
0
LINE
5
4b9
100
AcDbEntity
8
0-000
6
DOT
62
7
100
AcDbLine
10
1485.220000000000
20
884.970000000000
30
0.0
11
1485.220000000000
21
886.970000000000
31
0.0
0
LINE
5
4ba
100
AcDbEntity
8
0-000
6
CONTINUOUS
62
7
100
AcDbLine
10
719.620000000000
20
868.170000000000
30
0.0
11
1489.220000000000
21
868.170000000000
31
0.0
0
LINE
5
4bb
100
AcDbEntity
8
0-000
6
CONTINUOUS
62
7
100
AcDbLine
10
1216.820000000000
20
884.970000000000
30
0.0
11
1216.820000000000
21
792.170000000000
31
0.0
0
LINE
5
4bc
100
AcDbEntity
8
0-000
6
DOT
62
7
100
AcDbLine
10
1216.820000000000
20
884.970000000000
30
0.0
11
1216.820000000000
21
886.970000000000
31
0.0
0
LINE
5
4bd
100
AcDbEntity
8
0-000
6
CONTINUOUS
62
7
100
AcDbLine
10
966.820000000000
20
884.970000000000
30
0.0
11
966.820000000000
21
792.170000000000
31
0.0
0
LINE
5
4be
100
AcDbEntity
8
0-000
6
DOT
62
7
100
AcDbLine
10
966.820000000000
20
884.970000000000
30
0.0
11
966.820000000000
21
886.970000000000
31
0.0
0
LINE
5
4bf
100
AcDbEntity
8
0-000
6
CONTINUOUS
62
7
100
AcDbLine
10
1473.220000000000
20
886.970000000000
30
0.0
11
1473.220000000000
21
884.970000000000
31
0.0
0
LINE
5
4c0
100
AcDbEntity
8
0-000
6
DOT
62
7
100
AcDbLine
10
1473.220000000000
20
884.970000000000
30
0.0
11
1473.220000000000
21
793.770000000000
31
0.0
0
LINE
5
4c1
100
AcDbEntity
8
0-000
6
DOT
62
7
100
AcDbLine
10
1222.420000000000
20
884.970000000000
30
0.0
11
1222.420000000000
21
792.170000000000
31
0.0
0
LINE
5
4c2
100
AcDbEntity
8
0-000
6
CONTINUOUS
62
7
100
AcDbLine
10
1222.420000000000
20
886.970000000000
30
0.0
11
1222.420000000000
21
884.970000000000
31
0.0
0
LINE
5
4c3
100
AcDbEntity
8
0-000
6
DOT
62
7
100
AcDbLine
10
972.420000000000
20
884.970000000000
30
0.0
11
972.420000000000
21
792.170000000000
31
0.0
0
LINE
5
4c4
100
AcDbEntity
8
0-000
6
CONTINUOUS
62
7
100
AcDbLine
10
972.420000000000
20
886.970000000000
30
0.0
11
972.420000000000
21
884.970000000000
31
0.0
0
LINE
5
4c5
100
AcDbEntity
8
0-000
6
CONTINUOUS
62
7
100
AcDbLine
10
716.820000000000
20
918.970000000000
30
0.0
11
966.820000000000
21
918.970000000000
31
0.0
0
LINE
5
4c6
100
AcDbEntity
8
0-000
6
CONTINUOUS
62
7
100
AcDbLine
10
716.820000000000
20
898.970000000000
30
0.0
11
716.820000000000
21
918.970000000000
31
0.0
0
LINE
5
4c7
100
AcDbEntity
8
0-000
6
CONTINUOUS
62
7
100
AcDbLine
10
966.820000000000
20
898.970000000000
30
0.0
11
966.820000000000
21
918.970000000000
31
0.0
0
LINE
5
4c8
100
AcDbEntity
8
0-000
6
CONTINUOUS
62
7
100
AcDbLine
10
966.820000000000
20
918.970000000000
30
0.0
11
1216.820000000000
21
918.970000000000
31
0.0
0
LINE
5
4c9
100
AcDbEntity
8
0-000
6
CONTINUOUS
62
7
100
AcDbLine
10
1216.820000000000
20
898.970000000000
30
0.0
11
1216.820000000000
21
918.970000000000
31
0.0
0
LINE
5
4ca
100
AcDbEntity
8
0-000
6
CONTINUOUS
62
7
100
AcDbLine
10
1216.820000000000
20
918.970000000000
30
0.0
11
1467.620000000000
21
918.970000000000
31
0.0
0
LINE
5
4cb
100
AcDbEntity
8
0-000
6
CONTINUOUS
62
7
100
AcDbLine
10
1467.620000000000
20
898.970000000000
30
0.0
11
1467.620000000000
21
918.970000000000
31
0.0
0
LINE
5
4cc
100
AcDbEntity
8
0-000
6
CONTINUOUS
62
7
100
AcDbLine
10
1467.620000000000
20
918.970000000000
30
0.0
11
1489.220000000000
21
918.970000000000
31
0.0
0
LINE
5
4cd
100
AcDbEntity
8
0-000
6
CONTINUOUS
62
7
100
AcDbLine
10
1489.220000000000
20
898.970000000000
30
0.0
11
1489.220000000000
21
918.970000000000
31
0.0
0
LINE
5
4ce
100
AcDbEntity
8
0-000
6
CONTINUOUS
62
7
100
AcDbLine
10
716.820000000000
20
938.970000000000
30
0.0
11
1467.620000000000
21
938.970000000000
31
0.0
0
LINE
5
4cf
100
AcDbEntity
8
0-000
6
CONTINUOUS
62
7
100
AcDbLine
10
716.820000000000
20
918.970000000000
30
0.0
11
716.820000000000
21
938.970000000000
31
0.0
0
LINE
5
4d0
100
AcDbEntity
8
0-000
6
CONTINUOUS
62
7
100
AcDbLine
10
1467.620000000000
20
918.970000000000
30
0.0
11
1467.620000000000
21
938.970000000000
31
0.0
0
LINE
5
4d1
100
AcDbEntity
8
0-000
6
CONTINUOUS
62
7
100
AcDbLine
10
684.820000000000
20
792.170000000000
30
0.0
11
684.820000000000
21
868.170000000000
31
0.0
0
LINE
5
4d2
100
AcDbEntity
8
0-000
6
CONTINUOUS
62
7
100
AcDbLine
10
704.820000000000
20
792.170000000000
30
0.0
11
684.820000000000
21
792.170000000000
31
0.0
0
LINE
5
4d3
100
AcDbEntity
8
0-000
6
CONTINUOUS
62
7
100
AcDbLine
10
704.820000000000
20
868.170000000000
30
0.0
11
684.820000000000
21
868.170000000000
31
0.0
0
LINE
5
4d4
100
AcDbEntity
8
0-000
6
CONTINUOUS
62
7
100
AcDbLine
10
684.820000000000
20
868.170000000000
30
0.0
11
684.820000000000
21
886.970000000000
31
0.0
0
LINE
5
4d5
100
AcDbEntity
8
0-000
6
CONTINUOUS
62
7
100
AcDbLine
10
704.820000000000
20
886.970000000000
30
0.0
11
684.820000000000
21
886.970000000000
31
0.0
0
LINE
5
4d6
100
AcDbEntity
8
0-000
6
CONTINUOUS
62
3
100
AcDbLine
10
580.390000000000
20
613.270000000000
30
0.0
11
580.390000000000
21
1143.640000000000
31
0.0
0
LINE
5
4d7
100
AcDbEntity
8
0-000
6
CONTINUOUS
62
7
100
AcDbLine
10
160.460000000000
20
759.680000000000
30
0.0
11
185.470000000000
21
756.500000000000
31
0.0
0
LINE
5
4d8
100
AcDbEntity
8
0-000
6
CONTINUOUS
62
7
100
AcDbLine
10
160.240000000000
20
758.700000000000
30
0.0
11
185.210000000000
21
755.530000000000
31
0.0
0
LINE
5
4d9
100
AcDbEntity
8
0-000
6
CONTINUOUS
62
7
100
AcDbLine
10
186.790000000000
20
742.620000000000
30
0.0
11
186.790000000000
21
727.620000000000
31
0.0
0
LINE
5
4da
100
AcDbEntity
8
0-000
6
CONTINUOUS
62
7
100
AcDbLine
10
158.790000000000
20
727.620000000000
30
0.0
11
186.790000000000
21
727.620000000000
31
0.0
0
LINE
5
4db
100
AcDbEntity
8
0-000
6
CONTINUOUS
62
7
100
AcDbLine
10
158.790000000000
20
742.620000000000
30
0.0
11
158.790000000000
21
727.620000000000
31
0.0
0
LINE
5
4dc
100
AcDbEntity
8
0-000
6
CONTINUOUS
62
7
100
AcDbLine
10
226.790000000000
20
762.150000000000
30
0.0
11
160.790000000000
21
762.620000000000
31
0.0
0
LINE
5
4dd
100
AcDbEntity
8
0-000
6
CONTINUOUS
62
7
100
AcDbLine
10
226.790000000000
20
761.150000000000
30
0.0
11
160.790000000000
21
761.620000000000
31
0.0
0
LINE
5
4de
100
AcDbEntity
8
0-000
6
CONTINUOUS
62
7
100
AcDbLine
10
184.790000000000
20
753.620000000000
30
0.0
11
118.790000000000
21
754.090000000000
31
0.0
0
LINE
5
4df
100
AcDbEntity
8
0-000
6
CONTINUOUS
62
7
100
AcDbLine
10
184.790000000000
20
752.620000000000
30
0.0
11
118.790000000000
21
753.090000000000
31
0.0
0
LINE
5
4e0
100
AcDbEntity
8
0-000
6
CONTINUOUS
62
3
100
AcDbLine
10
71.720000000000
20
59.100000000000
30
0.0
11
71.720000000000
21
75.100000000000
31
0.0
0
LINE
5
4e1
100
AcDbEntity
8
0-000
6
CONTINUOUS
62
3
100
AcDbLine
10
71.720000000000
20
75.100000000000
30
0.0
11
87.720000000000
21
75.100000000000
31
0.0
0
LINE
5
4e2
100
AcDbEntity
8
0-000
6
CONTINUOUS
62
3
100
AcDbLine
10
87.720000000000
20
75.100000000000
30
0.0
11
87.720000000000
21
59.100000000000
31
0.0
0
LINE
5
4e3
100
AcDbEntity
8
0-000
6
CONTINUOUS
62
3
100
AcDbLine
10
87.720000000000
20
59.100000000000
30
0.0
11
71.720000000000
21
59.100000000000
31
0.0
0
LINE
5
4e4
100
AcDbEntity
8
0-000
6
CONTINUOUS
62
3
100
AcDbLine
10
73.320000000000
20
61.260000000000
30
0.0
11
73.320000000000
21
73.500000000000
31
0.0
0
LINE
5
4e5
100
AcDbEntity
8
0-000
6
CONTINUOUS
62
3
100
AcDbLine
10
86.120000000000
20
60.700000000000
30
0.0
11
73.880000000000
21
60.700000000000
31
0.0
0
LINE
5
4e6
100
AcDbEntity
8
0-000
6
CONTINUOUS
62
3
100
AcDbLine
10
73.320000000000
20
73.500000000000
30
0.0
11
85.550000000000
21
73.500000000000
31
0.0
0
LINE
5
4e7
100
AcDbEntity
8
0-000
6
CONTINUOUS
62
3
100
AcDbLine
10
85.550000000000
20
73.500000000000
30
0.0
11
73.320000000000
21
61.260000000000
31
0.0
0
LINE
5
4e8
100
AcDbEntity
8
0-000
6
CONTINUOUS
62
3
100
AcDbLine
10
86.120000000000
20
72.930000000000
30
0.0
11
73.880000000000
21
60.700000000000
31
0.0
0
LINE
5
4e9
100
AcDbEntity
8
0-000
6
CONTINUOUS
62
3
100
AcDbLine
10
86.120000000000
20
72.930000000000
30
0.0
11
86.120000000000
21
60.700000000000
31
0.0
0
LINE
5
4ea
100
AcDbEntity
8
0-000
6
CONTINUOUS
62
4
100
AcDbLine
10
71.720000000000
20
74.940000000000
30
0.0
11
87.720000000000
21
74.940000000000
31
0.0
0
LINE
5
4eb
100
AcDbEntity
8
0-000
6
CONTINUOUS
62
4
100
AcDbLine
10
71.720000000000
20
74.620000000000
30
0.0
11
87.720000000000
21
74.620000000000
31
0.0
0
LINE
5
4ec
100
AcDbEntity
8
0-000
6
CONTINUOUS
62
4
100
AcDbLine
10
71.720000000000
20
74.300000000000
30
0.0
11
87.720000000000
21
74.300000000000
31
0.0
0
LINE
5
4ed
100
AcDbEntity
8
0-000
6
CONTINUOUS
62
4
100
AcDbLine
10
71.720000000000
20
73.980000000000
30
0.0
11
87.720000000000
21
73.980000000000
31
0.0
0
LINE
5
4ee
100
AcDbEntity
8
0-000
6
CONTINUOUS
62
4
100
AcDbLine
10
71.720000000000
20
73.660000000000
30
0.0
11
87.720000000000
21
73.660000000000
31
0.0
0
LINE
5
4ef
100
AcDbEntity
8
0-000
6
CONTINUOUS
62
4
100
AcDbLine
10
71.720000000000
20
60.540000000000
30
0.0
11
87.720000000000
21
60.540000000000
31
0.0
0
LINE
5
4f0
100
AcDbEntity
8
0-000
6
CONTINUOUS
62
4
100
AcDbLine
10
71.720000000000
20
60.220000000000
30
0.0
11
87.720000000000
21
60.220000000000
31
0.0
0
LINE
5
4f1
100
AcDbEntity
8
0-000
6
CONTINUOUS
62
4
100
AcDbLine
10
71.720000000000
20
59.900000000000
30
0.0
11
87.720000000000
21
59.900000000000
31
0.0
0
LINE
5
4f2
100
AcDbEntity
8
0-000
6
CONTINUOUS
62
4
100
AcDbLine
10
71.720000000000
20
59.580000000000
30
0.0
11
87.720000000000
21
59.580000000000
31
0.0
0
LINE
5
4f3
100
AcDbEntity
8
0-000
6
CONTINUOUS
62
4
100
AcDbLine
10
71.720000000000
20
59.260000000000
30
0.0
11
87.720000000000
21
59.260000000000
31
0.0
0
LINE
5
4f4
100
AcDbEntity
8
0-000
6
CONTINUOUS
62
4
100
AcDbLine
10
71.720000000000
20
61.500000000000
30
0.0
11
73.320000000000
21
61.500000000000
31
0.0
0
LINE
5
4f5
100
AcDbEntity
8
0-000
6
CONTINUOUS
62
4
100
AcDbLine
10
71.720000000000
20
61.820000000000
30
0.0
11
73.320000000000
21
61.820000000000
31
0.0
0
LINE
5
4f6
100
AcDbEntity
8
0-000
6
CONTINUOUS
62
4
100
AcDbLine
10
71.720000000000
20
62.140000000000
30
0.0
11
73.320000000000
21
62.140000000000
31
0.0
0
LINE
5
4f7
100
AcDbEntity
8
0-000
6
CONTINUOUS
62
4
100
AcDbLine
10
71.720000000000
20
62.460000000000
30
0.0
11
73.320000000000
21
62.460000000000
31
0.0
0
LINE
5
4f8
100
AcDbEntity
8
0-000
6
CONTINUOUS
62
4
100
AcDbLine
10
71.720000000000
20
62.780000000000
30
0.0
11
73.320000000000
21
62.780000000000
31
0.0
0
LINE
5
4f9
100
AcDbEntity
8
0-000
6
CONTINUOUS
62
4
100
AcDbLine
10
71.720000000000
20
63.100000000000
30
0.0
11
73.320000000000
21
63.100000000000
31
0.0
0
LINE
5
4fa
100
AcDbEntity
8
0-000
6
CONTINUOUS
62
4
100
AcDbLine
10
71.720000000000
20
63.420000000000
30
0.0
11
73.320000000000
21
63.420000000000
31
0.0
0
LINE
5
4fb
100
AcDbEntity
8
0-000
6
CONTINUOUS
62
4
100
AcDbLine
10
71.720000000000
20
63.740000000000
30
0.0
11
73.320000000000
21
63.740000000000
31
0.0
0
LINE
5
4fc
100
AcDbEntity
8
0-000
6
CONTINUOUS
62
4
100
AcDbLine
10
71.720000000000
20
64.060000000000
30
0.0
11
73.320000000000
21
64.060000000000
31
0.0
0
LINE
5
4fd
100
AcDbEntity
8
0-000
6
CONTINUOUS
62
4
100
AcDbLine
10
71.720000000000
20
64.380000000000
30
0.0
11
73.320000000000
21
64.380000000000
31
0.0
0
LINE
5
4fe
100
AcDbEntity
8
0-000
6
CONTINUOUS
62
4
100
AcDbLine
10
71.720000000000
20
64.700000000000
30
0.0
11
73.320000000000
21
64.700000000000
31
0.0
0
LINE
5
4ff
100
AcDbEntity
8
0-000
6
CONTINUOUS
62
4
100
AcDbLine
10
71.720000000000
20
65.020000000000
30
0.0
11
73.320000000000
21
65.020000000000
31
0.0
0
LINE
5
500
100
AcDbEntity
8
0-000
6
CONTINUOUS
62
4
100
AcDbLine
10
71.720000000000
20
65.340000000000
30
0.0
11
73.320000000000
21
65.340000000000
31
0.0
0
LINE
5
501
100
AcDbEntity
8
0-000
6
CONTINUOUS
62
4
100
AcDbLine
10
71.720000000000
20
65.660000000000
30
0.0
11
73.320000000000
21
65.660000000000
31
0.0
0
LINE
5
502
100
AcDbEntity
8
0-000
6
CONTINUOUS
62
4
100
AcDbLine
10
71.720000000000
20
65.980000000000
30
0.0
11
73.320000000000
21
65.980000000000
31
0.0
0
LINE
5
503
100
AcDbEntity
8
0-000
6
CONTINUOUS
62
4
100
AcDbLine
10
71.720000000000
20
66.300000000000
30
0.0
11
73.320000000000
21
66.300000000000
31
0.0
0
LINE
5
504
100
AcDbEntity
8
0-000
6
CONTINUOUS
62
4
100
AcDbLine
10
71.720000000000
20
66.620000000000
30
0.0
11
73.320000000000
21
66.620000000000
31
0.0
0
LINE
5
505
100
AcDbEntity
8
0-000
6
CONTINUOUS
62
4
100
AcDbLine
10
71.720000000000
20
66.940000000000
30
0.0
11
73.320000000000
21
66.940000000000
31
0.0
0
LINE
5
506
100
AcDbEntity
8
0-000
6
CONTINUOUS
62
4
100
AcDbLine
10
71.720000000000
20
67.260000000000
30
0.0
11
73.320000000000
21
67.260000000000
31
0.0
0
LINE
5
507
100
AcDbEntity
8
0-000
6
CONTINUOUS
62
4
100
AcDbLine
10
71.720000000000
20
67.580000000000
30
0.0
11
73.320000000000
21
67.580000000000
31
0.0
0
LINE
5
508
100
AcDbEntity
8
0-000
6
CONTINUOUS
62
4
100
AcDbLine
10
71.720000000000
20
67.900000000000
30
0.0
11
73.320000000000
21
67.900000000000
31
0.0
0
LINE
5
509
100
AcDbEntity
8
0-000
6
CONTINUOUS
62
4
100
AcDbLine
10
71.720000000000
20
68.220000000000
30
0.0
11
73.320000000000
21
68.220000000000
31
0.0
0
LINE
5
50a
100
AcDbEntity
8
0-000
6
CONTINUOUS
62
4
100
AcDbLine
10
71.720000000000
20
68.540000000000
30
0.0
11
73.320000000000
21
68.540000000000
31
0.0
0
LINE
5
50b
100
AcDbEntity
8
0-000
6
CONTINUOUS
62
4
100
AcDbLine
10
71.720000000000
20
68.860000000000
30
0.0
11
73.320000000000
21
68.860000000000
31
0.0
0
LINE
5
50c
100
AcDbEntity
8
0-000
6
CONTINUOUS
62
4
100
AcDbLine
10
71.720000000000
20
69.820000000000
30
0.0
11
73.320000000000
21
69.820000000000
31
0.0
0
LINE
5
50d
100
AcDbEntity
8
0-000
6
CONTINUOUS
62
4
100
AcDbLine
10
71.720000000000
20
70.780000000000
30
0.0
11
73.320000000000
21
70.780000000000
31
0.0
0
LINE
5
50e
100
AcDbEntity
8
0-000
6
CONTINUOUS
62
4
100
AcDbLine
10
71.720000000000
20
71.100000000000
30
0.0
11
73.320000000000
21
71.100000000000
31
0.0
0
LINE
5
50f
100
AcDbEntity
8
0-000
6
CONTINUOUS
62
4
100
AcDbLine
10
71.720000000000
20
71.420000000000
30
0.0
11
73.320000000000
21
71.420000000000
31
0.0
0
LINE
5
510
100
AcDbEntity
8
0-000
6
CONTINUOUS
62
4
100
AcDbLine
10
71.720000000000
20
71.740000000000
30
0.0
11
73.320000000000
21
71.740000000000
31
0.0
0
LINE
5
511
100
AcDbEntity
8
0-000
6
CONTINUOUS
62
4
100
AcDbLine
10
71.720000000000
20
73.340000000000
30
0.0
11
73.320000000000
21
73.340000000000
31
0.0
0
LINE
5
512
100
AcDbEntity
8
0-000
6
CONTINUOUS
62
4
100
AcDbLine
10
71.720000000000
20
73.020000000000
30
0.0
11
73.320000000000
21
73.020000000000
31
0.0
0
LINE
5
513
100
AcDbEntity
8
0-000
6
CONTINUOUS
62
4
100
AcDbLine
10
71.720000000000
20
72.700000000000
30
0.0
11
73.320000000000
21
72.700000000000
31
0.0
0
LINE
5
514
100
AcDbEntity
8
0-000
6
CONTINUOUS
62
4
100
AcDbLine
10
71.720000000000
20
72.380000000000
30
0.0
11
73.320000000000
21
72.380000000000
31
0.0
0
LINE
5
515
100
AcDbEntity
8
0-000
6
CONTINUOUS
62
4
100
AcDbLine
10
71.720000000000
20
72.060000000000
30
0.0
11
73.320000000000
21
72.060000000000
31
0.0
0
LINE
5
516
100
AcDbEntity
8
0-000
6
CONTINUOUS
62
4
100
AcDbLine
10
71.720000000000
20
70.140000000000
30
0.0
11
73.320000000000
21
70.140000000000
31
0.0
0
LINE
5
517
100
AcDbEntity
8
0-000
6
CONTINUOUS
62
4
100
AcDbLine
10
71.720000000000
20
70.460000000000
30
0.0
11
73.320000000000
21
70.460000000000
31
0.0
0
LINE
5
518
100
AcDbEntity
8
0-000
6
CONTINUOUS
62
4
100
AcDbLine
10
71.720000000000
20
69.500000000000
30
0.0
11
73.320000000000
21
69.500000000000
31
0.0
0
LINE
5
519
100
AcDbEntity
8
0-000
6
CONTINUOUS
62
4
100
AcDbLine
10
71.720000000000
20
69.180000000000
30
0.0
11
73.320000000000
21
69.180000000000
31
0.0
0
LINE
5
51a
100
AcDbEntity
8
0-000
6
CONTINUOUS
62
4
100
AcDbLine
10
73.870000000000
20
61.820000000000
30
0.0
11
75.000000000000
21
61.820000000000
31
0.0
0
LINE
5
51b
100
AcDbEntity
8
0-000
6
CONTINUOUS
62
4
100
AcDbLine
10
73.550000000000
20
61.500000000000
30
0.0
11
74.680000000000
21
61.500000000000
31
0.0
0
LINE
5
51c
100
AcDbEntity
8
0-000
6
CONTINUOUS
62
4
100
AcDbLine
10
71.720000000000
20
61.180000000000
30
0.0
11
74.360000000000
21
61.180000000000
31
0.0
0
LINE
5
51d
100
AcDbEntity
8
0-000
6
CONTINUOUS
62
4
100
AcDbLine
10
71.720000000000
20
60.860000000000
30
0.0
11
74.040000000000
21
60.860000000000
31
0.0
0
LINE
5
51e
100
AcDbEntity
8
0-000
6
CONTINUOUS
62
4
100
AcDbLine
10
75.790000000000
20
63.740000000000
30
0.0
11
76.920000000000
21
63.740000000000
31
0.0
0
LINE
5
51f
100
AcDbEntity
8
0-000
6
CONTINUOUS
62
4
100
AcDbLine
10
75.470000000000
20
63.420000000000
30
0.0
11
76.600000000000
21
63.420000000000
31
0.0
0
LINE
5
520
100
AcDbEntity
8
0-000
6
CONTINUOUS
62
4
100
AcDbLine
10
75.150000000000
20
63.100000000000
30
0.0
11
76.280000000000
21
63.100000000000
31
0.0
0
LINE
5
521
100
AcDbEntity
8
0-000
6
CONTINUOUS
62
4
100
AcDbLine
10
74.830000000000
20
62.780000000000
30
0.0
11
75.960000000000
21
62.780000000000
31
0.0
0
LINE
5
522
100
AcDbEntity
8
0-000
6
CONTINUOUS
62
4
100
AcDbLine
10
74.510000000000
20
62.460000000000
30
0.0
11
75.640000000000
21
62.460000000000
31
0.0
0
LINE
5
523
100
AcDbEntity
8
0-000
6
CONTINUOUS
62
4
100
AcDbLine
10
74.190000000000
20
62.140000000000
30
0.0
11
75.320000000000
21
62.140000000000
31
0.0
0
LINE
5
524
100
AcDbEntity
8
0-000
6
CONTINUOUS
62
4
100
AcDbLine
10
73.320000000000
20
73.500000000000
30
0.0
11
73.320000000000
21
73.820000000000
31
0.0
0
LINE
5
525
100
AcDbEntity
8
0-000
6
CONTINUOUS
62
4
100
AcDbLine
10
86.120000000000
20
61.500000000000
30
0.0
11
87.720000000000
21
61.500000000000
31
0.0
0
LINE
5
526
100
AcDbEntity
8
0-000
6
CONTINUOUS
62
4
100
AcDbLine
10
86.120000000000
20
61.820000000000
30
0.0
11
87.720000000000
21
61.820000000000
31
0.0
0
LINE
5
527
100
AcDbEntity
8
0-000
6
CONTINUOUS
62
4
100
AcDbLine
10
86.120000000000
20
62.140000000000
30
0.0
11
87.720000000000
21
62.140000000000
31
0.0
0
LINE
5
528
100
AcDbEntity
8
0-000
6
CONTINUOUS
62
4
100
AcDbLine
10
86.120000000000
20
62.460000000000
30
0.0
11
87.720000000000
21
62.460000000000
31
0.0
0
LINE
5
529
100
AcDbEntity
8
0-000
6
CONTINUOUS
62
4
100
AcDbLine
10
86.120000000000
20
62.780000000000
30
0.0
11
87.720000000000
21
62.780000000000
31
0.0
0
LINE
5
52a
100
AcDbEntity
8
0-000
6
CONTINUOUS
62
4
100
AcDbLine
10
86.120000000000
20
63.100000000000
30
0.0
11
87.720000000000
21
63.100000000000
31
0.0
0
LINE
5
52b
100
AcDbEntity
8
0-000
6
CONTINUOUS
62
4
100
AcDbLine
10
86.120000000000
20
63.420000000000
30
0.0
11
87.720000000000
21
63.420000000000
31
0.0
0
LINE
5
52c
100
AcDbEntity
8
0-000
6
CONTINUOUS
62
4
100
AcDbLine
10
86.120000000000
20
63.740000000000
30
0.0
11
87.720000000000
21
63.740000000000
31
0.0
0
LINE
5
52d
100
AcDbEntity
8
0-000
6
CONTINUOUS
62
4
100
AcDbLine
10
86.120000000000
20
64.060000000000
30
0.0
11
87.720000000000
21
64.060000000000
31
0.0
0
LINE
5
52e
100
AcDbEntity
8
0-000
6
CONTINUOUS
62
4
100
AcDbLine
10
86.120000000000
20
64.380000000000
30
0.0
11
87.720000000000
21
64.380000000000
31
0.0
0
LINE
5
52f
100
AcDbEntity
8
0-000
6
CONTINUOUS
62
4
100
AcDbLine
10
86.120000000000
20
64.700000000000
30
0.0
11
87.720000000000
21
64.700000000000
31
0.0
0
LINE
5
530
100
AcDbEntity
8
0-000
6
CONTINUOUS
62
4
100
AcDbLine
10
86.120000000000
20
65.020000000000
30
0.0
11
87.720000000000
21
65.020000000000
31
0.0
0
LINE
5
531
100
AcDbEntity
8
0-000
6
CONTINUOUS
62
4
100
AcDbLine
10
86.120000000000
20
65.340000000000
30
0.0
11
87.720000000000
21
65.340000000000
31
0.0
0
LINE
5
532
100
AcDbEntity
8
0-000
6
CONTINUOUS
62
4
100
AcDbLine
10
86.120000000000
20
65.980000000000
30
0.0
11
87.720000000000
21
65.980000000000
31
0.0
0
LINE
5
533
100
AcDbEntity
8
0-000
6
CONTINUOUS
62
4
100
AcDbLine
10
86.120000000000
20
66.300000000000
30
0.0
11
87.720000000000
21
66.300000000000
31
0.0
0
LINE
5
534
100
AcDbEntity
8
0-000
6
CONTINUOUS
62
4
100
AcDbLine
10
86.120000000000
20
66.620000000000
30
0.0
11
87.720000000000
21
66.620000000000
31
0.0
0
LINE
5
535
100
AcDbEntity
8
0-000
6
CONTINUOUS
62
4
100
AcDbLine
10
86.120000000000
20
66.940000000000
30
0.0
11
87.720000000000
21
66.940000000000
31
0.0
0
LINE
5
536
100
AcDbEntity
8
0-000
6
CONTINUOUS
62
4
100
AcDbLine
10
86.120000000000
20
67.260000000000
30
0.0
11
87.720000000000
21
67.260000000000
31
0.0
0
LINE
5
537
100
AcDbEntity
8
0-000
6
CONTINUOUS
62
4
100
AcDbLine
10
86.120000000000
20
67.580000000000
30
0.0
11
87.720000000000
21
67.580000000000
31
0.0
0
LINE
5
538
100
AcDbEntity
8
0-000
6
CONTINUOUS
62
4
100
AcDbLine
10
86.120000000000
20
67.900000000000
30
0.0
11
87.720000000000
21
67.900000000000
31
0.0
0
LINE
5
539
100
AcDbEntity
8
0-000
6
CONTINUOUS
62
4
100
AcDbLine
10
86.120000000000
20
68.220000000000
30
0.0
11
87.720000000000
21
68.220000000000
31
0.0
0
LINE
5
53a
100
AcDbEntity
8
0-000
6
CONTINUOUS
62
4
100
AcDbLine
10
86.120000000000
20
68.540000000000
30
0.0
11
87.720000000000
21
68.540000000000
31
0.0
0
LINE
5
53b
100
AcDbEntity
8
0-000
6
CONTINUOUS
62
4
100
AcDbLine
10
86.120000000000
20
68.860000000000
30
0.0
11
87.720000000000
21
68.860000000000
31
0.0
0
LINE
5
53c
100
AcDbEntity
8
0-000
6
CONTINUOUS
62
4
100
AcDbLine
10
86.120000000000
20
69.820000000000
30
0.0
11
87.720000000000
21
69.820000000000
31
0.0
0
LINE
5
53d
100
AcDbEntity
8
0-000
6
CONTINUOUS
62
4
100
AcDbLine
10
86.120000000000
20
70.780000000000
30
0.0
11
87.720000000000
21
70.780000000000
31
0.0
0
LINE
5
53e
100
AcDbEntity
8
0-000
6
CONTINUOUS
62
4
100
AcDbLine
10
86.120000000000
20
71.100000000000
30
0.0
11
87.720000000000
21
71.100000000000
31
0.0
0
LINE
5
53f
100
AcDbEntity
8
0-000
6
CONTINUOUS
62
4
100
AcDbLine
10
86.120000000000
20
71.420000000000
30
0.0
11
87.720000000000
21
71.420000000000
31
0.0
0
LINE
5
540
100
AcDbEntity
8
0-000
6
CONTINUOUS
62
4
100
AcDbLine
10
86.120000000000
20
71.740000000000
30
0.0
11
87.720000000000
21
71.740000000000
31
0.0
0
LINE
5
541
100
AcDbEntity
8
0-000
6
CONTINUOUS
62
4
100
AcDbLine
10
86.120000000000
20
72.700000000000
30
0.0
11
87.720000000000
21
72.700000000000
31
0.0
0
LINE
5
542
100
AcDbEntity
8
0-000
6
CONTINUOUS
62
4
100
AcDbLine
10
86.120000000000
20
72.380000000000
30
0.0
11
87.720000000000
21
72.380000000000
31
0.0
0
LINE
5
543
100
AcDbEntity
8
0-000
6
CONTINUOUS
62
4
100
AcDbLine
10
86.120000000000
20
72.060000000000
30
0.0
11
87.720000000000
21
72.060000000000
31
0.0
0
LINE
5
544
100
AcDbEntity
8
0-000
6
CONTINUOUS
62
4
100
AcDbLine
10
86.120000000000
20
70.140000000000
30
0.0
11
87.720000000000
21
70.140000000000
31
0.0
0
LINE
5
545
100
AcDbEntity
8
0-000
6
CONTINUOUS
62
4
100
AcDbLine
10
86.120000000000
20
70.460000000000
30
0.0
11
87.720000000000
21
70.460000000000
31
0.0
0
LINE
5
546
100
AcDbEntity
8
0-000
6
CONTINUOUS
62
4
100
AcDbLine
10
86.120000000000
20
69.500000000000
30
0.0
11
87.720000000000
21
69.500000000000
31
0.0
0
LINE
5
547
100
AcDbEntity
8
0-000
6
CONTINUOUS
62
4
100
AcDbLine
10
86.120000000000
20
69.180000000000
30
0.0
11
87.720000000000
21
69.180000000000
31
0.0
0
LINE
5
548
100
AcDbEntity
8
0-000
6
CONTINUOUS
62
4
100
AcDbLine
10
86.120000000000
20
60.860000000000
30
0.0
11
87.720000000000
21
60.860000000000
31
0.0
0
LINE
5
549
100
AcDbEntity
8
0-000
6
CONTINUOUS
62
4
100
AcDbLine
10
86.120000000000
20
61.180000000000
30
0.0
11
87.720000000000
21
61.180000000000
31
0.0
0
LINE
5
54a
100
AcDbEntity
8
0-000
6
CONTINUOUS
62
4
100
AcDbLine
10
85.390000000000
20
73.340000000000
30
0.0
11
87.720000000000
21
73.340000000000
31
0.0
0
LINE
5
54b
100
AcDbEntity
8
0-000
6
CONTINUOUS
62
4
100
AcDbLine
10
85.070000000000
20
73.020000000000
30
0.0
11
87.720000000000
21
73.020000000000
31
0.0
0
LINE
5
54c
100
AcDbEntity
8
0-000
6
CONTINUOUS
62
4
100
AcDbLine
10
77.070000000000
20
65.020000000000
30
0.0
11
78.200000000000
21
65.020000000000
31
0.0
0
LINE
5
54d
100
AcDbEntity
8
0-000
6
CONTINUOUS
62
4
100
AcDbLine
10
76.750000000000
20
64.700000000000
30
0.0
11
77.880000000000
21
64.700000000000
31
0.0
0
LINE
5
54e
100
AcDbEntity
8
0-000
6
CONTINUOUS
62
4
100
AcDbLine
10
76.430000000000
20
64.380000000000
30
0.0
11
77.560000000000
21
64.380000000000
31
0.0
0
LINE
5
54f
100
AcDbEntity
8
0-000
6
CONTINUOUS
62
4
100
AcDbLine
10
76.110000000000
20
64.060000000000
30
0.0
11
77.240000000000
21
64.060000000000
31
0.0
0
LINE
5
550
100
AcDbEntity
8
0-000
6
CONTINUOUS
62
4
100
AcDbLine
10
78.350000000000
20
66.300000000000
30
0.0
11
79.480000000000
21
66.300000000000
31
0.0
0
LINE
5
551
100
AcDbEntity
8
0-000
6
CONTINUOUS
62
4
100
AcDbLine
10
78.030000000000
20
65.980000000000
30
0.0
11
79.160000000000
21
65.980000000000
31
0.0
0
LINE
5
552
100
AcDbEntity
8
0-000
6
CONTINUOUS
62
4
100
AcDbLine
10
77.710000000000
20
65.660000000000
30
0.0
11
78.840000000000
21
65.660000000000
31
0.0
0
LINE
5
553
100
AcDbEntity
8
0-000
6
CONTINUOUS
62
4
100
AcDbLine
10
77.390000000000
20
65.340000000000
30
0.0
11
78.520000000000
21
65.340000000000
31
0.0
0
LINE
5
554
100
AcDbEntity
8
0-000
6
CONTINUOUS
62
4
100
AcDbLine
10
79.630000000000
20
67.580000000000
30
0.0
11
80.760000000000
21
67.580000000000
31
0.0
0
LINE
5
555
100
AcDbEntity
8
0-000
6
CONTINUOUS
62
4
100
AcDbLine
10
79.310000000000
20
67.260000000000
30
0.0
11
80.440000000000
21
67.260000000000
31
0.0
0
LINE
5
556
100
AcDbEntity
8
0-000
6
CONTINUOUS
62
4
100
AcDbLine
10
78.990000000000
20
66.940000000000
30
0.0
11
80.120000000000
21
66.940000000000
31
0.0
0
LINE
5
557
100
AcDbEntity
8
0-000
6
CONTINUOUS
62
4
100
AcDbLine
10
78.670000000000
20
66.620000000000
30
0.0
11
79.800000000000
21
66.620000000000
31
0.0
0
LINE
5
558
100
AcDbEntity
8
0-000
6
CONTINUOUS
62
4
100
AcDbLine
10
80.910000000000
20
68.860000000000
30
0.0
11
82.040000000000
21
68.860000000000
31
0.0
0
LINE
5
559
100
AcDbEntity
8
0-000
6
CONTINUOUS
62
4
100
AcDbLine
10
80.590000000000
20
68.540000000000
30
0.0
11
81.720000000000
21
68.540000000000
31
0.0
0
LINE
5
55a
100
AcDbEntity
8
0-000
6
CONTINUOUS
62
4
100
AcDbLine
10
80.270000000000
20
68.220000000000
30
0.0
11
81.400000000000
21
68.220000000000
31
0.0
0
LINE
5
55b
100
AcDbEntity
8
0-000
6
CONTINUOUS
62
4
100
AcDbLine
10
79.950000000000
20
67.900000000000
30
0.0
11
81.080000000000
21
67.900000000000
31
0.0
0
LINE
5
55c
100
AcDbEntity
8
0-000
6
CONTINUOUS
62
4
100
AcDbLine
10
82.190000000000
20
70.140000000000
30
0.0
11
83.320000000000
21
70.140000000000
31
0.0
0
LINE
5
55d
100
AcDbEntity
8
0-000
6
CONTINUOUS
62
4
100
AcDbLine
10
81.870000000000
20
69.820000000000
30
0.0
11
83.000000000000
21
69.820000000000
31
0.0
0
LINE
5
55e
100
AcDbEntity
8
0-000
6
CONTINUOUS
62
4
100
AcDbLine
10
81.550000000000
20
69.500000000000
30
0.0
11
82.680000000000
21
69.500000000000
31
0.0
0
LINE
5
55f
100
AcDbEntity
8
0-000
6
CONTINUOUS
62
4
100
AcDbLine
10
81.230000000000
20
69.180000000000
30
0.0
11
82.360000000000
21
69.180000000000
31
0.0
0
LINE
5
560
100
AcDbEntity
8
0-000
6
CONTINUOUS
62
4
100
AcDbLine
10
83.470000000000
20
71.420000000000
30
0.0
11
84.600000000000
21
71.420000000000
31
0.0
0
LINE
5
561
100
AcDbEntity
8
0-000
6
CONTINUOUS
62
4
100
AcDbLine
10
83.150000000000
20
71.100000000000
30
0.0
11
84.280000000000
21
71.100000000000
31
0.0
0
LINE
5
562
100
AcDbEntity
8
0-000
6
CONTINUOUS
62
4
100
AcDbLine
10
82.830000000000
20
70.780000000000
30
0.0
11
83.960000000000
21
70.780000000000
31
0.0
0
LINE
5
563
100
AcDbEntity
8
0-000
6
CONTINUOUS
62
4
100
AcDbLine
10
82.510000000000
20
70.460000000000
30
0.0
11
83.640000000000
21
70.460000000000
31
0.0
0
LINE
5
564
100
AcDbEntity
8
0-000
6
CONTINUOUS
62
4
100
AcDbLine
10
84.750000000000
20
72.700000000000
30
0.0
11
85.880000000000
21
72.700000000000
31
0.0
0
LINE
5
565
100
AcDbEntity
8
0-000
6
CONTINUOUS
62
4
100
AcDbLine
10
84.430000000000
20
72.380000000000
30
0.0
11
85.560000000000
21
72.380000000000
31
0.0
0
LINE
5
566
100
AcDbEntity
8
0-000
6
CONTINUOUS
62
4
100
AcDbLine
10
84.110000000000
20
72.060000000000
30
0.0
11
85.240000000000
21
72.060000000000
31
0.0
0
LINE
5
567
100
AcDbEntity
8
0-000
6
CONTINUOUS
62
4
100
AcDbLine
10
83.790000000000
20
71.740000000000
30
0.0
11
84.920000000000
21
71.740000000000
31
0.0
0
LINE
5
568
100
AcDbEntity
8
0-000
6
CONTINUOUS
62
4
100
AcDbLine
10
86.120000000000
20
65.660000000000
30
0.0
11
87.720000000000
21
65.660000000000
31
0.0
0
LINE
5
569
100
AcDbEntity
8
0-000
6
DOT
62
7
100
AcDbLine
10
778.860000000000
20
323.770000000000
30
0.0
11
1623.800000000000
21
323.770000000000
31
0.0
0
LINE
5
56a
100
AcDbEntity
8
0-000
6
DOT
62
7
100
AcDbLine
10
722.370000000000
20
874.970000000000
30
0.0
11
1489.220000000000
21
874.970000000000
31
0.0
0
LINE
5
56b
100
AcDbEntity
8
0-000
6
DOT
62
4
100
AcDbLine
10
1467.620000000000
20
874.970000000000
30
0.0
11
1467.620000000000
21
868.170000000000
31
0.0
0
LINE
5
56c
100
AcDbEntity
8
0-000
6
DOT
62
4
100
AcDbLine
10
1487.400000000000
20
868.170000000000
30
0.0
11
1489.220000000000
21
869.990000000000
31
0.0
0
LINE
5
56d
100
AcDbEntity
8
0-000
6
DOT
62
4
100
AcDbLine
10
1484.570000000000
20
868.170000000000
30
0.0
11
1489.220000000000
21
872.820000000000
31
0.0
0
LINE
5
56e
100
AcDbEntity
8
0-000
6
DOT
62
4
100
AcDbLine
10
1481.740000000000
20
868.170000000000
30
0.0
11
1488.540000000000
21
874.970000000000
31
0.0
0
LINE
5
56f
100
AcDbEntity
8
0-000
6
DOT
62
4
100
AcDbLine
10
1478.910000000000
20
868.170000000000
30
0.0
11
1485.710000000000
21
874.970000000000
31
0.0
0
LINE
5
570
100
AcDbEntity
8
0-000
6
DOT
62
4
100
AcDbLine
10
1476.080000000000
20
868.170000000000
30
0.0
11
1482.880000000000
21
874.970000000000
31
0.0
0
LINE
5
571
100
AcDbEntity
8
0-000
6
DOT
62
4
100
AcDbLine
10
1473.250000000000
20
868.170000000000
30
0.0
11
1480.050000000000
21
874.970000000000
31
0.0
0
LINE
5
572
100
AcDbEntity
8
0-000
6
DOT
62
4
100
AcDbLine
10
1470.430000000000
20
868.170000000000
30
0.0
11
1477.230000000000
21
874.970000000000
31
0.0
0
LINE
5
573
100
AcDbEntity
8
0-000
6
DOT
62
4
100
AcDbLine
10
1469.590000000000
20
874.970000000000
30
0.0
11
1476.390000000000
21
868.170000000000
31
0.0
0
LINE
5
574
100
AcDbEntity
8
0-000
6
DOT
62
4
100
AcDbLine
10
1472.420000000000
20
874.970000000000
30
0.0
11
1479.220000000000
21
868.170000000000
31
0.0
0
LINE
5
575
100
AcDbEntity
8
0-000
6
DOT
62
4
100
AcDbLine
10
1475.250000000000
20
874.970000000000
30
0.0
11
1482.050000000000
21
868.170000000000
31
0.0
0
LINE
5
576
100
AcDbEntity
8
0-000
6
DOT
62
4
100
AcDbLine
10
1478.080000000000
20
874.970000000000
30
0.0
11
1484.880000000000
21
868.170000000000
31
0.0
0
LINE
5
577
100
AcDbEntity
8
0-000
6
DOT
62
4
100
AcDbLine
10
1480.910000000000
20
874.970000000000
30
0.0
11
1487.710000000000
21
868.170000000000
31
0.0
0
LINE
5
578
100
AcDbEntity
8
0-000
6
DOT
62
4
100
AcDbLine
10
1483.730000000000
20
874.970000000000
30
0.0
11
1489.220000000000
21
869.490000000000
31
0.0
0
LINE
5
579
100
AcDbEntity
8
0-000
6
DOT
62
4
100
AcDbLine
10
1486.560000000000
20
874.970000000000
30
0.0
11
1489.220000000000
21
872.320000000000
31
0.0
0
LINE
5
57a
100
AcDbEntity
8
0-000
6
CONTINUOUS
62
7
100
AcDbLine
10
1470.430000000000
20
868.170000000000
30
0.0
11
1470.000000000000
21
866.570000000000
31
0.0
0
LINE
5
57b
100
AcDbEntity
8
0-000
6
CONTINUOUS
62
7
100
AcDbLine
10
1470.430000000000
20
868.170000000000
30
0.0
11
1469.250000000000
21
867.000000000000
31
0.0
0
LINE
5
57c
100
AcDbEntity
8
0-000
6
CONTINUOUS
62
7
100
AcDbLine
10
1469.250000000000
20
867.000000000000
30
0.0
11
1468.080000000000
21
865.830000000000
31
0.0
0
LINE
5
57d
100
AcDbEntity
8
0-000
6
CONTINUOUS
62
7
100
AcDbLine
10
1470.000000000000
20
866.570000000000
30
0.0
11
1469.570000000000
21
864.970000000000
31
0.0
0
LINE
5
57e
100
AcDbEntity
8
0-000
6
DOT
62
4
100
AcDbLine
10
1467.620000000000
20
874.120000000000
30
0.0
11
1473.560000000000
21
868.170000000000
31
0.0
0
LINE
5
57f
100
AcDbEntity
8
0-000
6
DOT
62
4
100
AcDbLine
10
1467.620000000000
20
873.850000000000
30
0.0
11
1468.740000000000
21
874.970000000000
31
0.0
0
LINE
5
580
100
AcDbEntity
8
0-000
6
DOT
62
4
100
AcDbLine
10
1467.620000000000
20
871.020000000000
30
0.0
11
1471.570000000000
21
874.970000000000
31
0.0
0
LINE
5
581
100
AcDbEntity
8
0-000
6
DOT
62
4
100
AcDbLine
10
1467.620000000000
20
871.290000000000
30
0.0
11
1470.740000000000
21
868.170000000000
31
0.0
0
LINE
5
582
100
AcDbEntity
8
0-000
6
DOT
62
4
100
AcDbLine
10
1467.620000000000
20
868.190000000000
30
0.0
11
1474.400000000000
21
874.970000000000
31
0.0
0
LINE
5
583
100
AcDbEntity
8
0-000
6
DOT
62
4
100
AcDbLine
10
1467.620000000000
20
868.460000000000
30
0.0
11
1467.910000000000
21
868.170000000000
31
0.0
0
LINE
5
584
100
AcDbEntity
8
0-000
6
DOT
62
4
100
AcDbLine
10
1602.200000000000
20
323.770000000000
30
0.0
11
1602.200000000000
21
316.970000000000
31
0.0
0
LINE
5
585
100
AcDbEntity
8
0-000
6
DOT
62
4
100
AcDbLine
10
1621.980000000000
20
316.970000000000
30
0.0
11
1623.800000000000
21
318.790000000000
31
0.0
0
LINE
5
586
100
AcDbEntity
8
0-000
6
DOT
62
4
100
AcDbLine
10
1619.150000000000
20
316.970000000000
30
0.0
11
1623.800000000000
21
321.620000000000
31
0.0
0
LINE
5
587
100
AcDbEntity
8
0-000
6
DOT
62
4
100
AcDbLine
10
1616.320000000000
20
316.970000000000
30
0.0
11
1623.120000000000
21
323.770000000000
31
0.0
0
LINE
5
588
100
AcDbEntity
8
0-000
6
DOT
62
4
100
AcDbLine
10
1613.490000000000
20
316.970000000000
30
0.0
11
1620.290000000000
21
323.770000000000
31
0.0
0
LINE
5
589
100
AcDbEntity
8
0-000
6
DOT
62
4
100
AcDbLine
10
1610.670000000000
20
316.970000000000
30
0.0
11
1617.470000000000
21
323.770000000000
31
0.0
0
LINE
5
58a
100
AcDbEntity
8
0-000
6
DOT
62
4
100
AcDbLine
10
1607.840000000000
20
316.970000000000
30
0.0
11
1614.640000000000
21
323.770000000000
31
0.0
0
LINE
5
58b
100
AcDbEntity
8
0-000
6
DOT
62
4
100
AcDbLine
10
1605.010000000000
20
316.970000000000
30
0.0
11
1611.810000000000
21
323.770000000000
31
0.0
0
LINE
5
58c
100
AcDbEntity
8
0-000
6
DOT
62
4
100
AcDbLine
10
1604.180000000000
20
323.770000000000
30
0.0
11
1610.980000000000
21
316.970000000000
31
0.0
0
LINE
5
58d
100
AcDbEntity
8
0-000
6
DOT
62
4
100
AcDbLine
10
1607.000000000000
20
323.770000000000
30
0.0
11
1613.800000000000
21
316.970000000000
31
0.0
0
LINE
5
58e
100
AcDbEntity
8
0-000
6
DOT
62
4
100
AcDbLine
10
1609.830000000000
20
323.770000000000
30
0.0
11
1616.630000000000
21
316.970000000000
31
0.0
0
LINE
5
58f
100
AcDbEntity
8
0-000
6
DOT
62
4
100
AcDbLine
10
1612.660000000000
20
323.770000000000
30
0.0
11
1619.460000000000
21
316.970000000000
31
0.0
0
LINE
5
590
100
AcDbEntity
8
0-000
6
DOT
62
4
100
AcDbLine
10
1615.490000000000
20
323.770000000000
30
0.0
11
1622.290000000000
21
316.970000000000
31
0.0
0
LINE
5
591
100
AcDbEntity
8
0-000
6
DOT
62
4
100
AcDbLine
10
1618.320000000000
20
323.770000000000
30
0.0
11
1623.800000000000
21
318.280000000000
31
0.0
0
LINE
5
592
100
AcDbEntity
8
0-000
6
DOT
62
4
100
AcDbLine
10
1621.150000000000
20
323.770000000000
30
0.0
11
1623.800000000000
21
321.110000000000
31
0.0
0
LINE
5
593
100
AcDbEntity
8
0-000
6
CONTINUOUS
62
7
100
AcDbLine
10
1605.010000000000
20
316.970000000000
30
0.0
11
1604.580000000000
21
315.370000000000
31
0.0
0
LINE
5
594
100
AcDbEntity
8
0-000
6
CONTINUOUS
62
7
100
AcDbLine
10
1605.010000000000
20
316.970000000000
30
0.0
11
1603.840000000000
21
315.800000000000
31
0.0
0
LINE
5
595
100
AcDbEntity
8
0-000
6
CONTINUOUS
62
7
100
AcDbLine
10
1603.840000000000
20
315.800000000000
30
0.0
11
1602.670000000000
21
314.620000000000
31
0.0
0
LINE
5
596
100
AcDbEntity
8
0-000
6
CONTINUOUS
62
7
100
AcDbLine
10
1604.580000000000
20
315.370000000000
30
0.0
11
1604.150000000000
21
313.770000000000
31
0.0
0
LINE
5
597
100
AcDbEntity
8
0-000
6
DOT
62
4
100
AcDbLine
10
1602.200000000000
20
322.910000000000
30
0.0
11
1608.150000000000
21
316.970000000000
31
0.0
0
LINE
5
598
100
AcDbEntity
8
0-000
6
DOT
62
4
100
AcDbLine
10
1602.200000000000
20
322.640000000000
30
0.0
11
1603.320000000000
21
323.770000000000
31
0.0
0
LINE
5
599
100
AcDbEntity
8
0-000
6
DOT
62
4
100
AcDbLine
10
1602.200000000000
20
319.820000000000
30
0.0
11
1606.150000000000
21
323.770000000000
31
0.0
0
LINE
5
59a
100
AcDbEntity
8
0-000
6
DOT
62
4
100
AcDbLine
10
1602.200000000000
20
320.090000000000
30
0.0
11
1605.320000000000
21
316.970000000000
31
0.0
0
LINE
5
59b
100
AcDbEntity
8
0-000
6
DOT
62
4
100
AcDbLine
10
1602.200000000000
20
316.990000000000
30
0.0
11
1608.980000000000
21
323.770000000000
31
0.0
0
LINE
5
59c
100
AcDbEntity
8
0-000
6
DOT
62
4
100
AcDbLine
10
1602.200000000000
20
317.260000000000
30
0.0
11
1602.490000000000
21
316.970000000000
31
0.0
0
LINE
5
59d
100
AcDbEntity
8
8-0
6
CONTINUOUS
62
3
100
AcDbLine
10
840.060000000000
20
1375.590000000000
30
0.0
11
794.660000000000
21
1375.590000000000
31
0.0
0
LINE
5
59e
100
AcDbEntity
8
8-0
6
CONTINUOUS
62
3
100
AcDbLine
10
792.360000000000
20
1470.990000000000
30
0.0
11
792.360000000000
21
1375.590000000000
31
0.0
0
LINE
5
59f
100
AcDbEntity
8
8-0
6
CONTINUOUS
62
3
100
AcDbLine
10
794.660000000000
20
1375.590000000000
30
0.0
11
794.660000000000
21
1470.990000000000
31
0.0
0
LINE
5
5a0
100
AcDbEntity
8
8-0
6
CONTINUOUS
62
3
100
AcDbLine
10
840.060000000000
20
1473.290000000000
30
0.0
11
794.660000000000
21
1473.290000000000
31
0.0
0
LINE
5
5a1
100
AcDbEntity
8
8-0
6
CONTINUOUS
62
3
100
AcDbLine
10
794.660000000000
20
1470.990000000000
30
0.0
11
840.060000000000
21
1470.990000000000
31
0.0
0
LINE
5
5a2
100
AcDbEntity
8
8-0
6
CONTINUOUS
62
3
100
AcDbLine
10
842.360000000000
20
1453.290000000000
30
0.0
11
842.360000000000
21
1470.990000000000
31
0.0
0
LINE
5
5a3
100
AcDbEntity
8
8-0
6
CONTINUOUS
62
3
100
AcDbLine
10
840.060000000000
20
1470.990000000000
30
0.0
11
840.060000000000
21
1453.290000000000
31
0.0
0
LINE
5
5a4
100
AcDbEntity
8
8-0
6
CONTINUOUS
62
3
100
AcDbLine
10
840.060000000000
20
1453.290000000000
30
0.0
11
842.360000000000
21
1453.290000000000
31
0.0
0
LINE
5
5a5
100
AcDbEntity
8
8-0
6
CONTINUOUS
62
3
100
AcDbLine
10
840.060000000000
20
1393.290000000000
30
0.0
11
840.060000000000
21
1375.590000000000
31
0.0
0
LINE
5
5a6
100
AcDbEntity
8
8-0
6
CONTINUOUS
62
3
100
AcDbLine
10
842.360000000000
20
1375.590000000000
30
0.0
11
842.360000000000
21
1393.290000000000
31
0.0
0
LINE
5
5a7
100
AcDbEntity
8
8-0
6
CONTINUOUS
62
3
100
AcDbLine
10
842.360000000000
20
1393.290000000000
30
0.0
11
840.060000000000
21
1393.290000000000
31
0.0
0
LINE
5
5a8
100
AcDbEntity
8
8-0
6
CONTINUOUS
62
3
100
AcDbLine
10
794.660000000000
20
1373.290000000000
30
0.0
11
840.060000000000
21
1373.290000000000
31
0.0
0
LINE
5
5a9
100
AcDbEntity
8
8-0
6
CONTINUOUS
62
3
100
AcDbLine
10
722.360000000000
20
1498.290000000000
30
0.0
11
722.360000000000
21
1473.290000000000
31
0.0
0
LINE
5
5aa
100
AcDbEntity
8
8-0
6
CONTINUOUS
62
7
100
AcDbLine
10
722.560000000000
20
1457.780000000000
30
0.0
11
723.160000000000
21
1457.780000000000
31
0.0
0
LINE
5
5ab
100
AcDbEntity
8
8-0
6
CONTINUOUS
62
7
100
AcDbLine
10
723.760000000000
20
1457.710000000000
30
0.0
11
723.760000000000
21
1466.290000000000
31
0.0
0
LINE
5
5ac
100
AcDbEntity
8
8-0
6
CONTINUOUS
62
7
100
AcDbLine
10
723.760000000000
20
1466.290000000000
30
0.0
11
724.360000000000
21
1466.290000000000
31
0.0
0
LINE
5
5ad
100
AcDbEntity
8
8-0
6
CONTINUOUS
62
7
100
AcDbLine
10
724.360000000000
20
1466.290000000000
30
0.0
11
724.360000000000
21
1457.780000000000
31
0.0
0
LINE
5
5ae
100
AcDbEntity
8
8-0
6
CONTINUOUS
62
7
100
AcDbLine
10
771.200000000000
20
1500.080000000000
30
0.0
11
771.200000000000
21
1499.480000000000
31
0.0
0
LINE
5
5af
100
AcDbEntity
8
8-0
6
CONTINUOUS
62
7
100
AcDbLine
10
715.360000000000
20
1495.990000000000
30
0.0
11
705.220000000000
21
1495.990000000000
31
0.0
0
LINE
5
5b0
100
AcDbEntity
8
8-0
6
CONTINUOUS
62
7
100
AcDbLine
10
715.360000000000
20
1495.990000000000
30
0.0
11
715.360000000000
21
1495.390000000000
31
0.0
0
LINE
5
5b1
100
AcDbEntity
8
8-0
6
CONTINUOUS
62
7
100
AcDbLine
10
715.360000000000
20
1495.390000000000
30
0.0
11
705.220000000000
21
1495.390000000000
31
0.0
0
LINE
5
5b2
100
AcDbEntity
8
8-0
6
CONTINUOUS
62
7
100
AcDbLine
10
786.460000000000
20
1498.290000000000
30
0.0
11
710.210000000000
21
1498.920000000000
31
0.0
0
LINE
5
5b3
100
AcDbEntity
8
8-0
6
CONTINUOUS
62
7
100
AcDbLine
10
710.210000000000
20
1499.520000000000
30
0.0
11
786.460000000000
21
1498.890000000000
31
0.0
0
LINE
5
5b4
100
AcDbEntity
8
8-0
6
DASHED
62
7
100
AcDbLine
10
787.750000000000
20
1500.680000000000
30
0.0
11
791.910000000000
21
1499.290000000000
31
0.0
0
LINE
5
5b5
100
AcDbEntity
8
8-0
6
DASHED
62
7
100
AcDbLine
10
768.970000000000
20
1500.080000000000
30
0.0
11
710.220000000000
21
1500.080000000000
31
0.0
0
LINE
5
5b6
100
AcDbEntity
8
8-0
6
DASHED
62
7
100
AcDbLine
10
770.770000000000
20
1500.680000000000
30
0.0
11
768.970000000000
21
1500.080000000000
31
0.0
0
LINE
5
5b7
100
AcDbEntity
8
8-0
6
CONTINUOUS
62
7
100
AcDbLine
10
771.200000000000
20
1500.080000000000
30
0.0
11
786.470000000000
21
1500.080000000000
31
0.0
0
LINE
5
5b8
100
AcDbEntity
8
8-0
6
CONTINUOUS
62
7
100
AcDbLine
10
786.460000000000
20
1499.490000000000
30
0.0
11
771.200000000000
21
1499.490000000000
31
0.0
0
LINE
5
5b9
100
AcDbEntity
8
8-0
6
DASHED
62
7
100
AcDbLine
10
770.770000000000
20
1500.680000000000
30
0.0
11
787.750000000000
21
1500.680000000000
31
0.0
0
LINE
5
5ba
100
AcDbEntity
8
8-0
6
CONTINUOUS
62
7
100
AcDbLine
10
721.360000000000
20
1457.660000000000
30
0.0
11
721.360000000000
21
1496.520000000000
31
0.0
0
LINE
5
5bb
100
AcDbEntity
8
8-0
6
CONTINUOUS
62
7
100
AcDbLine
10
721.960000000000
20
1496.520000000000
30
0.0
11
721.960000000000
21
1457.780000000000
31
0.0
0
LINE
5
5bc
100
AcDbEntity
8
8-0
6
CONTINUOUS
62
7
100
AcDbLine
10
721.360000000000
20
1497.120000000000
30
0.0
11
705.220000000000
21
1497.120000000000
31
0.0
0
LINE
5
5bd
100
AcDbEntity
8
8-0
6
CONTINUOUS
62
7
100
AcDbLine
10
705.220000000000
20
1498.920000000000
30
0.0
11
710.210000000000
21
1498.920000000000
31
0.0
0
LINE
5
5be
100
AcDbEntity
8
8-0
6
CONTINUOUS
62
7
100
AcDbLine
10
710.210000000000
20
1499.520000000000
30
0.0
11
705.220000000000
21
1499.520000000000
31
0.0
0
LINE
5
5bf
100
AcDbEntity
8
8-0
6
CONTINUOUS
62
7
100
AcDbLine
10
721.360000000000
20
1496.520000000000
30
0.0
11
705.220000000000
21
1496.520000000000
31
0.0
0
LINE
5
5c0
100
AcDbEntity
8
8-0
6
CONTINUOUS
62
7
100
AcDbLine
10
705.210000000000
20
1501.110000000000
30
0.0
11
710.190000000000
21
1501.100000000000
31
0.0
0
LINE
5
5c1
100
AcDbEntity
8
8-0
6
CONTINUOUS
62
7
100
AcDbLine
10
723.160000000000
20
1457.780000000000
30
0.0
11
723.160000000000
21
1472.290000000000
31
0.0
0
LINE
5
5c2
100
AcDbEntity
8
8-0
6
CONTINUOUS
62
7
100
AcDbLine
10
722.560000000000
20
1472.290000000000
30
0.0
11
722.560000000000
21
1457.780000000000
31
0.0
0
LINE
5
5c3
100
AcDbEntity
8
8-0
6
CONTINUOUS
62
7
100
AcDbLine
10
772.360000000000
20
1470.990000000000
30
0.0
11
772.360000000000
21
1298.510000000000
31
0.0
0
LINE
5
5c4
100
AcDbEntity
8
8-0
6
CONTINUOUS
62
7
100
AcDbLine
10
705.210000000000
20
1500.500000000000
30
0.0
11
710.210000000000
21
1500.500000000000
31
0.0
0
LINE
5
5c5
100
AcDbEntity
8
8-0
6
CONTINUOUS
62
7
100
AcDbLine
10
723.160000000000
20
1472.290000000000
30
0.0
11
770.160000000000
21
1472.290000000000
31
0.0
0
LINE
5
5c6
100
AcDbEntity
8
8-0
6
CONTINUOUS
62
7
100
AcDbLine
10
770.160000000000
20
1472.890000000000
30
0.0
11
723.160000000000
21
1472.890000000000
31
0.0
0
LINE
5
5c7
100
AcDbEntity
8
8-0
6
CONTINUOUS
62
7
100
AcDbLine
10
770.160000000000
20
1423.290000000000
30
0.0
11
770.160000000000
21
1472.290000000000
31
0.0
0
LINE
5
5c8
100
AcDbEntity
8
8-0
6
CONTINUOUS
62
7
100
AcDbLine
10
770.760000000000
20
1472.290000000000
30
0.0
11
770.760000000000
21
1423.290000000000
31
0.0
0
LINE
5
5c9
100
AcDbEntity
8
8-0
6
CONTINUOUS
62
7
100
AcDbLine
10
771.360000000000
20
1423.290000000000
30
0.0
11
771.360000000000
21
1433.290000000000
31
0.0
0
LINE
5
5ca
100
AcDbEntity
8
8-0
6
CONTINUOUS
62
7
100
AcDbLine
10
771.360000000000
20
1433.290000000000
30
0.0
11
771.960000000000
21
1433.290000000000
31
0.0
0
LINE
5
5cb
100
AcDbEntity
8
8-0
6
CONTINUOUS
62
7
100
AcDbLine
10
771.960000000000
20
1433.290000000000
30
0.0
11
771.960000000000
21
1423.290000000000
31
0.0
0
LINE
5
5cc
100
AcDbEntity
8
8-0
6
CONTINUOUS
62
7
100
AcDbLine
10
787.360000000000
20
1470.990000000000
30
0.0
11
772.360000000000
21
1470.990000000000
31
0.0
0
LINE
5
5cd
100
AcDbEntity
8
8-0
6
CONTINUOUS
62
7
100
AcDbLine
10
787.360000000000
20
1470.990000000000
30
0.0
11
787.360000000000
21
1298.510000000000
31
0.0
0
LINE
5
5ce
100
AcDbEntity
8
8-0
6
CONTINUOUS
62
4
100
AcDbLine
10
882.890000000000
20
1473.290000000000
30
0.0
11
907.890000000000
21
1498.290000000000
31
0.0
0
LINE
5
5cf
100
AcDbEntity
8
8-0
6
CONTINUOUS
62
4
100
AcDbLine
10
854.610000000000
20
1473.290000000000
30
0.0
11
879.610000000000
21
1498.290000000000
31
0.0
0
LINE
5
5d0
100
AcDbEntity
8
8-0
6
CONTINUOUS
62
4
100
AcDbLine
10
826.320000000000
20
1473.290000000000
30
0.0
11
851.320000000000
21
1498.290000000000
31
0.0
0
LINE
5
5d1
100
AcDbEntity
8
8-0
6
CONTINUOUS
62
4
100
AcDbLine
10
798.040000000000
20
1473.290000000000
30
0.0
11
823.040000000000
21
1498.290000000000
31
0.0
0
LINE
5
5d2
100
AcDbEntity
8
8-0
6
CONTINUOUS
62
4
100
AcDbLine
10
769.750000000000
20
1473.290000000000
30
0.0
11
794.750000000000
21
1498.290000000000
31
0.0
0
LINE
5
5d3
100
AcDbEntity
8
8-0
6
CONTINUOUS
62
4
100
AcDbLine
10
741.470000000000
20
1473.290000000000
30
0.0
11
766.470000000000
21
1498.290000000000
31
0.0
0
LINE
5
5d4
100
AcDbEntity
8
8-0
6
CONTINUOUS
62
4
100
AcDbLine
10
722.360000000000
20
1482.460000000000
30
0.0
11
738.190000000000
21
1498.290000000000
31
0.0
0
LINE
5
5d5
100
AcDbEntity
8
8-0
6
CONTINUOUS
62
4
100
AcDbLine
10
725.460000000000
20
1498.290000000000
30
0.0
11
750.460000000000
21
1473.290000000000
31
0.0
0
LINE
5
5d6
100
AcDbEntity
8
8-0
6
CONTINUOUS
62
4
100
AcDbLine
10
753.740000000000
20
1498.290000000000
30
0.0
11
778.740000000000
21
1473.290000000000
31
0.0
0
LINE
5
5d7
100
AcDbEntity
8
8-0
6
CONTINUOUS
62
4
100
AcDbLine
10
782.020000000000
20
1498.290000000000
30
0.0
11
807.020000000000
21
1473.290000000000
31
0.0
0
LINE
5
5d8
100
AcDbEntity
8
8-0
6
CONTINUOUS
62
4
100
AcDbLine
10
810.310000000000
20
1498.290000000000
30
0.0
11
835.310000000000
21
1473.290000000000
31
0.0
0
LINE
5
5d9
100
AcDbEntity
8
8-0
6
CONTINUOUS
62
4
100
AcDbLine
10
838.590000000000
20
1498.290000000000
30
0.0
11
863.590000000000
21
1473.290000000000
31
0.0
0
LINE
5
5da
100
AcDbEntity
8
8-0
6
CONTINUOUS
62
4
100
AcDbLine
10
866.880000000000
20
1498.290000000000
30
0.0
11
891.880000000000
21
1473.290000000000
31
0.0
0
LINE
5
5db
100
AcDbEntity
8
8-0
6
CONTINUOUS
62
4
100
AcDbLine
10
895.160000000000
20
1498.290000000000
30
0.0
11
919.640000000000
21
1473.810000000000
31
0.0
0
LINE
5
5dc
100
AcDbEntity
8
8-0
6
CONTINUOUS
62
4
100
AcDbLine
10
772.360000000000
20
1304.770000000000
30
0.0
11
787.360000000000
21
1319.770000000000
31
0.0
0
LINE
5
5dd
100
AcDbEntity
8
8-0
6
CONTINUOUS
62
4
100
AcDbLine
10
772.360000000000
20
1307.600000000000
30
0.0
11
787.360000000000
21
1322.600000000000
31
0.0
0
LINE
5
5de
100
AcDbEntity
8
8-0
6
CONTINUOUS
62
4
100
AcDbLine
10
772.360000000000
20
1333.060000000000
30
0.0
11
787.360000000000
21
1348.060000000000
31
0.0
0
LINE
5
5df
100
AcDbEntity
8
8-0
6
CONTINUOUS
62
4
100
AcDbLine
10
772.360000000000
20
1335.890000000000
30
0.0
11
787.360000000000
21
1350.890000000000
31
0.0
0
LINE
5
5e0
100
AcDbEntity
8
8-0
6
CONTINUOUS
62
4
100
AcDbLine
10
772.360000000000
20
1361.340000000000
30
0.0
11
787.360000000000
21
1376.340000000000
31
0.0
0
LINE
5
5e1
100
AcDbEntity
8
8-0
6
CONTINUOUS
62
4
100
AcDbLine
10
772.360000000000
20
1364.170000000000
30
0.0
11
787.360000000000
21
1379.170000000000
31
0.0
0
LINE
5
5e2
100
AcDbEntity
8
8-0
6
CONTINUOUS
62
4
100
AcDbLine
10
772.360000000000
20
1389.630000000000
30
0.0
11
787.360000000000
21
1404.630000000000
31
0.0
0
LINE
5
5e3
100
AcDbEntity
8
8-0
6
CONTINUOUS
62
4
100
AcDbLine
10
772.360000000000
20
1392.450000000000
30
0.0
11
787.360000000000
21
1407.450000000000
31
0.0
0
LINE
5
5e4
100
AcDbEntity
8
8-0
6
CONTINUOUS
62
4
100
AcDbLine
10
772.360000000000
20
1417.910000000000
30
0.0
11
787.360000000000
21
1432.910000000000
31
0.0
0
LINE
5
5e5
100
AcDbEntity
8
8-0
6
CONTINUOUS
62
4
100
AcDbLine
10
772.360000000000
20
1420.740000000000
30
0.0
11
787.360000000000
21
1435.740000000000
31
0.0
0
LINE
5
5e6
100
AcDbEntity
8
8-0
6
CONTINUOUS
62
4
100
AcDbLine
10
772.360000000000
20
1446.190000000000
30
0.0
11
787.360000000000
21
1461.190000000000
31
0.0
0
LINE
5
5e7
100
AcDbEntity
8
8-0
6
CONTINUOUS
62
4
100
AcDbLine
10
772.360000000000
20
1449.020000000000
30
0.0
11
787.360000000000
21
1464.020000000000
31
0.0
0
LINE
5
5e8
100
AcDbEntity
8
8-0
6
CONTINUOUS
62
3
100
AcDbLine
10
847.360000000000
20
1473.290000000000
30
0.0
11
847.360000000000
21
1373.290000000000
31
0.0
0
LINE
5
5e9
100
AcDbEntity
8
8-0
6
CONTINUOUS
62
7
100
AcDbLine
10
804.090000000000
20
1501.990000000000
30
0.0
11
805.160000000000
21
1505.990000000000
31
0.0
0
LINE
5
5ea
100
AcDbEntity
8
8-0
6
CONTINUOUS
62
7
100
AcDbLine
10
804.090000000000
20
1501.990000000000
30
0.0
11
807.020000000000
21
1504.910000000000
31
0.0
0
LINE
5
5eb
100
AcDbEntity
8
8-0
6
CONTINUOUS
62
3
100
AcDbLine
10
883.210000000000
20
1955.810000000000
30
0.0
11
839.170000000000
21
1944.800000000000
31
0.0
0
LINE
5
5ec
100
AcDbEntity
8
8-0
6
CONTINUOUS
62
3
100
AcDbLine
10
839.170000000000
20
1944.800000000000
30
0.0
11
816.030000000000
21
2037.350000000000
31
0.0
0
LINE
5
5ed
100
AcDbEntity
8
8-0
6
CONTINUOUS
62
3
100
AcDbLine
10
859.520000000000
20
2050.590000000000
30
0.0
11
815.470000000000
21
2039.580000000000
31
0.0
0
LINE
5
5ee
100
AcDbEntity
8
8-0
6
CONTINUOUS
62
3
100
AcDbLine
10
816.030000000000
20
2037.350000000000
30
0.0
11
860.080000000000
21
2048.360000000000
31
0.0
0
LINE
5
5ef
100
AcDbEntity
8
8-0
6
CONTINUOUS
62
3
100
AcDbLine
10
866.600000000000
20
2031.750000000000
30
0.0
11
862.310000000000
21
2048.920000000000
31
0.0
0
LINE
5
5f0
100
AcDbEntity
8
8-0
6
CONTINUOUS
62
3
100
AcDbLine
10
860.080000000000
20
2048.360000000000
30
0.0
11
864.370000000000
21
2031.190000000000
31
0.0
0
LINE
5
5f1
100
AcDbEntity
8
8-0
6
CONTINUOUS
62
3
100
AcDbLine
10
864.370000000000
20
2031.190000000000
30
0.0
11
866.600000000000
21
2031.750000000000
31
0.0
0
LINE
5
5f2
100
AcDbEntity
8
8-0
6
CONTINUOUS
62
3
100
AcDbLine
10
878.920000000000
20
1972.980000000000
30
0.0
11
883.210000000000
21
1955.810000000000
31
0.0
0
LINE
5
5f3
100
AcDbEntity
8
8-0
6
CONTINUOUS
62
3
100
AcDbLine
10
885.450000000000
20
1956.370000000000
30
0.0
11
881.150000000000
21
1973.540000000000
31
0.0
0
LINE
5
5f4
100
AcDbEntity
8
8-0
6
CONTINUOUS
62
3
100
AcDbLine
10
881.150000000000
20
1973.540000000000
30
0.0
11
878.920000000000
21
1972.980000000000
31
0.0
0
LINE
5
5f5
100
AcDbEntity
8
8-0
6
CONTINUOUS
62
3
100
AcDbLine
10
839.730000000000
20
1942.570000000000
30
0.0
11
883.770000000000
21
1953.580000000000
31
0.0
0
LINE
5
5f6
100
AcDbEntity
8
8-0
6
CONTINUOUS
62
3
100
AcDbLine
10
739.270000000000
20
2046.300000000000
30
0.0
11
745.330000000000
21
2022.050000000000
31
0.0
0
LINE
5
5f7
100
AcDbEntity
8
8-0
6
CONTINUOUS
62
7
100
AcDbLine
10
749.280000000000
20
2007.050000000000
30
0.0
11
749.870000000000
21
2007.190000000000
31
0.0
0
LINE
5
5f8
100
AcDbEntity
8
8-0
6
CONTINUOUS
62
7
100
AcDbLine
10
750.470000000000
20
2007.270000000000
30
0.0
11
748.390000000000
21
2015.590000000000
31
0.0
0
LINE
5
5f9
100
AcDbEntity
8
8-0
6
CONTINUOUS
62
7
100
AcDbLine
10
748.390000000000
20
2015.590000000000
30
0.0
11
748.970000000000
21
2015.740000000000
31
0.0
0
LINE
5
5fa
100
AcDbEntity
8
8-0
6
CONTINUOUS
62
7
100
AcDbLine
10
748.970000000000
20
2015.740000000000
30
0.0
11
751.030000000000
21
2007.480000000000
31
0.0
0
LINE
5
5fb
100
AcDbEntity
8
8-0
6
CONTINUOUS
62
7
100
AcDbLine
10
786.220000000000
20
2059.880000000000
30
0.0
11
786.370000000000
21
2059.300000000000
31
0.0
0
LINE
5
5fc
100
AcDbEntity
8
8-0
6
CONTINUOUS
62
7
100
AcDbLine
10
801.460000000000
20
2061.850000000000
30
0.0
11
727.330000000000
21
2043.970000000000
31
0.0
0
LINE
5
5fd
100
AcDbEntity
8
8-0
6
CONTINUOUS
62
7
100
AcDbLine
10
727.190000000000
20
2044.550000000000
30
0.0
11
801.310000000000
21
2062.430000000000
31
0.0
0
LINE
5
5fe
100
AcDbEntity
8
8-0
6
DASHED
62
7
100
AcDbLine
10
802.130000000000
20
2064.480000000000
30
0.0
11
806.500000000000
21
2064.140000000000
31
0.0
0
LINE
5
5ff
100
AcDbEntity
8
8-0
6
DASHED
62
7
100
AcDbLine
10
785.650000000000
20
2060.360000000000
30
0.0
11
784.050000000000
21
2059.340000000000
31
0.0
0
LINE
5
600
100
AcDbEntity
8
8-0
6
CONTINUOUS
62
7
100
AcDbLine
10
786.220000000000
20
2059.880000000000
30
0.0
11
801.030000000000
21
2063.590000000000
31
0.0
0
LINE
5
601
100
AcDbEntity
8
8-0
6
CONTINUOUS
62
7
100
AcDbLine
10
801.170000000000
20
2063.010000000000
30
0.0
11
786.360000000000
21
2059.310000000000
31
0.0
0
LINE
5
602
100
AcDbEntity
8
8-0
6
DASHED
62
7
100
AcDbLine
10
785.650000000000
20
2060.360000000000
30
0.0
11
802.130000000000
21
2064.480000000000
31
0.0
0
LINE
5
603
100
AcDbEntity
8
8-0
6
CONTINUOUS
62
7
100
AcDbLine
10
748.150000000000
20
2006.640000000000
30
0.0
11
738.730000000000
21
2044.340000000000
31
0.0
0
LINE
5
604
100
AcDbEntity
8
8-0
6
CONTINUOUS
62
7
100
AcDbLine
10
739.310000000000
20
2044.490000000000
30
0.0
11
748.710000000000
21
2006.900000000000
31
0.0
0
LINE
5
605
100
AcDbEntity
8
8-0
6
CONTINUOUS
62
7
100
AcDbLine
10
738.580000000000
20
2044.920000000000
30
0.0
11
722.920000000000
21
2041.010000000000
31
0.0
0
LINE
5
606
100
AcDbEntity
8
8-0
6
CONTINUOUS
62
7
100
AcDbLine
10
722.480000000000
20
2042.750000000000
30
0.0
11
727.330000000000
21
2043.970000000000
31
0.0
0
LINE
5
607
100
AcDbEntity
8
8-0
6
CONTINUOUS
62
7
100
AcDbLine
10
727.190000000000
20
2044.550000000000
30
0.0
11
722.340000000000
21
2043.340000000000
31
0.0
0
LINE
5
608
100
AcDbEntity
8
8-0
6
CONTINUOUS
62
7
100
AcDbLine
10
738.730000000000
20
2044.340000000000
30
0.0
11
723.060000000000
21
2040.430000000000
31
0.0
0
LINE
5
609
100
AcDbEntity
8
8-0
6
CONTINUOUS
62
7
100
AcDbLine
10
749.870000000000
20
2007.190000000000
30
0.0
11
746.350000000000
21
2021.270000000000
31
0.0
0
LINE
5
60a
100
AcDbEntity
8
8-0
6
CONTINUOUS
62
7
100
AcDbLine
10
745.770000000000
20
2021.120000000000
30
0.0
11
749.280000000000
21
2007.050000000000
31
0.0
0
LINE
5
60b
100
AcDbEntity
8
8-0
6
CONTINUOUS
62
7
100
AcDbLine
10
746.350000000000
20
2021.270000000000
30
0.0
11
791.950000000000
21
2032.670000000000
31
0.0
0
LINE
5
60c
100
AcDbEntity
8
8-0
6
CONTINUOUS
62
7
100
AcDbLine
10
791.800000000000
20
2033.250000000000
30
0.0
11
746.200000000000
21
2021.850000000000
31
0.0
0
LINE
5
60d
100
AcDbEntity
8
8-0
6
CONTINUOUS
62
7
100
AcDbLine
10
803.830000000000
20
1985.130000000000
30
0.0
11
791.950000000000
21
2032.670000000000
31
0.0
0
LINE
5
60e
100
AcDbEntity
8
8-0
6
CONTINUOUS
62
7
100
AcDbLine
10
792.530000000000
20
2032.810000000000
30
0.0
11
804.410000000000
21
1985.280000000000
31
0.0
0
LINE
5
60f
100
AcDbEntity
8
8-0
6
CONTINUOUS
62
7
100
AcDbLine
10
805.000000000000
20
1985.420000000000
30
0.0
11
802.570000000000
21
1995.130000000000
31
0.0
0
LINE
5
610
100
AcDbEntity
8
8-0
6
CONTINUOUS
62
7
100
AcDbLine
10
802.570000000000
20
1995.130000000000
30
0.0
11
803.150000000000
21
1995.270000000000
31
0.0
0
LINE
5
611
100
AcDbEntity
8
8-0
6
CONTINUOUS
62
7
100
AcDbLine
10
803.150000000000
20
1995.270000000000
30
0.0
11
805.580000000000
21
1985.570000000000
31
0.0
0
LINE
5
612
100
AcDbEntity
8
8-0
6
CONTINUOUS
62
4
100
AcDbLine
10
901.070000000000
20
2060.980000000000
30
0.0
11
919.260000000000
21
2091.300000000000
31
0.0
0
LINE
5
613
100
AcDbEntity
8
8-0
6
CONTINUOUS
62
4
100
AcDbLine
10
873.630000000000
20
2054.120000000000
30
0.0
11
891.820000000000
21
2084.440000000000
31
0.0
0
LINE
5
614
100
AcDbEntity
8
8-0
6
CONTINUOUS
62
4
100
AcDbLine
10
846.190000000000
20
2047.260000000000
30
0.0
11
864.380000000000
21
2077.580000000000
31
0.0
0
LINE
5
615
100
AcDbEntity
8
8-0
6
CONTINUOUS
62
4
100
AcDbLine
10
818.750000000000
20
2040.400000000000
30
0.0
11
836.940000000000
21
2070.720000000000
31
0.0
0
LINE
5
616
100
AcDbEntity
8
8-0
6
CONTINUOUS
62
4
100
AcDbLine
10
791.310000000000
20
2033.540000000000
30
0.0
11
809.500000000000
21
2063.860000000000
31
0.0
0
LINE
5
617
100
AcDbEntity
8
8-0
6
CONTINUOUS
62
4
100
AcDbLine
10
763.870000000000
20
2026.680000000000
30
0.0
11
782.060000000000
21
2057.000000000000
31
0.0
0
LINE
5
618
100
AcDbEntity
8
8-0
6
CONTINUOUS
62
4
100
AcDbLine
10
743.110000000000
20
2030.950000000000
30
0.0
11
754.620000000000
21
2050.140000000000
31
0.0
0
LINE
5
619
100
AcDbEntity
8
8-0
6
CONTINUOUS
62
4
100
AcDbLine
10
742.270000000000
20
2047.050000000000
30
0.0
11
772.590000000000
21
2028.860000000000
31
0.0
0
LINE
5
61a
100
AcDbEntity
8
8-0
6
CONTINUOUS
62
4
100
AcDbLine
10
769.710000000000
20
2053.910000000000
30
0.0
11
800.030000000000
21
2035.720000000000
31
0.0
0
LINE
5
61b
100
AcDbEntity
8
8-0
6
CONTINUOUS
62
4
100
AcDbLine
10
797.150000000000
20
2060.770000000000
30
0.0
11
827.470000000000
21
2042.580000000000
31
0.0
0
LINE
5
61c
100
AcDbEntity
8
8-0
6
CONTINUOUS
62
4
100
AcDbLine
10
824.590000000000
20
2067.630000000000
30
0.0
11
854.910000000000
21
2049.440000000000
31
0.0
0
LINE
5
61d
100
AcDbEntity
8
8-0
6
CONTINUOUS
62
4
100
AcDbLine
10
852.030000000000
20
2074.490000000000
30
0.0
11
882.350000000000
21
2056.300000000000
31
0.0
0
LINE
5
61e
100
AcDbEntity
8
8-0
6
CONTINUOUS
62
4
100
AcDbLine
10
879.470000000000
20
2081.350000000000
30
0.0
11
909.790000000000
21
2063.160000000000
31
0.0
0
LINE
5
61f
100
AcDbEntity
8
8-0
6
CONTINUOUS
62
3
100
AcDbLine
10
849.620000000000
20
1893.500000000000
30
0.0
11
830.220000000000
21
1888.650000000000
31
0.0
0
LINE
5
620
100
AcDbEntity
8
8-0
6
CONTINUOUS
62
7
100
AcDbLine
10
845.380000000000
20
1914.600000000000
30
0.0
11
846.960000000000
21
1908.300000000000
31
0.0
0
LINE
5
621
100
AcDbEntity
8
8-0
6
CONTINUOUS
62
3
100
AcDbLine
10
813.800000000000
20
2036.790000000000
30
0.0
11
836.940000000000
21
1944.240000000000
31
0.0
0
LINE
5
622
100
AcDbEntity
8
8-0
6
CONTINUOUS
62
3
100
AcDbLine
10
813.800000000000
20
2036.790000000000
30
0.0
11
794.400000000000
21
2031.940000000000
31
0.0
0
LINE
5
623
100
AcDbEntity
8
8-0
6
CONTINUOUS
62
4
100
AcDbLine
10
829.790000000000
20
1890.360000000000
30
0.0
11
845.960000000000
21
1908.150000000000
31
0.0
0
LINE
5
624
100
AcDbEntity
8
8-0
6
CONTINUOUS
62
4
100
AcDbLine
10
826.880000000000
20
1902.020000000000
30
0.0
11
843.050000000000
21
1919.810000000000
31
0.0
0
LINE
5
625
100
AcDbEntity
8
8-0
6
CONTINUOUS
62
4
100
AcDbLine
10
823.960000000000
20
1913.680000000000
30
0.0
11
840.130000000000
21
1931.470000000000
31
0.0
0
LINE
5
626
100
AcDbEntity
8
8-0
6
CONTINUOUS
62
4
100
AcDbLine
10
821.050000000000
20
1925.340000000000
30
0.0
11
837.220000000000
21
1943.130000000000
31
0.0
0
LINE
5
627
100
AcDbEntity
8
8-0
6
CONTINUOUS
62
4
100
AcDbLine
10
818.130000000000
20
1937.000000000000
30
0.0
11
834.300000000000
21
1954.790000000000
31
0.0
0
LINE
5
628
100
AcDbEntity
8
8-0
6
CONTINUOUS
62
4
100
AcDbLine
10
815.220000000000
20
1948.660000000000
30
0.0
11
831.390000000000
21
1966.450000000000
31
0.0
0
LINE
5
629
100
AcDbEntity
8
8-0
6
CONTINUOUS
62
4
100
AcDbLine
10
812.300000000000
20
1960.320000000000
30
0.0
11
828.470000000000
21
1978.110000000000
31
0.0
0
LINE
5
62a
100
AcDbEntity
8
8-0
6
CONTINUOUS
62
4
100
AcDbLine
10
809.390000000000
20
1971.980000000000
30
0.0
11
825.560000000000
21
1989.770000000000
31
0.0
0
LINE
5
62b
100
AcDbEntity
8
8-0
6
CONTINUOUS
62
4
100
AcDbLine
10
806.470000000000
20
1983.640000000000
30
0.0
11
822.640000000000
21
2001.430000000000
31
0.0
0
LINE
5
62c
100
AcDbEntity
8
8-0
6
CONTINUOUS
62
4
100
AcDbLine
10
803.560000000000
20
1995.300000000000
30
0.0
11
819.730000000000
21
2013.090000000000
31
0.0
0
LINE
5
62d
100
AcDbEntity
8
8-0
6
CONTINUOUS
62
4
100
AcDbLine
10
800.640000000000
20
2006.960000000000
30
0.0
11
816.810000000000
21
2024.750000000000
31
0.0
0
LINE
5
62e
100
AcDbEntity
8
8-0
6
CONTINUOUS
62
4
100
AcDbLine
10
797.730000000000
20
2018.620000000000
30
0.0
11
813.900000000000
21
2036.410000000000
31
0.0
0
LINE
5
62f
100
AcDbEntity
8
8-0
6
CONTINUOUS
62
4
100
AcDbLine
10
794.810000000000
20
2030.280000000000
30
0.0
11
796.890000000000
21
2032.570000000000
31
0.0
0
LINE
5
630
100
AcDbEntity
8
8-0
6
CONTINUOUS
62
3
100
AcDbLine
10
794.400000000000
20
2031.940000000000
30
0.0
11
830.220000000000
21
1888.650000000000
31
0.0
0
LINE
5
631
100
AcDbEntity
8
8-0
6
CONTINUOUS
62
3
100
AcDbLine
10
836.940000000000
20
1944.240000000000
30
0.0
11
849.620000000000
21
1893.500000000000
31
0.0
0
LINE
5
632
100
AcDbEntity
8
8-0
6
CONTINUOUS
62
4
100
AcDbLine
10
845.140000000000
20
1892.380000000000
30
0.0
11
848.880000000000
21
1896.490000000000
31
0.0
0
LINE
5
633
100
AcDbEntity
8
8-0
6
CONTINUOUS
62
7
100
AcDbLine
10
888.190000000000
20
2057.760000000000
30
0.0
11
889.270000000000
21
2053.760000000000
31
0.0
0
LINE
5
634
100
AcDbEntity
8
8-0
6
CONTINUOUS
62
7
100
AcDbLine
10
888.190000000000
20
2057.760000000000
30
0.0
11
891.120000000000
21
2054.830000000000
31
0.0
0
LINE
5
635
100
AcDbEntity
8
8-0
6
CONTINUOUS
62
7
100
AcDbLine
10
888.190000000000
20
2057.760000000000
30
0.0
11
899.740000000000
21
2037.760000000000
31
0.0
0
LINE
5
636
100
AcDbEntity
8
8-0
6
CONTINUOUS
62
7
100
AcDbLine
10
743.810000000000
20
2024.000000000000
30
0.0
11
742.740000000000
21
2020.000000000000
31
0.0
0
LINE
5
637
100
AcDbEntity
8
8-0
6
CONTINUOUS
62
7
100
AcDbLine
10
743.810000000000
20
2024.000000000000
30
0.0
11
740.890000000000
21
2021.070000000000
31
0.0
0
LINE
5
638
100
AcDbEntity
8
8-0
6
CONTINUOUS
62
7
100
AcDbLine
10
816.830000000000
20
1942.220000000000
30
0.0
11
815.760000000000
21
1938.220000000000
31
0.0
0
LINE
5
639
100
AcDbEntity
8
8-0
6
CONTINUOUS
62
7
100
AcDbLine
10
816.830000000000
20
1942.220000000000
30
0.0
11
813.900000000000
21
1939.290000000000
31
0.0
0
LINE
5
63a
100
AcDbEntity
8
8-0
6
CONTINUOUS
62
7
100
AcDbLine
10
900.030000000000
20
1483.080000000000
30
0.0
11
901.100000000000
21
1479.080000000000
31
0.0
0
LINE
5
63b
100
AcDbEntity
8
8-0
6
CONTINUOUS
62
7
100
AcDbLine
10
900.030000000000
20
1483.080000000000
30
0.0
11
902.950000000000
21
1480.160000000000
31
0.0
0
LINE
5
63c
100
AcDbEntity
8
8-0
6
CONTINUOUS
62
7
100
AcDbLine
10
900.030000000000
20
1483.080000000000
30
0.0
11
911.570000000000
21
1463.080000000000
31
0.0
0
LINE
5
63d
100
AcDbEntity
8
8-0
6
CONTINUOUS
62
7
100
AcDbLine
10
721.360000000000
20
1474.780000000000
30
0.0
11
720.280000000000
21
1470.780000000000
31
0.0
0
LINE
5
63e
100
AcDbEntity
8
8-0
6
CONTINUOUS
62
7
100
AcDbLine
10
721.360000000000
20
1474.780000000000
30
0.0
11
718.430000000000
21
1471.850000000000
31
0.0
0
LINE
5
63f
100
AcDbEntity
8
8-0
6
CONTINUOUS
62
7
100
AcDbLine
10
772.360000000000
20
1392.450000000000
30
0.0
11
771.290000000000
21
1388.450000000000
31
0.0
0
LINE
5
640
100
AcDbEntity
8
8-0
6
CONTINUOUS
62
7
100
AcDbLine
10
772.360000000000
20
1392.450000000000
30
0.0
11
769.430000000000
21
1389.530000000000
31
0.0
0
LINE
5
641
100
AcDbEntity
8
8-0
6
CONTINUOUS
62
7
100
AcDbLine
10
866.650000000000
20
2081.620000000000
30
0.0
11
866.920000000000
21
2085.750000000000
31
0.0
0
LINE
5
642
100
AcDbEntity
8
8-0
6
CONTINUOUS
62
7
100
AcDbLine
10
866.650000000000
20
2081.620000000000
30
0.0
11
868.950000000000
21
2085.060000000000
31
0.0
0
LINE
5
643
100
AcDbEntity
8
8-0
6
CONTINUOUS
62
7
100
AcDbLine
10
772.770000000000
20
2058.380000000000
30
0.0
11
773.030000000000
21
2062.510000000000
31
0.0
0
LINE
5
644
100
AcDbEntity
8
8-0
6
CONTINUOUS
62
7
100
AcDbLine
10
772.770000000000
20
2058.380000000000
30
0.0
11
775.060000000000
21
2061.820000000000
31
0.0
0
LINE
5
645
100
AcDbEntity
8
8-0
6
CONTINUOUS
62
7
100
AcDbLine
10
862.730000000000
20
1499.320000000000
30
0.0
11
863.800000000000
21
1495.320000000000
31
0.0
0
LINE
5
646
100
AcDbEntity
8
8-0
6
CONTINUOUS
62
7
100
AcDbLine
10
862.730000000000
20
1499.320000000000
30
0.0
11
865.660000000000
21
1496.390000000000
31
0.0
0
LINE
5
647
100
AcDbEntity
8
8-0
6
CONTINUOUS
62
7
100
AcDbLine
10
862.730000000000
20
1499.320000000000
30
0.0
11
894.960000000000
21
1443.510000000000
31
0.0
0
LINE
5
648
100
AcDbEntity
8
8-0
6
CONTINUOUS
62
3
100
AcDbLine
10
580.390000000000
20
1242.900000000000
30
0.0
11
580.390000000000
21
2303.650000000000
31
0.0
0
LINE
5
649
100
AcDbEntity
8
8-0
6
CONTINUOUS
62
3
100
AcDbLine
10
1106.020000000000
20
1242.900000000000
30
0.0
11
1106.020000000000
21
2303.650000000000
31
0.0
0
LINE
5
64a
100
AcDbEntity
8
8-0
6
CONTINUOUS
62
3
100
AcDbLine
10
54.760000000000
20
1773.270000000000
30
0.0
11
1631.650000000000
21
1773.270000000000
31
0.0
0
LINE
5
64b
100
AcDbEntity
8
8-0
6
CONTINUOUS
62
3
100
AcDbLine
10
54.760000000000
20
2263.650000000000
30
0.0
11
1631.650000000000
21
2263.650000000000
31
0.0
0
LINE
5
64c
100
AcDbEntity
8
8-0
6
CONTINUOUS
62
3
100
AcDbLine
10
54.760000000000
20
1733.270000000000
30
0.0
11
1631.650000000000
21
1733.270000000000
31
0.0
0
LINE
5
64d
100
AcDbEntity
8
8-0
6
CONTINUOUS
62
2
100
AcDbLine
10
54.760000000000
20
1183.640000000000
30
0.0
11
54.760000000000
21
2303.650000000000
31
0.0
0
LINE
5
64e
100
AcDbEntity
8
8-0
6
CONTINUOUS
62
2
100
AcDbLine
10
1284.760000000000
20
1242.900000000000
30
0.0
11
1284.760000000000
21
1183.640000000000
31
0.0
0
LINE
5
64f
100
AcDbEntity
8
8-0
6
CONTINUOUS
62
2
100
AcDbLine
10
1214.540000000000
20
1242.900000000000
30
0.0
11
1214.540000000000
21
1183.640000000000
31
0.0
0
LINE
5
650
100
AcDbEntity
8
8-0
6
CONTINUOUS
62
2
100
AcDbLine
10
1537.120000000000
20
1183.640000000000
30
0.0
11
1537.120000000000
21
1242.900000000000
31
0.0
0
LINE
5
651
100
AcDbEntity
8
8-0
6
CONTINUOUS
62
2
100
AcDbLine
10
806.890000000000
20
1242.900000000000
30
0.0
11
806.890000000000
21
1183.640000000000
31
0.0
0
LINE
5
652
100
AcDbEntity
8
8-0
6
CONTINUOUS
62
2
100
AcDbLine
10
1009.740000000000
20
1242.900000000000
30
0.0
11
1009.740000000000
21
1183.640000000000
31
0.0
0
LINE
5
653
100
AcDbEntity
8
8-0
6
CONTINUOUS
62
2
100
AcDbLine
10
806.890000000000
20
1223.150000000000
30
0.0
11
369.760000000000
21
1223.150000000000
31
0.0
0
LINE
5
654
100
AcDbEntity
8
8-0
6
CONTINUOUS
62
2
100
AcDbLine
10
806.890000000000
20
1203.390000000000
30
0.0
11
369.760000000000
21
1203.390000000000
31
0.0
0
LINE
5
655
100
AcDbEntity
8
8-0
6
CONTINUOUS
62
2
100
AcDbLine
10
806.890000000000
20
1193.520000000000
30
0.0
11
369.760000000000
21
1193.520000000000
31
0.0
0
LINE
5
656
100
AcDbEntity
8
8-0
6
CONTINUOUS
62
2
100
AcDbLine
10
806.890000000000
20
1233.020000000000
30
0.0
11
369.760000000000
21
1233.020000000000
31
0.0
0
LINE
5
657
100
AcDbEntity
8
8-0
6
CONTINUOUS
62
2
100
AcDbLine
10
422.420000000000
20
1242.900000000000
30
0.0
11
422.420000000000
21
1183.640000000000
31
0.0
0
LINE
5
658
100
AcDbEntity
8
8-0
6
CONTINUOUS
62
2
100
AcDbLine
10
369.760000000000
20
1242.900000000000
30
0.0
11
369.760000000000
21
1183.640000000000
31
0.0
0
LINE
5
659
100
AcDbEntity
8
8-0
6
CONTINUOUS
62
2
100
AcDbLine
10
1631.650000000000
20
1183.640000000000
30
0.0
11
1631.650000000000
21
2303.650000000000
31
0.0
0
LINE
5
65a
100
AcDbEntity
8
8-0
6
CONTINUOUS
62
2
100
AcDbLine
10
54.760000000000
20
2303.650000000000
30
0.0
11
1631.650000000000
21
2303.650000000000
31
0.0
0
LINE
5
65b
100
AcDbEntity
8
8-0
6
CONTINUOUS
62
2
100
AcDbLine
10
54.760000000000
20
1183.640000000000
30
0.0
11
1631.650000000000
21
1183.640000000000
31
0.0
0
LINE
5
65c
100
AcDbEntity
8
8-0
6
CONTINUOUS
62
2
100
AcDbLine
10
1631.650000000000
20
1242.900000000000
30
0.0
11
54.760000000000
21
1242.900000000000
31
0.0
0
LINE
5
65d
100
AcDbEntity
8
8-0
6
CONTINUOUS
62
2
100
AcDbLine
10
369.760000000000
20
1213.270000000000
30
0.0
11
1631.650000000000
21
1213.270000000000
31
0.0
0
LINE
5
65e
100
AcDbEntity
8
8-0
6
CONTINUOUS
62
7
100
AcDbLine
10
721.360000000000
20
1474.780000000000
30
0.0
11
707.220000000000
21
1450.300000000000
31
0.0
0
LINE
5
65f
100
AcDbEntity
8
8-0
6
CONTINUOUS
62
7
100
AcDbLine
10
772.360000000000
20
1392.450000000000
30
0.0
11
756.650000000000
21
1365.250000000000
31
0.0
0
LINE
5
660
100
AcDbEntity
8
8-0
6
DASHED
62
7
100
AcDbLine
10
784.050000000000
20
2059.340000000000
30
0.0
11
727.060000000000
21
2045.090000000000
31
0.0
0
LINE
5
661
100
AcDbEntity
8
8-0
6
CONTINUOUS
62
7
100
AcDbLine
10
907.870000000000
20
1923.530000000000
30
0.0
11
908.950000000000
21
1919.530000000000
31
0.0
0
LINE
5
662
100
AcDbEntity
8
8-0
6
CONTINUOUS
62
7
100
AcDbLine
10
907.870000000000
20
1923.530000000000
30
0.0
11
910.800000000000
21
1920.600000000000
31
0.0
0
LINE
5
663
100
AcDbEntity
8
8-0
6
CONTINUOUS
62
7
100
AcDbLine
10
732.280000000000
20
2037.040000000000
30
0.0
11
728.250000000000
21
2038.460000000000
31
0.0
0
LINE
5
664
100
AcDbEntity
8
8-0
6
CONTINUOUS
62
7
100
AcDbLine
10
732.120000000000
20
2036.560000000000
30
0.0
11
728.080000000000
21
2037.990000000000
31
0.0
0
LINE
5
665
100
AcDbEntity
8
8-0
6
CONTINUOUS
62
7
100
AcDbLine
10
728.250000000000
20
2038.460000000000
30
0.0
11
728.080000000000
21
2037.990000000000
31
0.0
0
LINE
5
666
100
AcDbEntity
8
8-0
6
CONTINUOUS
62
7
100
AcDbLine
10
918.770000000000
20
2094.680000000000
30
0.0
11
902.460000000000
21
2098.620000000000
31
0.0
0
LINE
5
667
100
AcDbEntity
8
8-0
6
CONTINUOUS
62
7
100
AcDbLine
10
918.630000000000
20
2094.200000000000
30
0.0
11
902.340000000000
21
2098.130000000000
31
0.0
0
LINE
5
668
100
AcDbEntity
8
8-0
6
CONTINUOUS
62
7
100
AcDbLine
10
902.700000000000
20
2100.070000000000
30
0.0
11
923.680000000000
21
2099.750000000000
31
0.0
0
LINE
5
669
100
AcDbEntity
8
8-0
6
CONTINUOUS
62
7
100
AcDbLine
10
902.690000000000
20
2099.570000000000
30
0.0
11
923.670000000000
21
2099.250000000000
31
0.0
0
LINE
5
66a
100
AcDbEntity
8
8-0
6
CONTINUOUS
62
7
100
AcDbLine
10
948.860000000000
20
2100.320000000000
30
0.0
11
926.200000000000
21
2099.230000000000
31
0.0
0
LINE
5
66b
100
AcDbEntity
8
8-0
6
CONTINUOUS
62
7
100
AcDbLine
10
948.840000000000
20
2100.820000000000
30
0.0
11
926.190000000000
21
2099.730000000000
31
0.0
0
LINE
5
66c
100
AcDbEntity
8
8-0
6
CONTINUOUS
62
7
100
AcDbLine
10
944.520000000000
20
2101.360000000000
30
0.0
11
948.770000000000
21
2101.820000000000
31
0.0
0
LINE
5
66d
100
AcDbEntity
8
8-0
6
CONTINUOUS
62
7
100
AcDbLine
10
944.570000000000
20
2100.870000000000
30
0.0
11
944.520000000000
21
2101.360000000000
31
0.0
0
LINE
5
66e
100
AcDbEntity
8
8-0
6
CONTINUOUS
62
7
100
AcDbLine
10
944.570000000000
20
2100.870000000000
30
0.0
11
948.830000000000
21
2101.320000000000
31
0.0
0
LINE
5
66f
100
AcDbEntity
8
8-0
6
CONTINUOUS
62
7
100
AcDbLine
10
914.000000000000
20
2093.780000000000
30
0.0
11
902.090000000000
21
2097.160000000000
31
0.0
0
LINE
5
670
100
AcDbEntity
8
8-0
6
CONTINUOUS
62
7
100
AcDbLine
10
914.140000000000
20
2094.260000000000
30
0.0
11
902.220000000000
21
2097.640000000000
31
0.0
0
LINE
5
671
100
AcDbEntity
8
8-0
6
CONTINUOUS
62
7
100
AcDbLine
10
913.870000000000
20
2093.300000000000
30
0.0
11
909.910000000000
21
2094.940000000000
31
0.0
0
LINE
5
672
100
AcDbEntity
8
8-0
6
CONTINUOUS
62
7
100
AcDbLine
10
913.670000000000
20
2092.830000000000
30
0.0
11
909.720000000000
21
2094.480000000000
31
0.0
0
LINE
5
673
100
AcDbEntity
8
8-0
6
CONTINUOUS
62
7
100
AcDbLine
10
909.910000000000
20
2094.940000000000
30
0.0
11
909.720000000000
21
2094.480000000000
31
0.0
0
LINE
5
674
100
AcDbEntity
8
8-0
6
CONTINUOUS
62
7
100
AcDbLine
10
732.500000000000
20
2038.010000000000
30
0.0
11
720.420000000000
21
2040.750000000000
31
0.0
0
LINE
5
675
100
AcDbEntity
8
8-0
6
CONTINUOUS
62
7
100
AcDbLine
10
732.390000000000
20
2037.520000000000
30
0.0
11
720.300000000000
21
2040.260000000000
31
0.0
0
LINE
5
676
100
AcDbEntity
8
8-0
6
DASHED
62
7
100
AcDbLine
10
1002.560000000000
20
2113.150000000000
30
0.0
11
806.500000000000
21
2064.140000000000
31
0.0
0
LINE
5
677
100
AcDbEntity
8
8-0
6
CONTINUOUS
62
3
100
AcDbLine
10
1002.800000000000
20
2112.180000000000
30
0.0
11
739.270000000000
21
2046.300000000000
31
0.0
0
LINE
5
678
100
AcDbEntity
8
8-0
6
CONTINUOUS
62
3
100
AcDbLine
10
1008.870000000000
20
2087.930000000000
30
0.0
11
745.330000000000
21
2022.050000000000
31
0.0
0
LINE
5
679
100
AcDbEntity
8
8-0
6
CONTINUOUS
62
7
100
AcDbLine
10
1002.630000000000
20
1953.920000000000
30
0.0
11
845.380000000000
21
1914.600000000000
31
0.0
0
LINE
5
67a
100
AcDbEntity
8
8-0
6
CONTINUOUS
62
7
100
AcDbLine
10
1002.320000000000
20
1947.140000000000
30
0.0
11
846.960000000000
21
1908.300000000000
31
0.0
0
LINE
5
67b
100
AcDbEntity
8
8-0
6
CONTINUOUS
62
4
100
AcDbLine
10
928.510000000000
20
2067.840000000000
30
0.0
11
946.700000000000
21
2098.160000000000
31
0.0
0
LINE
5
67c
100
AcDbEntity
8
8-0
6
CONTINUOUS
62
4
100
AcDbLine
10
906.910000000000
20
2088.210000000000
30
0.0
11
937.230000000000
21
2070.020000000000
31
0.0
0
LINE
5
67d
100
AcDbEntity
8
8-0
6
CONTINUOUS
62
4
100
AcDbLine
10
955.950000000000
20
2074.700000000000
30
0.0
11
974.140000000000
21
2105.020000000000
31
0.0
0
LINE
5
67e
100
AcDbEntity
8
8-0
6
CONTINUOUS
62
4
100
AcDbLine
10
934.350000000000
20
2095.070000000000
30
0.0
11
964.670000000000
21
2076.880000000000
31
0.0
0
LINE
5
67f
100
AcDbEntity
8
8-0
6
CONTINUOUS
62
4
100
AcDbLine
10
983.390000000000
20
2081.560000000000
30
0.0
11
1001.580000000000
21
2111.880000000000
31
0.0
0
LINE
5
680
100
AcDbEntity
8
8-0
6
CONTINUOUS
62
4
100
AcDbLine
10
961.790000000000
20
2101.930000000000
30
0.0
11
992.110000000000
21
2083.740000000000
31
0.0
0
LINE
5
681
100
AcDbEntity
8
8-0
6
CONTINUOUS
62
4
100
AcDbLine
10
989.230000000000
20
2108.790000000000
30
0.0
11
1006.200000000000
21
2098.610000000000
31
0.0
0
LINE
5
682
100
AcDbEntity
8
8-0
6
CONTINUOUS
62
7
100
AcDbLine
10
902.300000000000
20
2101.030000000000
30
0.0
11
1000.890000000000
21
2119.850000000000
31
0.0
0
LINE
5
683
100
AcDbEntity
8
8-0
6
CONTINUOUS
62
7
100
AcDbLine
10
902.390000000000
20
2100.540000000000
30
0.0
11
1001.010000000000
21
2119.370000000000
31
0.0
0
LINE
5
684
100
AcDbEntity
8
8-0
6
CONTINUOUS
62
7
100
AcDbLine
10
804.090000000000
20
1501.990000000000
30
0.0
11
819.850000000000
21
1529.270000000000
31
0.0
0
LINE
5
685
100
AcDbEntity
8
8-0
6
CONTINUOUS
62
7
100
AcDbLine
10
919.640000000000
20
1501.990000000000
30
0.0
11
771.920000000000
21
1501.990000000000
31
0.0
0
LINE
5
686
100
AcDbEntity
8
8-0
6
CONTINUOUS
62
7
100
AcDbLine
10
919.640000000000
20
1501.390000000000
30
0.0
11
771.920000000000
21
1501.390000000000
31
0.0
0
LINE
5
687
100
AcDbEntity
8
8-0
6
CONTINUOUS
62
7
100
AcDbLine
10
940.470000000000
20
1504.680000000000
30
0.0
11
952.980000000000
21
1503.090000000000
31
0.0
0
LINE
5
688
100
AcDbEntity
8
8-0
6
CONTINUOUS
62
7
100
AcDbLine
10
940.370000000000
20
1504.190000000000
30
0.0
11
952.850000000000
21
1502.610000000000
31
0.0
0
LINE
5
689
100
AcDbEntity
8
8-0
6
CONTINUOUS
62
7
100
AcDbLine
10
953.640000000000
20
1511.150000000000
30
0.0
11
953.640000000000
21
1518.650000000000
31
0.0
0
LINE
5
68a
100
AcDbEntity
8
8-0
6
CONTINUOUS
62
7
100
AcDbLine
10
939.640000000000
20
1518.650000000000
30
0.0
11
953.640000000000
21
1518.650000000000
31
0.0
0
LINE
5
68b
100
AcDbEntity
8
8-0
6
CONTINUOUS
62
7
100
AcDbLine
10
939.640000000000
20
1511.150000000000
30
0.0
11
939.640000000000
21
1518.650000000000
31
0.0
0
LINE
5
68c
100
AcDbEntity
8
8-0
6
CONTINUOUS
62
7
100
AcDbLine
10
952.640000000000
20
1501.650000000000
30
0.0
11
919.640000000000
21
1501.890000000000
31
0.0
0
LINE
5
68d
100
AcDbEntity
8
8-0
6
CONTINUOUS
62
7
100
AcDbLine
10
952.640000000000
20
1501.150000000000
30
0.0
11
919.640000000000
21
1501.390000000000
31
0.0
0
LINE
5
68e
100
AcDbEntity
8
8-0
6
CONTINUOUS
62
3
100
AcDbLine
10
847.360000000000
20
1393.290000000000
30
0.0
11
1034.200000000000
21
1393.290000000000
31
0.0
0
LINE
5
68f
100
AcDbEntity
8
8-0
6
CONTINUOUS
62
3
100
AcDbLine
10
847.360000000000
20
1373.290000000000
30
0.0
11
1034.200000000000
21
1373.290000000000
31
0.0
0
LINE
5
690
100
AcDbEntity
8
8-0
6
CONTINUOUS
62
7
100
AcDbLine
10
1034.200000000000
20
1504.990000000000
30
0.0
11
940.640000000000
21
1505.650000000000
31
0.0
0
LINE
5
691
100
AcDbEntity
8
8-0
6
CONTINUOUS
62
7
100
AcDbLine
10
1034.200000000000
20
1505.490000000000
30
0.0
11
940.640000000000
21
1506.150000000000
31
0.0
0
LINE
5
692
100
AcDbEntity
8
8-0
6
DASHED
62
7
100
AcDbLine
10
1034.200000000000
20
1499.290000000000
30
0.0
11
791.910000000000
21
1499.290000000000
31
0.0
0
LINE
5
693
100
AcDbEntity
8
8-0
6
CONTINUOUS
62
3
100
AcDbLine
10
1034.200000000000
20
1498.290000000000
30
0.0
11
722.360000000000
21
1498.290000000000
31
0.0
0
LINE
5
694
100
AcDbEntity
8
8-0
6
CONTINUOUS
62
3
100
AcDbLine
10
1034.200000000000
20
1473.290000000000
30
0.0
11
722.360000000000
21
1473.290000000000
31
0.0
0
LINE
5
695
100
AcDbEntity
8
8-0
6
CONTINUOUS
62
3
100
AcDbLine
10
847.360000000000
20
1453.290000000000
30
0.0
11
1034.200000000000
21
1453.290000000000
31
0.0
0
LINE
5
696
100
AcDbEntity
8
8-0
6
CONTINUOUS
62
4
100
AcDbLine
10
911.180000000000
20
1473.290000000000
30
0.0
11
936.180000000000
21
1498.290000000000
31
0.0
0
LINE
5
697
100
AcDbEntity
8
8-0
6
CONTINUOUS
62
4
100
AcDbLine
10
923.450000000000
20
1498.290000000000
30
0.0
11
947.930000000000
21
1473.810000000000
31
0.0
0
LINE
5
698
100
AcDbEntity
8
8-0
6
CONTINUOUS
62
4
100
AcDbLine
10
939.460000000000
20
1473.290000000000
30
0.0
11
964.460000000000
21
1498.290000000000
31
0.0
0
LINE
5
699
100
AcDbEntity
8
8-0
6
CONTINUOUS
62
4
100
AcDbLine
10
951.730000000000
20
1498.290000000000
30
0.0
11
976.210000000000
21
1473.810000000000
31
0.0
0
LINE
5
69a
100
AcDbEntity
8
8-0
6
CONTINUOUS
62
4
100
AcDbLine
10
967.740000000000
20
1473.290000000000
30
0.0
11
992.740000000000
21
1498.290000000000
31
0.0
0
LINE
5
69b
100
AcDbEntity
8
8-0
6
CONTINUOUS
62
4
100
AcDbLine
10
980.010000000000
20
1498.290000000000
30
0.0
11
1004.490000000000
21
1473.810000000000
31
0.0
0
LINE
5
69c
100
AcDbEntity
8
8-0
6
CONTINUOUS
62
4
100
AcDbLine
10
996.030000000000
20
1473.290000000000
30
0.0
11
1021.030000000000
21
1498.290000000000
31
0.0
0
LINE
5
69d
100
AcDbEntity
8
8-0
6
CONTINUOUS
62
4
100
AcDbLine
10
1008.300000000000
20
1498.290000000000
30
0.0
11
1032.780000000000
21
1473.810000000000
31
0.0
0
LINE
5
69e
100
AcDbEntity
8
8-0
6
CONTINUOUS
62
4
100
AcDbLine
10
1024.310000000000
20
1473.290000000000
30
0.0
11
1034.200000000000
21
1483.170000000000
31
0.0
0
LINE
5
69f
100
AcDbEntity
8
8-0
6
CONTINUOUS
62
3
100
AcDbLine
10
276.920000000000
20
1378.060000000000
30
0.0
11
232.880000000000
21
1367.050000000000
31
0.0
0
LINE
5
6a0
100
AcDbEntity
8
8-0
6
CONTINUOUS
62
3
100
AcDbLine
10
232.880000000000
20
1367.050000000000
30
0.0
11
209.740000000000
21
1459.600000000000
31
0.0
0
LINE
5
6a1
100
AcDbEntity
8
8-0
6
CONTINUOUS
62
3
100
AcDbLine
10
253.220000000000
20
1472.850000000000
30
0.0
11
209.180000000000
21
1461.840000000000
31
0.0
0
LINE
5
6a2
100
AcDbEntity
8
8-0
6
CONTINUOUS
62
3
100
AcDbLine
10
209.740000000000
20
1459.600000000000
30
0.0
11
253.780000000000
21
1470.620000000000
31
0.0
0
LINE
5
6a3
100
AcDbEntity
8
8-0
6
CONTINUOUS
62
3
100
AcDbLine
10
260.310000000000
20
1454.000000000000
30
0.0
11
256.010000000000
21
1471.170000000000
31
0.0
0
LINE
5
6a4
100
AcDbEntity
8
8-0
6
CONTINUOUS
62
3
100
AcDbLine
10
253.780000000000
20
1470.620000000000
30
0.0
11
258.070000000000
21
1453.440000000000
31
0.0
0
LINE
5
6a5
100
AcDbEntity
8
8-0
6
CONTINUOUS
62
3
100
AcDbLine
10
258.070000000000
20
1453.440000000000
30
0.0
11
260.310000000000
21
1454.000000000000
31
0.0
0
LINE
5
6a6
100
AcDbEntity
8
8-0
6
CONTINUOUS
62
3
100
AcDbLine
10
272.630000000000
20
1395.240000000000
30
0.0
11
276.920000000000
21
1378.060000000000
31
0.0
0
LINE
5
6a7
100
AcDbEntity
8
8-0
6
CONTINUOUS
62
3
100
AcDbLine
10
279.150000000000
20
1378.620000000000
30
0.0
11
274.860000000000
21
1395.790000000000
31
0.0
0
LINE
5
6a8
100
AcDbEntity
8
8-0
6
CONTINUOUS
62
3
100
AcDbLine
10
274.860000000000
20
1395.790000000000
30
0.0
11
272.630000000000
21
1395.240000000000
31
0.0
0
LINE
5
6a9
100
AcDbEntity
8
8-0
6
CONTINUOUS
62
3
100
AcDbLine
10
233.430000000000
20
1364.820000000000
30
0.0
11
277.480000000000
21
1375.830000000000
31
0.0
0
LINE
5
6aa
100
AcDbEntity
8
8-0
6
CONTINUOUS
62
4
100
AcDbLine
10
294.780000000000
20
1483.230000000000
30
0.0
11
312.970000000000
21
1513.550000000000
31
0.0
0
LINE
5
6ab
100
AcDbEntity
8
8-0
6
CONTINUOUS
62
4
100
AcDbLine
10
267.340000000000
20
1476.370000000000
30
0.0
11
285.530000000000
21
1506.690000000000
31
0.0
0
LINE
5
6ac
100
AcDbEntity
8
8-0
6
CONTINUOUS
62
4
100
AcDbLine
10
239.900000000000
20
1469.510000000000
30
0.0
11
258.090000000000
21
1499.830000000000
31
0.0
0
LINE
5
6ad
100
AcDbEntity
8
8-0
6
CONTINUOUS
62
4
100
AcDbLine
10
212.460000000000
20
1462.650000000000
30
0.0
11
230.650000000000
21
1492.970000000000
31
0.0
0
LINE
5
6ae
100
AcDbEntity
8
8-0
6
CONTINUOUS
62
4
100
AcDbLine
10
185.020000000000
20
1455.790000000000
30
0.0
11
203.210000000000
21
1486.110000000000
31
0.0
0
LINE
5
6af
100
AcDbEntity
8
8-0
6
CONTINUOUS
62
4
100
AcDbLine
10
157.580000000000
20
1448.940000000000
30
0.0
11
175.770000000000
21
1479.250000000000
31
0.0
0
LINE
5
6b0
100
AcDbEntity
8
8-0
6
CONTINUOUS
62
4
100
AcDbLine
10
136.810000000000
20
1453.200000000000
30
0.0
11
148.330000000000
21
1472.390000000000
31
0.0
0
LINE
5
6b1
100
AcDbEntity
8
8-0
6
CONTINUOUS
62
4
100
AcDbLine
10
135.980000000000
20
1469.300000000000
30
0.0
11
166.290000000000
21
1451.110000000000
31
0.0
0
LINE
5
6b2
100
AcDbEntity
8
8-0
6
CONTINUOUS
62
4
100
AcDbLine
10
163.420000000000
20
1476.160000000000
30
0.0
11
193.730000000000
21
1457.970000000000
31
0.0
0
LINE
5
6b3
100
AcDbEntity
8
8-0
6
CONTINUOUS
62
4
100
AcDbLine
10
190.860000000000
20
1483.020000000000
30
0.0
11
221.170000000000
21
1464.830000000000
31
0.0
0
LINE
5
6b4
100
AcDbEntity
8
8-0
6
CONTINUOUS
62
4
100
AcDbLine
10
218.300000000000
20
1489.880000000000
30
0.0
11
248.610000000000
21
1471.690000000000
31
0.0
0
LINE
5
6b5
100
AcDbEntity
8
8-0
6
CONTINUOUS
62
4
100
AcDbLine
10
245.740000000000
20
1496.740000000000
30
0.0
11
276.050000000000
21
1478.550000000000
31
0.0
0
LINE
5
6b6
100
AcDbEntity
8
8-0
6
CONTINUOUS
62
4
100
AcDbLine
10
273.180000000000
20
1503.600000000000
30
0.0
11
303.490000000000
21
1485.410000000000
31
0.0
0
LINE
5
6b7
100
AcDbEntity
8
8-0
6
CONTINUOUS
62
3
100
AcDbLine
10
207.510000000000
20
1459.050000000000
30
0.0
11
230.640000000000
21
1366.490000000000
31
0.0
0
LINE
5
6b8
100
AcDbEntity
8
8-0
6
CONTINUOUS
62
7
100
AcDbLine
10
214.320000000000
20
1535.280000000000
30
0.0
11
214.470000000000
21
1534.690000000000
31
0.0
0
LINE
5
6b9
100
AcDbEntity
8
8-0
6
CONTINUOUS
62
7
100
AcDbLine
10
219.320000000000
20
1535.910000000000
30
0.0
11
214.470000000000
21
1534.690000000000
31
0.0
0
LINE
5
6ba
100
AcDbEntity
8
8-0
6
CONTINUOUS
62
7
100
AcDbLine
10
219.170000000000
20
1536.490000000000
30
0.0
11
214.320000000000
21
1535.280000000000
31
0.0
0
LINE
5
6bb
100
AcDbEntity
8
8-0
6
CONTINUOUS
62
4
100
AcDbLine
10
322.220000000000
20
1490.090000000000
30
0.0
11
326.720000000000
21
1497.600000000000
31
0.0
0
LINE
5
6bc
100
AcDbEntity
8
8-0
6
CONTINUOUS
62
4
100
AcDbLine
10
300.620000000000
20
1510.460000000000
30
0.0
11
327.540000000000
21
1494.310000000000
31
0.0
0
LINE
5
6bd
100
AcDbEntity
8
8-0
6
CONTINUOUS
62
3
100
AcDbLine
10
328.220000000000
20
1491.590000000000
30
0.0
11
139.040000000000
21
1444.300000000000
31
0.0
0
LINE
5
6be
100
AcDbEntity
8
8-0
6
CONTINUOUS
62
3
100
AcDbLine
10
322.150000000000
20
1515.850000000000
30
0.0
11
132.970000000000
21
1468.550000000000
31
0.0
0
LINE
5
6bf
100
AcDbEntity
8
8-0
6
CONTINUOUS
62
3
100
AcDbLine
10
328.220000000000
20
1491.590000000000
30
0.0
11
322.150000000000
21
1515.850000000000
31
0.0
0
LINE
5
6c0
100
AcDbEntity
8
8-0
6
CONTINUOUS
62
4
100
AcDbLine
10
162.020000000000
20
1571.980000000000
30
0.0
11
152.050000000000
21
1611.860000000000
31
0.0
0
LINE
5
6c1
100
AcDbEntity
8
8-0
6
CONTINUOUS
62
7
100
AcDbLine
10
348.650000000000
20
1556.900000000000
30
0.0
11
348.910000000000
21
1561.030000000000
31
0.0
0
LINE
5
6c2
100
AcDbEntity
8
8-0
6
CONTINUOUS
62
7
100
AcDbLine
10
348.650000000000
20
1556.900000000000
30
0.0
11
350.940000000000
21
1560.350000000000
31
0.0
0
LINE
5
6c3
100
AcDbEntity
8
8-0
6
CONTINUOUS
62
7
100
AcDbLine
10
465.920000000000
20
1527.580000000000
30
0.0
11
466.190000000000
21
1531.720000000000
31
0.0
0
LINE
5
6c4
100
AcDbEntity
8
8-0
6
CONTINUOUS
62
7
100
AcDbLine
10
465.920000000000
20
1527.580000000000
30
0.0
11
468.220000000000
21
1531.030000000000
31
0.0
0
LINE
5
6c5
100
AcDbEntity
8
8-0
6
CONTINUOUS
62
7
100
AcDbLine
10
300.760000000000
20
1556.580000000000
30
0.0
11
300.500000000000
21
1560.710000000000
31
0.0
0
LINE
5
6c6
100
AcDbEntity
8
8-0
6
CONTINUOUS
62
7
100
AcDbLine
10
300.760000000000
20
1556.580000000000
30
0.0
11
298.470000000000
21
1560.020000000000
31
0.0
0
LINE
5
6c7
100
AcDbEntity
8
8-0
6
CONTINUOUS
62
7
100
AcDbLine
10
155.170000000000
20
1478.730000000000
30
0.0
11
154.900000000000
21
1482.860000000000
31
0.0
0
LINE
5
6c8
100
AcDbEntity
8
8-0
6
CONTINUOUS
62
7
100
AcDbLine
10
155.170000000000
20
1478.730000000000
30
0.0
11
152.870000000000
21
1482.180000000000
31
0.0
0
LINE
5
6c9
100
AcDbEntity
8
8-0
6
CENTER2
62
4
100
AcDbLine
10
328.220000000000
20
1399.660000000000
30
0.0
11
328.220000000000
21
1625.790000000000
31
0.0
0
LINE
5
6ca
100
AcDbEntity
8
8-0
6
CONTINUOUS
62
7
100
AcDbLine
10
300.760000000000
20
1556.580000000000
30
0.0
11
287.560000000000
21
1595.590000000000
31
0.0
0
LINE
5
6cb
100
AcDbEntity
8
8-0
6
CONTINUOUS
62
7
100
AcDbLine
10
465.920000000000
20
1527.580000000000
30
0.0
11
472.710000000000
21
1547.650000000000
31
0.0
0
LINE
5
6cc
100
AcDbEntity
8
8-0
6
CONTINUOUS
62
7
100
AcDbLine
10
318.610000000000
20
1536.610000000000
30
0.0
11
231.300000000000
21
1514.780000000000
31
0.0
0
LINE
5
6cd
100
AcDbEntity
8
8-0
6
CONTINUOUS
62
7
100
AcDbLine
10
323.460000000000
20
1517.210000000000
30
0.0
11
318.610000000000
21
1536.610000000000
31
0.0
0
LINE
5
6ce
100
AcDbEntity
8
8-0
6
CONTINUOUS
62
7
100
AcDbLine
10
252.570000000000
20
1521.230000000000
30
0.0
11
208.910000000000
21
1510.320000000000
31
0.0
0
LINE
5
6cf
100
AcDbEntity
8
8-0
6
CONTINUOUS
62
7
100
AcDbLine
10
252.710000000000
20
1520.650000000000
30
0.0
11
252.570000000000
21
1521.230000000000
31
0.0
0
LINE
5
6d0
100
AcDbEntity
8
8-0
6
CONTINUOUS
62
7
100
AcDbLine
10
252.710000000000
20
1520.650000000000
30
0.0
11
209.640000000000
21
1509.880000000000
31
0.0
0
LINE
5
6d1
100
AcDbEntity
8
8-0
6
CONTINUOUS
62
7
100
AcDbLine
10
328.220000000000
20
1540.660000000000
30
0.0
11
323.370000000000
21
1560.060000000000
31
0.0
0
LINE
5
6d2
100
AcDbEntity
8
8-0
6
CONTINUOUS
62
7
100
AcDbLine
10
323.370000000000
20
1560.060000000000
30
0.0
11
192.400000000000
21
1527.320000000000
31
0.0
0
LINE
5
6d3
100
AcDbEntity
8
8-0
6
CONTINUOUS
62
7
100
AcDbLine
10
197.250000000000
20
1507.920000000000
30
0.0
11
192.400000000000
21
1527.320000000000
31
0.0
0
LINE
5
6d4
100
AcDbEntity
8
8-0
6
CONTINUOUS
62
7
100
AcDbLine
10
328.220000000000
20
1540.660000000000
30
0.0
11
197.250000000000
21
1507.920000000000
31
0.0
0
LINE
5
6d5
100
AcDbEntity
8
8-0
6
CONTINUOUS
62
7
100
AcDbLine
10
180.200000000000
20
1486.230000000000
30
0.0
11
170.500000000000
21
1483.800000000000
31
0.0
0
LINE
5
6d6
100
AcDbEntity
8
8-0
6
CONTINUOUS
62
7
100
AcDbLine
10
180.200000000000
20
1486.230000000000
30
0.0
11
180.340000000000
21
1485.640000000000
31
0.0
0
LINE
5
6d7
100
AcDbEntity
8
8-0
6
CONTINUOUS
62
7
100
AcDbLine
10
180.340000000000
20
1485.640000000000
30
0.0
11
170.640000000000
21
1483.220000000000
31
0.0
0
LINE
5
6d8
100
AcDbEntity
8
8-0
6
CONTINUOUS
62
7
100
AcDbLine
10
199.580000000000
20
1491.070000000000
30
0.0
11
170.210000000000
21
1484.960000000000
31
0.0
0
LINE
5
6d9
100
AcDbEntity
8
8-0
6
CONTINUOUS
62
7
100
AcDbLine
10
199.700000000000
20
1490.480000000000
30
0.0
11
170.330000000000
21
1484.380000000000
31
0.0
0
LINE
5
6da
100
AcDbEntity
8
8-0
6
CONTINUOUS
62
7
100
AcDbLine
10
176.390000000000
20
1524.560000000000
30
0.0
11
219.460000000000
21
1535.320000000000
31
0.0
0
LINE
5
6db
100
AcDbEntity
8
8-0
6
CONTINUOUS
62
7
100
AcDbLine
10
176.530000000000
20
1523.970000000000
30
0.0
11
219.610000000000
21
1534.740000000000
31
0.0
0
LINE
5
6dc
100
AcDbEntity
8
8-0
6
CONTINUOUS
62
7
100
AcDbLine
10
177.260000000000
20
1521.060000000000
30
0.0
11
189.870000000000
21
1524.220000000000
31
0.0
0
LINE
5
6dd
100
AcDbEntity
8
8-0
6
CONTINUOUS
62
7
100
AcDbLine
10
189.730000000000
20
1524.800000000000
30
0.0
11
189.870000000000
21
1524.220000000000
31
0.0
0
LINE
5
6de
100
AcDbEntity
8
8-0
6
CONTINUOUS
62
7
100
AcDbLine
10
177.120000000000
20
1521.640000000000
30
0.0
11
189.730000000000
21
1524.800000000000
31
0.0
0
LINE
5
6df
100
AcDbEntity
8
8-0
6
CONTINUOUS
62
7
100
AcDbLine
10
190.800000000000
20
1526.300000000000
30
0.0
11
176.830000000000
21
1522.810000000000
31
0.0
0
LINE
5
6e0
100
AcDbEntity
8
8-0
6
CONTINUOUS
62
7
100
AcDbLine
10
191.520000000000
20
1525.870000000000
30
0.0
11
200.040000000000
21
1491.800000000000
31
0.0
0
LINE
5
6e1
100
AcDbEntity
8
8-0
6
CONTINUOUS
62
7
100
AcDbLine
10
176.680000000000
20
1523.390000000000
30
0.0
11
190.650000000000
21
1526.880000000000
31
0.0
0
LINE
5
6e2
100
AcDbEntity
8
8-0
6
CONTINUOUS
62
7
100
AcDbLine
10
200.620000000000
20
1491.950000000000
30
0.0
11
192.100000000000
21
1526.010000000000
31
0.0
0
LINE
5
6e3
100
AcDbEntity
8
8-0
6
CONTINUOUS
62
7
100
AcDbLine
10
175.950000000000
20
1526.300000000000
30
0.0
11
219.030000000000
21
1537.070000000000
31
0.0
0
LINE
5
6e4
100
AcDbEntity
8
8-0
6
CONTINUOUS
62
7
100
AcDbLine
10
219.170000000000
20
1536.490000000000
30
0.0
11
328.220000000000
21
1562.510000000000
31
0.0
0
LINE
5
6e5
100
AcDbEntity
8
8-0
6
CONTINUOUS
62
7
100
AcDbLine
10
219.030000000000
20
1537.070000000000
30
0.0
11
328.080000000000
21
1563.100000000000
31
0.0
0
LINE
5
6e6
100
AcDbEntity
8
8-0
6
DASHED
62
7
100
AcDbLine
10
212.030000000000
20
1534.080000000000
30
0.0
11
214.320000000000
21
1535.280000000000
31
0.0
0
LINE
5
6e7
100
AcDbEntity
8
8-0
6
DASHED
62
7
100
AcDbLine
10
219.180000000000
20
1536.490000000000
30
0.0
11
226.930000000000
21
1537.150000000000
31
0.0
0
LINE
5
6e8
100
AcDbEntity
8
8-0
6
DASHED
62
7
100
AcDbLine
10
226.930000000000
20
1537.150000000000
30
0.0
11
255.750000000000
21
1544.190000000000
31
0.0
0
LINE
5
6e9
100
AcDbEntity
8
8-0
6
CENTER2
62
7
100
AcDbLine
10
208.060000000000
20
1516.940000000000
30
0.0
11
203.360000000000
21
1535.780000000000
31
0.0
0
LINE
5
6ea
100
AcDbEntity
8
8-0
6
CONTINUOUS
62
4
100
AcDbLine
10
152.050000000000
20
1611.860000000000
30
0.0
11
306.250000000000
21
1650.410000000000
31
0.0
0
LINE
5
6eb
100
AcDbEntity
8
8-0
6
CONTINUOUS
62
4
100
AcDbLine
10
316.220000000000
20
1610.530000000000
30
0.0
11
306.250000000000
21
1650.410000000000
31
0.0
0
LINE
5
6ec
100
AcDbEntity
8
8-0
6
CONTINUOUS
62
4
100
AcDbLine
10
205.990000000000
20
1520.100000000000
30
0.0
11
203.200000000000
21
1531.260000000000
31
0.0
0
LINE
5
6ed
100
AcDbEntity
8
8-0
6
CONTINUOUS
62
4
100
AcDbLine
10
205.620000000000
20
1531.860000000000
30
0.0
11
208.410000000000
21
1520.710000000000
31
0.0
0
LINE
5
6ee
100
AcDbEntity
8
8-0
6
CONTINUOUS
62
4
100
AcDbLine
10
199.460000000000
20
1530.740000000000
30
0.0
11
209.160000000000
21
1533.160000000000
31
0.0
0
LINE
5
6ef
100
AcDbEntity
8
8-0
6
CONTINUOUS
62
4
100
AcDbLine
10
201.280000000000
20
1531.710000000000
30
0.0
11
207.100000000000
21
1533.160000000000
31
0.0
0
LINE
5
6f0
100
AcDbEntity
8
8-0
6
CONTINUOUS
62
4
100
AcDbLine
10
209.160000000000
20
1533.160000000000
30
0.0
11
209.260000000000
21
1532.770000000000
31
0.0
0
LINE
5
6f1
100
AcDbEntity
8
8-0
6
CONTINUOUS
62
4
100
AcDbLine
10
207.100000000000
20
1533.160000000000
30
0.0
11
208.680000000000
21
1533.040000000000
31
0.0
0
LINE
5
6f2
100
AcDbEntity
8
8-0
6
CONTINUOUS
62
4
100
AcDbLine
10
206.690000000000
20
1528.610000000000
30
0.0
11
203.660000000000
21
1528.360000000000
31
0.0
0
LINE
5
6f3
100
AcDbEntity
8
8-0
6
CONTINUOUS
62
4
100
AcDbLine
10
206.940000000000
20
1527.640000000000
30
0.0
11
203.900000000000
21
1527.390000000000
31
0.0
0
LINE
5
6f4
100
AcDbEntity
8
8-0
6
CONTINUOUS
62
4
100
AcDbLine
10
207.180000000000
20
1526.670000000000
30
0.0
11
204.150000000000
21
1526.420000000000
31
0.0
0
LINE
5
6f5
100
AcDbEntity
8
8-0
6
CONTINUOUS
62
4
100
AcDbLine
10
206.450000000000
20
1529.580000000000
30
0.0
11
203.420000000000
21
1529.330000000000
31
0.0
0
LINE
5
6f6
100
AcDbEntity
8
8-0
6
CONTINUOUS
62
4
100
AcDbLine
10
199.460000000000
20
1530.740000000000
30
0.0
11
199.560000000000
21
1530.350000000000
31
0.0
0
LINE
5
6f7
100
AcDbEntity
8
8-0
6
CONTINUOUS
62
4
100
AcDbLine
10
201.280000000000
20
1531.710000000000
30
0.0
11
199.950000000000
21
1530.860000000000
31
0.0
0
LINE
5
6f8
100
AcDbEntity
8
8-0
6
CONTINUOUS
62
4
100
AcDbLine
10
207.660000000000
20
1524.730000000000
30
0.0
11
204.630000000000
21
1524.480000000000
31
0.0
0
LINE
5
6f9
100
AcDbEntity
8
8-0
6
CONTINUOUS
62
4
100
AcDbLine
10
207.420000000000
20
1525.700000000000
30
0.0
11
204.390000000000
21
1525.450000000000
31
0.0
0
LINE
5
6fa
100
AcDbEntity
8
8-0
6
CONTINUOUS
62
4
100
AcDbLine
10
207.910000000000
20
1523.760000000000
30
0.0
11
204.870000000000
21
1523.510000000000
31
0.0
0
LINE
5
6fb
100
AcDbEntity
8
8-0
6
CONTINUOUS
62
4
100
AcDbLine
10
208.150000000000
20
1522.790000000000
30
0.0
11
205.120000000000
21
1522.540000000000
31
0.0
0
LINE
5
6fc
100
AcDbEntity
8
8-0
6
CONTINUOUS
62
4
100
AcDbLine
10
207.440000000000
20
1519.430000000000
30
0.0
11
205.990000000000
21
1520.100000000000
31
0.0
0
LINE
5
6fd
100
AcDbEntity
8
8-0
6
CONTINUOUS
62
4
100
AcDbLine
10
208.410000000000
20
1520.710000000000
30
0.0
11
207.440000000000
21
1519.430000000000
31
0.0
0
LINE
5
6fe
100
AcDbEntity
8
8-0
6
CONTINUOUS
62
4
100
AcDbLine
10
206.830000000000
20
1519.800000000000
30
0.0
11
207.200000000000
21
1520.400000000000
31
0.0
0
LINE
5
6ff
100
AcDbEntity
8
8-0
6
CONTINUOUS
62
4
100
AcDbLine
10
207.200000000000
20
1520.400000000000
30
0.0
11
206.710000000000
21
1520.980000000000
31
0.0
0
LINE
5
700
100
AcDbEntity
8
8-0
6
CONTINUOUS
62
4
100
AcDbLine
10
206.710000000000
20
1520.980000000000
30
0.0
11
207.340000000000
21
1521.590000000000
31
0.0
0
LINE
5
701
100
AcDbEntity
8
8-0
6
CONTINUOUS
62
4
100
AcDbLine
10
207.340000000000
20
1521.590000000000
30
0.0
11
208.410000000000
21
1520.710000000000
31
0.0
0
LINE
5
702
100
AcDbEntity
8
8-0
6
CONTINUOUS
62
4
100
AcDbLine
10
199.560000000000
20
1530.350000000000
30
0.0
11
209.260000000000
21
1532.770000000000
31
0.0
0
LINE
5
703
100
AcDbEntity
8
8-0
6
CONTINUOUS
62
7
100
AcDbLine
10
176.100000000000
20
1525.720000000000
30
0.0
11
219.170000000000
21
1536.490000000000
31
0.0
0
LINE
5
704
100
AcDbEntity
8
8-0
6
DASHED
62
7
100
AcDbLine
10
176.530000000000
20
1525.210000000000
30
0.0
11
198.640000000000
21
1530.740000000000
31
0.0
0
LINE
5
705
100
AcDbEntity
8
8-0
6
DASHED
62
7
100
AcDbLine
10
199.840000000000
20
1531.500000000000
30
0.0
11
198.640000000000
21
1530.740000000000
31
0.0
0
LINE
5
706
100
AcDbEntity
8
8-0
6
DASHED
62
7
100
AcDbLine
10
199.840000000000
20
1531.500000000000
30
0.0
11
204.150000000000
21
1532.580000000000
31
0.0
0
LINE
5
707
100
AcDbEntity
8
8-0
6
DASHED
62
7
100
AcDbLine
10
208.470000000000
20
1533.660000000000
30
0.0
11
204.150000000000
21
1532.580000000000
31
0.0
0
LINE
5
708
100
AcDbEntity
8
8-0
6
DASHED
62
7
100
AcDbLine
10
208.470000000000
20
1533.660000000000
30
0.0
11
209.890000000000
21
1533.550000000000
31
0.0
0
LINE
5
709
100
AcDbEntity
8
8-0
6
DASHED
62
7
100
AcDbLine
10
209.890000000000
20
1533.550000000000
30
0.0
11
212.030000000000
21
1534.080000000000
31
0.0
0
LINE
5
70a
100
AcDbEntity
8
8-0
6
CONTINUOUS
62
3
100
AcDbLine
10
379.510000000000
20
1378.060000000000
30
0.0
11
423.560000000000
21
1367.050000000000
31
0.0
0
LINE
5
70b
100
AcDbEntity
8
8-0
6
CONTINUOUS
62
3
100
AcDbLine
10
423.560000000000
20
1367.050000000000
30
0.0
11
446.690000000000
21
1459.600000000000
31
0.0
0
LINE
5
70c
100
AcDbEntity
8
8-0
6
CONTINUOUS
62
3
100
AcDbLine
10
403.210000000000
20
1472.850000000000
30
0.0
11
447.250000000000
21
1461.840000000000
31
0.0
0
LINE
5
70d
100
AcDbEntity
8
8-0
6
CONTINUOUS
62
3
100
AcDbLine
10
446.690000000000
20
1459.600000000000
30
0.0
11
402.650000000000
21
1470.620000000000
31
0.0
0
LINE
5
70e
100
AcDbEntity
8
8-0
6
CONTINUOUS
62
3
100
AcDbLine
10
396.130000000000
20
1454.000000000000
30
0.0
11
400.420000000000
21
1471.170000000000
31
0.0
0
LINE
5
70f
100
AcDbEntity
8
8-0
6
CONTINUOUS
62
3
100
AcDbLine
10
402.650000000000
20
1470.620000000000
30
0.0
11
398.360000000000
21
1453.440000000000
31
0.0
0
LINE
5
710
100
AcDbEntity
8
8-0
6
CONTINUOUS
62
3
100
AcDbLine
10
398.360000000000
20
1453.440000000000
30
0.0
11
396.130000000000
21
1454.000000000000
31
0.0
0
LINE
5
711
100
AcDbEntity
8
8-0
6
CONTINUOUS
62
3
100
AcDbLine
10
383.810000000000
20
1395.240000000000
30
0.0
11
379.510000000000
21
1378.060000000000
31
0.0
0
LINE
5
712
100
AcDbEntity
8
8-0
6
CONTINUOUS
62
3
100
AcDbLine
10
377.280000000000
20
1378.620000000000
30
0.0
11
381.570000000000
21
1395.790000000000
31
0.0
0
LINE
5
713
100
AcDbEntity
8
8-0
6
CONTINUOUS
62
3
100
AcDbLine
10
381.570000000000
20
1395.790000000000
30
0.0
11
383.810000000000
21
1395.240000000000
31
0.0
0
LINE
5
714
100
AcDbEntity
8
8-0
6
CONTINUOUS
62
3
100
AcDbLine
10
423.000000000000
20
1364.820000000000
30
0.0
11
378.950000000000
21
1375.830000000000
31
0.0
0
LINE
5
715
100
AcDbEntity
8
8-0
6
CONTINUOUS
62
4
100
AcDbLine
10
361.660000000000
20
1483.230000000000
30
0.0
11
343.470000000000
21
1513.550000000000
31
0.0
0
LINE
5
716
100
AcDbEntity
8
8-0
6
CONTINUOUS
62
4
100
AcDbLine
10
389.100000000000
20
1476.370000000000
30
0.0
11
370.910000000000
21
1506.690000000000
31
0.0
0
LINE
5
717
100
AcDbEntity
8
8-0
6
CONTINUOUS
62
4
100
AcDbLine
10
416.540000000000
20
1469.510000000000
30
0.0
11
398.350000000000
21
1499.830000000000
31
0.0
0
LINE
5
718
100
AcDbEntity
8
8-0
6
CONTINUOUS
62
4
100
AcDbLine
10
443.980000000000
20
1462.650000000000
30
0.0
11
425.790000000000
21
1492.970000000000
31
0.0
0
LINE
5
719
100
AcDbEntity
8
8-0
6
CONTINUOUS
62
4
100
AcDbLine
10
471.420000000000
20
1455.790000000000
30
0.0
11
453.230000000000
21
1486.110000000000
31
0.0
0
LINE
5
71a
100
AcDbEntity
8
8-0
6
CONTINUOUS
62
4
100
AcDbLine
10
498.860000000000
20
1448.940000000000
30
0.0
11
480.670000000000
21
1479.250000000000
31
0.0
0
LINE
5
71b
100
AcDbEntity
8
8-0
6
CONTINUOUS
62
4
100
AcDbLine
10
519.620000000000
20
1453.200000000000
30
0.0
11
508.110000000000
21
1472.390000000000
31
0.0
0
LINE
5
71c
100
AcDbEntity
8
8-0
6
CONTINUOUS
62
4
100
AcDbLine
10
520.460000000000
20
1469.300000000000
30
0.0
11
490.140000000000
21
1451.110000000000
31
0.0
0
LINE
5
71d
100
AcDbEntity
8
8-0
6
CONTINUOUS
62
4
100
AcDbLine
10
493.020000000000
20
1476.160000000000
30
0.0
11
462.700000000000
21
1457.970000000000
31
0.0
0
LINE
5
71e
100
AcDbEntity
8
8-0
6
CONTINUOUS
62
4
100
AcDbLine
10
465.580000000000
20
1483.020000000000
30
0.0
11
435.260000000000
21
1464.830000000000
31
0.0
0
LINE
5
71f
100
AcDbEntity
8
8-0
6
CONTINUOUS
62
4
100
AcDbLine
10
438.140000000000
20
1489.880000000000
30
0.0
11
407.820000000000
21
1471.690000000000
31
0.0
0
LINE
5
720
100
AcDbEntity
8
8-0
6
CONTINUOUS
62
4
100
AcDbLine
10
410.700000000000
20
1496.740000000000
30
0.0
11
380.380000000000
21
1478.550000000000
31
0.0
0
LINE
5
721
100
AcDbEntity
8
8-0
6
CONTINUOUS
62
4
100
AcDbLine
10
383.260000000000
20
1503.600000000000
30
0.0
11
352.940000000000
21
1485.410000000000
31
0.0
0
LINE
5
722
100
AcDbEntity
8
8-0
6
CONTINUOUS
62
3
100
AcDbLine
10
448.930000000000
20
1459.050000000000
30
0.0
11
425.790000000000
21
1366.490000000000
31
0.0
0
LINE
5
723
100
AcDbEntity
8
8-0
6
CONTINUOUS
62
7
100
AcDbLine
10
442.110000000000
20
1535.280000000000
30
0.0
11
441.970000000000
21
1534.690000000000
31
0.0
0
LINE
5
724
100
AcDbEntity
8
8-0
6
CONTINUOUS
62
7
100
AcDbLine
10
437.110000000000
20
1535.910000000000
30
0.0
11
441.970000000000
21
1534.690000000000
31
0.0
0
LINE
5
725
100
AcDbEntity
8
8-0
6
CONTINUOUS
62
7
100
AcDbLine
10
437.260000000000
20
1536.490000000000
30
0.0
11
442.110000000000
21
1535.280000000000
31
0.0
0
LINE
5
726
100
AcDbEntity
8
8-0
6
CONTINUOUS
62
4
100
AcDbLine
10
334.220000000000
20
1490.090000000000
30
0.0
11
329.720000000000
21
1497.600000000000
31
0.0
0
LINE
5
727
100
AcDbEntity
8
8-0
6
CONTINUOUS
62
4
100
AcDbLine
10
355.820000000000
20
1510.460000000000
30
0.0
11
328.900000000000
21
1494.310000000000
31
0.0
0
LINE
5
728
100
AcDbEntity
8
8-0
6
CONTINUOUS
62
3
100
AcDbLine
10
328.220000000000
20
1491.590000000000
30
0.0
11
517.390000000000
21
1444.300000000000
31
0.0
0
LINE
5
729
100
AcDbEntity
8
8-0
6
CONTINUOUS
62
3
100
AcDbLine
10
334.280000000000
20
1515.850000000000
30
0.0
11
523.460000000000
21
1468.550000000000
31
0.0
0
LINE
5
72a
100
AcDbEntity
8
8-0
6
CONTINUOUS
62
3
100
AcDbLine
10
328.220000000000
20
1491.590000000000
30
0.0
11
334.280000000000
21
1515.850000000000
31
0.0
0
LINE
5
72b
100
AcDbEntity
8
8-0
6
CONTINUOUS
62
4
100
AcDbLine
10
494.410000000000
20
1571.980000000000
30
0.0
11
504.380000000000
21
1611.860000000000
31
0.0
0
LINE
5
72c
100
AcDbEntity
8
8-0
6
CONTINUOUS
62
7
100
AcDbLine
10
337.820000000000
20
1536.610000000000
30
0.0
11
425.130000000000
21
1514.780000000000
31
0.0
0
LINE
5
72d
100
AcDbEntity
8
8-0
6
CONTINUOUS
62
7
100
AcDbLine
10
332.970000000000
20
1517.210000000000
30
0.0
11
337.820000000000
21
1536.610000000000
31
0.0
0
LINE
5
72e
100
AcDbEntity
8
8-0
6
CONTINUOUS
62
7
100
AcDbLine
10
332.970000000000
20
1517.210000000000
30
0.0
11
420.280000000000
21
1495.380000000000
31
0.0
0
LINE
5
72f
100
AcDbEntity
8
8-0
6
CONTINUOUS
62
7
100
AcDbLine
10
403.860000000000
20
1521.230000000000
30
0.0
11
447.520000000000
21
1510.320000000000
31
0.0
0
LINE
5
730
100
AcDbEntity
8
8-0
6
CONTINUOUS
62
7
100
AcDbLine
10
403.720000000000
20
1520.650000000000
30
0.0
11
403.860000000000
21
1521.230000000000
31
0.0
0
LINE
5
731
100
AcDbEntity
8
8-0
6
CONTINUOUS
62
7
100
AcDbLine
10
403.720000000000
20
1520.650000000000
30
0.0
11
446.790000000000
21
1509.880000000000
31
0.0
0
LINE
5
732
100
AcDbEntity
8
8-0
6
CONTINUOUS
62
7
100
AcDbLine
10
328.220000000000
20
1540.660000000000
30
0.0
11
333.070000000000
21
1560.060000000000
31
0.0
0
LINE
5
733
100
AcDbEntity
8
8-0
6
CONTINUOUS
62
7
100
AcDbLine
10
333.070000000000
20
1560.060000000000
30
0.0
11
464.040000000000
21
1527.320000000000
31
0.0
0
LINE
5
734
100
AcDbEntity
8
8-0
6
CONTINUOUS
62
7
100
AcDbLine
10
459.190000000000
20
1507.920000000000
30
0.0
11
464.040000000000
21
1527.320000000000
31
0.0
0
LINE
5
735
100
AcDbEntity
8
8-0
6
CONTINUOUS
62
7
100
AcDbLine
10
328.220000000000
20
1540.660000000000
30
0.0
11
459.190000000000
21
1507.920000000000
31
0.0
0
LINE
5
736
100
AcDbEntity
8
8-0
6
CONTINUOUS
62
7
100
AcDbLine
10
476.230000000000
20
1486.230000000000
30
0.0
11
485.930000000000
21
1483.800000000000
31
0.0
0
LINE
5
737
100
AcDbEntity
8
8-0
6
CONTINUOUS
62
7
100
AcDbLine
10
476.230000000000
20
1486.230000000000
30
0.0
11
476.090000000000
21
1485.640000000000
31
0.0
0
LINE
5
738
100
AcDbEntity
8
8-0
6
CONTINUOUS
62
7
100
AcDbLine
10
476.090000000000
20
1485.640000000000
30
0.0
11
485.790000000000
21
1483.220000000000
31
0.0
0
LINE
5
739
100
AcDbEntity
8
8-0
6
CONTINUOUS
62
7
100
AcDbLine
10
456.850000000000
20
1491.070000000000
30
0.0
11
486.230000000000
21
1484.960000000000
31
0.0
0
LINE
5
73a
100
AcDbEntity
8
8-0
6
CONTINUOUS
62
7
100
AcDbLine
10
456.730000000000
20
1490.480000000000
30
0.0
11
486.100000000000
21
1484.380000000000
31
0.0
0
LINE
5
73b
100
AcDbEntity
8
8-0
6
CONTINUOUS
62
7
100
AcDbLine
10
480.040000000000
20
1524.560000000000
30
0.0
11
436.970000000000
21
1535.320000000000
31
0.0
0
LINE
5
73c
100
AcDbEntity
8
8-0
6
CONTINUOUS
62
7
100
AcDbLine
10
479.900000000000
20
1523.970000000000
30
0.0
11
436.820000000000
21
1534.740000000000
31
0.0
0
LINE
5
73d
100
AcDbEntity
8
8-0
6
CONTINUOUS
62
7
100
AcDbLine
10
479.170000000000
20
1521.060000000000
30
0.0
11
466.560000000000
21
1524.220000000000
31
0.0
0
LINE
5
73e
100
AcDbEntity
8
8-0
6
CONTINUOUS
62
7
100
AcDbLine
10
466.700000000000
20
1524.800000000000
30
0.0
11
466.560000000000
21
1524.220000000000
31
0.0
0
LINE
5
73f
100
AcDbEntity
8
8-0
6
CONTINUOUS
62
7
100
AcDbLine
10
479.320000000000
20
1521.640000000000
30
0.0
11
466.700000000000
21
1524.800000000000
31
0.0
0
LINE
5
740
100
AcDbEntity
8
8-0
6
CONTINUOUS
62
7
100
AcDbLine
10
465.640000000000
20
1526.300000000000
30
0.0
11
479.610000000000
21
1522.810000000000
31
0.0
0
LINE
5
741
100
AcDbEntity
8
8-0
6
CONTINUOUS
62
7
100
AcDbLine
10
464.910000000000
20
1525.870000000000
30
0.0
11
456.390000000000
21
1491.800000000000
31
0.0
0
LINE
5
742
100
AcDbEntity
8
8-0
6
CONTINUOUS
62
7
100
AcDbLine
10
479.750000000000
20
1523.390000000000
30
0.0
11
465.780000000000
21
1526.880000000000
31
0.0
0
LINE
5
743
100
AcDbEntity
8
8-0
6
CONTINUOUS
62
7
100
AcDbLine
10
455.810000000000
20
1491.950000000000
30
0.0
11
464.330000000000
21
1526.010000000000
31
0.0
0
LINE
5
744
100
AcDbEntity
8
8-0
6
CONTINUOUS
62
7
100
AcDbLine
10
480.480000000000
20
1526.300000000000
30
0.0
11
437.410000000000
21
1537.070000000000
31
0.0
0
LINE
5
745
100
AcDbEntity
8
8-0
6
CONTINUOUS
62
7
100
AcDbLine
10
437.260000000000
20
1536.490000000000
30
0.0
11
328.220000000000
21
1562.510000000000
31
0.0
0
LINE
5
746
100
AcDbEntity
8
8-0
6
CONTINUOUS
62
7
100
AcDbLine
10
437.400000000000
20
1537.070000000000
30
0.0
11
328.360000000000
21
1563.100000000000
31
0.0
0
LINE
5
747
100
AcDbEntity
8
8-0
6
DASHED
62
7
100
AcDbLine
10
444.410000000000
20
1534.080000000000
30
0.0
11
442.110000000000
21
1535.280000000000
31
0.0
0
LINE
5
748
100
AcDbEntity
8
8-0
6
DASHED
62
7
100
AcDbLine
10
437.250000000000
20
1536.490000000000
30
0.0
11
429.500000000000
21
1537.150000000000
31
0.0
0
LINE
5
749
100
AcDbEntity
8
8-0
6
DASHED
62
7
100
AcDbLine
10
429.500000000000
20
1537.150000000000
30
0.0
11
400.690000000000
21
1544.190000000000
31
0.0
0
LINE
5
74a
100
AcDbEntity
8
8-0
6
CENTER2
62
7
100
AcDbLine
10
448.370000000000
20
1516.940000000000
30
0.0
11
453.080000000000
21
1535.780000000000
31
0.0
0
LINE
5
74b
100
AcDbEntity
8
8-0
6
CONTINUOUS
62
4
100
AcDbLine
10
504.380000000000
20
1611.860000000000
30
0.0
11
350.180000000000
21
1650.410000000000
31
0.0
0
LINE
5
74c
100
AcDbEntity
8
8-0
6
CONTINUOUS
62
4
100
AcDbLine
10
340.210000000000
20
1610.530000000000
30
0.0
11
350.180000000000
21
1650.410000000000
31
0.0
0
LINE
5
74d
100
AcDbEntity
8
8-0
6
CONTINUOUS
62
4
100
AcDbLine
10
450.450000000000
20
1520.100000000000
30
0.0
11
453.240000000000
21
1531.260000000000
31
0.0
0
LINE
5
74e
100
AcDbEntity
8
8-0
6
CONTINUOUS
62
4
100
AcDbLine
10
450.810000000000
20
1531.860000000000
30
0.0
11
448.020000000000
21
1520.710000000000
31
0.0
0
LINE
5
74f
100
AcDbEntity
8
8-0
6
CONTINUOUS
62
4
100
AcDbLine
10
456.970000000000
20
1530.740000000000
30
0.0
11
447.270000000000
21
1533.160000000000
31
0.0
0
LINE
5
750
100
AcDbEntity
8
8-0
6
CONTINUOUS
62
4
100
AcDbLine
10
455.150000000000
20
1531.710000000000
30
0.0
11
449.330000000000
21
1533.160000000000
31
0.0
0
LINE
5
751
100
AcDbEntity
8
8-0
6
CONTINUOUS
62
4
100
AcDbLine
10
447.270000000000
20
1533.160000000000
30
0.0
11
447.170000000000
21
1532.770000000000
31
0.0
0
LINE
5
752
100
AcDbEntity
8
8-0
6
CONTINUOUS
62
4
100
AcDbLine
10
449.330000000000
20
1533.160000000000
30
0.0
11
447.750000000000
21
1533.040000000000
31
0.0
0
LINE
5
753
100
AcDbEntity
8
8-0
6
CONTINUOUS
62
4
100
AcDbLine
10
449.740000000000
20
1528.610000000000
30
0.0
11
452.770000000000
21
1528.360000000000
31
0.0
0
LINE
5
754
100
AcDbEntity
8
8-0
6
CONTINUOUS
62
4
100
AcDbLine
10
449.500000000000
20
1527.640000000000
30
0.0
11
452.530000000000
21
1527.390000000000
31
0.0
0
LINE
5
755
100
AcDbEntity
8
8-0
6
CONTINUOUS
62
4
100
AcDbLine
10
449.250000000000
20
1526.670000000000
30
0.0
11
452.290000000000
21
1526.420000000000
31
0.0
0
LINE
5
756
100
AcDbEntity
8
8-0
6
CONTINUOUS
62
4
100
AcDbLine
10
449.980000000000
20
1529.580000000000
30
0.0
11
453.010000000000
21
1529.330000000000
31
0.0
0
LINE
5
757
100
AcDbEntity
8
8-0
6
CONTINUOUS
62
4
100
AcDbLine
10
456.970000000000
20
1530.740000000000
30
0.0
11
456.870000000000
21
1530.350000000000
31
0.0
0
LINE
5
758
100
AcDbEntity
8
8-0
6
CONTINUOUS
62
4
100
AcDbLine
10
455.150000000000
20
1531.710000000000
30
0.0
11
456.490000000000
21
1530.860000000000
31
0.0
0
LINE
5
759
100
AcDbEntity
8
8-0
6
CONTINUOUS
62
4
100
AcDbLine
10
448.770000000000
20
1524.730000000000
30
0.0
11
451.800000000000
21
1524.480000000000
31
0.0
0
LINE
5
75a
100
AcDbEntity
8
8-0
6
CONTINUOUS
62
4
100
AcDbLine
10
449.010000000000
20
1525.700000000000
30
0.0
11
452.040000000000
21
1525.450000000000
31
0.0
0
LINE
5
75b
100
AcDbEntity
8
8-0
6
CONTINUOUS
62
4
100
AcDbLine
10
448.530000000000
20
1523.760000000000
30
0.0
11
451.560000000000
21
1523.510000000000
31
0.0
0
LINE
5
75c
100
AcDbEntity
8
8-0
6
CONTINUOUS
62
4
100
AcDbLine
10
448.280000000000
20
1522.790000000000
30
0.0
11
451.310000000000
21
1522.540000000000
31
0.0
0
LINE
5
75d
100
AcDbEntity
8
8-0
6
CONTINUOUS
62
4
100
AcDbLine
10
448.990000000000
20
1519.430000000000
30
0.0
11
450.450000000000
21
1520.100000000000
31
0.0
0
LINE
5
75e
100
AcDbEntity
8
8-0
6
CONTINUOUS
62
4
100
AcDbLine
10
448.020000000000
20
1520.710000000000
30
0.0
11
448.990000000000
21
1519.430000000000
31
0.0
0
LINE
5
75f
100
AcDbEntity
8
8-0
6
CONTINUOUS
62
4
100
AcDbLine
10
449.600000000000
20
1519.800000000000
30
0.0
11
449.230000000000
21
1520.400000000000
31
0.0
0
LINE
5
760
100
AcDbEntity
8
8-0
6
CONTINUOUS
62
4
100
AcDbLine
10
449.230000000000
20
1520.400000000000
30
0.0
11
449.730000000000
21
1520.980000000000
31
0.0
0
LINE
5
761
100
AcDbEntity
8
8-0
6
CONTINUOUS
62
4
100
AcDbLine
10
449.730000000000
20
1520.980000000000
30
0.0
11
449.090000000000
21
1521.590000000000
31
0.0
0
LINE
5
762
100
AcDbEntity
8
8-0
6
CONTINUOUS
62
4
100
AcDbLine
10
449.090000000000
20
1521.590000000000
30
0.0
11
448.020000000000
21
1520.710000000000
31
0.0
0
LINE
5
763
100
AcDbEntity
8
8-0
6
CONTINUOUS
62
4
100
AcDbLine
10
456.870000000000
20
1530.350000000000
30
0.0
11
447.170000000000
21
1532.770000000000
31
0.0
0
LINE
5
764
100
AcDbEntity
8
8-0
6
CONTINUOUS
62
7
100
AcDbLine
10
480.330000000000
20
1525.720000000000
30
0.0
11
437.260000000000
21
1536.490000000000
31
0.0
0
LINE
5
765
100
AcDbEntity
8
8-0
6
DASHED
62
7
100
AcDbLine
10
479.900000000000
20
1525.210000000000
30
0.0
11
457.790000000000
21
1530.740000000000
31
0.0
0
LINE
5
766
100
AcDbEntity
8
8-0
6
DASHED
62
7
100
AcDbLine
10
456.590000000000
20
1531.500000000000
30
0.0
11
457.790000000000
21
1530.740000000000
31
0.0
0
LINE
5
767
100
AcDbEntity
8
8-0
6
DASHED
62
7
100
AcDbLine
10
456.590000000000
20
1531.500000000000
30
0.0
11
452.280000000000
21
1532.580000000000
31
0.0
0
LINE
5
768
100
AcDbEntity
8
8-0
6
DASHED
62
7
100
AcDbLine
10
447.960000000000
20
1533.660000000000
30
0.0
11
452.280000000000
21
1532.580000000000
31
0.0
0
LINE
5
769
100
AcDbEntity
8
8-0
6
DASHED
62
7
100
AcDbLine
10
447.960000000000
20
1533.660000000000
30
0.0
11
446.550000000000
21
1533.550000000000
31
0.0
0
LINE
5
76a
100
AcDbEntity
8
8-0
6
DASHED
62
7
100
AcDbLine
10
446.550000000000
20
1533.550000000000
30
0.0
11
444.410000000000
21
1534.080000000000
31
0.0
0
LINE
5
76b
100
AcDbEntity
8
8-0
6
DASHED
62
7
100
AcDbLine
10
327.270000000000
20
1561.660000000000
30
0.0
11
255.750000000000
21
1544.190000000000
31
0.0
0
LINE
5
76c
100
AcDbEntity
8
8-0
6
DASHED
62
7
100
AcDbLine
10
329.170000000000
20
1561.660000000000
30
0.0
11
400.690000000000
21
1544.190000000000
31
0.0
0
LINE
5
76d
100
AcDbEntity
8
8-0
6
DASHED
62
7
100
AcDbLine
10
327.250000000000
20
1517.640000000000
30
0.0
11
132.850000000000
21
1469.040000000000
31
0.0
0
LINE
5
76e
100
AcDbEntity
8
8-0
6
DASHED
62
7
100
AcDbLine
10
329.190000000000
20
1517.640000000000
30
0.0
11
523.580000000000
21
1469.040000000000
31
0.0
0
LINE
5
76f
100
AcDbEntity
8
8-0
6
CONTINUOUS
62
7
100
AcDbLine
10
234.930000000000
20
1516.620000000000
30
0.0
11
234.670000000000
21
1520.750000000000
31
0.0
0
LINE
5
770
100
AcDbEntity
8
8-0
6
CONTINUOUS
62
7
100
AcDbLine
10
234.930000000000
20
1516.620000000000
30
0.0
11
232.640000000000
21
1520.060000000000
31
0.0
0
LINE
5
771
100
AcDbEntity
8
8-0
6
CONTINUOUS
62
7
100
AcDbLine
10
234.930000000000
20
1516.620000000000
30
0.0
11
221.740000000000
21
1555.630000000000
31
0.0
0
LINE
5
772
100
AcDbEntity
8
8-0
6
CONTINUOUS
62
7
100
AcDbLine
10
348.650000000000
20
1556.900000000000
30
0.0
11
358.290000000000
21
1585.400000000000
31
0.0
0
LINE
5
773
100
AcDbEntity
8
8-0
6
CONTINUOUS
62
7
100
AcDbLine
10
358.720000000000
20
1510.040000000000
30
0.0
11
358.990000000000
21
1514.170000000000
31
0.0
0
LINE
5
774
100
AcDbEntity
8
8-0
6
CONTINUOUS
62
7
100
AcDbLine
10
358.720000000000
20
1510.040000000000
30
0.0
11
361.020000000000
21
1513.480000000000
31
0.0
0
LINE
5
775
100
AcDbEntity
8
8-0
6
CONTINUOUS
62
7
100
AcDbLine
10
358.720000000000
20
1510.040000000000
30
0.0
11
384.220000000000
21
1585.400000000000
31
0.0
0
LINE
5
776
100
AcDbEntity
8
8-0
6
CONTINUOUS
62
7
100
AcDbLine
10
155.170000000000
20
1478.730000000000
30
0.0
11
135.140000000000
21
1537.920000000000
31
0.0
0
LINE
5
777
100
AcDbEntity
8
8-0
6
CONTINUOUS
62
7
100
AcDbLine
10
476.660000000000
20
1461.270000000000
30
0.0
11
477.730000000000
21
1457.270000000000
31
0.0
0
LINE
5
778
100
AcDbEntity
8
8-0
6
CONTINUOUS
62
7
100
AcDbLine
10
476.660000000000
20
1461.270000000000
30
0.0
11
479.590000000000
21
1458.340000000000
31
0.0
0
LINE
5
779
100
AcDbEntity
8
8-0
6
CONTINUOUS
62
7
100
AcDbLine
10
476.660000000000
20
1461.270000000000
30
0.0
11
488.210000000000
21
1441.270000000000
31
0.0
0
LINE
5
77a
100
AcDbEntity
8
8-0
6
CONTINUOUS
62
7
100
AcDbLine
10
259.400000000000
20
1529.730000000000
30
0.0
11
260.470000000000
21
1525.730000000000
31
0.0
0
LINE
5
77b
100
AcDbEntity
8
8-0
6
CONTINUOUS
62
7
100
AcDbLine
10
259.400000000000
20
1529.730000000000
30
0.0
11
262.330000000000
21
1526.800000000000
31
0.0
0
LINE
5
77c
100
AcDbEntity
8
8-0
6
CONTINUOUS
62
7
100
AcDbLine
10
252.350000000000
20
1513.530000000000
30
0.0
11
253.420000000000
21
1509.530000000000
31
0.0
0
LINE
5
77d
100
AcDbEntity
8
8-0
6
CONTINUOUS
62
7
100
AcDbLine
10
252.350000000000
20
1513.530000000000
30
0.0
11
255.280000000000
21
1510.600000000000
31
0.0
0
LINE
5
77e
100
AcDbEntity
8
8-0
6
CONTINUOUS
62
7
100
AcDbLine
10
252.350000000000
20
1513.530000000000
30
0.0
11
285.960000000000
21
1455.320000000000
31
0.0
0
LINE
5
77f
100
AcDbEntity
8
8-0
6
CONTINUOUS
62
7
100
AcDbLine
10
259.400000000000
20
1529.730000000000
30
0.0
11
302.360000000000
21
1455.320000000000
31
0.0
0
LINE
5
780
100
AcDbEntity
8
8-0
6
CONTINUOUS
62
7
100
AcDbLine
10
743.810000000000
20
2024.000000000000
30
0.0
11
723.740000000000
21
1989.230000000000
31
0.0
0
LINE
5
781
100
AcDbEntity
8
8-0
6
CONTINUOUS
62
7
100
AcDbLine
10
772.770000000000
20
2058.380000000000
30
0.0
11
791.830000000000
21
2114.730000000000
31
0.0
0
LINE
5
782
100
AcDbEntity
8
8-0
6
CONTINUOUS
62
7
100
AcDbLine
10
866.650000000000
20
2081.620000000000
30
0.0
11
888.850000000000
21
2147.240000000000
31
0.0
0
LINE
5
783
100
AcDbEntity
8
8-0
6
CONTINUOUS
62
7
100
AcDbLine
10
816.830000000000
20
1942.220000000000
30
0.0
11
798.600000000000
21
1910.650000000000
31
0.0
0
LINE
5
784
100
AcDbEntity
8
8-0
6
CONTINUOUS
62
7
100
AcDbLine
10
907.870000000000
20
1923.530000000000
30
0.0
11
917.920000000000
21
1906.120000000000
31
0.0
0
LINE
5
785
100
AcDbEntity
8
8-0
6
CONTINUOUS
62
7
100
AcDbLine
10
230.250000000000
20
1495.860000000000
30
0.0
11
213.940000000000
21
1499.800000000000
31
0.0
0
LINE
5
786
100
AcDbEntity
8
8-0
6
CONTINUOUS
62
7
100
AcDbLine
10
230.110000000000
20
1495.380000000000
30
0.0
11
213.820000000000
21
1499.320000000000
31
0.0
0
LINE
5
787
100
AcDbEntity
8
8-0
6
CONTINUOUS
62
7
100
AcDbLine
10
214.180000000000
20
1501.250000000000
30
0.0
11
235.160000000000
21
1500.930000000000
31
0.0
0
LINE
5
788
100
AcDbEntity
8
8-0
6
CONTINUOUS
62
7
100
AcDbLine
10
214.170000000000
20
1500.750000000000
30
0.0
11
235.150000000000
21
1500.430000000000
31
0.0
0
LINE
5
789
100
AcDbEntity
8
8-0
6
CONTINUOUS
62
7
100
AcDbLine
10
260.340000000000
20
1501.500000000000
30
0.0
11
237.680000000000
21
1500.420000000000
31
0.0
0
LINE
5
78a
100
AcDbEntity
8
8-0
6
CONTINUOUS
62
7
100
AcDbLine
10
260.320000000000
20
1502.000000000000
30
0.0
11
237.670000000000
21
1500.920000000000
31
0.0
0
LINE
5
78b
100
AcDbEntity
8
8-0
6
CONTINUOUS
62
7
100
AcDbLine
10
256.000000000000
20
1502.550000000000
30
0.0
11
260.250000000000
21
1503.000000000000
31
0.0
0
LINE
5
78c
100
AcDbEntity
8
8-0
6
CONTINUOUS
62
7
100
AcDbLine
10
256.050000000000
20
1502.050000000000
30
0.0
11
256.000000000000
21
1502.550000000000
31
0.0
0
LINE
5
78d
100
AcDbEntity
8
8-0
6
CONTINUOUS
62
7
100
AcDbLine
10
256.050000000000
20
1502.050000000000
30
0.0
11
260.300000000000
21
1502.500000000000
31
0.0
0
LINE
5
78e
100
AcDbEntity
8
8-0
6
CONTINUOUS
62
7
100
AcDbLine
10
131.460000000000
20
1475.610000000000
30
0.0
11
230.040000000000
21
1494.430000000000
31
0.0
0
LINE
5
78f
100
AcDbEntity
8
8-0
6
CONTINUOUS
62
7
100
AcDbLine
10
131.550000000000
20
1475.120000000000
30
0.0
11
230.160000000000
21
1493.940000000000
31
0.0
0
LINE
5
790
100
AcDbEntity
8
8-0
6
CONTINUOUS
62
7
100
AcDbLine
10
213.890000000000
20
1492.870000000000
30
0.0
11
209.640000000000
21
1509.880000000000
31
0.0
0
LINE
5
791
100
AcDbEntity
8
8-0
6
CONTINUOUS
62
7
100
AcDbLine
10
213.420000000000
20
1492.270000000000
30
0.0
11
208.910000000000
21
1510.320000000000
31
0.0
0
LINE
5
792
100
AcDbEntity
8
8-0
6
CONTINUOUS
62
7
100
AcDbLine
10
213.890000000000
20
1492.870000000000
30
0.0
11
227.220000000000
21
1495.420000000000
31
0.0
0
LINE
5
793
100
AcDbEntity
8
8-0
6
CONTINUOUS
62
7
100
AcDbLine
10
227.220000000000
20
1495.420000000000
30
0.0
11
227.310000000000
21
1494.930000000000
31
0.0
0
LINE
5
794
100
AcDbEntity
8
8-0
6
CONTINUOUS
62
7
100
AcDbLine
10
213.420000000000
20
1492.270000000000
30
0.0
11
227.310000000000
21
1494.930000000000
31
0.0
0
LINE
5
795
100
AcDbEntity
8
8-0
6
CONTINUOUS
62
7
100
AcDbLine
10
328.220000000000
20
1540.660000000000
30
0.0
11
192.400000000000
21
1527.320000000000
31
0.0
0
LINE
5
796
100
AcDbEntity
8
8-0
6
CONTINUOUS
62
7
100
AcDbLine
10
231.300000000000
20
1514.780000000000
30
0.0
11
323.460000000000
21
1517.210000000000
31
0.0
0
LINE
5
797
100
AcDbEntity
8
8-0
6
CONTINUOUS
62
7
100
AcDbLine
10
233.720000000000
20
1505.080000000000
30
0.0
11
231.300000000000
21
1514.780000000000
31
0.0
0
LINE
5
798
100
AcDbEntity
8
8-0
6
CONTINUOUS
62
7
100
AcDbLine
10
233.720000000000
20
1505.080000000000
30
0.0
11
262.830000000000
21
1512.360000000000
31
0.0
0
LINE
5
799
100
AcDbEntity
8
8-0
6
CONTINUOUS
62
7
100
AcDbLine
10
265.250000000000
20
1502.650000000000
30
0.0
11
262.830000000000
21
1512.360000000000
31
0.0
0
LINE
5
79a
100
AcDbEntity
8
8-0
6
CONTINUOUS
62
7
100
AcDbLine
10
323.460000000000
20
1517.210000000000
30
0.0
11
265.250000000000
21
1502.650000000000
31
0.0
0
LINE
5
79b
100
AcDbEntity
8
8-0
6
CONTINUOUS
62
7
100
AcDbLine
10
426.180000000000
20
1495.860000000000
30
0.0
11
442.500000000000
21
1499.800000000000
31
0.0
0
LINE
5
79c
100
AcDbEntity
8
8-0
6
CONTINUOUS
62
7
100
AcDbLine
10
426.320000000000
20
1495.380000000000
30
0.0
11
442.610000000000
21
1499.320000000000
31
0.0
0
LINE
5
79d
100
AcDbEntity
8
8-0
6
CONTINUOUS
62
7
100
AcDbLine
10
442.250000000000
20
1501.250000000000
30
0.0
11
421.270000000000
21
1500.930000000000
31
0.0
0
LINE
5
79e
100
AcDbEntity
8
8-0
6
CONTINUOUS
62
7
100
AcDbLine
10
442.260000000000
20
1500.750000000000
30
0.0
11
421.280000000000
21
1500.430000000000
31
0.0
0
LINE
5
79f
100
AcDbEntity
8
8-0
6
CONTINUOUS
62
7
100
AcDbLine
10
396.090000000000
20
1501.500000000000
30
0.0
11
418.750000000000
21
1500.420000000000
31
0.0
0
LINE
5
7a0
100
AcDbEntity
8
8-0
6
CONTINUOUS
62
7
100
AcDbLine
10
396.110000000000
20
1502.000000000000
30
0.0
11
418.770000000000
21
1500.920000000000
31
0.0
0
LINE
5
7a1
100
AcDbEntity
8
8-0
6
CONTINUOUS
62
7
100
AcDbLine
10
400.430000000000
20
1502.550000000000
30
0.0
11
396.180000000000
21
1503.000000000000
31
0.0
0
LINE
5
7a2
100
AcDbEntity
8
8-0
6
CONTINUOUS
62
7
100
AcDbLine
10
400.380000000000
20
1502.050000000000
30
0.0
11
400.430000000000
21
1502.550000000000
31
0.0
0
LINE
5
7a3
100
AcDbEntity
8
8-0
6
CONTINUOUS
62
7
100
AcDbLine
10
400.380000000000
20
1502.050000000000
30
0.0
11
396.130000000000
21
1502.500000000000
31
0.0
0
LINE
5
7a4
100
AcDbEntity
8
8-0
6
CONTINUOUS
62
7
100
AcDbLine
10
524.980000000000
20
1475.610000000000
30
0.0
11
426.390000000000
21
1494.430000000000
31
0.0
0
LINE
5
7a5
100
AcDbEntity
8
8-0
6
CONTINUOUS
62
7
100
AcDbLine
10
524.880000000000
20
1475.120000000000
30
0.0
11
426.270000000000
21
1493.940000000000
31
0.0
0
LINE
5
7a6
100
AcDbEntity
8
8-0
6
CONTINUOUS
62
7
100
AcDbLine
10
429.210000000000
20
1495.420000000000
30
0.0
11
429.120000000000
21
1494.930000000000
31
0.0
0
LINE
5
7a7
100
AcDbEntity
8
8-0
6
CONTINUOUS
62
7
100
AcDbLine
10
422.710000000000
20
1505.080000000000
30
0.0
11
393.600000000000
21
1512.360000000000
31
0.0
0
LINE
5
7a8
100
AcDbEntity
8
8-0
6
CONTINUOUS
62
7
100
AcDbLine
10
391.180000000000
20
1502.650000000000
30
0.0
11
393.600000000000
21
1512.360000000000
31
0.0
0
LINE
5
7a9
100
AcDbEntity
8
8-0
6
CONTINUOUS
62
7
100
AcDbLine
10
422.710000000000
20
1505.080000000000
30
0.0
11
425.130000000000
21
1514.780000000000
31
0.0
0
LINE
5
7aa
100
AcDbEntity
8
8-0
6
CONTINUOUS
62
7
100
AcDbLine
10
442.540000000000
20
1492.870000000000
30
0.0
11
429.210000000000
21
1495.420000000000
31
0.0
0
LINE
5
7ab
100
AcDbEntity
8
8-0
6
CONTINUOUS
62
7
100
AcDbLine
10
442.540000000000
20
1492.870000000000
30
0.0
11
446.790000000000
21
1509.880000000000
31
0.0
0
LINE
5
7ac
100
AcDbEntity
8
8-0
6
CONTINUOUS
62
7
100
AcDbLine
10
443.010000000000
20
1492.270000000000
30
0.0
11
429.120000000000
21
1494.930000000000
31
0.0
0
LINE
5
7ad
100
AcDbEntity
8
8-0
6
CONTINUOUS
62
7
100
AcDbLine
10
443.010000000000
20
1492.270000000000
30
0.0
11
447.520000000000
21
1510.320000000000
31
0.0
0
LINE
5
7ae
100
AcDbEntity
8
8-0
6
CONTINUOUS
62
7
100
AcDbLine
10
332.970000000000
20
1517.210000000000
30
0.0
11
425.130000000000
21
1514.780000000000
31
0.0
0
LINE
5
7af
100
AcDbEntity
8
8-0
6
CONTINUOUS
62
7
100
AcDbLine
10
328.220000000000
20
1540.660000000000
30
0.0
11
464.040000000000
21
1527.320000000000
31
0.0
0
LINE
5
7b0
100
AcDbEntity
8
8-0
6
CONTINUOUS
62
7
100
AcDbLine
10
1296.440000000000
20
1951.780000000000
30
0.0
11
1297.520000000000
21
1947.780000000000
31
0.0
0
LINE
5
7b1
100
AcDbEntity
8
8-0
6
CONTINUOUS
62
7
100
AcDbLine
10
1296.440000000000
20
1951.780000000000
30
0.0
11
1299.370000000000
21
1948.850000000000
31
0.0
0
LINE
5
7b2
100
AcDbEntity
8
8-0
6
CONTINUOUS
62
7
100
AcDbLine
10
1296.440000000000
20
1951.780000000000
30
0.0
11
1307.990000000000
21
1931.780000000000
31
0.0
0
LINE
5
7b3
100
AcDbEntity
8
8-0
6
CONTINUOUS
62
3
100
AcDbLine
10
1407.680000000000
20
1871.980000000000
30
0.0
11
1363.640000000000
21
1860.960000000000
31
0.0
0
LINE
5
7b4
100
AcDbEntity
8
8-0
6
CONTINUOUS
62
3
100
AcDbLine
10
1363.640000000000
20
1860.960000000000
30
0.0
11
1340.500000000000
21
1953.520000000000
31
0.0
0
LINE
5
7b5
100
AcDbEntity
8
8-0
6
CONTINUOUS
62
3
100
AcDbLine
10
1383.990000000000
20
1966.760000000000
30
0.0
11
1339.950000000000
21
1955.750000000000
31
0.0
0
LINE
5
7b6
100
AcDbEntity
8
8-0
6
CONTINUOUS
62
3
100
AcDbLine
10
1340.500000000000
20
1953.520000000000
30
0.0
11
1384.550000000000
21
1964.530000000000
31
0.0
0
LINE
5
7b7
100
AcDbEntity
8
8-0
6
CONTINUOUS
62
3
100
AcDbLine
10
1391.070000000000
20
1947.910000000000
30
0.0
11
1386.780000000000
21
1965.080000000000
31
0.0
0
LINE
5
7b8
100
AcDbEntity
8
8-0
6
CONTINUOUS
62
3
100
AcDbLine
10
1384.550000000000
20
1964.530000000000
30
0.0
11
1388.840000000000
21
1947.360000000000
31
0.0
0
LINE
5
7b9
100
AcDbEntity
8
8-0
6
CONTINUOUS
62
3
100
AcDbLine
10
1388.840000000000
20
1947.360000000000
30
0.0
11
1391.070000000000
21
1947.910000000000
31
0.0
0
LINE
5
7ba
100
AcDbEntity
8
8-0
6
CONTINUOUS
62
3
100
AcDbLine
10
1403.390000000000
20
1889.150000000000
30
0.0
11
1407.680000000000
21
1871.980000000000
31
0.0
0
LINE
5
7bb
100
AcDbEntity
8
8-0
6
CONTINUOUS
62
3
100
AcDbLine
10
1409.920000000000
20
1872.530000000000
30
0.0
11
1405.620000000000
21
1889.700000000000
31
0.0
0
LINE
5
7bc
100
AcDbEntity
8
8-0
6
CONTINUOUS
62
3
100
AcDbLine
10
1405.620000000000
20
1889.700000000000
30
0.0
11
1403.390000000000
21
1889.150000000000
31
0.0
0
LINE
5
7bd
100
AcDbEntity
8
8-0
6
CONTINUOUS
62
3
100
AcDbLine
10
1364.200000000000
20
1858.730000000000
30
0.0
11
1408.240000000000
21
1869.740000000000
31
0.0
0
LINE
5
7be
100
AcDbEntity
8
8-0
6
CONTINUOUS
62
4
100
AcDbLine
10
1425.540000000000
20
1977.150000000000
30
0.0
11
1443.730000000000
21
2007.460000000000
31
0.0
0
LINE
5
7bf
100
AcDbEntity
8
8-0
6
CONTINUOUS
62
4
100
AcDbLine
10
1398.100000000000
20
1970.290000000000
30
0.0
11
1416.290000000000
21
2000.600000000000
31
0.0
0
LINE
5
7c0
100
AcDbEntity
8
8-0
6
CONTINUOUS
62
4
100
AcDbLine
10
1370.660000000000
20
1963.430000000000
30
0.0
11
1388.850000000000
21
1993.740000000000
31
0.0
0
LINE
5
7c1
100
AcDbEntity
8
8-0
6
CONTINUOUS
62
4
100
AcDbLine
10
1343.220000000000
20
1956.570000000000
30
0.0
11
1361.410000000000
21
1986.880000000000
31
0.0
0
LINE
5
7c2
100
AcDbEntity
8
8-0
6
CONTINUOUS
62
4
100
AcDbLine
10
1315.780000000000
20
1949.710000000000
30
0.0
11
1333.970000000000
21
1980.020000000000
31
0.0
0
LINE
5
7c3
100
AcDbEntity
8
8-0
6
CONTINUOUS
62
4
100
AcDbLine
10
1288.340000000000
20
1942.850000000000
30
0.0
11
1306.530000000000
21
1973.160000000000
31
0.0
0
LINE
5
7c4
100
AcDbEntity
8
8-0
6
CONTINUOUS
62
4
100
AcDbLine
10
1267.580000000000
20
1947.110000000000
30
0.0
11
1279.090000000000
21
1966.300000000000
31
0.0
0
LINE
5
7c5
100
AcDbEntity
8
8-0
6
CONTINUOUS
62
4
100
AcDbLine
10
1266.740000000000
20
1963.220000000000
30
0.0
11
1297.060000000000
21
1945.030000000000
31
0.0
0
LINE
5
7c6
100
AcDbEntity
8
8-0
6
CONTINUOUS
62
4
100
AcDbLine
10
1294.180000000000
20
1970.080000000000
30
0.0
11
1324.500000000000
21
1951.890000000000
31
0.0
0
LINE
5
7c7
100
AcDbEntity
8
8-0
6
CONTINUOUS
62
4
100
AcDbLine
10
1321.620000000000
20
1976.940000000000
30
0.0
11
1351.940000000000
21
1958.750000000000
31
0.0
0
LINE
5
7c8
100
AcDbEntity
8
8-0
6
CONTINUOUS
62
4
100
AcDbLine
10
1349.060000000000
20
1983.800000000000
30
0.0
11
1379.380000000000
21
1965.610000000000
31
0.0
0
LINE
5
7c9
100
AcDbEntity
8
8-0
6
CONTINUOUS
62
4
100
AcDbLine
10
1376.500000000000
20
1990.660000000000
30
0.0
11
1406.820000000000
21
1972.460000000000
31
0.0
0
LINE
5
7ca
100
AcDbEntity
8
8-0
6
CONTINUOUS
62
4
100
AcDbLine
10
1403.940000000000
20
1997.520000000000
30
0.0
11
1434.260000000000
21
1979.330000000000
31
0.0
0
LINE
5
7cb
100
AcDbEntity
8
8-0
6
CONTINUOUS
62
3
100
AcDbLine
10
1338.270000000000
20
1952.960000000000
30
0.0
11
1361.410000000000
21
1860.410000000000
31
0.0
0
LINE
5
7cc
100
AcDbEntity
8
8-0
6
CONTINUOUS
62
7
100
AcDbLine
10
1345.090000000000
20
2029.190000000000
30
0.0
11
1345.230000000000
21
2028.600000000000
31
0.0
0
LINE
5
7cd
100
AcDbEntity
8
8-0
6
CONTINUOUS
62
7
100
AcDbLine
10
1350.080000000000
20
2029.820000000000
30
0.0
11
1345.230000000000
21
2028.600000000000
31
0.0
0
LINE
5
7ce
100
AcDbEntity
8
8-0
6
CONTINUOUS
62
7
100
AcDbLine
10
1349.940000000000
20
2030.400000000000
30
0.0
11
1345.090000000000
21
2029.190000000000
31
0.0
0
LINE
5
7cf
100
AcDbEntity
8
8-0
6
CONTINUOUS
62
4
100
AcDbLine
10
1452.980000000000
20
1984.010000000000
30
0.0
11
1457.480000000000
21
1991.510000000000
31
0.0
0
LINE
5
7d0
100
AcDbEntity
8
8-0
6
CONTINUOUS
62
4
100
AcDbLine
10
1431.380000000000
20
2004.370000000000
30
0.0
11
1458.300000000000
21
1988.220000000000
31
0.0
0
LINE
5
7d1
100
AcDbEntity
8
8-0
6
CONTINUOUS
62
3
100
AcDbLine
10
1458.980000000000
20
1985.510000000000
30
0.0
11
1269.800000000000
21
1938.210000000000
31
0.0
0
LINE
5
7d2
100
AcDbEntity
8
8-0
6
CONTINUOUS
62
3
100
AcDbLine
10
1452.920000000000
20
2009.760000000000
30
0.0
11
1263.740000000000
21
1962.460000000000
31
0.0
0
LINE
5
7d3
100
AcDbEntity
8
8-0
6
CONTINUOUS
62
3
100
AcDbLine
10
1458.980000000000
20
1985.510000000000
30
0.0
11
1452.920000000000
21
2009.760000000000
31
0.0
0
LINE
5
7d4
100
AcDbEntity
8
8-0
6
CONTINUOUS
62
4
100
AcDbLine
10
1287.930000000000
20
2085.290000000000
30
0.0
11
1277.970000000000
21
2125.170000000000
31
0.0
0
LINE
5
7d5
100
AcDbEntity
8
8-0
6
CONTINUOUS
62
7
100
AcDbLine
10
1449.380000000000
20
2030.520000000000
30
0.0
11
1362.060000000000
21
2008.690000000000
31
0.0
0
LINE
5
7d6
100
AcDbEntity
8
8-0
6
CONTINUOUS
62
7
100
AcDbLine
10
1454.230000000000
20
2011.120000000000
30
0.0
11
1449.380000000000
21
2030.520000000000
31
0.0
0
LINE
5
7d7
100
AcDbEntity
8
8-0
6
CONTINUOUS
62
7
100
AcDbLine
10
1362.060000000000
20
2008.690000000000
30
0.0
11
1454.230000000000
21
2011.120000000000
31
0.0
0
LINE
5
7d8
100
AcDbEntity
8
8-0
6
CONTINUOUS
62
7
100
AcDbLine
10
1383.330000000000
20
2015.140000000000
30
0.0
11
1339.680000000000
21
2004.230000000000
31
0.0
0
LINE
5
7d9
100
AcDbEntity
8
8-0
6
CONTINUOUS
62
7
100
AcDbLine
10
1383.480000000000
20
2014.560000000000
30
0.0
11
1383.330000000000
21
2015.140000000000
31
0.0
0
LINE
5
7da
100
AcDbEntity
8
8-0
6
CONTINUOUS
62
7
100
AcDbLine
10
1383.480000000000
20
2014.560000000000
30
0.0
11
1340.410000000000
21
2003.790000000000
31
0.0
0
LINE
5
7db
100
AcDbEntity
8
8-0
6
CONTINUOUS
62
7
100
AcDbLine
10
1328.010000000000
20
2001.830000000000
30
0.0
11
1323.160000000000
21
2021.230000000000
31
0.0
0
LINE
5
7dc
100
AcDbEntity
8
8-0
6
CONTINUOUS
62
7
100
AcDbLine
10
1310.960000000000
20
1980.140000000000
30
0.0
11
1301.260000000000
21
1977.710000000000
31
0.0
0
LINE
5
7dd
100
AcDbEntity
8
8-0
6
CONTINUOUS
62
7
100
AcDbLine
10
1310.960000000000
20
1980.140000000000
30
0.0
11
1311.110000000000
21
1979.550000000000
31
0.0
0
LINE
5
7de
100
AcDbEntity
8
8-0
6
CONTINUOUS
62
7
100
AcDbLine
10
1311.110000000000
20
1979.550000000000
30
0.0
11
1301.410000000000
21
1977.130000000000
31
0.0
0
LINE
5
7df
100
AcDbEntity
8
8-0
6
CONTINUOUS
62
7
100
AcDbLine
10
1330.340000000000
20
1984.980000000000
30
0.0
11
1300.970000000000
21
1978.880000000000
31
0.0
0
LINE
5
7e0
100
AcDbEntity
8
8-0
6
CONTINUOUS
62
7
100
AcDbLine
10
1330.470000000000
20
1984.400000000000
30
0.0
11
1301.090000000000
21
1978.290000000000
31
0.0
0
LINE
5
7e1
100
AcDbEntity
8
8-0
6
CONTINUOUS
62
7
100
AcDbLine
10
1307.150000000000
20
2018.470000000000
30
0.0
11
1350.230000000000
21
2029.230000000000
31
0.0
0
LINE
5
7e2
100
AcDbEntity
8
8-0
6
CONTINUOUS
62
7
100
AcDbLine
10
1307.300000000000
20
2017.880000000000
30
0.0
11
1350.370000000000
21
2028.650000000000
31
0.0
0
LINE
5
7e3
100
AcDbEntity
8
8-0
6
CONTINUOUS
62
7
100
AcDbLine
10
1308.030000000000
20
2014.970000000000
30
0.0
11
1320.640000000000
21
2018.130000000000
31
0.0
0
LINE
5
7e4
100
AcDbEntity
8
8-0
6
CONTINUOUS
62
7
100
AcDbLine
10
1320.490000000000
20
2018.710000000000
30
0.0
11
1320.640000000000
21
2018.130000000000
31
0.0
0
LINE
5
7e5
100
AcDbEntity
8
8-0
6
CONTINUOUS
62
7
100
AcDbLine
10
1307.880000000000
20
2015.560000000000
30
0.0
11
1320.490000000000
21
2018.710000000000
31
0.0
0
LINE
5
7e6
100
AcDbEntity
8
8-0
6
CONTINUOUS
62
7
100
AcDbLine
10
1321.560000000000
20
2020.210000000000
30
0.0
11
1307.590000000000
21
2016.720000000000
31
0.0
0
LINE
5
7e7
100
AcDbEntity
8
8-0
6
CONTINUOUS
62
7
100
AcDbLine
10
1322.290000000000
20
2019.780000000000
30
0.0
11
1330.800000000000
21
1985.720000000000
31
0.0
0
LINE
5
7e8
100
AcDbEntity
8
8-0
6
CONTINUOUS
62
7
100
AcDbLine
10
1307.440000000000
20
2017.300000000000
30
0.0
11
1321.410000000000
21
2020.800000000000
31
0.0
0
LINE
5
7e9
100
AcDbEntity
8
8-0
6
CONTINUOUS
62
7
100
AcDbLine
10
1331.390000000000
20
1985.860000000000
30
0.0
11
1322.870000000000
21
2019.920000000000
31
0.0
0
LINE
5
7ea
100
AcDbEntity
8
8-0
6
CONTINUOUS
62
7
100
AcDbLine
10
1306.720000000000
20
2020.210000000000
30
0.0
11
1349.790000000000
21
2030.980000000000
31
0.0
0
LINE
5
7eb
100
AcDbEntity
8
8-0
6
DASHED
62
7
100
AcDbLine
10
1342.790000000000
20
2027.990000000000
30
0.0
11
1345.090000000000
21
2029.190000000000
31
0.0
0
LINE
5
7ec
100
AcDbEntity
8
8-0
6
DASHED
62
7
100
AcDbLine
10
1349.950000000000
20
2030.400000000000
30
0.0
11
1357.690000000000
21
2031.060000000000
31
0.0
0
LINE
5
7ed
100
AcDbEntity
8
8-0
6
DASHED
62
7
100
AcDbLine
10
1357.690000000000
20
2031.060000000000
30
0.0
11
1386.510000000000
21
2038.100000000000
31
0.0
0
LINE
5
7ee
100
AcDbEntity
8
8-0
6
CENTER2
62
7
100
AcDbLine
10
1338.830000000000
20
2010.850000000000
30
0.0
11
1334.120000000000
21
2029.690000000000
31
0.0
0
LINE
5
7ef
100
AcDbEntity
8
8-0
6
CONTINUOUS
62
4
100
AcDbLine
10
1277.970000000000
20
2125.170000000000
30
0.0
11
1432.160000000000
21
2163.720000000000
31
0.0
0
LINE
5
7f0
100
AcDbEntity
8
8-0
6
CONTINUOUS
62
4
100
AcDbLine
10
1442.130000000000
20
2123.840000000000
30
0.0
11
1432.160000000000
21
2163.720000000000
31
0.0
0
LINE
5
7f1
100
AcDbEntity
8
8-0
6
CONTINUOUS
62
4
100
AcDbLine
10
1336.750000000000
20
2014.010000000000
30
0.0
11
1333.960000000000
21
2025.170000000000
31
0.0
0
LINE
5
7f2
100
AcDbEntity
8
8-0
6
CONTINUOUS
62
4
100
AcDbLine
10
1336.390000000000
20
2025.770000000000
30
0.0
11
1339.180000000000
21
2014.620000000000
31
0.0
0
LINE
5
7f3
100
AcDbEntity
8
8-0
6
CONTINUOUS
62
4
100
AcDbLine
10
1330.230000000000
20
2024.650000000000
30
0.0
11
1339.930000000000
21
2027.070000000000
31
0.0
0
LINE
5
7f4
100
AcDbEntity
8
8-0
6
CONTINUOUS
62
4
100
AcDbLine
10
1332.050000000000
20
2025.620000000000
30
0.0
11
1337.870000000000
21
2027.070000000000
31
0.0
0
LINE
5
7f5
100
AcDbEntity
8
8-0
6
CONTINUOUS
62
4
100
AcDbLine
10
1339.930000000000
20
2027.070000000000
30
0.0
11
1340.020000000000
21
2026.680000000000
31
0.0
0
LINE
5
7f6
100
AcDbEntity
8
8-0
6
CONTINUOUS
62
4
100
AcDbLine
10
1337.870000000000
20
2027.070000000000
30
0.0
11
1339.440000000000
21
2026.950000000000
31
0.0
0
LINE
5
7f7
100
AcDbEntity
8
8-0
6
CONTINUOUS
62
4
100
AcDbLine
10
1337.460000000000
20
2022.520000000000
30
0.0
11
1334.430000000000
21
2022.270000000000
31
0.0
0
LINE
5
7f8
100
AcDbEntity
8
8-0
6
CONTINUOUS
62
4
100
AcDbLine
10
1337.700000000000
20
2021.550000000000
30
0.0
11
1334.670000000000
21
2021.310000000000
31
0.0
0
LINE
5
7f9
100
AcDbEntity
8
8-0
6
CONTINUOUS
62
4
100
AcDbLine
10
1337.940000000000
20
2020.580000000000
30
0.0
11
1334.910000000000
21
2020.330000000000
31
0.0
0
LINE
5
7fa
100
AcDbEntity
8
8-0
6
CONTINUOUS
62
4
100
AcDbLine
10
1337.220000000000
20
2023.490000000000
30
0.0
11
1334.180000000000
21
2023.250000000000
31
0.0
0
LINE
5
7fb
100
AcDbEntity
8
8-0
6
CONTINUOUS
62
4
100
AcDbLine
10
1330.230000000000
20
2024.650000000000
30
0.0
11
1330.320000000000
21
2024.260000000000
31
0.0
0
LINE
5
7fc
100
AcDbEntity
8
8-0
6
CONTINUOUS
62
4
100
AcDbLine
10
1332.050000000000
20
2025.620000000000
30
0.0
11
1330.710000000000
21
2024.770000000000
31
0.0
0
LINE
5
7fd
100
AcDbEntity
8
8-0
6
CONTINUOUS
62
4
100
AcDbLine
10
1338.430000000000
20
2018.640000000000
30
0.0
11
1335.400000000000
21
2018.390000000000
31
0.0
0
LINE
5
7fe
100
AcDbEntity
8
8-0
6
CONTINUOUS
62
4
100
AcDbLine
10
1338.190000000000
20
2019.610000000000
30
0.0
11
1335.150000000000
21
2019.360000000000
31
0.0
0
LINE
5
7ff
100
AcDbEntity
8
8-0
6
CONTINUOUS
62
4
100
AcDbLine
10
1338.670000000000
20
2017.670000000000
30
0.0
11
1335.640000000000
21
2017.420000000000
31
0.0
0
LINE
5
800
100
AcDbEntity
8
8-0
6
CONTINUOUS
62
4
100
AcDbLine
10
1338.910000000000
20
2016.700000000000
30
0.0
11
1335.880000000000
21
2016.450000000000
31
0.0
0
LINE
5
801
100
AcDbEntity
8
8-0
6
CONTINUOUS
62
4
100
AcDbLine
10
1338.210000000000
20
2013.340000000000
30
0.0
11
1336.750000000000
21
2014.010000000000
31
0.0
0
LINE
5
802
100
AcDbEntity
8
8-0
6
CONTINUOUS
62
4
100
AcDbLine
10
1339.180000000000
20
2014.620000000000
30
0.0
11
1338.210000000000
21
2013.340000000000
31
0.0
0
LINE
5
803
100
AcDbEntity
8
8-0
6
CONTINUOUS
62
4
100
AcDbLine
10
1337.600000000000
20
2013.710000000000
30
0.0
11
1337.960000000000
21
2014.310000000000
31
0.0
0
LINE
5
804
100
AcDbEntity
8
8-0
6
CONTINUOUS
62
4
100
AcDbLine
10
1337.960000000000
20
2014.310000000000
30
0.0
11
1337.470000000000
21
2014.900000000000
31
0.0
0
LINE
5
805
100
AcDbEntity
8
8-0
6
CONTINUOUS
62
4
100
AcDbLine
10
1337.470000000000
20
2014.900000000000
30
0.0
11
1338.110000000000
21
2015.500000000000
31
0.0
0
LINE
5
806
100
AcDbEntity
8
8-0
6
CONTINUOUS
62
4
100
AcDbLine
10
1338.110000000000
20
2015.500000000000
30
0.0
11
1339.180000000000
21
2014.620000000000
31
0.0
0
LINE
5
807
100
AcDbEntity
8
8-0
6
CONTINUOUS
62
4
100
AcDbLine
10
1330.320000000000
20
2024.260000000000
30
0.0
11
1340.020000000000
21
2026.680000000000
31
0.0
0
LINE
5
808
100
AcDbEntity
8
8-0
6
CONTINUOUS
62
7
100
AcDbLine
10
1306.860000000000
20
2019.630000000000
30
0.0
11
1349.940000000000
21
2030.400000000000
31
0.0
0
LINE
5
809
100
AcDbEntity
8
8-0
6
DASHED
62
7
100
AcDbLine
10
1307.300000000000
20
2019.120000000000
30
0.0
11
1329.410000000000
21
2024.650000000000
31
0.0
0
LINE
5
80a
100
AcDbEntity
8
8-0
6
DASHED
62
7
100
AcDbLine
10
1330.610000000000
20
2025.410000000000
30
0.0
11
1329.410000000000
21
2024.650000000000
31
0.0
0
LINE
5
80b
100
AcDbEntity
8
8-0
6
DASHED
62
7
100
AcDbLine
10
1330.610000000000
20
2025.410000000000
30
0.0
11
1334.920000000000
21
2026.490000000000
31
0.0
0
LINE
5
80c
100
AcDbEntity
8
8-0
6
DASHED
62
7
100
AcDbLine
10
1339.230000000000
20
2027.570000000000
30
0.0
11
1334.920000000000
21
2026.490000000000
31
0.0
0
LINE
5
80d
100
AcDbEntity
8
8-0
6
DASHED
62
7
100
AcDbLine
10
1339.230000000000
20
2027.570000000000
30
0.0
11
1340.650000000000
21
2027.460000000000
31
0.0
0
LINE
5
80e
100
AcDbEntity
8
8-0
6
DASHED
62
7
100
AcDbLine
10
1340.650000000000
20
2027.460000000000
30
0.0
11
1342.790000000000
21
2027.990000000000
31
0.0
0
LINE
5
80f
100
AcDbEntity
8
8-0
6
CONTINUOUS
62
3
100
AcDbLine
10
1461.280000000000
20
2136.610000000000
30
0.0
11
1461.280000000000
21
2091.210000000000
31
0.0
0
LINE
5
810
100
AcDbEntity
8
8-0
6
CONTINUOUS
62
3
100
AcDbLine
10
1556.680000000000
20
2088.910000000000
30
0.0
11
1461.280000000000
21
2088.910000000000
31
0.0
0
LINE
5
811
100
AcDbEntity
8
8-0
6
CONTINUOUS
62
3
100
AcDbLine
10
1461.280000000000
20
2091.210000000000
30
0.0
11
1556.680000000000
21
2091.210000000000
31
0.0
0
LINE
5
812
100
AcDbEntity
8
8-0
6
CONTINUOUS
62
3
100
AcDbLine
10
1558.980000000000
20
2136.610000000000
30
0.0
11
1558.980000000000
21
2091.210000000000
31
0.0
0
LINE
5
813
100
AcDbEntity
8
8-0
6
CONTINUOUS
62
3
100
AcDbLine
10
1556.680000000000
20
2091.210000000000
30
0.0
11
1556.680000000000
21
2136.610000000000
31
0.0
0
LINE
5
814
100
AcDbEntity
8
8-0
6
CONTINUOUS
62
3
100
AcDbLine
10
1538.980000000000
20
2138.910000000000
30
0.0
11
1556.680000000000
21
2138.910000000000
31
0.0
0
LINE
5
815
100
AcDbEntity
8
8-0
6
CONTINUOUS
62
3
100
AcDbLine
10
1556.680000000000
20
2136.610000000000
30
0.0
11
1538.980000000000
21
2136.610000000000
31
0.0
0
LINE
5
816
100
AcDbEntity
8
8-0
6
CONTINUOUS
62
3
100
AcDbLine
10
1538.980000000000
20
2136.610000000000
30
0.0
11
1538.980000000000
21
2138.910000000000
31
0.0
0
LINE
5
817
100
AcDbEntity
8
8-0
6
CONTINUOUS
62
3
100
AcDbLine
10
1478.980000000000
20
2136.610000000000
30
0.0
11
1461.280000000000
21
2136.610000000000
31
0.0
0
LINE
5
818
100
AcDbEntity
8
8-0
6
CONTINUOUS
62
3
100
AcDbLine
10
1461.280000000000
20
2138.910000000000
30
0.0
11
1478.980000000000
21
2138.910000000000
31
0.0
0
LINE
5
819
100
AcDbEntity
8
8-0
6
CONTINUOUS
62
3
100
AcDbLine
10
1478.980000000000
20
2138.910000000000
30
0.0
11
1478.980000000000
21
2136.610000000000
31
0.0
0
LINE
5
81a
100
AcDbEntity
8
8-0
6
CONTINUOUS
62
3
100
AcDbLine
10
1458.980000000000
20
2091.210000000000
30
0.0
11
1458.980000000000
21
2136.610000000000
31
0.0
0
LINE
5
81b
100
AcDbEntity
8
8-0
6
CONTINUOUS
62
7
100
AcDbLine
10
1455.180000000000
20
2132.490000000000
30
0.0
11
1455.180000000000
21
2136.610000000000
31
0.0
0
LINE
5
81c
100
AcDbEntity
8
8-0
6
CONTINUOUS
62
7
100
AcDbLine
10
1455.780000000000
20
2132.490000000000
30
0.0
11
1455.180000000000
21
2132.490000000000
31
0.0
0
LINE
5
81d
100
AcDbEntity
8
8-0
6
CONTINUOUS
62
7
100
AcDbLine
10
1455.780000000000
20
2132.490000000000
30
0.0
11
1455.780000000000
21
2136.610000000000
31
0.0
0
LINE
5
81e
100
AcDbEntity
8
8-0
6
DASHED
62
7
100
AcDbLine
10
1456.980000000000
20
2141.170000000000
30
0.0
11
1456.980000000000
21
2179.460000000000
31
0.0
0
LINE
5
81f
100
AcDbEntity
8
8-0
6
DASHED
62
7
100
AcDbLine
10
1456.980000000000
20
2141.170000000000
30
0.0
11
1454.580000000000
21
2137.470000000000
31
0.0
0
LINE
5
820
100
AcDbEntity
8
8-0
6
DASHED
62
7
100
AcDbLine
10
1454.580000000000
20
2137.470000000000
30
0.0
11
1454.580000000000
21
2132.050000000000
31
0.0
0
LINE
5
821
100
AcDbEntity
8
8-0
6
DASHED
62
7
100
AcDbLine
10
1454.580000000000
20
2132.050000000000
30
0.0
11
1455.180000000000
21
2130.090000000000
31
0.0
0
LINE
5
822
100
AcDbEntity
8
8-0
6
CONTINUOUS
62
4
100
AcDbLine
10
1438.980000000000
20
2091.220000000000
30
0.0
11
1453.980000000000
21
2106.220000000000
31
0.0
0
LINE
5
823
100
AcDbEntity
8
8-0
6
CONTINUOUS
62
4
100
AcDbLine
10
1438.980000000000
20
2094.050000000000
30
0.0
11
1453.980000000000
21
2109.050000000000
31
0.0
0
LINE
5
824
100
AcDbEntity
8
8-0
6
CONTINUOUS
62
4
100
AcDbLine
10
1438.980000000000
20
2119.510000000000
30
0.0
11
1453.980000000000
21
2134.510000000000
31
0.0
0
LINE
5
825
100
AcDbEntity
8
8-0
6
CONTINUOUS
62
4
100
AcDbLine
10
1438.980000000000
20
2122.330000000000
30
0.0
11
1453.980000000000
21
2137.330000000000
31
0.0
0
LINE
5
826
100
AcDbEntity
8
8-0
6
CONTINUOUS
62
4
100
AcDbLine
10
1438.980000000000
20
2147.790000000000
30
0.0
11
1453.980000000000
21
2162.790000000000
31
0.0
0
LINE
5
827
100
AcDbEntity
8
8-0
6
CONTINUOUS
62
4
100
AcDbLine
10
1438.980000000000
20
2150.620000000000
30
0.0
11
1453.980000000000
21
2165.620000000000
31
0.0
0
LINE
5
828
100
AcDbEntity
8
8-0
6
CONTINUOUS
62
4
100
AcDbLine
10
1438.980000000000
20
2176.070000000000
30
0.0
11
1442.370000000000
21
2179.460000000000
31
0.0
0
LINE
5
829
100
AcDbEntity
8
8-0
6
CONTINUOUS
62
4
100
AcDbLine
10
1438.980000000000
20
2178.900000000000
30
0.0
11
1439.540000000000
21
2179.460000000000
31
0.0
0
LINE
5
82a
100
AcDbEntity
8
8-0
6
CONTINUOUS
62
4
100
AcDbLine
10
1465.130000000000
20
1985.510000000000
30
0.0
11
1507.070000000000
21
1985.510000000000
31
0.0
0
LINE
5
82b
100
AcDbEntity
8
8-0
6
CONTINUOUS
62
4
100
AcDbLine
10
1507.070000000000
20
2088.910000000000
30
0.0
11
1507.070000000000
21
1985.510000000000
31
0.0
0
LINE
5
82c
100
AcDbEntity
8
8-0
6
CONTINUOUS
62
7
100
AcDbLine
10
1438.980000000000
20
2066.420000000000
30
0.0
11
1438.980000000000
21
2179.460000000000
31
0.0
0
LINE
5
82d
100
AcDbEntity
8
8-0
6
CONTINUOUS
62
7
100
AcDbLine
10
1438.980000000000
20
2066.420000000000
30
0.0
11
1453.980000000000
21
2066.420000000000
31
0.0
0
LINE
5
82e
100
AcDbEntity
8
8-0
6
CONTINUOUS
62
7
100
AcDbLine
10
1453.980000000000
20
2066.420000000000
30
0.0
11
1453.980000000000
21
2179.460000000000
31
0.0
0
LINE
5
82f
100
AcDbEntity
8
8-0
6
DASHED
62
7
100
AcDbLine
10
1455.180000000000
20
2130.090000000000
30
0.0
11
1455.180000000000
21
2079.420000000000
31
0.0
0
LINE
5
830
100
AcDbEntity
8
8-0
6
CONTINUOUS
62
7
100
AcDbLine
10
1349.800000000000
20
2030.980000000000
30
0.0
11
1456.380000000000
21
2056.420000000000
31
0.0
0
LINE
5
831
100
AcDbEntity
8
8-0
6
CONTINUOUS
62
7
100
AcDbLine
10
1456.380000000000
20
2056.420000000000
30
0.0
11
1456.380000000000
21
2136.610000000000
31
0.0
0
LINE
5
832
100
AcDbEntity
8
8-0
6
CONTINUOUS
62
7
100
AcDbLine
10
1349.940000000000
20
2030.400000000000
30
0.0
11
1456.980000000000
21
2055.950000000000
31
0.0
0
LINE
5
833
100
AcDbEntity
8
8-0
6
CONTINUOUS
62
7
100
AcDbLine
10
1456.980000000000
20
2055.950000000000
30
0.0
11
1456.980000000000
21
2136.610000000000
31
0.0
0
LINE
5
834
100
AcDbEntity
8
8-0
6
DASHED
62
7
100
AcDbLine
10
1454.950000000000
20
2010.780000000000
30
0.0
11
1263.620000000000
21
1962.950000000000
31
0.0
0
LINE
5
835
100
AcDbEntity
8
8-0
6
DASHED
62
7
100
AcDbLine
10
1457.980000000000
20
2014.660000000000
30
0.0
11
1457.980000000000
21
2136.610000000000
31
0.0
0
LINE
5
836
100
AcDbEntity
8
8-0
6
CONTINUOUS
62
7
100
AcDbLine
10
1452.130000000000
20
2053.470000000000
30
0.0
11
1323.160000000000
21
2021.230000000000
31
0.0
0
LINE
5
837
100
AcDbEntity
8
8-0
6
CONTINUOUS
62
7
100
AcDbLine
10
1456.980000000000
20
2034.070000000000
30
0.0
11
1452.130000000000
21
2053.470000000000
31
0.0
0
LINE
5
838
100
AcDbEntity
8
8-0
6
CONTINUOUS
62
7
100
AcDbLine
10
1456.980000000000
20
2034.070000000000
30
0.0
11
1328.010000000000
21
2001.830000000000
31
0.0
0
LINE
5
839
100
AcDbEntity
8
8-0
6
CONTINUOUS
62
7
100
AcDbLine
10
1456.980000000000
20
2034.070000000000
30
0.0
11
1323.160000000000
21
2021.230000000000
31
0.0
0
LINE
5
83a
100
AcDbEntity
8
8-0
6
CONTINUOUS
62
4
100
AcDbLine
10
1442.460000000000
20
2066.420000000000
30
0.0
11
1453.980000000000
21
2077.940000000000
31
0.0
0
LINE
5
83b
100
AcDbEntity
8
8-0
6
CONTINUOUS
62
4
100
AcDbLine
10
1439.640000000000
20
2066.420000000000
30
0.0
11
1453.980000000000
21
2080.770000000000
31
0.0
0
LINE
5
83c
100
AcDbEntity
8
8-0
6
DASHED
62
7
100
AcDbLine
10
1386.510000000000
20
2038.100000000000
30
0.0
11
1457.980000000000
21
2055.560000000000
31
0.0
0
LINE
5
83d
100
AcDbEntity
8
8-0
6
CONTINUOUS
62
7
100
AcDbLine
10
1438.980000000000
20
2113.250000000000
30
0.0
11
1433.190000000000
21
2111.700000000000
31
0.0
0
LINE
5
83e
100
AcDbEntity
8
8-0
6
CONTINUOUS
62
7
100
AcDbLine
10
1438.980000000000
20
2113.250000000000
30
0.0
11
1433.190000000000
21
2114.810000000000
31
0.0
0
LINE
5
83f
100
AcDbEntity
8
8-0
6
CONTINUOUS
62
7
100
AcDbLine
10
1418.930000000000
20
2113.250000000000
30
0.0
11
1414.130000000000
21
2127.460000000000
31
0.0
0
LINE
5
840
100
AcDbEntity
8
8-0
6
CONTINUOUS
62
7
100
AcDbLine
10
1418.930000000000
20
2113.250000000000
30
0.0
11
1438.980000000000
21
2113.250000000000
31
0.0
0
LINE
5
841
100
AcDbEntity
8
8-0
6
CONTINUOUS
62
7
100
AcDbLine
10
1431.530000000000
20
2050.490000000000
30
0.0
11
1431.260000000000
21
2054.620000000000
31
0.0
0
LINE
5
842
100
AcDbEntity
8
8-0
6
CONTINUOUS
62
7
100
AcDbLine
10
1431.530000000000
20
2050.490000000000
30
0.0
11
1429.230000000000
21
2053.930000000000
31
0.0
0
LINE
5
843
100
AcDbEntity
8
8-0
6
CONTINUOUS
62
7
100
AcDbLine
10
1285.930000000000
20
1972.640000000000
30
0.0
11
1285.670000000000
21
1976.770000000000
31
0.0
0
LINE
5
844
100
AcDbEntity
8
8-0
6
CONTINUOUS
62
7
100
AcDbLine
10
1285.930000000000
20
1972.640000000000
30
0.0
11
1283.640000000000
21
1976.090000000000
31
0.0
0
LINE
5
845
100
AcDbEntity
8
8-0
6
CONTINUOUS
62
7
100
AcDbLine
10
1431.530000000000
20
2050.490000000000
30
0.0
11
1418.330000000000
21
2089.500000000000
31
0.0
0
LINE
5
846
100
AcDbEntity
8
8-0
6
CONTINUOUS
62
7
100
AcDbLine
10
1365.700000000000
20
2010.530000000000
30
0.0
11
1365.430000000000
21
2014.660000000000
31
0.0
0
LINE
5
847
100
AcDbEntity
8
8-0
6
CONTINUOUS
62
7
100
AcDbLine
10
1365.700000000000
20
2010.530000000000
30
0.0
11
1363.400000000000
21
2013.970000000000
31
0.0
0
LINE
5
848
100
AcDbEntity
8
8-0
6
CONTINUOUS
62
7
100
AcDbLine
10
1365.700000000000
20
2010.530000000000
30
0.0
11
1352.500000000000
21
2049.540000000000
31
0.0
0
LINE
5
849
100
AcDbEntity
8
8-0
6
CONTINUOUS
62
7
100
AcDbLine
10
1406.830000000000
20
2031.130000000000
30
0.0
11
1406.560000000000
21
2035.270000000000
31
0.0
0
LINE
5
84a
100
AcDbEntity
8
8-0
6
CONTINUOUS
62
7
100
AcDbLine
10
1406.830000000000
20
2031.130000000000
30
0.0
11
1404.530000000000
21
2034.580000000000
31
0.0
0
LINE
5
84b
100
AcDbEntity
8
8-0
6
CONTINUOUS
62
7
100
AcDbLine
10
1404.570000000000
20
2011.160000000000
30
0.0
11
1404.300000000000
21
2015.290000000000
31
0.0
0
LINE
5
84c
100
AcDbEntity
8
8-0
6
CONTINUOUS
62
7
100
AcDbLine
10
1404.570000000000
20
2011.160000000000
30
0.0
11
1402.270000000000
21
2014.600000000000
31
0.0
0
LINE
5
84d
100
AcDbEntity
8
8-0
6
CONTINUOUS
62
7
100
AcDbLine
10
1404.570000000000
20
2011.160000000000
30
0.0
11
1385.040000000000
21
2068.860000000000
31
0.0
0
LINE
5
84e
100
AcDbEntity
8
8-0
6
CONTINUOUS
62
7
100
AcDbLine
10
1406.830000000000
20
2031.130000000000
30
0.0
11
1394.070000000000
21
2068.860000000000
31
0.0
0
LINE
5
84f
100
AcDbEntity
8
8-0
6
CONTINUOUS
62
3
100
AcDbLine
10
1458.980000000000
20
1976.040000000000
30
0.0
11
1458.980000000000
21
2179.460000000000
31
0.0
0
LINE
5
850
100
AcDbEntity
8
8-0
6
CONTINUOUS
62
7
100
AcDbLine
10
1378.190000000000
20
2036.150000000000
30
0.0
11
1379.260000000000
21
2032.150000000000
31
0.0
0
LINE
5
851
100
AcDbEntity
8
8-0
6
CONTINUOUS
62
7
100
AcDbLine
10
1378.190000000000
20
2036.150000000000
30
0.0
11
1381.120000000000
21
2033.230000000000
31
0.0
0
LINE
5
852
100
AcDbEntity
8
8-0
6
CONTINUOUS
62
7
100
AcDbLine
10
1392.570000000000
20
1995.160000000000
30
0.0
11
1393.640000000000
21
1991.160000000000
31
0.0
0
LINE
5
853
100
AcDbEntity
8
8-0
6
CONTINUOUS
62
7
100
AcDbLine
10
1392.570000000000
20
1995.160000000000
30
0.0
11
1395.500000000000
21
1992.240000000000
31
0.0
0
LINE
5
854
100
AcDbEntity
8
8-0
6
CONTINUOUS
62
7
100
AcDbLine
10
1392.570000000000
20
1995.160000000000
30
0.0
11
1422.830000000000
21
1942.770000000000
31
0.0
0
LINE
5
855
100
AcDbEntity
8
8-0
6
CONTINUOUS
62
7
100
AcDbLine
10
1378.190000000000
20
2036.150000000000
30
0.0
11
1432.120000000000
21
1942.770000000000
31
0.0
0
LINE
5
856
100
AcDbEntity
8
8-0
6
CONTINUOUS
62
7
100
AcDbLine
10
1285.930000000000
20
1972.640000000000
30
0.0
11
1272.730000000000
21
2011.660000000000
31
0.0
0
LINE
5
857
100
AcDbEntity
8
8-0
6
CONTINUOUS
62
7
100
AcDbLine
10
1320.580000000000
20
2021.490000000000
30
0.0
11
1320.310000000000
21
2025.620000000000
31
0.0
0
LINE
5
858
100
AcDbEntity
8
8-0
6
CONTINUOUS
62
7
100
AcDbLine
10
1320.580000000000
20
2021.490000000000
30
0.0
11
1318.280000000000
21
2024.930000000000
31
0.0
0
LINE
5
859
100
AcDbEntity
8
8-0
6
CONTINUOUS
62
7
100
AcDbLine
10
1320.580000000000
20
2021.490000000000
30
0.0
11
1315.650000000000
21
2036.060000000000
31
0.0
0
LINE
5
85a
100
AcDbEntity
8
8-0
6
CONTINUOUS
62
7
100
AcDbLine
10
1361.020000000000
20
1989.780000000000
30
0.0
11
1344.700000000000
21
1993.710000000000
31
0.0
0
LINE
5
85b
100
AcDbEntity
8
8-0
6
CONTINUOUS
62
7
100
AcDbLine
10
1360.870000000000
20
1989.300000000000
30
0.0
11
1344.580000000000
21
1993.230000000000
31
0.0
0
LINE
5
85c
100
AcDbEntity
8
8-0
6
CONTINUOUS
62
7
100
AcDbLine
10
1344.950000000000
20
1995.160000000000
30
0.0
11
1365.930000000000
21
1994.840000000000
31
0.0
0
LINE
5
85d
100
AcDbEntity
8
8-0
6
CONTINUOUS
62
7
100
AcDbLine
10
1344.940000000000
20
1994.660000000000
30
0.0
11
1365.920000000000
21
1994.340000000000
31
0.0
0
LINE
5
85e
100
AcDbEntity
8
8-0
6
CONTINUOUS
62
7
100
AcDbLine
10
1391.110000000000
20
1995.420000000000
30
0.0
11
1368.440000000000
21
1994.330000000000
31
0.0
0
LINE
5
85f
100
AcDbEntity
8
8-0
6
CONTINUOUS
62
7
100
AcDbLine
10
1391.080000000000
20
1995.910000000000
30
0.0
11
1368.430000000000
21
1994.830000000000
31
0.0
0
LINE
5
860
100
AcDbEntity
8
8-0
6
CONTINUOUS
62
7
100
AcDbLine
10
1386.760000000000
20
1996.460000000000
30
0.0
11
1391.020000000000
21
1996.910000000000
31
0.0
0
LINE
5
861
100
AcDbEntity
8
8-0
6
CONTINUOUS
62
7
100
AcDbLine
10
1386.820000000000
20
1995.960000000000
30
0.0
11
1386.760000000000
21
1996.460000000000
31
0.0
0
LINE
5
862
100
AcDbEntity
8
8-0
6
CONTINUOUS
62
7
100
AcDbLine
10
1386.820000000000
20
1995.960000000000
30
0.0
11
1391.070000000000
21
1996.410000000000
31
0.0
0
LINE
5
863
100
AcDbEntity
8
8-0
6
CONTINUOUS
62
7
100
AcDbLine
10
1262.220000000000
20
1969.520000000000
30
0.0
11
1360.810000000000
21
1988.340000000000
31
0.0
0
LINE
5
864
100
AcDbEntity
8
8-0
6
CONTINUOUS
62
7
100
AcDbLine
10
1262.310000000000
20
1969.030000000000
30
0.0
11
1360.930000000000
21
1987.850000000000
31
0.0
0
LINE
5
865
100
AcDbEntity
8
8-0
6
CONTINUOUS
62
7
100
AcDbLine
10
1357.990000000000
20
1989.330000000000
30
0.0
11
1358.080000000000
21
1988.840000000000
31
0.0
0
LINE
5
866
100
AcDbEntity
8
8-0
6
CONTINUOUS
62
7
100
AcDbLine
10
1364.490000000000
20
1998.990000000000
30
0.0
11
1362.060000000000
21
2008.690000000000
31
0.0
0
LINE
5
867
100
AcDbEntity
8
8-0
6
CONTINUOUS
62
7
100
AcDbLine
10
1364.490000000000
20
1998.990000000000
30
0.0
11
1393.590000000000
21
2006.270000000000
31
0.0
0
LINE
5
868
100
AcDbEntity
8
8-0
6
CONTINUOUS
62
7
100
AcDbLine
10
1396.020000000000
20
1996.570000000000
30
0.0
11
1393.590000000000
21
2006.270000000000
31
0.0
0
LINE
5
869
100
AcDbEntity
8
8-0
6
CONTINUOUS
62
7
100
AcDbLine
10
1454.230000000000
20
2011.120000000000
30
0.0
11
1396.020000000000
21
1996.570000000000
31
0.0
0
LINE
5
86a
100
AcDbEntity
8
8-0
6
CONTINUOUS
62
7
100
AcDbLine
10
1344.660000000000
20
1986.780000000000
30
0.0
11
1340.410000000000
21
2003.790000000000
31
0.0
0
LINE
5
86b
100
AcDbEntity
8
8-0
6
CONTINUOUS
62
7
100
AcDbLine
10
1344.660000000000
20
1986.780000000000
30
0.0
11
1357.990000000000
21
1989.330000000000
31
0.0
0
LINE
5
86c
100
AcDbEntity
8
8-0
6
CONTINUOUS
62
7
100
AcDbLine
10
1344.190000000000
20
1986.190000000000
30
0.0
11
1339.680000000000
21
2004.230000000000
31
0.0
0
LINE
5
86d
100
AcDbEntity
8
8-0
6
CONTINUOUS
62
7
100
AcDbLine
10
1344.190000000000
20
1986.190000000000
30
0.0
11
1358.080000000000
21
1988.840000000000
31
0.0
0
LINE
5
86e
100
AcDbEntity
8
8-0
6
CONTINUOUS
62
4
100
AcDbLine
10
1363.260000000000
20
1468.620000000000
30
0.0
11
1388.260000000000
21
1493.620000000000
31
0.0
0
LINE
5
86f
100
AcDbEntity
8
8-0
6
CONTINUOUS
62
4
100
AcDbLine
10
1334.980000000000
20
1468.620000000000
30
0.0
11
1359.980000000000
21
1493.620000000000
31
0.0
0
LINE
5
870
100
AcDbEntity
8
8-0
6
CONTINUOUS
62
4
100
AcDbLine
10
1306.700000000000
20
1468.620000000000
30
0.0
11
1331.700000000000
21
1493.620000000000
31
0.0
0
LINE
5
871
100
AcDbEntity
8
8-0
6
CONTINUOUS
62
4
100
AcDbLine
10
1278.410000000000
20
1468.620000000000
30
0.0
11
1303.410000000000
21
1493.620000000000
31
0.0
0
LINE
5
872
100
AcDbEntity
8
8-0
6
CONTINUOUS
62
4
100
AcDbLine
10
1250.130000000000
20
1468.620000000000
30
0.0
11
1275.130000000000
21
1493.620000000000
31
0.0
0
LINE
5
873
100
AcDbEntity
8
8-0
6
CONTINUOUS
62
4
100
AcDbLine
10
1221.840000000000
20
1468.620000000000
30
0.0
11
1246.840000000000
21
1493.620000000000
31
0.0
0
LINE
5
874
100
AcDbEntity
8
8-0
6
CONTINUOUS
62
4
100
AcDbLine
10
1202.730000000000
20
1477.790000000000
30
0.0
11
1218.560000000000
21
1493.620000000000
31
0.0
0
LINE
5
875
100
AcDbEntity
8
8-0
6
CONTINUOUS
62
4
100
AcDbLine
10
1205.830000000000
20
1493.620000000000
30
0.0
11
1230.830000000000
21
1468.620000000000
31
0.0
0
LINE
5
876
100
AcDbEntity
8
8-0
6
CONTINUOUS
62
4
100
AcDbLine
10
1234.110000000000
20
1493.620000000000
30
0.0
11
1259.110000000000
21
1468.620000000000
31
0.0
0
LINE
5
877
100
AcDbEntity
8
8-0
6
CONTINUOUS
62
4
100
AcDbLine
10
1262.400000000000
20
1493.620000000000
30
0.0
11
1287.400000000000
21
1468.620000000000
31
0.0
0
LINE
5
878
100
AcDbEntity
8
8-0
6
CONTINUOUS
62
4
100
AcDbLine
10
1290.680000000000
20
1493.620000000000
30
0.0
11
1315.680000000000
21
1468.620000000000
31
0.0
0
LINE
5
879
100
AcDbEntity
8
8-0
6
CONTINUOUS
62
4
100
AcDbLine
10
1318.960000000000
20
1493.620000000000
30
0.0
11
1343.960000000000
21
1468.620000000000
31
0.0
0
LINE
5
87a
100
AcDbEntity
8
8-0
6
CONTINUOUS
62
4
100
AcDbLine
10
1347.250000000000
20
1493.620000000000
30
0.0
11
1372.250000000000
21
1468.620000000000
31
0.0
0
LINE
5
87b
100
AcDbEntity
8
8-0
6
CONTINUOUS
62
7
100
AcDbLine
10
1477.350000000000
20
1535.620000000000
30
0.0
11
1417.350000000000
21
1535.620000000000
31
0.0
0
LINE
5
87c
100
AcDbEntity
8
8-0
6
CONTINUOUS
62
3
100
AcDbLine
10
1481.650000000000
20
1637.320000000000
30
0.0
11
1481.650000000000
21
1591.920000000000
31
0.0
0
LINE
5
87d
100
AcDbEntity
8
8-0
6
CONTINUOUS
62
3
100
AcDbLine
10
1577.050000000000
20
1589.620000000000
30
0.0
11
1481.650000000000
21
1589.620000000000
31
0.0
0
LINE
5
87e
100
AcDbEntity
8
8-0
6
CONTINUOUS
62
3
100
AcDbLine
10
1481.650000000000
20
1591.920000000000
30
0.0
11
1577.050000000000
21
1591.920000000000
31
0.0
0
LINE
5
87f
100
AcDbEntity
8
8-0
6
CONTINUOUS
62
3
100
AcDbLine
10
1579.350000000000
20
1637.320000000000
30
0.0
11
1579.350000000000
21
1591.920000000000
31
0.0
0
LINE
5
880
100
AcDbEntity
8
8-0
6
CONTINUOUS
62
3
100
AcDbLine
10
1577.050000000000
20
1591.920000000000
30
0.0
11
1577.050000000000
21
1637.320000000000
31
0.0
0
LINE
5
881
100
AcDbEntity
8
8-0
6
CONTINUOUS
62
3
100
AcDbLine
10
1559.350000000000
20
1639.620000000000
30
0.0
11
1577.050000000000
21
1639.620000000000
31
0.0
0
LINE
5
882
100
AcDbEntity
8
8-0
6
CONTINUOUS
62
3
100
AcDbLine
10
1577.050000000000
20
1637.320000000000
30
0.0
11
1559.350000000000
21
1637.320000000000
31
0.0
0
LINE
5
883
100
AcDbEntity
8
8-0
6
CONTINUOUS
62
3
100
AcDbLine
10
1559.350000000000
20
1637.320000000000
30
0.0
11
1559.350000000000
21
1639.620000000000
31
0.0
0
LINE
5
884
100
AcDbEntity
8
8-0
6
CONTINUOUS
62
3
100
AcDbLine
10
1499.350000000000
20
1637.320000000000
30
0.0
11
1481.650000000000
21
1637.320000000000
31
0.0
0
LINE
5
885
100
AcDbEntity
8
8-0
6
CONTINUOUS
62
3
100
AcDbLine
10
1481.650000000000
20
1639.620000000000
30
0.0
11
1499.350000000000
21
1639.620000000000
31
0.0
0
LINE
5
886
100
AcDbEntity
8
8-0
6
CONTINUOUS
62
3
100
AcDbLine
10
1499.350000000000
20
1639.620000000000
30
0.0
11
1499.350000000000
21
1637.320000000000
31
0.0
0
LINE
5
887
100
AcDbEntity
8
8-0
6
CONTINUOUS
62
3
100
AcDbLine
10
1479.350000000000
20
1591.920000000000
30
0.0
11
1479.350000000000
21
1637.320000000000
31
0.0
0
LINE
5
888
100
AcDbEntity
8
8-0
6
CONTINUOUS
62
7
100
AcDbLine
10
1475.550000000000
20
1633.200000000000
30
0.0
11
1475.550000000000
21
1637.320000000000
31
0.0
0
LINE
5
889
100
AcDbEntity
8
8-0
6
CONTINUOUS
62
7
100
AcDbLine
10
1476.150000000000
20
1633.200000000000
30
0.0
11
1475.550000000000
21
1633.200000000000
31
0.0
0
LINE
5
88a
100
AcDbEntity
8
8-0
6
CONTINUOUS
62
7
100
AcDbLine
10
1476.150000000000
20
1633.200000000000
30
0.0
11
1476.150000000000
21
1637.320000000000
31
0.0
0
LINE
5
88b
100
AcDbEntity
8
8-0
6
CONTINUOUS
62
7
100
AcDbLine
10
1459.350000000000
20
1544.620000000000
30
0.0
11
1459.350000000000
21
1680.170000000000
31
0.0
0
LINE
5
88c
100
AcDbEntity
8
8-0
6
CONTINUOUS
62
7
100
AcDbLine
10
1459.350000000000
20
1544.620000000000
30
0.0
11
1474.350000000000
21
1544.620000000000
31
0.0
0
LINE
5
88d
100
AcDbEntity
8
8-0
6
CONTINUOUS
62
7
100
AcDbLine
10
1474.350000000000
20
1544.620000000000
30
0.0
11
1474.350000000000
21
1680.170000000000
31
0.0
0
LINE
5
88e
100
AcDbEntity
8
8-0
6
DASHED
62
7
100
AcDbLine
10
1477.350000000000
20
1641.870000000000
30
0.0
11
1477.350000000000
21
1680.170000000000
31
0.0
0
LINE
5
88f
100
AcDbEntity
8
8-0
6
DASHED
62
7
100
AcDbLine
10
1477.350000000000
20
1641.870000000000
30
0.0
11
1474.950000000000
21
1638.180000000000
31
0.0
0
LINE
5
890
100
AcDbEntity
8
8-0
6
DASHED
62
7
100
AcDbLine
10
1474.950000000000
20
1638.180000000000
30
0.0
11
1474.950000000000
21
1632.760000000000
31
0.0
0
LINE
5
891
100
AcDbEntity
8
8-0
6
DASHED
62
7
100
AcDbLine
10
1474.950000000000
20
1632.760000000000
30
0.0
11
1475.550000000000
21
1630.790000000000
31
0.0
0
LINE
5
892
100
AcDbEntity
8
8-0
6
DASHED
62
7
100
AcDbLine
10
1475.550000000000
20
1630.790000000000
30
0.0
11
1475.550000000000
21
1557.620000000000
31
0.0
0
LINE
5
893
100
AcDbEntity
8
8-0
6
CONTINUOUS
62
4
100
AcDbLine
10
1468.610000000000
20
1544.620000000000
30
0.0
11
1474.350000000000
21
1550.360000000000
31
0.0
0
LINE
5
894
100
AcDbEntity
8
8-0
6
CONTINUOUS
62
4
100
AcDbLine
10
1465.780000000000
20
1544.620000000000
30
0.0
11
1474.350000000000
21
1553.190000000000
31
0.0
0
LINE
5
895
100
AcDbEntity
8
8-0
6
CONTINUOUS
62
4
100
AcDbLine
10
1459.350000000000
20
1563.640000000000
30
0.0
11
1474.350000000000
21
1578.640000000000
31
0.0
0
LINE
5
896
100
AcDbEntity
8
8-0
6
CONTINUOUS
62
4
100
AcDbLine
10
1459.350000000000
20
1566.470000000000
30
0.0
11
1474.350000000000
21
1581.470000000000
31
0.0
0
LINE
5
897
100
AcDbEntity
8
8-0
6
CONTINUOUS
62
4
100
AcDbLine
10
1459.350000000000
20
1591.930000000000
30
0.0
11
1474.350000000000
21
1606.930000000000
31
0.0
0
LINE
5
898
100
AcDbEntity
8
8-0
6
CONTINUOUS
62
4
100
AcDbLine
10
1459.350000000000
20
1594.760000000000
30
0.0
11
1474.350000000000
21
1609.760000000000
31
0.0
0
LINE
5
899
100
AcDbEntity
8
8-0
6
CONTINUOUS
62
4
100
AcDbLine
10
1459.350000000000
20
1620.210000000000
30
0.0
11
1474.350000000000
21
1635.210000000000
31
0.0
0
LINE
5
89a
100
AcDbEntity
8
8-0
6
CONTINUOUS
62
4
100
AcDbLine
10
1459.350000000000
20
1623.040000000000
30
0.0
11
1474.350000000000
21
1638.040000000000
31
0.0
0
LINE
5
89b
100
AcDbEntity
8
8-0
6
CONTINUOUS
62
4
100
AcDbLine
10
1459.350000000000
20
1648.500000000000
30
0.0
11
1474.350000000000
21
1663.500000000000
31
0.0
0
LINE
5
89c
100
AcDbEntity
8
8-0
6
CONTINUOUS
62
4
100
AcDbLine
10
1459.350000000000
20
1651.330000000000
30
0.0
11
1474.350000000000
21
1666.330000000000
31
0.0
0
LINE
5
89d
100
AcDbEntity
8
8-0
6
CONTINUOUS
62
4
100
AcDbLine
10
1459.350000000000
20
1676.780000000000
30
0.0
11
1462.740000000000
21
1680.170000000000
31
0.0
0
LINE
5
89e
100
AcDbEntity
8
8-0
6
CONTINUOUS
62
4
100
AcDbLine
10
1459.350000000000
20
1679.610000000000
30
0.0
11
1459.910000000000
21
1680.170000000000
31
0.0
0
LINE
5
89f
100
AcDbEntity
8
8-0
6
DASHED
62
7
100
AcDbLine
10
1478.350000000000
20
1538.620000000000
30
0.0
11
1478.350000000000
21
1637.320000000000
31
0.0
0
LINE
5
8a0
100
AcDbEntity
8
8-0
6
DASHED
62
7
100
AcDbLine
10
1476.350000000000
20
1536.620000000000
30
0.0
11
1418.350000000000
21
1536.620000000000
31
0.0
0
LINE
5
8a1
100
AcDbEntity
8
8-0
6
CONTINUOUS
62
7
100
AcDbLine
10
1476.750000000000
20
1540.220000000000
30
0.0
11
1476.750000000000
21
1637.320000000000
31
0.0
0
LINE
5
8a2
100
AcDbEntity
8
8-0
6
CONTINUOUS
62
3
100
AcDbLine
10
1479.350000000000
20
1493.620000000000
30
0.0
11
1202.730000000000
21
1493.620000000000
31
0.0
0
LINE
5
8a3
100
AcDbEntity
8
8-0
6
CONTINUOUS
62
3
100
AcDbLine
10
1479.350000000000
20
1493.620000000000
30
0.0
11
1479.350000000000
21
1468.620000000000
31
0.0
0
LINE
5
8a4
100
AcDbEntity
8
8-0
6
CONTINUOUS
62
3
100
AcDbLine
10
1479.350000000000
20
1468.620000000000
30
0.0
11
1202.730000000000
21
1468.620000000000
31
0.0
0
LINE
5
8a5
100
AcDbEntity
8
8-0
6
CONTINUOUS
62
4
100
AcDbLine
10
1391.550000000000
20
1468.620000000000
30
0.0
11
1416.550000000000
21
1493.620000000000
31
0.0
0
LINE
5
8a6
100
AcDbEntity
8
8-0
6
CONTINUOUS
62
4
100
AcDbLine
10
1375.530000000000
20
1493.620000000000
30
0.0
11
1400.530000000000
21
1468.620000000000
31
0.0
0
LINE
5
8a7
100
AcDbEntity
8
8-0
6
CONTINUOUS
62
4
100
AcDbLine
10
1419.830000000000
20
1468.620000000000
30
0.0
11
1444.830000000000
21
1493.620000000000
31
0.0
0
LINE
5
8a8
100
AcDbEntity
8
8-0
6
CONTINUOUS
62
4
100
AcDbLine
10
1448.120000000000
20
1468.620000000000
30
0.0
11
1473.120000000000
21
1493.620000000000
31
0.0
0
LINE
5
8a9
100
AcDbEntity
8
8-0
6
CONTINUOUS
62
4
100
AcDbLine
10
1403.820000000000
20
1493.620000000000
30
0.0
11
1428.820000000000
21
1468.620000000000
31
0.0
0
LINE
5
8aa
100
AcDbEntity
8
8-0
6
CONTINUOUS
62
4
100
AcDbLine
10
1432.100000000000
20
1493.620000000000
30
0.0
11
1457.100000000000
21
1468.620000000000
31
0.0
0
LINE
5
8ab
100
AcDbEntity
8
8-0
6
CONTINUOUS
62
4
100
AcDbLine
10
1460.390000000000
20
1493.620000000000
30
0.0
11
1479.350000000000
21
1474.650000000000
31
0.0
0
LINE
5
8ac
100
AcDbEntity
8
8-0
6
CONTINUOUS
62
4
100
AcDbLine
10
1476.400000000000
20
1468.620000000000
30
0.0
11
1479.350000000000
21
1471.570000000000
31
0.0
0
LINE
5
8ad
100
AcDbEntity
8
8-0
6
CONTINUOUS
62
3
100
AcDbLine
10
1431.650000000000
20
1370.920000000000
30
0.0
11
1477.050000000000
21
1370.920000000000
31
0.0
0
LINE
5
8ae
100
AcDbEntity
8
8-0
6
CONTINUOUS
62
3
100
AcDbLine
10
1477.050000000000
20
1370.920000000000
30
0.0
11
1477.050000000000
21
1466.320000000000
31
0.0
0
LINE
5
8af
100
AcDbEntity
8
8-0
6
CONTINUOUS
62
3
100
AcDbLine
10
1477.050000000000
20
1466.320000000000
30
0.0
11
1431.650000000000
21
1466.320000000000
31
0.0
0
LINE
5
8b0
100
AcDbEntity
8
8-0
6
CONTINUOUS
62
3
100
AcDbLine
10
1429.350000000000
20
1448.620000000000
30
0.0
11
1429.350000000000
21
1466.320000000000
31
0.0
0
LINE
5
8b1
100
AcDbEntity
8
8-0
6
CONTINUOUS
62
3
100
AcDbLine
10
1431.650000000000
20
1466.320000000000
30
0.0
11
1431.650000000000
21
1448.620000000000
31
0.0
0
LINE
5
8b2
100
AcDbEntity
8
8-0
6
CONTINUOUS
62
3
100
AcDbLine
10
1431.650000000000
20
1448.620000000000
30
0.0
11
1429.350000000000
21
1448.620000000000
31
0.0
0
LINE
5
8b3
100
AcDbEntity
8
8-0
6
CONTINUOUS
62
3
100
AcDbLine
10
1431.650000000000
20
1388.620000000000
30
0.0
11
1431.650000000000
21
1370.920000000000
31
0.0
0
LINE
5
8b4
100
AcDbEntity
8
8-0
6
CONTINUOUS
62
3
100
AcDbLine
10
1429.350000000000
20
1370.920000000000
30
0.0
11
1429.350000000000
21
1388.620000000000
31
0.0
0
LINE
5
8b5
100
AcDbEntity
8
8-0
6
CONTINUOUS
62
3
100
AcDbLine
10
1429.350000000000
20
1388.620000000000
30
0.0
11
1431.650000000000
21
1388.620000000000
31
0.0
0
LINE
5
8b6
100
AcDbEntity
8
8-0
6
CONTINUOUS
62
3
100
AcDbLine
10
1477.050000000000
20
1368.620000000000
30
0.0
11
1431.650000000000
21
1368.620000000000
31
0.0
0
LINE
5
8b7
100
AcDbEntity
8
8-0
6
CONTINUOUS
62
3
100
AcDbLine
10
1431.650000000000
20
1468.620000000000
30
0.0
11
1479.350000000000
21
1468.620000000000
31
0.0
0
LINE
5
8b8
100
AcDbEntity
8
8-0
6
CONTINUOUS
62
3
100
AcDbLine
10
1424.350000000000
20
1368.620000000000
30
0.0
11
1424.350000000000
21
1468.620000000000
31
0.0
0
LINE
5
8b9
100
AcDbEntity
8
8-0
6
CONTINUOUS
62
3
100
AcDbLine
10
1479.350000000000
20
1637.320000000000
30
0.0
11
1479.350000000000
21
1680.170000000000
31
0.0
0
LINE
5
8ba
100
AcDbEntity
8
8-0
6
CONTINUOUS
62
3
100
AcDbLine
10
1202.730000000000
20
1448.620000000000
30
0.0
11
1424.350000000000
21
1448.620000000000
31
0.0
0
LINE
5
8bb
100
AcDbEntity
8
8-0
6
CONTINUOUS
62
3
100
AcDbLine
10
1202.730000000000
20
1388.620000000000
30
0.0
11
1424.350000000000
21
1388.620000000000
31
0.0
0
LINE
5
8bc
100
AcDbEntity
8
8-0
6
CONTINUOUS
62
3
100
AcDbLine
10
1202.730000000000
20
1368.620000000000
30
0.0
11
1424.350000000000
21
1368.620000000000
31
0.0
0
LINE
5
8bd
100
AcDbEntity
8
8-0
6
CONTINUOUS
62
7
100
AcDbLine
10
1247.860000000000
20
1494.630000000000
30
0.0
11
1248.930000000000
21
1490.630000000000
31
0.0
0
LINE
5
8be
100
AcDbEntity
8
8-0
6
CONTINUOUS
62
7
100
AcDbLine
10
1247.860000000000
20
1494.630000000000
30
0.0
11
1250.790000000000
21
1491.700000000000
31
0.0
0
LINE
5
8bf
100
AcDbEntity
8
8-0
6
CONTINUOUS
62
7
100
AcDbLine
10
1247.860000000000
20
1494.630000000000
30
0.0
11
1280.080000000000
21
1438.820000000000
31
0.0
0
LINE
5
8c0
100
AcDbEntity
8
8-0
6
CONTINUOUS
62
7
100
AcDbLine
10
1349.110000000000
20
1478.070000000000
30
0.0
11
1350.180000000000
21
1474.070000000000
31
0.0
0
LINE
5
8c1
100
AcDbEntity
8
8-0
6
CONTINUOUS
62
7
100
AcDbLine
10
1349.110000000000
20
1478.070000000000
30
0.0
11
1352.040000000000
21
1475.140000000000
31
0.0
0
LINE
5
8c2
100
AcDbEntity
8
8-0
6
CONTINUOUS
62
7
100
AcDbLine
10
1349.110000000000
20
1478.070000000000
30
0.0
11
1360.660000000000
21
1458.070000000000
31
0.0
0
LINE
5
8c3
100
AcDbEntity
8
8-0
6
CONTINUOUS
62
7
100
AcDbLine
10
1477.350000000000
20
1540.220000000000
30
0.0
11
1477.350000000000
21
1637.320000000000
31
0.0
0
LINE
5
8c4
100
AcDbEntity
8
8-0
6
CONTINUOUS
62
3
100
AcDbLine
10
1479.350000000000
20
1468.620000000000
30
0.0
11
1479.350000000000
21
1466.320000000000
31
0.0
0
LINE
5
8c5
100
AcDbEntity
8
8-0
6
CONTINUOUS
62
3
100
AcDbLine
10
1479.350000000000
20
1466.320000000000
30
0.0
11
1479.350000000000
21
1370.920000000000
31
0.0
0
LINE
5
8c6
100
AcDbEntity
8
8-0
6
CONTINUOUS
62
7
100
AcDbLine
10
1477.350000000000
20
1495.620000000000
30
0.0
11
1417.350000000000
21
1495.620000000000
31
0.0
0
LINE
5
8c7
100
AcDbEntity
8
8-0
6
CONTINUOUS
62
7
100
AcDbLine
10
1477.350000000000
20
1535.620000000000
30
0.0
11
1477.350000000000
21
1495.620000000000
31
0.0
0
LINE
5
8c8
100
AcDbEntity
8
8-0
6
CONTINUOUS
62
3
100
AcDbLine
10
1479.350000000000
20
1493.620000000000
30
0.0
11
1479.350000000000
21
1591.920000000000
31
0.0
0
LINE
5
8c9
100
AcDbEntity
8
8-0
6
DASHED
62
7
100
AcDbLine
10
1478.350000000000
20
1538.620000000000
30
0.0
11
1478.350000000000
21
1496.620000000000
31
0.0
0
LINE
5
8ca
100
AcDbEntity
8
8-0
6
CONTINUOUS
62
4
100
AcDbLine
10
1485.500000000000
20
1468.620000000000
30
0.0
11
1527.440000000000
21
1468.620000000000
31
0.0
0
LINE
5
8cb
100
AcDbEntity
8
8-0
6
CONTINUOUS
62
4
100
AcDbLine
10
1527.440000000000
20
1589.620000000000
30
0.0
11
1527.440000000000
21
1468.620000000000
31
0.0
0
LINE
5
8cc
100
AcDbEntity
8
8-0
6
CONTINUOUS
62
7
100
AcDbLine
10
1345.150000000000
20
1496.020000000000
30
0.0
11
1335.150000000000
21
1496.020000000000
31
0.0
0
LINE
5
8cd
100
AcDbEntity
8
8-0
6
CONTINUOUS
62
7
100
AcDbLine
10
1345.150000000000
20
1495.420000000000
30
0.0
11
1335.150000000000
21
1495.420000000000
31
0.0
0
LINE
5
8ce
100
AcDbEntity
8
8-0
6
DASHED
62
7
100
AcDbLine
10
1329.450000000000
20
1494.620000000000
30
0.0
11
1202.730000000000
21
1494.620000000000
31
0.0
0
LINE
5
8cf
100
AcDbEntity
8
8-0
6
DASHED
62
7
100
AcDbLine
10
1329.450000000000
20
1494.620000000000
30
0.0
11
1335.150000000000
21
1496.020000000000
31
0.0
0
LINE
5
8d0
100
AcDbEntity
8
8-0
6
CONTINUOUS
62
7
100
AcDbLine
10
1345.150000000000
20
1495.420000000000
30
0.0
11
1345.150000000000
21
1496.020000000000
31
0.0
0
LINE
5
8d1
100
AcDbEntity
8
8-0
6
DASHED
62
7
100
AcDbLine
10
1345.150000000000
20
1496.020000000000
30
0.0
11
1349.060000000000
21
1495.420000000000
31
0.0
0
LINE
5
8d2
100
AcDbEntity
8
8-0
6
DASHED
62
7
100
AcDbLine
10
1415.150000000000
20
1495.420000000000
30
0.0
11
1349.060000000000
21
1495.420000000000
31
0.0
0
LINE
5
8d3
100
AcDbEntity
8
8-0
6
CONTINUOUS
62
7
100
AcDbLine
10
1385.150000000000
20
1509.820000000000
30
0.0
11
1385.150000000000
21
1510.420000000000
31
0.0
0
LINE
5
8d4
100
AcDbEntity
8
8-0
6
CONTINUOUS
62
7
100
AcDbLine
10
1398.660000000000
20
1509.220000000000
30
0.0
11
1398.660000000000
21
1508.620000000000
31
0.0
0
LINE
5
8d5
100
AcDbEntity
8
8-0
6
CONTINUOUS
62
7
100
AcDbLine
10
1385.150000000000
20
1509.220000000000
30
0.0
11
1398.660000000000
21
1509.220000000000
31
0.0
0
LINE
5
8d6
100
AcDbEntity
8
8-0
6
CONTINUOUS
62
7
100
AcDbLine
10
1385.150000000000
20
1508.620000000000
30
0.0
11
1398.660000000000
21
1508.620000000000
31
0.0
0
LINE
5
8d7
100
AcDbEntity
8
8-0
6
CONTINUOUS
62
7
100
AcDbLine
10
1414.550000000000
20
1511.620000000000
30
0.0
11
1385.150000000000
21
1511.620000000000
31
0.0
0
LINE
5
8d8
100
AcDbEntity
8
8-0
6
CONTINUOUS
62
7
100
AcDbLine
10
1385.150000000000
20
1511.020000000000
30
0.0
11
1414.550000000000
21
1511.020000000000
31
0.0
0
LINE
5
8d9
100
AcDbEntity
8
8-0
6
CONTINUOUS
62
7
100
AcDbLine
10
1414.550000000000
20
1509.820000000000
30
0.0
11
1385.150000000000
21
1509.820000000000
31
0.0
0
LINE
5
8da
100
AcDbEntity
8
8-0
6
CONTINUOUS
62
7
100
AcDbLine
10
1385.150000000000
20
1510.420000000000
30
0.0
11
1414.550000000000
21
1510.420000000000
31
0.0
0
LINE
5
8db
100
AcDbEntity
8
8-0
6
CONTINUOUS
62
7
100
AcDbLine
10
1414.550000000000
20
1494.820000000000
30
0.0
11
1335.150000000000
21
1494.820000000000
31
0.0
0
LINE
5
8dc
100
AcDbEntity
8
8-0
6
CONTINUOUS
62
7
100
AcDbLine
10
1414.550000000000
20
1494.220000000000
30
0.0
11
1335.150000000000
21
1494.220000000000
31
0.0
0
LINE
5
8dd
100
AcDbEntity
8
8-0
6
CONTINUOUS
62
7
100
AcDbLine
10
1417.350000000000
20
1495.620000000000
30
0.0
11
1477.350000000000
21
1535.620000000000
31
0.0
0
LINE
5
8de
100
AcDbEntity
8
8-0
6
CONTINUOUS
62
7
100
AcDbLine
10
1389.330000000000
20
1498.100000000000
30
0.0
11
1390.410000000000
21
1497.020000000000
31
0.0
0
LINE
5
8df
100
AcDbEntity
8
8-0
6
CONTINUOUS
62
7
100
AcDbLine
10
1390.270000000000
20
1499.990000000000
30
0.0
11
1393.240000000000
21
1497.020000000000
31
0.0
0
LINE
5
8e0
100
AcDbEntity
8
8-0
6
CONTINUOUS
62
7
100
AcDbLine
10
1391.000000000000
20
1502.080000000000
30
0.0
11
1396.070000000000
21
1497.020000000000
31
0.0
0
LINE
5
8e1
100
AcDbEntity
8
8-0
6
CONTINUOUS
62
7
100
AcDbLine
10
1391.490000000000
20
1504.420000000000
30
0.0
11
1398.660000000000
21
1497.260000000000
31
0.0
0
LINE
5
8e2
100
AcDbEntity
8
8-0
6
CONTINUOUS
62
7
100
AcDbLine
10
1459.350000000000
20
1648.500000000000
30
0.0
11
1453.560000000000
21
1646.940000000000
31
0.0
0
LINE
5
8e3
100
AcDbEntity
8
8-0
6
CONTINUOUS
62
7
100
AcDbLine
10
1459.350000000000
20
1648.500000000000
30
0.0
11
1453.560000000000
21
1650.050000000000
31
0.0
0
LINE
5
8e4
100
AcDbEntity
8
8-0
6
CONTINUOUS
62
7
100
AcDbLine
10
1439.300000000000
20
1648.500000000000
30
0.0
11
1434.500000000000
21
1662.710000000000
31
0.0
0
LINE
5
8e5
100
AcDbEntity
8
8-0
6
CONTINUOUS
62
7
100
AcDbLine
10
1439.300000000000
20
1648.500000000000
30
0.0
11
1459.350000000000
21
1648.500000000000
31
0.0
0
LINE
5
8e6
100
AcDbEntity
8
8-0
6
CONTINUOUS
62
7
100
AcDbLine
10
1445.550000000000
20
1538.210000000000
30
0.0
11
1445.280000000000
21
1542.340000000000
31
0.0
0
LINE
5
8e7
100
AcDbEntity
8
8-0
6
CONTINUOUS
62
7
100
AcDbLine
10
1445.550000000000
20
1538.210000000000
30
0.0
11
1443.250000000000
21
1541.650000000000
31
0.0
0
LINE
5
8e8
100
AcDbEntity
8
8-0
6
CONTINUOUS
62
7
100
AcDbLine
10
1445.550000000000
20
1538.210000000000
30
0.0
11
1423.480000000000
21
1603.430000000000
31
0.0
0
LINE
5
8e9
100
AcDbEntity
8
8-0
6
CONTINUOUS
62
7
100
AcDbLine
10
1425.480000000000
20
1521.860000000000
30
0.0
11
1425.220000000000
21
1525.990000000000
31
0.0
0
LINE
5
8ea
100
AcDbEntity
8
8-0
6
CONTINUOUS
62
7
100
AcDbLine
10
1425.480000000000
20
1521.860000000000
30
0.0
11
1423.190000000000
21
1525.300000000000
31
0.0
0
LINE
5
8eb
100
AcDbEntity
8
8-0
6
CONTINUOUS
62
7
100
AcDbLine
10
1425.480000000000
20
1521.860000000000
30
0.0
11
1404.440000000000
21
1584.040000000000
31
0.0
0
LINE
5
8ec
100
AcDbEntity
8
8-0
6
CONTINUOUS
62
7
100
AcDbLine
10
1350.060000000000
20
1494.820000000000
30
0.0
11
1349.790000000000
21
1498.950000000000
31
0.0
0
LINE
5
8ed
100
AcDbEntity
8
8-0
6
CONTINUOUS
62
7
100
AcDbLine
10
1350.060000000000
20
1494.820000000000
30
0.0
11
1347.760000000000
21
1498.260000000000
31
0.0
0
LINE
5
8ee
100
AcDbEntity
8
8-0
6
CONTINUOUS
62
7
100
AcDbLine
10
1391.570000000000
20
1505.080000000000
30
0.0
11
1385.780000000000
21
1503.530000000000
31
0.0
0
LINE
5
8ef
100
AcDbEntity
8
8-0
6
CONTINUOUS
62
7
100
AcDbLine
10
1391.570000000000
20
1505.080000000000
30
0.0
11
1385.780000000000
21
1506.630000000000
31
0.0
0
LINE
5
8f0
100
AcDbEntity
8
8-0
6
CONTINUOUS
62
7
100
AcDbLine
10
1350.060000000000
20
1494.820000000000
30
0.0
11
1337.840000000000
21
1530.940000000000
31
0.0
0
LINE
5
8f1
100
AcDbEntity
8
8-0
6
CONTINUOUS
62
7
100
AcDbLine
10
1255.060000000000
20
1508.020000000000
30
0.0
11
1254.790000000000
21
1512.150000000000
31
0.0
0
LINE
5
8f2
100
AcDbEntity
8
8-0
6
CONTINUOUS
62
7
100
AcDbLine
10
1255.060000000000
20
1508.020000000000
30
0.0
11
1252.760000000000
21
1511.460000000000
31
0.0
0
LINE
5
8f3
100
AcDbEntity
8
8-0
6
CONTINUOUS
62
7
100
AcDbLine
10
1255.060000000000
20
1508.020000000000
30
0.0
11
1241.860000000000
21
1547.030000000000
31
0.0
0
LINE
5
8f4
100
AcDbEntity
8
8-0
6
CONTINUOUS
62
7
100
AcDbLine
10
1474.750000000000
20
1538.220000000000
30
0.0
11
1401.150000000000
21
1538.220000000000
31
0.0
0
LINE
5
8f5
100
AcDbEntity
8
8-0
6
CONTINUOUS
62
7
100
AcDbLine
10
1401.150000000000
20
1537.620000000000
30
0.0
11
1474.750000000000
21
1537.620000000000
31
0.0
0
LINE
5
8f6
100
AcDbEntity
8
8-0
6
CONTINUOUS
62
7
100
AcDbLine
10
1401.150000000000
20
1536.020000000000
30
0.0
11
1401.150000000000
21
1536.620000000000
31
0.0
0
LINE
5
8f7
100
AcDbEntity
8
8-0
6
CONTINUOUS
62
7
100
AcDbLine
10
1401.150000000000
20
1535.020000000000
30
0.0
11
1414.150000000000
21
1535.020000000000
31
0.0
0
LINE
5
8f8
100
AcDbEntity
8
8-0
6
CONTINUOUS
62
7
100
AcDbLine
10
1401.150000000000
20
1534.420000000000
30
0.0
11
1414.150000000000
21
1534.420000000000
31
0.0
0
LINE
5
8f9
100
AcDbEntity
8
8-0
6
CONTINUOUS
62
7
100
AcDbLine
10
1414.550000000000
20
1536.020000000000
30
0.0
11
1401.150000000000
21
1536.020000000000
31
0.0
0
LINE
5
8fa
100
AcDbEntity
8
8-0
6
CONTINUOUS
62
7
100
AcDbLine
10
1401.150000000000
20
1536.620000000000
30
0.0
11
1414.550000000000
21
1536.620000000000
31
0.0
0
LINE
5
8fb
100
AcDbEntity
8
8-0
6
DASHED
62
7
100
AcDbLine
10
1476.350000000000
20
1494.620000000000
30
0.0
11
1415.450000000000
21
1494.620000000000
31
0.0
0
LINE
5
8fc
100
AcDbEntity
8
8-0
6
DASHED
62
7
100
AcDbLine
10
1416.350000000000
20
1534.620000000000
30
0.0
11
1416.350000000000
21
1494.620000000000
31
0.0
0
LINE
5
8fd
100
AcDbEntity
8
8-0
6
CONTINUOUS
62
7
100
AcDbLine
10
1414.150000000000
20
1534.420000000000
30
0.0
11
1414.150000000000
21
1535.020000000000
31
0.0
0
LINE
5
8fe
100
AcDbEntity
8
8-0
6
CONTINUOUS
62
7
100
AcDbLine
10
1372.740000000000
20
1505.080000000000
30
0.0
11
1358.190000000000
21
1548.100000000000
31
0.0
0
LINE
5
8ff
100
AcDbEntity
8
8-0
6
CONTINUOUS
62
7
100
AcDbLine
10
1372.740000000000
20
1505.080000000000
30
0.0
11
1391.570000000000
21
1505.080000000000
31
0.0
0
LINE
5
900
100
AcDbEntity
8
8-0
6
CONTINUOUS
62
7
100
AcDbLine
10
1391.570000000000
20
1505.080000000000
30
0.0
11
1394.510000000000
21
1508.020000000000
31
0.0
0
LINE
5
901
100
AcDbEntity
8
8-0
6
CONTINUOUS
62
7
100
AcDbLine
10
1390.840000000000
20
1501.520000000000
30
0.0
11
1397.340000000000
21
1508.020000000000
31
0.0
0
LINE
5
902
100
AcDbEntity
8
8-0
6
CONTINUOUS
62
7
100
AcDbLine
10
1414.150000000000
20
1508.020000000000
30
0.0
11
1414.150000000000
21
1496.520000000000
31
0.0
0
LINE
5
903
100
AcDbEntity
8
8-0
6
CONTINUOUS
62
7
100
AcDbLine
10
1415.150000000000
20
1495.420000000000
30
0.0
11
1415.150000000000
21
1509.220000000000
31
0.0
0
LINE
5
904
100
AcDbEntity
8
8-0
6
CONTINUOUS
62
7
100
AcDbLine
10
1415.750000000000
20
1495.420000000000
30
0.0
11
1415.750000000000
21
1509.220000000000
31
0.0
0
LINE
5
905
100
AcDbEntity
8
8-0
6
CONTINUOUS
62
7
100
AcDbLine
10
1417.350000000000
20
1535.620000000000
30
0.0
11
1417.350000000000
21
1495.620000000000
31
0.0
0
LINE
5
906
100
AcDbEntity
8
8-0
6
CONTINUOUS
62
7
100
AcDbLine
10
1415.150000000000
20
1535.420000000000
30
0.0
11
1415.150000000000
21
1512.220000000000
31
0.0
0
LINE
5
907
100
AcDbEntity
8
8-0
6
CONTINUOUS
62
7
100
AcDbLine
10
1415.750000000000
20
1535.420000000000
30
0.0
11
1415.750000000000
21
1512.220000000000
31
0.0
0
LINE
5
908
100
AcDbEntity
8
8-0
6
CONTINUOUS
62
7
100
AcDbLine
10
1389.160000000000
20
1497.020000000000
30
0.0
11
1400.160000000000
21
1508.020000000000
31
0.0
0
LINE
5
909
100
AcDbEntity
8
8-0
6
CONTINUOUS
62
7
100
AcDbLine
10
1391.990000000000
20
1497.020000000000
30
0.0
11
1402.990000000000
21
1508.020000000000
31
0.0
0
LINE
5
90a
100
AcDbEntity
8
8-0
6
CONTINUOUS
62
7
100
AcDbLine
10
1394.820000000000
20
1497.020000000000
30
0.0
11
1405.820000000000
21
1508.020000000000
31
0.0
0
LINE
5
90b
100
AcDbEntity
8
8-0
6
CONTINUOUS
62
7
100
AcDbLine
10
1397.650000000000
20
1497.020000000000
30
0.0
11
1408.650000000000
21
1508.020000000000
31
0.0
0
LINE
5
90c
100
AcDbEntity
8
8-0
6
CONTINUOUS
62
7
100
AcDbLine
10
1391.660000000000
20
1507.090000000000
30
0.0
11
1401.720000000000
21
1497.020000000000
31
0.0
0
LINE
5
90d
100
AcDbEntity
8
8-0
6
CONTINUOUS
62
7
100
AcDbLine
10
1393.550000000000
20
1508.020000000000
30
0.0
11
1404.550000000000
21
1497.020000000000
31
0.0
0
LINE
5
90e
100
AcDbEntity
8
8-0
6
CONTINUOUS
62
7
100
AcDbLine
10
1396.380000000000
20
1508.020000000000
30
0.0
11
1407.380000000000
21
1497.020000000000
31
0.0
0
LINE
5
90f
100
AcDbEntity
8
8-0
6
CONTINUOUS
62
7
100
AcDbLine
10
1400.480000000000
20
1497.020000000000
30
0.0
11
1411.480000000000
21
1508.020000000000
31
0.0
0
LINE
5
910
100
AcDbEntity
8
8-0
6
CONTINUOUS
62
7
100
AcDbLine
10
1399.210000000000
20
1508.020000000000
30
0.0
11
1410.210000000000
21
1497.020000000000
31
0.0
0
LINE
5
911
100
AcDbEntity
8
8-0
6
CONTINUOUS
62
7
100
AcDbLine
10
1402.040000000000
20
1508.020000000000
30
0.0
11
1413.040000000000
21
1497.020000000000
31
0.0
0
LINE
5
912
100
AcDbEntity
8
8-0
6
CONTINUOUS
62
7
100
AcDbLine
10
1403.310000000000
20
1497.020000000000
30
0.0
11
1414.150000000000
21
1507.860000000000
31
0.0
0
LINE
5
913
100
AcDbEntity
8
8-0
6
CONTINUOUS
62
7
100
AcDbLine
10
1413.350000000000
20
1508.020000000000
30
0.0
11
1414.150000000000
21
1507.220000000000
31
0.0
0
LINE
5
914
100
AcDbEntity
8
8-0
6
CONTINUOUS
62
7
100
AcDbLine
10
1410.520000000000
20
1508.020000000000
30
0.0
11
1414.150000000000
21
1504.390000000000
31
0.0
0
LINE
5
915
100
AcDbEntity
8
8-0
6
CONTINUOUS
62
7
100
AcDbLine
10
1406.140000000000
20
1497.020000000000
30
0.0
11
1414.150000000000
21
1505.030000000000
31
0.0
0
LINE
5
916
100
AcDbEntity
8
8-0
6
CONTINUOUS
62
7
100
AcDbLine
10
1407.690000000000
20
1508.020000000000
30
0.0
11
1414.150000000000
21
1501.560000000000
31
0.0
0
LINE
5
917
100
AcDbEntity
8
8-0
6
CONTINUOUS
62
7
100
AcDbLine
10
1408.960000000000
20
1497.020000000000
30
0.0
11
1414.150000000000
21
1502.210000000000
31
0.0
0
LINE
5
918
100
AcDbEntity
8
8-0
6
CONTINUOUS
62
7
100
AcDbLine
10
1404.870000000000
20
1508.020000000000
30
0.0
11
1414.150000000000
21
1498.730000000000
31
0.0
0
LINE
5
919
100
AcDbEntity
8
8-0
6
CONTINUOUS
62
7
100
AcDbLine
10
1411.790000000000
20
1497.020000000000
30
0.0
11
1414.150000000000
21
1499.380000000000
31
0.0
0
LINE
5
91a
100
AcDbEntity
8
8-0
6
CONTINUOUS
62
7
100
AcDbLine
10
1202.730000000000
20
1496.520000000000
30
0.0
11
1414.150000000000
21
1496.520000000000
31
0.0
0
LINE
5
91b
100
AcDbEntity
8
8-0
6
CONTINUOUS
62
7
100
AcDbLine
10
1202.730000000000
20
1497.020000000000
30
0.0
11
1414.150000000000
21
1497.020000000000
31
0.0
0
LINE
5
91c
100
AcDbEntity
8
8-0
6
CONTINUOUS
62
7
100
AcDbLine
10
1202.730000000000
20
1508.020000000000
30
0.0
11
1414.150000000000
21
1508.020000000000
31
0.0
0
LINE
5
91d
100
AcDbEntity
8
8-0
6
CONTINUOUS
62
7
100
AcDbLine
10
108.430000000000
20
2062.610000000000
30
0.0
11
101.290000000000
21
2067.320000000000
31
0.0
0
LINE
5
91e
100
AcDbEntity
8
8-0
6
CONTINUOUS
62
7
100
AcDbLine
10
107.880000000000
20
2061.770000000000
30
0.0
11
100.740000000000
21
2066.480000000000
31
0.0
0
LINE
5
91f
100
AcDbEntity
8
8-0
6
CONTINUOUS
62
7
100
AcDbLine
10
101.290000000000
20
2067.320000000000
30
0.0
11
100.740000000000
21
2066.480000000000
31
0.0
0
LINE
5
920
100
AcDbEntity
8
8-0
6
CONTINUOUS
62
7
100
AcDbLine
10
497.990000000000
20
2084.890000000000
30
0.0
11
467.420000000000
21
2098.740000000000
31
0.0
0
LINE
5
921
100
AcDbEntity
8
8-0
6
CONTINUOUS
62
7
100
AcDbLine
10
497.530000000000
20
2084.000000000000
30
0.0
11
467.000000000000
21
2097.830000000000
31
0.0
0
LINE
5
922
100
AcDbEntity
8
8-0
6
CONTINUOUS
62
7
100
AcDbLine
10
468.440000000000
20
2101.500000000000
30
0.0
11
509.540000000000
21
2093.000000000000
31
0.0
0
LINE
5
923
100
AcDbEntity
8
8-0
6
CONTINUOUS
62
7
100
AcDbLine
10
468.240000000000
20
2100.520000000000
30
0.0
11
509.330000000000
21
2092.020000000000
31
0.0
0
LINE
5
924
100
AcDbEntity
8
8-0
6
CONTINUOUS
62
7
100
AcDbLine
10
88.620000000000
20
2082.140000000000
30
0.0
11
497.020000000000
21
2082.140000000000
31
0.0
0
LINE
5
925
100
AcDbEntity
8
8-0
6
CONTINUOUS
62
7
100
AcDbLine
10
88.620000000000
20
2081.140000000000
30
0.0
11
497.020000000000
21
2081.140000000000
31
0.0
0
LINE
5
926
100
AcDbEntity
8
8-0
6
CONTINUOUS
62
7
100
AcDbLine
10
467.080000000000
20
2128.450000000000
30
0.0
11
513.080000000000
21
2128.450000000000
31
0.0
0
LINE
5
927
100
AcDbEntity
8
8-0
6
CONTINUOUS
62
7
100
AcDbLine
10
467.080000000000
20
2113.450000000000
30
0.0
11
467.080000000000
21
2128.450000000000
31
0.0
0
LINE
5
928
100
AcDbEntity
8
8-0
6
CONTINUOUS
62
7
100
AcDbLine
10
513.080000000000
20
2113.450000000000
30
0.0
11
513.080000000000
21
2128.450000000000
31
0.0
0
LINE
5
929
100
AcDbEntity
8
8-0
6
CONTINUOUS
62
7
100
AcDbLine
10
561.080000000000
20
2113.450000000000
30
0.0
11
561.080000000000
21
2128.450000000000
31
0.0
0
LINE
5
92a
100
AcDbEntity
8
8-0
6
CONTINUOUS
62
7
100
AcDbLine
10
467.080000000000
20
2128.450000000000
30
0.0
11
467.080000000000
21
2150.950000000000
31
0.0
0
LINE
5
92b
100
AcDbEntity
8
8-0
6
CONTINUOUS
62
7
100
AcDbLine
10
87.080000000000
20
2150.950000000000
30
0.0
11
467.080000000000
21
2150.950000000000
31
0.0
0
LINE
5
92c
100
AcDbEntity
8
8-0
6
CONTINUOUS
62
7
100
AcDbLine
10
87.080000000000
20
2113.450000000000
30
0.0
11
87.080000000000
21
2150.950000000000
31
0.0
0
LINE
5
92d
100
AcDbEntity
8
8-0
6
CONTINUOUS
62
7
100
AcDbLine
10
87.080000000000
20
2113.450000000000
30
0.0
11
87.080000000000
21
2146.040000000000
31
0.0
0
LINE
5
92e
100
AcDbEntity
8
8-0
6
CONTINUOUS
62
7
100
AcDbLine
10
467.080000000000
20
2150.950000000000
30
0.0
11
561.080000000000
21
2150.950000000000
31
0.0
0
LINE
5
92f
100
AcDbEntity
8
8-0
6
CONTINUOUS
62
7
100
AcDbLine
10
561.080000000000
20
2128.450000000000
30
0.0
11
561.080000000000
21
2150.950000000000
31
0.0
0
LINE
5
930
100
AcDbEntity
8
8-0
6
CONTINUOUS
62
7
100
AcDbLine
10
551.080000000000
20
2128.450000000000
30
0.0
11
561.080000000000
21
2128.450000000000
31
0.0
0
LINE
5
931
100
AcDbEntity
8
8-0
6
CONTINUOUS
62
7
100
AcDbLine
10
551.080000000000
20
2113.450000000000
30
0.0
11
551.080000000000
21
2128.450000000000
31
0.0
0
LINE
5
932
100
AcDbEntity
8
8-0
6
CONTINUOUS
62
7
100
AcDbLine
10
559.220000000000
20
2084.680000000000
30
0.0
11
514.290000000000
21
2091.040000000000
31
0.0
0
LINE
5
933
100
AcDbEntity
8
8-0
6
CONTINUOUS
62
7
100
AcDbLine
10
559.360000000000
20
2085.670000000000
30
0.0
11
514.450000000000
21
2092.030000000000
31
0.0
0
LINE
5
934
100
AcDbEntity
8
8-0
6
CONTINUOUS
62
7
100
AcDbLine
10
98.900000000000
20
2040.540000000000
30
0.0
11
72.090000000000
21
2054.010000000000
31
0.0
0
LINE
5
935
100
AcDbEntity
8
8-0
6
CONTINUOUS
62
7
100
AcDbLine
10
78.820000000000
20
2067.410000000000
30
0.0
11
72.090000000000
21
2054.010000000000
31
0.0
0
LINE
5
936
100
AcDbEntity
8
8-0
6
CONTINUOUS
62
7
100
AcDbLine
10
105.630000000000
20
2053.940000000000
30
0.0
11
98.900000000000
21
2040.540000000000
31
0.0
0
LINE
5
937
100
AcDbEntity
8
8-0
6
CONTINUOUS
62
7
100
AcDbLine
10
487.870000000000
20
2060.920000000000
30
0.0
11
481.680000000000
21
2047.260000000000
31
0.0
0
LINE
5
938
100
AcDbEntity
8
8-0
6
CONTINUOUS
62
7
100
AcDbLine
10
455.080000000000
20
2075.780000000000
30
0.0
11
448.890000000000
21
2062.120000000000
31
0.0
0
LINE
5
939
100
AcDbEntity
8
8-0
6
CONTINUOUS
62
7
100
AcDbLine
10
481.680000000000
20
2047.260000000000
30
0.0
11
448.890000000000
21
2062.120000000000
31
0.0
0
LINE
5
93a
100
AcDbEntity
8
8-0
6
CONTINUOUS
62
7
100
AcDbLine
10
551.080000000000
20
2088.350000000000
30
0.0
11
559.600000000000
21
2087.650000000000
31
0.0
0
LINE
5
93b
100
AcDbEntity
8
8-0
6
CONTINUOUS
62
7
100
AcDbLine
10
550.990000000000
20
2087.360000000000
30
0.0
11
551.080000000000
21
2088.350000000000
31
0.0
0
LINE
5
93c
100
AcDbEntity
8
8-0
6
CONTINUOUS
62
7
100
AcDbLine
10
550.990000000000
20
2087.360000000000
30
0.0
11
559.520000000000
21
2086.650000000000
31
0.0
0
LINE
5
93d
100
AcDbEntity
8
8-0
6
CONTINUOUS
62
7
100
AcDbLine
10
109.330000000000
20
2064.390000000000
30
0.0
11
87.190000000000
21
2075.520000000000
31
0.0
0
LINE
5
93e
100
AcDbEntity
8
8-0
6
CONTINUOUS
62
7
100
AcDbLine
10
108.880000000000
20
2063.500000000000
30
0.0
11
86.730000000000
21
2074.630000000000
31
0.0
0
LINE
5
93f
100
AcDbEntity
8
8-0
6
CONTINUOUS
62
4
100
AcDbLine
10
257.420000000000
20
1858.350000000000
30
0.0
11
290.950000000000
21
1920.610000000000
31
0.0
0
LINE
5
940
100
AcDbEntity
8
8-0
6
CONTINUOUS
62
7
100
AcDbLine
10
289.650000000000
20
1927.320000000000
30
0.0
11
256.700000000000
21
1933.670000000000
31
0.0
0
LINE
5
941
100
AcDbEntity
8
8-0
6
CONTINUOUS
62
7
100
AcDbLine
10
289.410000000000
20
1926.350000000000
30
0.0
11
256.510000000000
21
1932.690000000000
31
0.0
0
LINE
5
942
100
AcDbEntity
8
8-0
6
CONTINUOUS
62
7
100
AcDbLine
10
257.050000000000
20
1936.590000000000
30
0.0
11
298.990000000000
21
1937.900000000000
31
0.0
0
LINE
5
943
100
AcDbEntity
8
8-0
6
CONTINUOUS
62
7
100
AcDbLine
10
257.080000000000
20
1935.590000000000
30
0.0
11
299.020000000000
21
1936.900000000000
31
0.0
0
LINE
5
944
100
AcDbEntity
8
8-0
6
CONTINUOUS
62
7
100
AcDbLine
10
349.250000000000
20
1941.390000000000
30
0.0
11
304.070000000000
21
1937.110000000000
31
0.0
0
LINE
5
945
100
AcDbEntity
8
8-0
6
CONTINUOUS
62
7
100
AcDbLine
10
349.150000000000
20
1942.380000000000
30
0.0
11
304.000000000000
21
1938.100000000000
31
0.0
0
LINE
5
946
100
AcDbEntity
8
8-0
6
CONTINUOUS
62
7
100
AcDbLine
10
340.470000000000
20
1943.060000000000
30
0.0
11
348.930000000000
21
1944.370000000000
31
0.0
0
LINE
5
947
100
AcDbEntity
8
8-0
6
CONTINUOUS
62
7
100
AcDbLine
10
340.620000000000
20
1942.080000000000
30
0.0
11
340.470000000000
21
1943.060000000000
31
0.0
0
LINE
5
948
100
AcDbEntity
8
8-0
6
CONTINUOUS
62
7
100
AcDbLine
10
340.620000000000
20
1942.080000000000
30
0.0
11
349.080000000000
21
1943.380000000000
31
0.0
0
LINE
5
949
100
AcDbEntity
8
8-0
6
CONTINUOUS
62
7
100
AcDbLine
10
280.210000000000
20
1925.070000000000
30
0.0
11
256.090000000000
21
1930.730000000000
31
0.0
0
LINE
5
94a
100
AcDbEntity
8
8-0
6
CONTINUOUS
62
7
100
AcDbLine
10
280.440000000000
20
1926.040000000000
30
0.0
11
256.320000000000
21
1931.700000000000
31
0.0
0
LINE
5
94b
100
AcDbEntity
8
8-0
6
CONTINUOUS
62
7
100
AcDbLine
10
279.980000000000
20
1924.100000000000
30
0.0
11
271.930000000000
21
1927.010000000000
31
0.0
0
LINE
5
94c
100
AcDbEntity
8
8-0
6
CONTINUOUS
62
7
100
AcDbLine
10
279.640000000000
20
1923.160000000000
30
0.0
11
271.590000000000
21
1926.070000000000
31
0.0
0
LINE
5
94d
100
AcDbEntity
8
8-0
6
CONTINUOUS
62
7
100
AcDbLine
10
271.930000000000
20
1927.010000000000
30
0.0
11
271.590000000000
21
1926.070000000000
31
0.0
0
LINE
5
94e
100
AcDbEntity
8
8-0
6
CONTINUOUS
62
4
100
AcDbLine
10
311.600000000000
20
1874.600000000000
30
0.0
11
345.130000000000
21
1936.860000000000
31
0.0
0
LINE
5
94f
100
AcDbEntity
8
8-0
6
CONTINUOUS
62
4
100
AcDbLine
10
266.560000000000
20
1913.290000000000
30
0.0
11
328.820000000000
21
1879.770000000000
31
0.0
0
LINE
5
950
100
AcDbEntity
8
8-0
6
CONTINUOUS
62
4
100
AcDbLine
10
320.740000000000
20
1929.550000000000
30
0.0
11
383.000000000000
21
1896.020000000000
31
0.0
0
LINE
5
951
100
AcDbEntity
8
8-0
6
CONTINUOUS
62
7
100
AcDbLine
10
213.190000000000
20
1906.180000000000
30
0.0
11
289.370000000000
21
1924.430000000000
31
0.0
0
LINE
5
952
100
AcDbEntity
8
8-0
6
CONTINUOUS
62
7
100
AcDbLine
10
213.260000000000
20
1905.170000000000
30
0.0
11
289.660000000000
21
1923.480000000000
31
0.0
0
LINE
5
953
100
AcDbEntity
8
8-0
6
CONTINUOUS
62
4
100
AcDbLine
10
214.460000000000
20
1895.920000000000
30
0.0
11
274.630000000000
21
1863.510000000000
31
0.0
0
LINE
5
954
100
AcDbEntity
8
8-0
6
CONTINUOUS
62
4
100
AcDbLine
10
220.940000000000
20
1874.960000000000
30
0.0
11
236.760000000000
21
1904.350000000000
31
0.0
0
LINE
5
955
100
AcDbEntity
8
8-0
6
CONTINUOUS
62
7
100
AcDbLine
10
256.160000000000
20
1938.480000000000
30
0.0
11
377.410000000000
21
1967.530000000000
31
0.0
0
LINE
5
956
100
AcDbEntity
8
8-0
6
CONTINUOUS
62
7
100
AcDbLine
10
256.390000000000
20
1937.500000000000
30
0.0
11
378.070000000000
21
1966.650000000000
31
0.0
0
LINE
5
957
100
AcDbEntity
8
8-0
6
DASHED
62
7
100
AcDbLine
10
387.120000000000
20
1951.550000000000
30
0.0
11
213.870000000000
21
1899.570000000000
31
0.0
0
LINE
5
958
100
AcDbEntity
8
8-0
6
CONTINUOUS
62
3
100
AcDbLine
10
387.970000000000
20
1949.720000000000
30
0.0
11
214.170000000000
21
1897.580000000000
31
0.0
0
LINE
5
959
100
AcDbEntity
8
8-0
6
CONTINUOUS
62
4
100
AcDbLine
10
374.920000000000
20
1945.800000000000
30
0.0
11
392.800000000000
21
1936.180000000000
31
0.0
0
LINE
5
95a
100
AcDbEntity
8
8-0
6
CONTINUOUS
62
4
100
AcDbLine
10
365.790000000000
20
1890.860000000000
30
0.0
11
391.890000000000
21
1939.330000000000
31
0.0
0
LINE
5
95b
100
AcDbEntity
8
8-0
6
CONTINUOUS
62
3
100
AcDbLine
10
395.110000000000
20
1899.650000000000
30
0.0
11
235.770000000000
21
1851.850000000000
31
0.0
0
LINE
5
95c
100
AcDbEntity
8
8-0
6
CONTINUOUS
62
7
100
AcDbLine
10
686.750000000000
20
1650.180000000000
30
0.0
11
711.760000000000
21
1647.000000000000
31
0.0
0
LINE
5
95d
100
AcDbEntity
8
8-0
6
CONTINUOUS
62
7
100
AcDbLine
10
686.530000000000
20
1649.190000000000
30
0.0
11
711.500000000000
21
1646.020000000000
31
0.0
0
LINE
5
95e
100
AcDbEntity
8
8-0
6
CONTINUOUS
62
7
100
AcDbLine
10
779.080000000000
20
1647.120000000000
30
0.0
11
791.580000000000
21
1647.120000000000
31
0.0
0
LINE
5
95f
100
AcDbEntity
8
8-0
6
CONTINUOUS
62
7
100
AcDbLine
10
778.960000000000
20
1648.120000000000
30
0.0
11
791.580000000000
21
1648.120000000000
31
0.0
0
LINE
5
960
100
AcDbEntity
8
8-0
6
DOT
62
7
100
AcDbLine
10
709.020000000000
20
1644.730000000000
30
0.0
11
686.490000000000
21
1646.230000000000
31
0.0
0
LINE
5
961
100
AcDbEntity
8
8-0
6
DOT
62
7
100
AcDbLine
10
709.080000000000
20
1645.730000000000
30
0.0
11
709.020000000000
21
1644.730000000000
31
0.0
0
LINE
5
962
100
AcDbEntity
8
8-0
6
DOT
62
7
100
AcDbLine
10
709.080000000000
20
1645.730000000000
30
0.0
11
686.570000000000
21
1647.230000000000
31
0.0
0
LINE
5
963
100
AcDbEntity
8
8-0
6
CONTINUOUS
62
7
100
AcDbLine
10
685.080000000000
20
1633.120000000000
30
0.0
11
685.080000000000
21
1603.120000000000
31
0.0
0
LINE
5
964
100
AcDbEntity
8
8-0
6
CONTINUOUS
62
7
100
AcDbLine
10
685.080000000000
20
1618.120000000000
30
0.0
11
713.080000000000
21
1618.120000000000
31
0.0
0
LINE
5
965
100
AcDbEntity
8
8-0
6
CONTINUOUS
62
7
100
AcDbLine
10
713.080000000000
20
1633.120000000000
30
0.0
11
713.080000000000
21
1618.120000000000
31
0.0
0
LINE
5
966
100
AcDbEntity
8
8-0
6
CONTINUOUS
62
7
100
AcDbLine
10
778.960000000000
20
1648.120000000000
30
0.0
11
687.080000000000
21
1653.120000000000
31
0.0
0
LINE
5
967
100
AcDbEntity
8
8-0
6
CONTINUOUS
62
7
100
AcDbLine
10
778.900000000000
20
1647.120000000000
30
0.0
11
687.030000000000
21
1652.120000000000
31
0.0
0
LINE
5
968
100
AcDbEntity
8
8-0
6
CONTINUOUS
62
7
100
AcDbLine
10
773.100000000000
20
1650.440000000000
30
0.0
11
791.520000000000
21
1650.110000000000
31
0.0
0
LINE
5
969
100
AcDbEntity
8
8-0
6
CONTINUOUS
62
7
100
AcDbLine
10
773.100000000000
20
1650.440000000000
30
0.0
11
773.080000000000
21
1649.440000000000
31
0.0
0
LINE
5
96a
100
AcDbEntity
8
8-0
6
CONTINUOUS
62
7
100
AcDbLine
10
773.080000000000
20
1649.440000000000
30
0.0
11
791.500000000000
21
1649.110000000000
31
0.0
0
LINE
5
96b
100
AcDbEntity
8
8-0
6
CONTINUOUS
62
7
100
AcDbLine
10
685.080000000000
20
1603.120000000000
30
0.0
11
793.080000000000
21
1603.120000000000
31
0.0
0
LINE
5
96c
100
AcDbEntity
8
8-0
6
CONTINUOUS
62
7
100
AcDbLine
10
793.080000000000
20
1633.120000000000
30
0.0
11
793.080000000000
21
1603.120000000000
31
0.0
0
LINE
5
96d
100
AcDbEntity
8
8-0
6
CONTINUOUS
62
7
100
AcDbLine
10
773.080000000000
20
1633.120000000000
30
0.0
11
773.080000000000
21
1618.120000000000
31
0.0
0
LINE
5
96e
100
AcDbEntity
8
8-0
6
CONTINUOUS
62
7
100
AcDbLine
10
773.080000000000
20
1633.120000000000
30
0.0
11
773.080000000000
21
1618.120000000000
31
0.0
0
LINE
5
96f
100
AcDbEntity
8
8-0
6
CONTINUOUS
62
7
100
AcDbLine
10
773.080000000000
20
1618.120000000000
30
0.0
11
793.080000000000
21
1618.120000000000
31
0.0
0
LINE
5
970
100
AcDbEntity
8
8-0
6
DOT
62
7
100
AcDbLine
10
843.080000000000
20
1654.020000000000
30
0.0
11
687.100000000000
21
1655.120000000000
31
0.0
0
LINE
5
971
100
AcDbEntity
8
8-0
6
DOT
62
7
100
AcDbLine
10
843.080000000000
20
1653.020000000000
30
0.0
11
687.090000000000
21
1654.120000000000
31
0.0
0
LINE
5
972
100
AcDbEntity
8
8-0
6
CONTINUOUS
62
7
100
AcDbLine
10
711.080000000000
20
1644.120000000000
30
0.0
11
635.080000000000
21
1644.650000000000
31
0.0
0
LINE
5
973
100
AcDbEntity
8
8-0
6
CONTINUOUS
62
7
100
AcDbLine
10
711.080000000000
20
1643.120000000000
30
0.0
11
635.080000000000
21
1643.650000000000
31
0.0
0
LINE
5
974
100
AcDbEntity
8
8-0
6
CONTINUOUS
62
7
100
AcDbLine
10
937.050000000000
20
1650.180000000000
30
0.0
11
962.060000000000
21
1647.000000000000
31
0.0
0
LINE
5
975
100
AcDbEntity
8
8-0
6
CONTINUOUS
62
7
100
AcDbLine
10
936.830000000000
20
1649.190000000000
30
0.0
11
961.800000000000
21
1646.030000000000
31
0.0
0
LINE
5
976
100
AcDbEntity
8
8-0
6
CONTINUOUS
62
7
100
AcDbLine
10
963.380000000000
20
1633.120000000000
30
0.0
11
963.380000000000
21
1618.120000000000
31
0.0
0
LINE
5
977
100
AcDbEntity
8
8-0
6
CONTINUOUS
62
7
100
AcDbLine
10
935.380000000000
20
1618.120000000000
30
0.0
11
963.380000000000
21
1618.120000000000
31
0.0
0
LINE
5
978
100
AcDbEntity
8
8-0
6
CONTINUOUS
62
7
100
AcDbLine
10
935.380000000000
20
1633.120000000000
30
0.0
11
935.380000000000
21
1618.120000000000
31
0.0
0
LINE
5
979
100
AcDbEntity
8
8-0
6
CONTINUOUS
62
7
100
AcDbLine
10
1003.380000000000
20
1652.650000000000
30
0.0
11
937.380000000000
21
1653.120000000000
31
0.0
0
LINE
5
97a
100
AcDbEntity
8
8-0
6
CONTINUOUS
62
7
100
AcDbLine
10
1003.380000000000
20
1651.650000000000
30
0.0
11
937.380000000000
21
1652.120000000000
31
0.0
0
LINE
5
97b
100
AcDbEntity
8
8-0
6
CONTINUOUS
62
7
100
AcDbLine
10
961.380000000000
20
1644.120000000000
30
0.0
11
895.380000000000
21
1644.580000000000
31
0.0
0
LINE
5
97c
100
AcDbEntity
8
8-0
6
CONTINUOUS
62
7
100
AcDbLine
10
961.380000000000
20
1643.120000000000
30
0.0
11
895.380000000000
21
1643.580000000000
31
0.0
0
LINE
5
97d
100
AcDbEntity
8
8-0
6
CONTINUOUS
62
3
100
AcDbLine
10
71.720000000000
20
1219.100000000000
30
0.0
11
71.720000000000
21
1235.100000000000
31
0.0
0
LINE
5
97e
100
AcDbEntity
8
8-0
6
CONTINUOUS
62
3
100
AcDbLine
10
71.720000000000
20
1235.100000000000
30
0.0
11
87.720000000000
21
1235.100000000000
31
0.0
0
LINE
5
97f
100
AcDbEntity
8
8-0
6
CONTINUOUS
62
3
100
AcDbLine
10
87.720000000000
20
1235.100000000000
30
0.0
11
87.720000000000
21
1219.100000000000
31
0.0
0
LINE
5
980
100
AcDbEntity
8
8-0
6
CONTINUOUS
62
3
100
AcDbLine
10
87.720000000000
20
1219.100000000000
30
0.0
11
71.720000000000
21
1219.100000000000
31
0.0
0
LINE
5
981
100
AcDbEntity
8
8-0
6
CONTINUOUS
62
3
100
AcDbLine
10
73.320000000000
20
1221.270000000000
30
0.0
11
73.320000000000
21
1233.500000000000
31
0.0
0
LINE
5
982
100
AcDbEntity
8
8-0
6
CONTINUOUS
62
3
100
AcDbLine
10
86.120000000000
20
1220.700000000000
30
0.0
11
73.880000000000
21
1220.700000000000
31
0.0
0
LINE
5
983
100
AcDbEntity
8
8-0
6
CONTINUOUS
62
3
100
AcDbLine
10
73.320000000000
20
1233.500000000000
30
0.0
11
85.550000000000
21
1233.500000000000
31
0.0
0
LINE
5
984
100
AcDbEntity
8
8-0
6
CONTINUOUS
62
3
100
AcDbLine
10
85.550000000000
20
1233.500000000000
30
0.0
11
73.320000000000
21
1221.270000000000
31
0.0
0
LINE
5
985
100
AcDbEntity
8
8-0
6
CONTINUOUS
62
3
100
AcDbLine
10
86.120000000000
20
1232.940000000000
30
0.0
11
73.880000000000
21
1220.700000000000
31
0.0
0
LINE
5
986
100
AcDbEntity
8
8-0
6
CONTINUOUS
62
3
100
AcDbLine
10
86.120000000000
20
1232.940000000000
30
0.0
11
86.120000000000
21
1220.700000000000
31
0.0
0
LINE
5
987
100
AcDbEntity
8
8-0
6
CONTINUOUS
62
4
100
AcDbLine
10
71.720000000000
20
1234.940000000000
30
0.0
11
87.720000000000
21
1234.940000000000
31
0.0
0
LINE
5
988
100
AcDbEntity
8
8-0
6
CONTINUOUS
62
4
100
AcDbLine
10
71.720000000000
20
1234.620000000000
30
0.0
11
87.720000000000
21
1234.620000000000
31
0.0
0
LINE
5
989
100
AcDbEntity
8
8-0
6
CONTINUOUS
62
4
100
AcDbLine
10
71.720000000000
20
1234.300000000000
30
0.0
11
87.720000000000
21
1234.300000000000
31
0.0
0
LINE
5
98a
100
AcDbEntity
8
8-0
6
CONTINUOUS
62
4
100
AcDbLine
10
71.720000000000
20
1233.980000000000
30
0.0
11
87.720000000000
21
1233.980000000000
31
0.0
0
LINE
5
98b
100
AcDbEntity
8
8-0
6
CONTINUOUS
62
4
100
AcDbLine
10
71.720000000000
20
1233.660000000000
30
0.0
11
87.720000000000
21
1233.660000000000
31
0.0
0
LINE
5
98c
100
AcDbEntity
8
8-0
6
CONTINUOUS
62
4
100
AcDbLine
10
71.720000000000
20
1220.540000000000
30
0.0
11
87.720000000000
21
1220.540000000000
31
0.0
0
LINE
5
98d
100
AcDbEntity
8
8-0
6
CONTINUOUS
62
4
100
AcDbLine
10
71.720000000000
20
1220.220000000000
30
0.0
11
87.720000000000
21
1220.220000000000
31
0.0
0
LINE
5
98e
100
AcDbEntity
8
8-0
6
CONTINUOUS
62
4
100
AcDbLine
10
71.720000000000
20
1219.900000000000
30
0.0
11
87.720000000000
21
1219.900000000000
31
0.0
0
LINE
5
98f
100
AcDbEntity
8
8-0
6
CONTINUOUS
62
4
100
AcDbLine
10
71.720000000000
20
1219.580000000000
30
0.0
11
87.720000000000
21
1219.580000000000
31
0.0
0
LINE
5
990
100
AcDbEntity
8
8-0
6
CONTINUOUS
62
4
100
AcDbLine
10
71.720000000000
20
1219.260000000000
30
0.0
11
87.720000000000
21
1219.260000000000
31
0.0
0
LINE
5
991
100
AcDbEntity
8
8-0
6
CONTINUOUS
62
4
100
AcDbLine
10
71.720000000000
20
1221.500000000000
30
0.0
11
73.320000000000
21
1221.500000000000
31
0.0
0
LINE
5
992
100
AcDbEntity
8
8-0
6
CONTINUOUS
62
4
100
AcDbLine
10
71.720000000000
20
1221.820000000000
30
0.0
11
73.320000000000
21
1221.820000000000
31
0.0
0
LINE
5
993
100
AcDbEntity
8
8-0
6
CONTINUOUS
62
4
100
AcDbLine
10
71.720000000000
20
1222.140000000000
30
0.0
11
73.320000000000
21
1222.140000000000
31
0.0
0
LINE
5
994
100
AcDbEntity
8
8-0
6
CONTINUOUS
62
4
100
AcDbLine
10
71.720000000000
20
1222.460000000000
30
0.0
11
73.320000000000
21
1222.460000000000
31
0.0
0
LINE
5
995
100
AcDbEntity
8
8-0
6
CONTINUOUS
62
4
100
AcDbLine
10
71.720000000000
20
1222.780000000000
30
0.0
11
73.320000000000
21
1222.780000000000
31
0.0
0
LINE
5
996
100
AcDbEntity
8
8-0
6
CONTINUOUS
62
4
100
AcDbLine
10
71.720000000000
20
1223.100000000000
30
0.0
11
73.320000000000
21
1223.100000000000
31
0.0
0
LINE
5
997
100
AcDbEntity
8
8-0
6
CONTINUOUS
62
4
100
AcDbLine
10
71.720000000000
20
1223.420000000000
30
0.0
11
73.320000000000
21
1223.420000000000
31
0.0
0
LINE
5
998
100
AcDbEntity
8
8-0
6
CONTINUOUS
62
4
100
AcDbLine
10
71.720000000000
20
1223.740000000000
30
0.0
11
73.320000000000
21
1223.740000000000
31
0.0
0
LINE
5
999
100
AcDbEntity
8
8-0
6
CONTINUOUS
62
4
100
AcDbLine
10
71.720000000000
20
1224.060000000000
30
0.0
11
73.320000000000
21
1224.060000000000
31
0.0
0
LINE
5
99a
100
AcDbEntity
8
8-0
6
CONTINUOUS
62
4
100
AcDbLine
10
71.720000000000
20
1224.380000000000
30
0.0
11
73.320000000000
21
1224.380000000000
31
0.0
0
LINE
5
99b
100
AcDbEntity
8
8-0
6
CONTINUOUS
62
4
100
AcDbLine
10
71.720000000000
20
1224.700000000000
30
0.0
11
73.320000000000
21
1224.700000000000
31
0.0
0
LINE
5
99c
100
AcDbEntity
8
8-0
6
CONTINUOUS
62
4
100
AcDbLine
10
71.720000000000
20
1225.020000000000
30
0.0
11
73.320000000000
21
1225.020000000000
31
0.0
0
LINE
5
99d
100
AcDbEntity
8
8-0
6
CONTINUOUS
62
4
100
AcDbLine
10
71.720000000000
20
1225.340000000000
30
0.0
11
73.320000000000
21
1225.340000000000
31
0.0
0
LINE
5
99e
100
AcDbEntity
8
8-0
6
CONTINUOUS
62
4
100
AcDbLine
10
71.720000000000
20
1225.660000000000
30
0.0
11
73.320000000000
21
1225.660000000000
31
0.0
0
LINE
5
99f
100
AcDbEntity
8
8-0
6
CONTINUOUS
62
4
100
AcDbLine
10
71.720000000000
20
1225.980000000000
30
0.0
11
73.320000000000
21
1225.980000000000
31
0.0
0
LINE
5
9a0
100
AcDbEntity
8
8-0
6
CONTINUOUS
62
4
100
AcDbLine
10
71.720000000000
20
1226.300000000000
30
0.0
11
73.320000000000
21
1226.300000000000
31
0.0
0
LINE
5
9a1
100
AcDbEntity
8
8-0
6
CONTINUOUS
62
4
100
AcDbLine
10
71.720000000000
20
1226.620000000000
30
0.0
11
73.320000000000
21
1226.620000000000
31
0.0
0
LINE
5
9a2
100
AcDbEntity
8
8-0
6
CONTINUOUS
62
4
100
AcDbLine
10
71.720000000000
20
1226.940000000000
30
0.0
11
73.320000000000
21
1226.940000000000
31
0.0
0
LINE
5
9a3
100
AcDbEntity
8
8-0
6
CONTINUOUS
62
4
100
AcDbLine
10
71.720000000000
20
1227.260000000000
30
0.0
11
73.320000000000
21
1227.260000000000
31
0.0
0
LINE
5
9a4
100
AcDbEntity
8
8-0
6
CONTINUOUS
62
4
100
AcDbLine
10
71.720000000000
20
1227.580000000000
30
0.0
11
73.320000000000
21
1227.580000000000
31
0.0
0
LINE
5
9a5
100
AcDbEntity
8
8-0
6
CONTINUOUS
62
4
100
AcDbLine
10
71.720000000000
20
1227.900000000000
30
0.0
11
73.320000000000
21
1227.900000000000
31
0.0
0
LINE
5
9a6
100
AcDbEntity
8
8-0
6
CONTINUOUS
62
4
100
AcDbLine
10
71.720000000000
20
1228.220000000000
30
0.0
11
73.320000000000
21
1228.220000000000
31
0.0
0
LINE
5
9a7
100
AcDbEntity
8
8-0
6
CONTINUOUS
62
4
100
AcDbLine
10
71.720000000000
20
1228.540000000000
30
0.0
11
73.320000000000
21
1228.540000000000
31
0.0
0
LINE
5
9a8
100
AcDbEntity
8
8-0
6
CONTINUOUS
62
4
100
AcDbLine
10
71.720000000000
20
1228.860000000000
30
0.0
11
73.320000000000
21
1228.860000000000
31
0.0
0
LINE
5
9a9
100
AcDbEntity
8
8-0
6
CONTINUOUS
62
4
100
AcDbLine
10
71.720000000000
20
1229.820000000000
30
0.0
11
73.320000000000
21
1229.820000000000
31
0.0
0
LINE
5
9aa
100
AcDbEntity
8
8-0
6
CONTINUOUS
62
4
100
AcDbLine
10
71.720000000000
20
1230.780000000000
30
0.0
11
73.320000000000
21
1230.780000000000
31
0.0
0
LINE
5
9ab
100
AcDbEntity
8
8-0
6
CONTINUOUS
62
4
100
AcDbLine
10
71.720000000000
20
1231.100000000000
30
0.0
11
73.320000000000
21
1231.100000000000
31
0.0
0
LINE
5
9ac
100
AcDbEntity
8
8-0
6
CONTINUOUS
62
4
100
AcDbLine
10
71.720000000000
20
1231.420000000000
30
0.0
11
73.320000000000
21
1231.420000000000
31
0.0
0
LINE
5
9ad
100
AcDbEntity
8
8-0
6
CONTINUOUS
62
4
100
AcDbLine
10
71.720000000000
20
1231.740000000000
30
0.0
11
73.320000000000
21
1231.740000000000
31
0.0
0
LINE
5
9ae
100
AcDbEntity
8
8-0
6
CONTINUOUS
62
4
100
AcDbLine
10
71.720000000000
20
1233.340000000000
30
0.0
11
73.320000000000
21
1233.340000000000
31
0.0
0
LINE
5
9af
100
AcDbEntity
8
8-0
6
CONTINUOUS
62
4
100
AcDbLine
10
71.720000000000
20
1233.020000000000
30
0.0
11
73.320000000000
21
1233.020000000000
31
0.0
0
LINE
5
9b0
100
AcDbEntity
8
8-0
6
CONTINUOUS
62
4
100
AcDbLine
10
71.720000000000
20
1232.700000000000
30
0.0
11
73.320000000000
21
1232.700000000000
31
0.0
0
LINE
5
9b1
100
AcDbEntity
8
8-0
6
CONTINUOUS
62
4
100
AcDbLine
10
71.720000000000
20
1232.380000000000
30
0.0
11
73.320000000000
21
1232.380000000000
31
0.0
0
LINE
5
9b2
100
AcDbEntity
8
8-0
6
CONTINUOUS
62
4
100
AcDbLine
10
71.720000000000
20
1232.060000000000
30
0.0
11
73.320000000000
21
1232.060000000000
31
0.0
0
LINE
5
9b3
100
AcDbEntity
8
8-0
6
CONTINUOUS
62
4
100
AcDbLine
10
71.720000000000
20
1230.140000000000
30
0.0
11
73.320000000000
21
1230.140000000000
31
0.0
0
LINE
5
9b4
100
AcDbEntity
8
8-0
6
CONTINUOUS
62
4
100
AcDbLine
10
71.720000000000
20
1230.460000000000
30
0.0
11
73.320000000000
21
1230.460000000000
31
0.0
0
LINE
5
9b5
100
AcDbEntity
8
8-0
6
CONTINUOUS
62
4
100
AcDbLine
10
71.720000000000
20
1229.500000000000
30
0.0
11
73.320000000000
21
1229.500000000000
31
0.0
0
LINE
5
9b6
100
AcDbEntity
8
8-0
6
CONTINUOUS
62
4
100
AcDbLine
10
71.720000000000
20
1229.180000000000
30
0.0
11
73.320000000000
21
1229.180000000000
31
0.0
0
LINE
5
9b7
100
AcDbEntity
8
8-0
6
CONTINUOUS
62
4
100
AcDbLine
10
73.870000000000
20
1221.820000000000
30
0.0
11
75.000000000000
21
1221.820000000000
31
0.0
0
LINE
5
9b8
100
AcDbEntity
8
8-0
6
CONTINUOUS
62
4
100
AcDbLine
10
73.550000000000
20
1221.500000000000
30
0.0
11
74.680000000000
21
1221.500000000000
31
0.0
0
LINE
5
9b9
100
AcDbEntity
8
8-0
6
CONTINUOUS
62
4
100
AcDbLine
10
71.720000000000
20
1221.180000000000
30
0.0
11
74.360000000000
21
1221.180000000000
31
0.0
0
LINE
5
9ba
100
AcDbEntity
8
8-0
6
CONTINUOUS
62
4
100
AcDbLine
10
71.720000000000
20
1220.860000000000
30
0.0
11
74.040000000000
21
1220.860000000000
31
0.0
0
LINE
5
9bb
100
AcDbEntity
8
8-0
6
CONTINUOUS
62
4
100
AcDbLine
10
75.790000000000
20
1223.740000000000
30
0.0
11
76.920000000000
21
1223.740000000000
31
0.0
0
LINE
5
9bc
100
AcDbEntity
8
8-0
6
CONTINUOUS
62
4
100
AcDbLine
10
75.470000000000
20
1223.420000000000
30
0.0
11
76.600000000000
21
1223.420000000000
31
0.0
0
LINE
5
9bd
100
AcDbEntity
8
8-0
6
CONTINUOUS
62
4
100
AcDbLine
10
75.150000000000
20
1223.100000000000
30
0.0
11
76.280000000000
21
1223.100000000000
31
0.0
0
LINE
5
9be
100
AcDbEntity
8
8-0
6
CONTINUOUS
62
4
100
AcDbLine
10
74.830000000000
20
1222.780000000000
30
0.0
11
75.960000000000
21
1222.780000000000
31
0.0
0
LINE
5
9bf
100
AcDbEntity
8
8-0
6
CONTINUOUS
62
4
100
AcDbLine
10
74.510000000000
20
1222.460000000000
30
0.0
11
75.640000000000
21
1222.460000000000
31
0.0
0
LINE
5
9c0
100
AcDbEntity
8
8-0
6
CONTINUOUS
62
4
100
AcDbLine
10
74.190000000000
20
1222.140000000000
30
0.0
11
75.320000000000
21
1222.140000000000
31
0.0
0
LINE
5
9c1
100
AcDbEntity
8
8-0
6
CONTINUOUS
62
4
100
AcDbLine
10
73.320000000000
20
1233.500000000000
30
0.0
11
73.320000000000
21
1233.830000000000
31
0.0
0
LINE
5
9c2
100
AcDbEntity
8
8-0
6
CONTINUOUS
62
4
100
AcDbLine
10
86.120000000000
20
1221.500000000000
30
0.0
11
87.720000000000
21
1221.500000000000
31
0.0
0
LINE
5
9c3
100
AcDbEntity
8
8-0
6
CONTINUOUS
62
4
100
AcDbLine
10
86.120000000000
20
1221.820000000000
30
0.0
11
87.720000000000
21
1221.820000000000
31
0.0
0
LINE
5
9c4
100
AcDbEntity
8
8-0
6
CONTINUOUS
62
4
100
AcDbLine
10
86.120000000000
20
1222.140000000000
30
0.0
11
87.720000000000
21
1222.140000000000
31
0.0
0
LINE
5
9c5
100
AcDbEntity
8
8-0
6
CONTINUOUS
62
4
100
AcDbLine
10
86.120000000000
20
1222.460000000000
30
0.0
11
87.720000000000
21
1222.460000000000
31
0.0
0
LINE
5
9c6
100
AcDbEntity
8
8-0
6
CONTINUOUS
62
4
100
AcDbLine
10
86.120000000000
20
1222.780000000000
30
0.0
11
87.720000000000
21
1222.780000000000
31
0.0
0
LINE
5
9c7
100
AcDbEntity
8
8-0
6
CONTINUOUS
62
4
100
AcDbLine
10
86.120000000000
20
1223.100000000000
30
0.0
11
87.720000000000
21
1223.100000000000
31
0.0
0
LINE
5
9c8
100
AcDbEntity
8
8-0
6
CONTINUOUS
62
4
100
AcDbLine
10
86.120000000000
20
1223.420000000000
30
0.0
11
87.720000000000
21
1223.420000000000
31
0.0
0
LINE
5
9c9
100
AcDbEntity
8
8-0
6
CONTINUOUS
62
4
100
AcDbLine
10
86.120000000000
20
1223.740000000000
30
0.0
11
87.720000000000
21
1223.740000000000
31
0.0
0
LINE
5
9ca
100
AcDbEntity
8
8-0
6
CONTINUOUS
62
4
100
AcDbLine
10
86.120000000000
20
1224.060000000000
30
0.0
11
87.720000000000
21
1224.060000000000
31
0.0
0
LINE
5
9cb
100
AcDbEntity
8
8-0
6
CONTINUOUS
62
4
100
AcDbLine
10
86.120000000000
20
1224.380000000000
30
0.0
11
87.720000000000
21
1224.380000000000
31
0.0
0
LINE
5
9cc
100
AcDbEntity
8
8-0
6
CONTINUOUS
62
4
100
AcDbLine
10
86.120000000000
20
1224.700000000000
30
0.0
11
87.720000000000
21
1224.700000000000
31
0.0
0
LINE
5
9cd
100
AcDbEntity
8
8-0
6
CONTINUOUS
62
4
100
AcDbLine
10
86.120000000000
20
1225.020000000000
30
0.0
11
87.720000000000
21
1225.020000000000
31
0.0
0
LINE
5
9ce
100
AcDbEntity
8
8-0
6
CONTINUOUS
62
4
100
AcDbLine
10
86.120000000000
20
1225.340000000000
30
0.0
11
87.720000000000
21
1225.340000000000
31
0.0
0
LINE
5
9cf
100
AcDbEntity
8
8-0
6
CONTINUOUS
62
4
100
AcDbLine
10
86.120000000000
20
1225.980000000000
30
0.0
11
87.720000000000
21
1225.980000000000
31
0.0
0
LINE
5
9d0
100
AcDbEntity
8
8-0
6
CONTINUOUS
62
4
100
AcDbLine
10
86.120000000000
20
1226.300000000000
30
0.0
11
87.720000000000
21
1226.300000000000
31
0.0
0
LINE
5
9d1
100
AcDbEntity
8
8-0
6
CONTINUOUS
62
4
100
AcDbLine
10
86.120000000000
20
1226.620000000000
30
0.0
11
87.720000000000
21
1226.620000000000
31
0.0
0
LINE
5
9d2
100
AcDbEntity
8
8-0
6
CONTINUOUS
62
4
100
AcDbLine
10
86.120000000000
20
1226.940000000000
30
0.0
11
87.720000000000
21
1226.940000000000
31
0.0
0
LINE
5
9d3
100
AcDbEntity
8
8-0
6
CONTINUOUS
62
4
100
AcDbLine
10
86.120000000000
20
1227.260000000000
30
0.0
11
87.720000000000
21
1227.260000000000
31
0.0
0
LINE
5
9d4
100
AcDbEntity
8
8-0
6
CONTINUOUS
62
4
100
AcDbLine
10
86.120000000000
20
1227.580000000000
30
0.0
11
87.720000000000
21
1227.580000000000
31
0.0
0
LINE
5
9d5
100
AcDbEntity
8
8-0
6
CONTINUOUS
62
4
100
AcDbLine
10
86.120000000000
20
1227.900000000000
30
0.0
11
87.720000000000
21
1227.900000000000
31
0.0
0
LINE
5
9d6
100
AcDbEntity
8
8-0
6
CONTINUOUS
62
4
100
AcDbLine
10
86.120000000000
20
1228.220000000000
30
0.0
11
87.720000000000
21
1228.220000000000
31
0.0
0
LINE
5
9d7
100
AcDbEntity
8
8-0
6
CONTINUOUS
62
4
100
AcDbLine
10
86.120000000000
20
1228.540000000000
30
0.0
11
87.720000000000
21
1228.540000000000
31
0.0
0
LINE
5
9d8
100
AcDbEntity
8
8-0
6
CONTINUOUS
62
4
100
AcDbLine
10
86.120000000000
20
1228.860000000000
30
0.0
11
87.720000000000
21
1228.860000000000
31
0.0
0
LINE
5
9d9
100
AcDbEntity
8
8-0
6
CONTINUOUS
62
4
100
AcDbLine
10
86.120000000000
20
1229.820000000000
30
0.0
11
87.720000000000
21
1229.820000000000
31
0.0
0
LINE
5
9da
100
AcDbEntity
8
8-0
6
CONTINUOUS
62
4
100
AcDbLine
10
86.120000000000
20
1230.780000000000
30
0.0
11
87.720000000000
21
1230.780000000000
31
0.0
0
LINE
5
9db
100
AcDbEntity
8
8-0
6
CONTINUOUS
62
4
100
AcDbLine
10
86.120000000000
20
1231.100000000000
30
0.0
11
87.720000000000
21
1231.100000000000
31
0.0
0
LINE
5
9dc
100
AcDbEntity
8
8-0
6
CONTINUOUS
62
4
100
AcDbLine
10
86.120000000000
20
1231.420000000000
30
0.0
11
87.720000000000
21
1231.420000000000
31
0.0
0
LINE
5
9dd
100
AcDbEntity
8
8-0
6
CONTINUOUS
62
4
100
AcDbLine
10
86.120000000000
20
1231.740000000000
30
0.0
11
87.720000000000
21
1231.740000000000
31
0.0
0
LINE
5
9de
100
AcDbEntity
8
8-0
6
CONTINUOUS
62
4
100
AcDbLine
10
86.120000000000
20
1232.700000000000
30
0.0
11
87.720000000000
21
1232.700000000000
31
0.0
0
LINE
5
9df
100
AcDbEntity
8
8-0
6
CONTINUOUS
62
4
100
AcDbLine
10
86.120000000000
20
1232.380000000000
30
0.0
11
87.720000000000
21
1232.380000000000
31
0.0
0
LINE
5
9e0
100
AcDbEntity
8
8-0
6
CONTINUOUS
62
4
100
AcDbLine
10
86.120000000000
20
1232.060000000000
30
0.0
11
87.720000000000
21
1232.060000000000
31
0.0
0
LINE
5
9e1
100
AcDbEntity
8
8-0
6
CONTINUOUS
62
4
100
AcDbLine
10
86.120000000000
20
1230.140000000000
30
0.0
11
87.720000000000
21
1230.140000000000
31
0.0
0
LINE
5
9e2
100
AcDbEntity
8
8-0
6
CONTINUOUS
62
4
100
AcDbLine
10
86.120000000000
20
1230.460000000000
30
0.0
11
87.720000000000
21
1230.460000000000
31
0.0
0
LINE
5
9e3
100
AcDbEntity
8
8-0
6
CONTINUOUS
62
4
100
AcDbLine
10
86.120000000000
20
1229.500000000000
30
0.0
11
87.720000000000
21
1229.500000000000
31
0.0
0
LINE
5
9e4
100
AcDbEntity
8
8-0
6
CONTINUOUS
62
4
100
AcDbLine
10
86.120000000000
20
1229.180000000000
30
0.0
11
87.720000000000
21
1229.180000000000
31
0.0
0
LINE
5
9e5
100
AcDbEntity
8
8-0
6
CONTINUOUS
62
4
100
AcDbLine
10
86.120000000000
20
1220.860000000000
30
0.0
11
87.720000000000
21
1220.860000000000
31
0.0
0
LINE
5
9e6
100
AcDbEntity
8
8-0
6
CONTINUOUS
62
4
100
AcDbLine
10
86.120000000000
20
1221.180000000000
30
0.0
11
87.720000000000
21
1221.180000000000
31
0.0
0
LINE
5
9e7
100
AcDbEntity
8
8-0
6
CONTINUOUS
62
4
100
AcDbLine
10
85.390000000000
20
1233.340000000000
30
0.0
11
87.720000000000
21
1233.340000000000
31
0.0
0
LINE
5
9e8
100
AcDbEntity
8
8-0
6
CONTINUOUS
62
4
100
AcDbLine
10
85.070000000000
20
1233.020000000000
30
0.0
11
87.720000000000
21
1233.020000000000
31
0.0
0
LINE
5
9e9
100
AcDbEntity
8
8-0
6
CONTINUOUS
62
4
100
AcDbLine
10
77.070000000000
20
1225.020000000000
30
0.0
11
78.200000000000
21
1225.020000000000
31
0.0
0
LINE
5
9ea
100
AcDbEntity
8
8-0
6
CONTINUOUS
62
4
100
AcDbLine
10
76.750000000000
20
1224.700000000000
30
0.0
11
77.880000000000
21
1224.700000000000
31
0.0
0
LINE
5
9eb
100
AcDbEntity
8
8-0
6
CONTINUOUS
62
4
100
AcDbLine
10
76.430000000000
20
1224.380000000000
30
0.0
11
77.560000000000
21
1224.380000000000
31
0.0
0
LINE
5
9ec
100
AcDbEntity
8
8-0
6
CONTINUOUS
62
4
100
AcDbLine
10
76.110000000000
20
1224.060000000000
30
0.0
11
77.240000000000
21
1224.060000000000
31
0.0
0
LINE
5
9ed
100
AcDbEntity
8
8-0
6
CONTINUOUS
62
4
100
AcDbLine
10
78.350000000000
20
1226.300000000000
30
0.0
11
79.480000000000
21
1226.300000000000
31
0.0
0
LINE
5
9ee
100
AcDbEntity
8
8-0
6
CONTINUOUS
62
4
100
AcDbLine
10
78.030000000000
20
1225.980000000000
30
0.0
11
79.160000000000
21
1225.980000000000
31
0.0
0
LINE
5
9ef
100
AcDbEntity
8
8-0
6
CONTINUOUS
62
4
100
AcDbLine
10
77.710000000000
20
1225.660000000000
30
0.0
11
78.840000000000
21
1225.660000000000
31
0.0
0
LINE
5
9f0
100
AcDbEntity
8
8-0
6
CONTINUOUS
62
4
100
AcDbLine
10
77.390000000000
20
1225.340000000000
30
0.0
11
78.520000000000
21
1225.340000000000
31
0.0
0
LINE
5
9f1
100
AcDbEntity
8
8-0
6
CONTINUOUS
62
4
100
AcDbLine
10
79.630000000000
20
1227.580000000000
30
0.0
11
80.760000000000
21
1227.580000000000
31
0.0
0
LINE
5
9f2
100
AcDbEntity
8
8-0
6
CONTINUOUS
62
4
100
AcDbLine
10
79.310000000000
20
1227.260000000000
30
0.0
11
80.440000000000
21
1227.260000000000
31
0.0
0
LINE
5
9f3
100
AcDbEntity
8
8-0
6
CONTINUOUS
62
4
100
AcDbLine
10
78.990000000000
20
1226.940000000000
30
0.0
11
80.120000000000
21
1226.940000000000
31
0.0
0
LINE
5
9f4
100
AcDbEntity
8
8-0
6
CONTINUOUS
62
4
100
AcDbLine
10
78.670000000000
20
1226.620000000000
30
0.0
11
79.800000000000
21
1226.620000000000
31
0.0
0
LINE
5
9f5
100
AcDbEntity
8
8-0
6
CONTINUOUS
62
4
100
AcDbLine
10
80.910000000000
20
1228.860000000000
30
0.0
11
82.040000000000
21
1228.860000000000
31
0.0
0
LINE
5
9f6
100
AcDbEntity
8
8-0
6
CONTINUOUS
62
4
100
AcDbLine
10
80.590000000000
20
1228.540000000000
30
0.0
11
81.720000000000
21
1228.540000000000
31
0.0
0
LINE
5
9f7
100
AcDbEntity
8
8-0
6
CONTINUOUS
62
4
100
AcDbLine
10
80.270000000000
20
1228.220000000000
30
0.0
11
81.400000000000
21
1228.220000000000
31
0.0
0
LINE
5
9f8
100
AcDbEntity
8
8-0
6
CONTINUOUS
62
4
100
AcDbLine
10
79.950000000000
20
1227.900000000000
30
0.0
11
81.080000000000
21
1227.900000000000
31
0.0
0
LINE
5
9f9
100
AcDbEntity
8
8-0
6
CONTINUOUS
62
4
100
AcDbLine
10
82.190000000000
20
1230.140000000000
30
0.0
11
83.320000000000
21
1230.140000000000
31
0.0
0
LINE
5
9fa
100
AcDbEntity
8
8-0
6
CONTINUOUS
62
4
100
AcDbLine
10
81.870000000000
20
1229.820000000000
30
0.0
11
83.000000000000
21
1229.820000000000
31
0.0
0
LINE
5
9fb
100
AcDbEntity
8
8-0
6
CONTINUOUS
62
4
100
AcDbLine
10
81.550000000000
20
1229.500000000000
30
0.0
11
82.680000000000
21
1229.500000000000
31
0.0
0
LINE
5
9fc
100
AcDbEntity
8
8-0
6
CONTINUOUS
62
4
100
AcDbLine
10
81.230000000000
20
1229.180000000000
30
0.0
11
82.360000000000
21
1229.180000000000
31
0.0
0
LINE
5
9fd
100
AcDbEntity
8
8-0
6
CONTINUOUS
62
4
100
AcDbLine
10
83.470000000000
20
1231.420000000000
30
0.0
11
84.600000000000
21
1231.420000000000
31
0.0
0
LINE
5
9fe
100
AcDbEntity
8
8-0
6
CONTINUOUS
62
4
100
AcDbLine
10
83.150000000000
20
1231.100000000000
30
0.0
11
84.280000000000
21
1231.100000000000
31
0.0
0
LINE
5
9ff
100
AcDbEntity
8
8-0
6
CONTINUOUS
62
4
100
AcDbLine
10
82.830000000000
20
1230.780000000000
30
0.0
11
83.960000000000
21
1230.780000000000
31
0.0
0
LINE
5
a00
100
AcDbEntity
8
8-0
6
CONTINUOUS
62
4
100
AcDbLine
10
82.510000000000
20
1230.460000000000
30
0.0
11
83.640000000000
21
1230.460000000000
31
0.0
0
LINE
5
a01
100
AcDbEntity
8
8-0
6
CONTINUOUS
62
4
100
AcDbLine
10
84.750000000000
20
1232.700000000000
30
0.0
11
85.880000000000
21
1232.700000000000
31
0.0
0
LINE
5
a02
100
AcDbEntity
8
8-0
6
CONTINUOUS
62
4
100
AcDbLine
10
84.430000000000
20
1232.380000000000
30
0.0
11
85.560000000000
21
1232.380000000000
31
0.0
0
LINE
5
a03
100
AcDbEntity
8
8-0
6
CONTINUOUS
62
4
100
AcDbLine
10
84.110000000000
20
1232.060000000000
30
0.0
11
85.240000000000
21
1232.060000000000
31
0.0
0
LINE
5
a04
100
AcDbEntity
8
8-0
6
CONTINUOUS
62
4
100
AcDbLine
10
83.790000000000
20
1231.740000000000
30
0.0
11
84.920000000000
21
1231.740000000000
31
0.0
0
LINE
5
a05
100
AcDbEntity
8
8-0
6
CONTINUOUS
62
4
100
AcDbLine
10
86.120000000000
20
1225.660000000000
30
0.0
11
87.720000000000
21
1225.660000000000
31
0.0
0
LINE
5
a06
100
AcDbEntity
8
0-000
6
CONTINUOUS
62
7
100
AcDbLine
10
1470.430000000000
20
868.170000000000
30
0.0
11
1452.140000000000
21
836.500000000000
31
0.0
0
LINE
5
a07
100
AcDbEntity
8
0-000
6
CONTINUOUS
62
7
100
AcDbLine
10
1605.010000000000
20
316.970000000000
30
0.0
11
1586.720000000000
21
285.300000000000
31
0.0
0
ARC
5
a08
100
AcDbEntity
8
0-000
6
CONTINUOUS
62
7
100
AcDbCircle
10
108.660000000000
20
903.050000000000
30
0.0
40
1.499999926616
100
AcDbArc
50
243.325683593750
51
423.325683593750
0
ARC
5
a09
100
AcDbEntity
8
0-000
6
CONTINUOUS
62
7
100
AcDbCircle
10
108.660000000000
20
903.050000000000
30
0.0
40
1.499999926616
100
AcDbArc
50
243.325683593750
51
423.325683593750
0
ARC
5
a0a
100
AcDbEntity
8
0-000
6
CONTINUOUS
62
7
100
AcDbCircle
10
108.660000000000
20
903.050000000000
30
0.0
40
1.499999926616
100
AcDbArc
50
243.325683593750
51
423.325683593750
0
ARC
5
a0b
100
AcDbEntity
8
0-000
6
CONTINUOUS
62
7
100
AcDbCircle
10
108.660000000000
20
903.050000000000
30
0.0
40
0.499999986940
100
AcDbArc
50
243.324005126953
51
423.324005126953
0
ARC
5
a0c
100
AcDbEntity
8
0-000
6
CONTINUOUS
62
7
100
AcDbCircle
10
559.440000000000
20
926.150000000000
30
0.0
40
1.499999926616
100
AcDbArc
50
260.757034301758
51
440.757034301758
0
ARC
5
a0d
100
AcDbEntity
8
0-000
6
CONTINUOUS
62
7
100
AcDbCircle
10
468.040000000000
20
939.530000000000
30
0.0
40
1.999999947760
100
AcDbArc
50
78.828491210938
51
238.717086791992
0
ARC
5
a0e
100
AcDbEntity
8
0-000
6
CONTINUOUS
62
7
100
AcDbCircle
10
468.040000000000
20
939.530000000000
30
0.0
40
0.999999973880
100
AcDbArc
50
78.828491210938
51
238.717086791992
0
ARC
5
a0f
100
AcDbEntity
8
0-000
6
CONTINUOUS
62
7
100
AcDbCircle
10
497.010000000000
20
923.130000000000
30
0.0
40
0.999999973880
100
AcDbArc
50
270.412582397461
51
418.726516723633
0
ARC
5
a10
100
AcDbEntity
8
0-000
6
CONTINUOUS
62
7
100
AcDbCircle
10
497.010000000000
20
923.130000000000
30
0.0
40
1.999999947760
100
AcDbArc
50
272.395782470703
51
420.755630493164
0
ARC
5
a11
100
AcDbEntity
8
0-000
6
CONTINUOUS
62
7
100
AcDbCircle
10
512.080000000000
20
932.930000000000
30
0.0
40
0.567599973162
100
AcDbArc
50
355.663345336914
51
521.990036010742
0
ARC
5
a12
100
AcDbEntity
8
0-000
6
CONTINUOUS
62
7
100
AcDbCircle
10
509.740000000000
20
933.970000000000
30
0.0
40
1.999999947760
100
AcDbArc
50
258.315460205078
51
334.351242065430
0
ARC
5
a13
100
AcDbEntity
8
0-000
6
CONTINUOUS
62
7
100
AcDbCircle
10
512.080000000000
20
932.930000000000
30
0.0
40
1.567599981245
100
AcDbArc
50
1.617614746094
51
156.038284301758
0
ARC
5
a14
100
AcDbEntity
8
0-000
6
CONTINUOUS
62
7
100
AcDbCircle
10
509.740000000000
20
933.970000000000
30
0.0
40
0.999999973880
100
AcDbArc
50
258.315368652344
51
336.036346435547
0
ARC
5
a15
100
AcDbEntity
8
0-000
6
CONTINUOUS
62
7
100
AcDbCircle
10
559.440000000000
20
926.150000000000
30
0.0
40
0.499999986940
100
AcDbArc
50
260.757034301758
51
440.757034301758
0
ARC
5
a16
100
AcDbEntity
8
0-000
6
CONTINUOUS
62
7
100
AcDbCircle
10
514.640000000000
20
933.000000000000
30
0.0
40
1.999999947760
100
AcDbArc
50
183.305648803711
51
259.761108398438
0
ARC
5
a17
100
AcDbEntity
8
0-000
6
CONTINUOUS
62
7
100
AcDbCircle
10
514.640000000000
20
933.000000000000
30
0.0
40
0.999999973880
100
AcDbArc
50
181.619537353516
51
258.836746215820
0
ARC
5
a18
100
AcDbEntity
8
0-000
6
CONTINUOUS
62
7
100
AcDbCircle
10
88.640000000000
20
918.130000000000
30
0.0
40
2.999999853232
100
AcDbArc
50
90.414093017578
51
241.042816162109
0
ARC
5
a19
100
AcDbEntity
8
0-000
6
CONTINUOUS
62
7
100
AcDbCircle
10
88.640000000000
20
918.130000000000
30
0.0
40
3.999999895519
100
AcDbArc
50
90.413162231445
51
241.355895996094
0
ARC
5
a1a
100
AcDbEntity
8
0-000
6
CONTINUOUS
62
7
100
AcDbCircle
10
355.090000000000
20
754.620000000000
30
0.0
40
1.999999947760
100
AcDbArc
50
270.000000000000
51
430.344070434570
0
ARC
5
a1b
100
AcDbEntity
8
0-000
6
CONTINUOUS
62
7
100
AcDbCircle
10
355.090000000000
20
754.620000000000
30
0.0
40
0.999999973880
100
AcDbArc
50
270.000000000000
51
425.170639038086
0
ARC
5
a1c
100
AcDbEntity
8
0-000
6
CONTINUOUS
62
7
100
AcDbCircle
10
331.090000000000
20
760.620000000000
30
0.0
40
0.999999973880
100
AcDbArc
50
90.000000000000
51
250.351715087891
0
ARC
5
a1d
100
AcDbEntity
8
0-000
6
CONTINUOUS
62
7
100
AcDbCircle
10
331.090000000000
20
760.620000000000
30
0.0
40
1.999999947760
100
AcDbArc
50
90.000000000000
51
254.001083374023
0
ARC
5
a1e
100
AcDbEntity
8
0-000
6
CONTINUOUS
62
7
100
AcDbCircle
10
435.590000000000
20
758.120000000000
30
0.0
40
1.499999926616
100
AcDbArc
50
270.000000000000
51
450.000000000000
0
ARC
5
a1f
100
AcDbEntity
8
0-000
6
CONTINUOUS
62
7
100
AcDbCircle
10
435.590000000000
20
758.120000000000
30
0.0
40
0.499999986940
100
AcDbArc
50
270.000000000000
51
450.000000000000
0
ARC
5
a20
100
AcDbEntity
8
0-000
6
DOT
62
7
100
AcDbCircle
10
330.930000000000
20
760.170000000000
30
0.0
40
3.453199868128
100
AcDbArc
50
87.894912719727
51
264.250640869141
0
ARC
5
a21
100
AcDbEntity
8
0-000
6
DOT
62
7
100
AcDbCircle
10
330.930000000000
20
760.170000000000
30
0.0
40
4.453199910415
100
AcDbArc
50
87.894912719727
51
264.479827880859
0
ARC
5
a22
100
AcDbEntity
8
0-000
6
CONTINUOUS
62
7
100
AcDbCircle
10
184.790000000000
20
754.620000000000
30
0.0
40
1.999999947760
100
AcDbArc
50
270.000000000000
51
430.344070434570
0
ARC
5
a23
100
AcDbEntity
8
0-000
6
CONTINUOUS
62
7
100
AcDbCircle
10
184.790000000000
20
754.620000000000
30
0.0
40
0.999999973880
100
AcDbArc
50
270.000000000000
51
425.170639038086
0
ARC
5
a24
100
AcDbEntity
8
0-000
6
CONTINUOUS
62
7
100
AcDbCircle
10
160.790000000000
20
760.620000000000
30
0.0
40
0.999999973880
100
AcDbArc
50
90.000000000000
51
250.351715087891
0
ARC
5
a25
100
AcDbEntity
8
0-000
6
CONTINUOUS
62
7
100
AcDbCircle
10
160.790000000000
20
760.620000000000
30
0.0
40
1.999999947760
100
AcDbArc
50
90.000000000000
51
254.001083374023
0
CIRCLE
5
a26
100
AcDbEntity
8
0-000
6
CONTINUOUS
62
3
100
AcDbCircle
10
79.720000000000
20
67.100000000000
30
0.0
40
11.313800165013
0
CIRCLE
5
a27
100
AcDbEntity
8
0-000
6
CONTINUOUS
62
3
100
AcDbCircle
10
79.720000000000
20
67.100000000000
30
0.0
40
12.913798919253
0
CIRCLE
5
a28
100
AcDbEntity
8
0-000
6
CONTINUOUS
62
4
100
AcDbCircle
10
79.720000000000
20
67.100000000000
30
0.0
40
11.473799821534
0
CIRCLE
5
a29
100
AcDbEntity
8
0-000
6
CONTINUOUS
62
4
100
AcDbCircle
10
79.720000000000
20
67.100000000000
30
0.0
40
11.793799134576
0
CIRCLE
5
a2a
100
AcDbEntity
8
0-000
6
CONTINUOUS
62
4
100
AcDbCircle
10
79.720000000000
20
67.100000000000
30
0.0
40
12.113799542133
0
CIRCLE
5
a2b
100
AcDbEntity
8
0-000
6
CONTINUOUS
62
4
100
AcDbCircle
10
79.720000000000
20
67.100000000000
30
0.0
40
12.433799949691
0
CIRCLE
5
a2c
100
AcDbEntity
8
0-000
6
CONTINUOUS
62
4
100
AcDbCircle
10
79.720000000000
20
67.100000000000
30
0.0
40
12.753799262733
0
ARC
5
a2d
100
AcDbEntity
8
8-0
6
CONTINUOUS
62
3
100
AcDbCircle
10
794.660000000000
20
1470.990000000000
30
0.0
40
2.299999850994
100
AcDbArc
50
90.000000000000
51
180.000000000000
0
ARC
5
a2e
100
AcDbEntity
8
8-0
6
CONTINUOUS
62
3
100
AcDbCircle
10
794.660000000000
20
1470.990000000000
30
0.0
40
2.299999850994
100
AcDbArc
50
90.000000000000
51
180.000000000000
0
ARC
5
a2f
100
AcDbEntity
8
8-0
6
CONTINUOUS
62
3
100
AcDbCircle
10
840.060000000000
20
1470.990000000000
30
0.0
40
2.299999850994
100
AcDbArc
50
360.000000000000
51
450.000000000000
0
ARC
5
a30
100
AcDbEntity
8
8-0
6
CONTINUOUS
62
3
100
AcDbCircle
10
840.060000000000
20
1375.590000000000
30
0.0
40
2.299999850994
100
AcDbArc
50
270.000000000000
51
360.000000000000
0
ARC
5
a31
100
AcDbEntity
8
8-0
6
CONTINUOUS
62
3
100
AcDbCircle
10
794.660000000000
20
1375.590000000000
30
0.0
40
2.299999850994
100
AcDbArc
50
180.000000000000
51
270.000000000000
0
ARC
5
a32
100
AcDbEntity
8
8-0
6
CONTINUOUS
62
7
100
AcDbCircle
10
705.210000000000
20
1498.240000000000
30
0.0
40
2.258800073518
100
AcDbArc
50
90.098495483398
51
270.098495483398
0
ARC
5
a33
100
AcDbEntity
8
8-0
6
CONTINUOUS
62
7
100
AcDbCircle
10
705.210000000000
20
1498.250000000000
30
0.0
40
2.859999743333
100
AcDbArc
50
90.072433471680
51
270.072433471680
0
ARC
5
a34
100
AcDbEntity
8
8-0
6
CONTINUOUS
62
7
100
AcDbCircle
10
722.860000000000
20
1457.780000000000
30
0.0
40
1.499999926616
100
AcDbArc
50
276.460876464844
51
359.993194580078
0
ARC
5
a35
100
AcDbEntity
8
8-0
6
CONTINUOUS
62
7
100
AcDbCircle
10
722.860000000000
20
1457.780000000000
30
0.0
40
0.899999914925
100
AcDbArc
50
179.992706298828
51
359.992706298828
0
ARC
5
a36
100
AcDbEntity
8
8-0
6
CONTINUOUS
62
7
100
AcDbCircle
10
722.860000000000
20
1457.780000000000
30
0.0
40
1.499999926616
100
AcDbArc
50
184.437149047852
51
276.460876464844
0
ARC
5
a37
100
AcDbEntity
8
8-0
6
CONTINUOUS
62
7
100
AcDbCircle
10
723.160000000000
20
1472.290000000000
30
0.0
40
0.599999943284
100
AcDbArc
50
89.999984741211
51
179.997756958008
0
ARC
5
a38
100
AcDbEntity
8
8-0
6
CONTINUOUS
62
7
100
AcDbCircle
10
721.360000000000
20
1496.520000000000
30
0.0
40
0.599999943284
100
AcDbArc
50
360.000000000000
51
450.000152587891
0
ARC
5
a39
100
AcDbEntity
8
8-0
6
CONTINUOUS
62
7
100
AcDbCircle
10
705.220000000000
20
1498.020000000000
30
0.0
40
1.499999926616
100
AcDbArc
50
89.999877929688
51
269.999877929688
0
ARC
5
a3a
100
AcDbEntity
8
8-0
6
CONTINUOUS
62
7
100
AcDbCircle
10
705.220000000000
20
1498.020000000000
30
0.0
40
0.899999914925
100
AcDbArc
50
89.999755859375
51
269.999755859375
0
ARC
5
a3b
100
AcDbEntity
8
8-0
6
CONTINUOUS
62
7
100
AcDbCircle
10
786.470000000000
20
1499.180000000000
30
0.0
40
0.896399982852
100
AcDbArc
50
269.814971923828
51
449.814971923828
0
ARC
5
a3c
100
AcDbEntity
8
8-0
6
CONTINUOUS
62
7
100
AcDbCircle
10
786.460000000000
20
1499.190000000000
30
0.0
40
0.299999971642
100
AcDbArc
50
270.000000000000
51
450.000000000000
0
ARC
5
a3d
100
AcDbEntity
8
8-0
6
CONTINUOUS
62
7
100
AcDbCircle
10
762.870000000000
20
-23.960000000000
30
0.0
40
1525.977589187969
100
AcDbArc
50
89.660446166992
51
91.978622436523
0
ARC
5
a3e
100
AcDbEntity
8
8-0
6
CONTINUOUS
62
7
100
AcDbCircle
10
762.870000000000
20
-23.960000000000
30
0.0
40
1525.377549158031
100
AcDbArc
50
89.660308837891
51
91.978637695313
0
ARC
5
a3f
100
AcDbEntity
8
8-0
6
CONTINUOUS
62
7
100
AcDbCircle
10
770.160000000000
20
1472.290000000000
30
0.0
40
0.599999943284
100
AcDbArc
50
360.000000000000
51
450.000000000000
0
ARC
5
a40
100
AcDbEntity
8
8-0
6
CONTINUOUS
62
7
100
AcDbCircle
10
771.060000000000
20
1423.290000000000
30
0.0
40
0.299999971642
100
AcDbArc
50
179.990539550781
51
359.990539550781
0
ARC
5
a41
100
AcDbEntity
8
8-0
6
CONTINUOUS
62
7
100
AcDbCircle
10
771.060000000000
20
1423.290000000000
30
0.0
40
0.899999914925
100
AcDbArc
50
180.000000000000
51
360.000000000000
0
ARC
5
a42
100
AcDbEntity
8
8-0
6
CONTINUOUS
62
3
100
AcDbCircle
10
816.030000000000
20
2037.350000000000
30
0.0
40
2.299999850994
100
AcDbArc
50
104.036132812500
51
194.036132812500
0
ARC
5
a43
100
AcDbEntity
8
8-0
6
CONTINUOUS
62
3
100
AcDbCircle
10
860.080000000000
20
2048.360000000000
30
0.0
40
2.299999850994
100
AcDbArc
50
14.036132812500
51
104.036132812500
0
ARC
5
a44
100
AcDbEntity
8
8-0
6
CONTINUOUS
62
3
100
AcDbCircle
10
883.210000000000
20
1955.810000000000
30
0.0
40
2.299999850994
100
AcDbArc
50
284.036132812500
51
374.036132812500
0
ARC
5
a45
100
AcDbEntity
8
8-0
6
CONTINUOUS
62
3
100
AcDbCircle
10
839.170000000000
20
1944.800000000000
30
0.0
40
2.299999850994
100
AcDbArc
50
194.036132812500
51
284.036132812500
0
ARC
5
a46
100
AcDbEntity
8
8-0
6
CONTINUOUS
62
7
100
AcDbCircle
10
749.580000000000
20
2007.120000000000
30
0.0
40
1.499999926616
100
AcDbArc
50
290.497009277344
51
374.029327392578
0
ARC
5
a47
100
AcDbEntity
8
8-0
6
CONTINUOUS
62
7
100
AcDbCircle
10
749.580000000000
20
2007.120000000000
30
0.0
40
0.899999914925
100
AcDbArc
50
194.028839111328
51
374.028839111328
0
ARC
5
a48
100
AcDbEntity
8
8-0
6
CONTINUOUS
62
7
100
AcDbCircle
10
749.580000000000
20
2007.120000000000
30
0.0
40
1.499999926616
100
AcDbArc
50
198.473281860352
51
290.497009277344
0
ARC
5
a49
100
AcDbEntity
8
8-0
6
CONTINUOUS
62
7
100
AcDbCircle
10
746.350000000000
20
2021.270000000000
30
0.0
40
0.599999943284
100
AcDbArc
50
104.036117553711
51
194.033889770508
0
ARC
5
a4a
100
AcDbEntity
8
8-0
6
CONTINUOUS
62
7
100
AcDbCircle
10
738.730000000000
20
2044.340000000000
30
0.0
40
0.599999943284
100
AcDbArc
50
14.036132812500
51
104.036285400391
0
ARC
5
a4b
100
AcDbEntity
8
8-0
6
CONTINUOUS
62
7
100
AcDbCircle
10
722.700000000000
20
2041.880000000000
30
0.0
40
1.499999926616
100
AcDbArc
50
104.036010742188
51
284.036010742188
0
ARC
5
a4c
100
AcDbEntity
8
8-0
6
CONTINUOUS
62
7
100
AcDbCircle
10
722.700000000000
20
2041.880000000000
30
0.0
40
0.899999914925
100
AcDbArc
50
104.035888671875
51
284.035888671875
0
ARC
5
a4d
100
AcDbEntity
8
8-0
6
CONTINUOUS
62
7
100
AcDbCircle
10
801.240000000000
20
2062.720000000000
30
0.0
40
0.896399982852
100
AcDbArc
50
283.851104736328
51
463.851104736328
0
ARC
5
a4e
100
AcDbEntity
8
8-0
6
CONTINUOUS
62
7
100
AcDbCircle
10
801.240000000000
20
2062.720000000000
30
0.0
40
0.299999971642
100
AcDbArc
50
284.036132812500
51
464.036132812500
0
ARC
5
a4f
100
AcDbEntity
8
8-0
6
CONTINUOUS
62
7
100
AcDbCircle
10
791.950000000000
20
2032.670000000000
30
0.0
40
0.599999943284
100
AcDbArc
50
14.036132812500
51
104.036132812500
0
ARC
5
a50
100
AcDbEntity
8
8-0
6
CONTINUOUS
62
7
100
AcDbCircle
10
804.710000000000
20
1985.350000000000
30
0.0
40
0.299999971642
100
AcDbArc
50
194.026672363281
51
374.026672363281
0
ARC
5
a51
100
AcDbEntity
8
8-0
6
CONTINUOUS
62
7
100
AcDbCircle
10
804.710000000000
20
1985.350000000000
30
0.0
40
0.899999914925
100
AcDbArc
50
194.036132812500
51
374.036132812500
0
ARC
5
a52
100
AcDbEntity
8
8-0
6
CONTINUOUS
62
7
100
AcDbCircle
10
732.340000000000
20
2037.280000000000
30
0.0
40
0.749999963308
100
AcDbArc
50
257.239639282227
51
437.239639282227
0
ARC
5
a53
100
AcDbEntity
8
8-0
6
CONTINUOUS
62
7
100
AcDbCircle
10
732.340000000000
20
2037.280000000000
30
0.0
40
0.249999993470
100
AcDbArc
50
257.237960815430
51
437.237960815430
0
ARC
5
a54
100
AcDbEntity
8
8-0
6
CONTINUOUS
62
7
100
AcDbCircle
10
948.830000000000
20
2101.070000000000
30
0.0
40
0.749999963308
100
AcDbArc
50
271.566009521484
51
451.566009521484
0
ARC
5
a55
100
AcDbEntity
8
8-0
6
CONTINUOUS
62
7
100
AcDbCircle
10
902.690000000000
20
2099.070000000000
30
0.0
40
0.999999973880
100
AcDbArc
50
89.637466430664
51
249.526062011719
0
ARC
5
a56
100
AcDbEntity
8
8-0
6
CONTINUOUS
62
7
100
AcDbCircle
10
902.690000000000
20
2099.070000000000
30
0.0
40
0.499999986940
100
AcDbArc
50
89.637466430664
51
249.526062011719
0
ARC
5
a57
100
AcDbEntity
8
8-0
6
CONTINUOUS
62
7
100
AcDbCircle
10
918.450000000000
20
2093.730000000000
30
0.0
40
0.499999986940
100
AcDbArc
50
281.221557617188
51
429.535491943359
0
ARC
5
a58
100
AcDbEntity
8
8-0
6
CONTINUOUS
62
7
100
AcDbCircle
10
918.450000000000
20
2093.730000000000
30
0.0
40
0.999999973880
100
AcDbArc
50
283.204757690430
51
431.564605712891
0
ARC
5
a59
100
AcDbEntity
8
8-0
6
CONTINUOUS
62
7
100
AcDbCircle
10
924.940000000000
20
2099.960000000000
30
0.0
40
0.283799986581
100
AcDbArc
50
6.472320556641
51
172.799011230469
0
ARC
5
a5a
100
AcDbEntity
8
8-0
6
CONTINUOUS
62
7
100
AcDbCircle
10
923.690000000000
20
2100.250000000000
30
0.0
40
0.999999973880
100
AcDbArc
50
269.124435424805
51
345.160217285156
0
ARC
5
a5b
100
AcDbEntity
8
8-0
6
CONTINUOUS
62
7
100
AcDbCircle
10
924.940000000000
20
2099.960000000000
30
0.0
40
0.783799990623
100
AcDbArc
50
12.426589965820
51
166.847259521484
0
ARC
5
a5c
100
AcDbEntity
8
8-0
6
CONTINUOUS
62
7
100
AcDbCircle
10
923.690000000000
20
2100.250000000000
30
0.0
40
0.499999986940
100
AcDbArc
50
269.124343872070
51
346.845321655273
0
ARC
5
a5d
100
AcDbEntity
8
8-0
6
CONTINUOUS
62
7
100
AcDbCircle
10
948.830000000000
20
2101.070000000000
30
0.0
40
0.249999993470
100
AcDbArc
50
271.566009521484
51
451.566009521484
0
ARC
5
a5e
100
AcDbEntity
8
8-0
6
CONTINUOUS
62
7
100
AcDbCircle
10
926.190000000000
20
2100.230000000000
30
0.0
40
0.999999973880
100
AcDbArc
50
194.114624023438
51
270.570083618164
0
ARC
5
a5f
100
AcDbEntity
8
8-0
6
CONTINUOUS
62
7
100
AcDbCircle
10
926.190000000000
20
2100.230000000000
30
0.0
40
0.499999986940
100
AcDbArc
50
192.428512573242
51
269.645721435547
0
ARC
5
a60
100
AcDbEntity
8
8-0
6
CONTINUOUS
62
7
100
AcDbCircle
10
913.930000000000
20
2093.540000000000
30
0.0
40
0.749999963308
100
AcDbArc
50
254.134643554688
51
434.134658813477
0
ARC
5
a61
100
AcDbEntity
8
8-0
6
CONTINUOUS
62
7
100
AcDbCircle
10
913.930000000000
20
2093.540000000000
30
0.0
40
0.249999993470
100
AcDbArc
50
254.132980346680
51
434.132980346680
0
ARC
5
a62
100
AcDbEntity
8
8-0
6
CONTINUOUS
62
7
100
AcDbCircle
10
902.690000000000
20
2099.070000000000
30
0.0
40
1.999999947760
100
AcDbArc
50
101.222137451172
51
249.526062011719
0
ARC
5
a63
100
AcDbEntity
8
8-0
6
CONTINUOUS
62
7
100
AcDbCircle
10
902.690000000000
20
2099.070000000000
30
0.0
40
1.499999926616
100
AcDbArc
50
101.223068237305
51
249.526062011719
0
ARC
5
a64
100
AcDbEntity
8
8-0
6
CONTINUOUS
62
7
100
AcDbCircle
10
720.810000000000
20
2042.200000000000
30
0.0
40
1.499999926616
100
AcDbArc
50
104.328048706055
51
254.965560913086
0
ARC
5
a65
100
AcDbEntity
8
8-0
6
CONTINUOUS
62
7
100
AcDbCircle
10
720.810000000000
20
2042.200000000000
30
0.0
40
1.999999947760
100
AcDbArc
50
104.327117919922
51
255.253799438477
0
ARC
5
a66
100
AcDbEntity
8
8-0
6
CONTINUOUS
62
7
100
AcDbCircle
10
1625.600000000000
20
-1185.520000000000
30
0.0
40
3353.631712913979
100
AcDbArc
50
102.168655395508
51
105.658554077148
0
ARC
5
a67
100
AcDbEntity
8
8-0
6
CONTINUOUS
62
7
100
AcDbCircle
10
1625.600000000000
20
-1185.520000000000
30
0.0
40
3354.131302628375
100
AcDbArc
50
102.168655395508
51
105.658554077148
0
ARC
5
a68
100
AcDbEntity
8
8-0
6
CONTINUOUS
62
7
100
AcDbCircle
10
952.640000000000
20
1502.150000000000
30
0.0
40
0.999999973880
100
AcDbArc
50
270.000000000000
51
430.344070434570
0
ARC
5
a69
100
AcDbEntity
8
8-0
6
CONTINUOUS
62
7
100
AcDbCircle
10
952.640000000000
20
1502.150000000000
30
0.0
40
0.499999986940
100
AcDbArc
50
270.000000000000
51
425.170639038086
0
ARC
5
a6a
100
AcDbEntity
8
8-0
6
CONTINUOUS
62
7
100
AcDbCircle
10
940.640000000000
20
1505.150000000000
30
0.0
40
0.499999986940
100
AcDbArc
50
90.000000000000
51
250.351715087891
0
ARC
5
a6b
100
AcDbEntity
8
8-0
6
CONTINUOUS
62
7
100
AcDbCircle
10
940.640000000000
20
1505.150000000000
30
0.0
40
0.999999973880
100
AcDbArc
50
90.000000000000
51
254.001083374023
0
ARC
5
a6c
100
AcDbEntity
8
8-0
6
CONTINUOUS
62
3
100
AcDbCircle
10
209.740000000000
20
1459.600000000000
30
0.0
40
2.299999850994
100
AcDbArc
50
104.036209106445
51
194.036209106445
0
ARC
5
a6d
100
AcDbEntity
8
8-0
6
CONTINUOUS
62
3
100
AcDbCircle
10
253.780000000000
20
1470.620000000000
30
0.0
40
2.299999850994
100
AcDbArc
50
14.036209106445
51
104.036209106445
0
ARC
5
a6e
100
AcDbEntity
8
8-0
6
CONTINUOUS
62
3
100
AcDbCircle
10
276.920000000000
20
1378.060000000000
30
0.0
40
2.299999850994
100
AcDbArc
50
284.036209106445
51
374.036209106445
0
ARC
5
a6f
100
AcDbEntity
8
8-0
6
CONTINUOUS
62
3
100
AcDbCircle
10
232.880000000000
20
1367.050000000000
30
0.0
40
2.299999850994
100
AcDbArc
50
194.036209106445
51
284.036209106445
0
ARC
5
a70
100
AcDbEntity
8
8-0
6
CONTINUOUS
62
7
100
AcDbCircle
10
219.390000000000
20
1535.610000000000
30
0.0
40
0.899999914925
100
AcDbArc
50
284.037155151367
51
464.037155151367
0
ARC
5
a71
100
AcDbEntity
8
8-0
6
CONTINUOUS
62
7
100
AcDbCircle
10
219.390000000000
20
1535.610000000000
30
0.0
40
0.299999971642
100
AcDbArc
50
284.039001464844
51
464.039001464844
0
ARC
5
a72
100
AcDbEntity
8
8-0
6
CONTINUOUS
62
7
100
AcDbCircle
10
170.420000000000
20
1484.090000000000
30
0.0
40
0.899999914925
100
AcDbArc
50
104.036239624023
51
284.036239624023
0
ARC
5
a73
100
AcDbEntity
8
8-0
6
CONTINUOUS
62
7
100
AcDbCircle
10
170.420000000000
20
1484.090000000000
30
0.0
40
0.299999971642
100
AcDbArc
50
104.036239624023
51
284.036239624023
0
ARC
5
a74
100
AcDbEntity
8
8-0
6
CONTINUOUS
62
7
100
AcDbCircle
10
199.460000000000
20
1491.660000000000
30
0.0
40
0.599999943284
100
AcDbArc
50
281.746292114258
51
374.035949707031
0
ARC
5
a75
100
AcDbEntity
8
8-0
6
CONTINUOUS
62
7
100
AcDbCircle
10
199.460000000000
20
1491.660000000000
30
0.0
40
1.199999886567
100
AcDbArc
50
281.746292114258
51
374.035949707031
0
ARC
5
a76
100
AcDbEntity
8
8-0
6
CONTINUOUS
62
7
100
AcDbCircle
10
176.610000000000
20
1523.680000000000
30
0.0
40
0.899999914925
100
AcDbArc
50
104.036239624023
51
284.036239624023
0
ARC
5
a77
100
AcDbEntity
8
8-0
6
CONTINUOUS
62
7
100
AcDbCircle
10
176.610000000000
20
1523.680000000000
30
0.0
40
0.299999971642
100
AcDbArc
50
104.036239624023
51
284.036239624023
0
ARC
5
a78
100
AcDbEntity
8
8-0
6
CONTINUOUS
62
7
100
AcDbCircle
10
190.940000000000
20
1525.720000000000
30
0.0
40
0.599999943284
100
AcDbArc
50
14.035949707031
51
104.036239624023
0
ARC
5
a79
100
AcDbEntity
8
8-0
6
CONTINUOUS
62
7
100
AcDbCircle
10
190.940000000000
20
1525.720000000000
30
0.0
40
1.199999886567
100
AcDbArc
50
14.035949707031
51
104.036239624023
0
ARC
5
a7a
100
AcDbEntity
8
8-0
6
CONTINUOUS
62
7
100
AcDbCircle
10
176.610000000000
20
1523.680000000000
30
0.0
40
2.700000086812
100
AcDbArc
50
104.036239624023
51
284.036239624023
0
ARC
5
a7b
100
AcDbEntity
8
8-0
6
CONTINUOUS
62
7
100
AcDbCircle
10
176.610000000000
20
1523.680000000000
30
0.0
40
2.100000006714
100
AcDbArc
50
104.036239624023
51
284.036239624023
0
ARC
5
a7c
100
AcDbEntity
8
8-0
6
CONTINUOUS
62
3
100
AcDbCircle
10
446.690000000000
20
1459.600000000000
30
0.0
40
2.299999850994
100
AcDbArc
50
345.963912963867
51
435.963912963867
0
ARC
5
a7d
100
AcDbEntity
8
8-0
6
CONTINUOUS
62
3
100
AcDbCircle
10
402.650000000000
20
1470.620000000000
30
0.0
40
2.299999850994
100
AcDbArc
50
75.963912963867
51
165.963912963867
0
ARC
5
a7e
100
AcDbEntity
8
8-0
6
CONTINUOUS
62
3
100
AcDbCircle
10
379.510000000000
20
1378.060000000000
30
0.0
40
2.299999850994
100
AcDbArc
50
165.963912963867
51
255.963912963867
0
ARC
5
a7f
100
AcDbEntity
8
8-0
6
CONTINUOUS
62
3
100
AcDbCircle
10
423.560000000000
20
1367.050000000000
30
0.0
40
2.299999850994
100
AcDbArc
50
255.963912963867
51
345.963912963867
0
ARC
5
a80
100
AcDbEntity
8
8-0
6
CONTINUOUS
62
7
100
AcDbCircle
10
437.040000000000
20
1535.610000000000
30
0.0
40
0.899999914925
100
AcDbArc
50
75.962677001953
51
255.962677001953
0
ARC
5
a81
100
AcDbEntity
8
8-0
6
CONTINUOUS
62
7
100
AcDbCircle
10
437.040000000000
20
1535.610000000000
30
0.0
40
0.299999971642
100
AcDbArc
50
75.960525512695
51
255.960525512695
0
ARC
5
a82
100
AcDbEntity
8
8-0
6
CONTINUOUS
62
7
100
AcDbCircle
10
486.010000000000
20
1484.090000000000
30
0.0
40
0.899999914925
100
AcDbArc
50
255.963760375977
51
435.963760375977
0
ARC
5
a83
100
AcDbEntity
8
8-0
6
CONTINUOUS
62
7
100
AcDbCircle
10
486.010000000000
20
1484.090000000000
30
0.0
40
0.299999971642
100
AcDbArc
50
255.963760375977
51
435.963760375977
0
ARC
5
a84
100
AcDbEntity
8
8-0
6
CONTINUOUS
62
7
100
AcDbCircle
10
456.980000000000
20
1491.660000000000
30
0.0
40
0.599999943284
100
AcDbArc
50
165.964050292969
51
258.253707885742
0
ARC
5
a85
100
AcDbEntity
8
8-0
6
CONTINUOUS
62
7
100
AcDbCircle
10
456.980000000000
20
1491.660000000000
30
0.0
40
1.199999886567
100
AcDbArc
50
165.964050292969
51
258.253707885742
0
ARC
5
a86
100
AcDbEntity
8
8-0
6
CONTINUOUS
62
7
100
AcDbCircle
10
479.830000000000
20
1523.680000000000
30
0.0
40
0.899999914925
100
AcDbArc
50
255.963760375977
51
435.963760375977
0
ARC
5
a87
100
AcDbEntity
8
8-0
6
CONTINUOUS
62
7
100
AcDbCircle
10
479.830000000000
20
1523.680000000000
30
0.0
40
0.299999971642
100
AcDbArc
50
255.963760375977
51
435.963760375977
0
ARC
5
a88
100
AcDbEntity
8
8-0
6
CONTINUOUS
62
7
100
AcDbCircle
10
465.490000000000
20
1525.720000000000
30
0.0
40
0.599999943284
100
AcDbArc
50
75.963760375977
51
165.964050292969
0
ARC
5
a89
100
AcDbEntity
8
8-0
6
CONTINUOUS
62
7
100
AcDbCircle
10
465.490000000000
20
1525.720000000000
30
0.0
40
1.199999886567
100
AcDbArc
50
75.963760375977
51
165.964050292969
0
ARC
5
a8a
100
AcDbEntity
8
8-0
6
CONTINUOUS
62
7
100
AcDbCircle
10
479.830000000000
20
1523.680000000000
30
0.0
40
2.700000086812
100
AcDbArc
50
255.963760375977
51
435.963760375977
0
ARC
5
a8b
100
AcDbEntity
8
8-0
6
CONTINUOUS
62
7
100
AcDbCircle
10
479.830000000000
20
1523.680000000000
30
0.0
40
2.100000006714
100
AcDbArc
50
255.963760375977
51
435.963760375977
0
ARC
5
a8c
100
AcDbEntity
8
8-0
6
DASHED
62
7
100
AcDbCircle
10
328.220000000000
20
1557.780000000000
30
0.0
40
3.999999895519
100
AcDbArc
50
76.271011352539
51
103.728988647461
0
ARC
5
a8d
100
AcDbEntity
8
8-0
6
DASHED
62
7
100
AcDbCircle
10
328.220000000000
20
1513.760000000000
30
0.0
40
3.999999895519
100
AcDbArc
50
75.963577270508
51
104.036422729492
0
ARC
5
a8e
100
AcDbEntity
8
8-0
6
CONTINUOUS
62
7
100
AcDbCircle
10
260.310000000000
20
1502.250000000000
30
0.0
40
0.749999963308
100
AcDbArc
50
271.566009521484
51
451.566009521484
0
ARC
5
a8f
100
AcDbEntity
8
8-0
6
CONTINUOUS
62
7
100
AcDbCircle
10
214.170000000000
20
1500.250000000000
30
0.0
40
0.999999973880
100
AcDbArc
50
89.637466430664
51
249.526062011719
0
ARC
5
a90
100
AcDbEntity
8
8-0
6
CONTINUOUS
62
7
100
AcDbCircle
10
214.170000000000
20
1500.250000000000
30
0.0
40
0.499999986940
100
AcDbArc
50
89.637466430664
51
249.526062011719
0
ARC
5
a91
100
AcDbEntity
8
8-0
6
CONTINUOUS
62
7
100
AcDbCircle
10
229.930000000000
20
1494.920000000000
30
0.0
40
0.499999986940
100
AcDbArc
50
281.221557617188
51
429.535491943359
0
ARC
5
a92
100
AcDbEntity
8
8-0
6
CONTINUOUS
62
7
100
AcDbCircle
10
229.930000000000
20
1494.920000000000
30
0.0
40
0.999999973880
100
AcDbArc
50
283.204757690430
51
431.564605712891
0
ARC
5
a93
100
AcDbEntity
8
8-0
6
CONTINUOUS
62
7
100
AcDbCircle
10
236.420000000000
20
1501.140000000000
30
0.0
40
0.283799986581
100
AcDbArc
50
6.472320556641
51
172.799011230469
0
ARC
5
a94
100
AcDbEntity
8
8-0
6
CONTINUOUS
62
7
100
AcDbCircle
10
235.170000000000
20
1501.430000000000
30
0.0
40
0.999999973880
100
AcDbArc
50
269.124435424805
51
345.160217285156
0
ARC
5
a95
100
AcDbEntity
8
8-0
6
CONTINUOUS
62
7
100
AcDbCircle
10
236.420000000000
20
1501.140000000000
30
0.0
40
0.783799990623
100
AcDbArc
50
12.426589965820
51
166.847259521484
0
ARC
5
a96
100
AcDbEntity
8
8-0
6
CONTINUOUS
62
7
100
AcDbCircle
10
235.170000000000
20
1501.430000000000
30
0.0
40
0.499999986940
100
AcDbArc
50
269.124343872070
51
346.845321655273
0
ARC
5
a97
100
AcDbEntity
8
8-0
6
CONTINUOUS
62
7
100
AcDbCircle
10
260.310000000000
20
1502.250000000000
30
0.0
40
0.249999993470
100
AcDbArc
50
271.566009521484
51
451.566009521484
0
ARC
5
a98
100
AcDbEntity
8
8-0
6
CONTINUOUS
62
7
100
AcDbCircle
10
237.670000000000
20
1501.420000000000
30
0.0
40
0.999999973880
100
AcDbArc
50
194.114624023438
51
270.570083618164
0
ARC
5
a99
100
AcDbEntity
8
8-0
6
CONTINUOUS
62
7
100
AcDbCircle
10
237.670000000000
20
1501.420000000000
30
0.0
40
0.499999986940
100
AcDbArc
50
192.428512573242
51
269.645721435547
0
ARC
5
a9a
100
AcDbEntity
8
8-0
6
CONTINUOUS
62
7
100
AcDbCircle
10
396.120000000000
20
1502.250000000000
30
0.0
40
0.749999963308
100
AcDbArc
50
88.434661865234
51
268.434661865234
0
ARC
5
a9b
100
AcDbEntity
8
8-0
6
CONTINUOUS
62
7
100
AcDbCircle
10
442.260000000000
20
1500.250000000000
30
0.0
40
0.999999973880
100
AcDbArc
50
290.474594116211
51
450.363189697266
0
ARC
5
a9c
100
AcDbEntity
8
8-0
6
CONTINUOUS
62
7
100
AcDbCircle
10
442.260000000000
20
1500.250000000000
30
0.0
40
0.499999986940
100
AcDbArc
50
290.474258422852
51
450.362854003906
0
ARC
5
a9d
100
AcDbEntity
8
8-0
6
CONTINUOUS
62
7
100
AcDbCircle
10
426.500000000000
20
1494.920000000000
30
0.0
40
0.499999986940
100
AcDbArc
50
110.464828491211
51
258.778762817383
0
ARC
5
a9e
100
AcDbEntity
8
8-0
6
CONTINUOUS
62
7
100
AcDbCircle
10
426.500000000000
20
1494.920000000000
30
0.0
40
0.999999973880
100
AcDbArc
50
108.436050415039
51
256.795898437500
0
ARC
5
a9f
100
AcDbEntity
8
8-0
6
CONTINUOUS
62
7
100
AcDbCircle
10
420.020000000000
20
1501.140000000000
30
0.0
40
0.283799986581
100
AcDbArc
50
7.202514648438
51
173.529205322266
0
ARC
5
aa0
100
AcDbEntity
8
8-0
6
CONTINUOUS
62
7
100
AcDbCircle
10
421.260000000000
20
1501.430000000000
30
0.0
40
0.999999973880
100
AcDbArc
50
194.839599609375
51
270.875381469727
0
ARC
5
aa1
100
AcDbEntity
8
8-0
6
CONTINUOUS
62
7
100
AcDbCircle
10
420.020000000000
20
1501.140000000000
30
0.0
40
0.783799990623
100
AcDbArc
50
13.153503417969
51
167.574172973633
0
ARC
5
aa2
100
AcDbEntity
8
8-0
6
CONTINUOUS
62
7
100
AcDbCircle
10
421.260000000000
20
1501.430000000000
30
0.0
40
0.499999986940
100
AcDbArc
50
193.154495239258
51
270.875473022461
0
ARC
5
aa3
100
AcDbEntity
8
8-0
6
CONTINUOUS
62
7
100
AcDbCircle
10
396.120000000000
20
1502.250000000000
30
0.0
40
0.249999993470
100
AcDbArc
50
88.432815551758
51
268.432815551758
0
ARC
5
aa4
100
AcDbEntity
8
8-0
6
CONTINUOUS
62
7
100
AcDbCircle
10
418.760000000000
20
1501.420000000000
30
0.0
40
0.999999973880
100
AcDbArc
50
269.430236816406
51
345.885696411133
0
ARC
5
aa5
100
AcDbEntity
8
8-0
6
CONTINUOUS
62
7
100
AcDbCircle
10
418.760000000000
20
1501.420000000000
30
0.0
40
0.499999986940
100
AcDbArc
50
270.353912353516
51
347.571121215820
0
ARC
5
aa6
100
AcDbEntity
8
8-0
6
CONTINUOUS
62
3
100
AcDbCircle
10
1340.500000000000
20
1953.520000000000
30
0.0
40
2.299999850994
100
AcDbArc
50
104.036209106445
51
194.036209106445
0
ARC
5
aa7
100
AcDbEntity
8
8-0
6
CONTINUOUS
62
3
100
AcDbCircle
10
1384.550000000000
20
1964.530000000000
30
0.0
40
2.299999850994
100
AcDbArc
50
14.036209106445
51
104.036209106445
0
ARC
5
aa8
100
AcDbEntity
8
8-0
6
CONTINUOUS
62
3
100
AcDbCircle
10
1407.680000000000
20
1871.980000000000
30
0.0
40
2.299999850994
100
AcDbArc
50
284.036209106445
51
374.036209106445
0
ARC
5
aa9
100
AcDbEntity
8
8-0
6
CONTINUOUS
62
3
100
AcDbCircle
10
1363.640000000000
20
1860.960000000000
30
0.0
40
2.299999850994
100
AcDbArc
50
194.036209106445
51
284.036209106445
0
ARC
5
aaa
100
AcDbEntity
8
8-0
6
CONTINUOUS
62
7
100
AcDbCircle
10
1350.160000000000
20
2029.530000000000
30
0.0
40
0.899999914925
100
AcDbArc
50
284.037155151367
51
464.037155151367
0
ARC
5
aab
100
AcDbEntity
8
8-0
6
CONTINUOUS
62
7
100
AcDbCircle
10
1350.160000000000
20
2029.530000000000
30
0.0
40
0.299999971642
100
AcDbArc
50
284.039001464844
51
464.039001464844
0
ARC
5
aac
100
AcDbEntity
8
8-0
6
CONTINUOUS
62
7
100
AcDbCircle
10
1301.190000000000
20
1978.000000000000
30
0.0
40
0.899999914925
100
AcDbArc
50
104.036239624023
51
284.036239624023
0
ARC
5
aad
100
AcDbEntity
8
8-0
6
CONTINUOUS
62
7
100
AcDbCircle
10
1301.190000000000
20
1978.000000000000
30
0.0
40
0.299999971642
100
AcDbArc
50
104.036239624023
51
284.036239624023
0
ARC
5
aae
100
AcDbEntity
8
8-0
6
CONTINUOUS
62
7
100
AcDbCircle
10
1330.220000000000
20
1985.570000000000
30
0.0
40
0.599999943284
100
AcDbArc
50
281.746292114258
51
374.035949707031
0
ARC
5
aaf
100
AcDbEntity
8
8-0
6
CONTINUOUS
62
7
100
AcDbCircle
10
1330.220000000000
20
1985.570000000000
30
0.0
40
1.199999886567
100
AcDbArc
50
281.746292114258
51
374.035949707031
0
ARC
5
ab0
100
AcDbEntity
8
8-0
6
CONTINUOUS
62
7
100
AcDbCircle
10
1307.370000000000
20
2017.590000000000
30
0.0
40
0.899999914925
100
AcDbArc
50
104.036239624023
51
284.036239624023
0
ARC
5
ab1
100
AcDbEntity
8
8-0
6
CONTINUOUS
62
7
100
AcDbCircle
10
1307.370000000000
20
2017.590000000000
30
0.0
40
0.299999971642
100
AcDbArc
50
104.036239624023
51
284.036239624023
0
ARC
5
ab2
100
AcDbEntity
8
8-0
6
CONTINUOUS
62
7
100
AcDbCircle
10
1321.710000000000
20
2019.630000000000
30
0.0
40
0.599999943284
100
AcDbArc
50
14.035949707031
51
104.036239624023
0
ARC
5
ab3
100
AcDbEntity
8
8-0
6
CONTINUOUS
62
7
100
AcDbCircle
10
1321.710000000000
20
2019.630000000000
30
0.0
40
1.199999886567
100
AcDbArc
50
14.035949707031
51
104.036239624023
0
ARC
5
ab4
100
AcDbEntity
8
8-0
6
CONTINUOUS
62
7
100
AcDbCircle
10
1307.370000000000
20
2017.590000000000
30
0.0
40
2.700000086812
100
AcDbArc
50
104.036239624023
51
284.036239624023
0
ARC
5
ab5
100
AcDbEntity
8
8-0
6
CONTINUOUS
62
7
100
AcDbCircle
10
1307.370000000000
20
2017.590000000000
30
0.0
40
2.100000006714
100
AcDbArc
50
104.036239624023
51
284.036239624023
0
ARC
5
ab6
100
AcDbEntity
8
8-0
6
CONTINUOUS
62
3
100
AcDbCircle
10
1556.680000000000
20
2091.210000000000
30
0.0
40
2.299999850994
100
AcDbArc
50
270.000000000000
51
360.000000000000
0
ARC
5
ab7
100
AcDbEntity
8
8-0
6
CONTINUOUS
62
3
100
AcDbCircle
10
1556.680000000000
20
2136.610000000000
30
0.0
40
2.299999850994
100
AcDbArc
50
360.000000000000
51
450.000000000000
0
ARC
5
ab8
100
AcDbEntity
8
8-0
6
CONTINUOUS
62
3
100
AcDbCircle
10
1461.280000000000
20
2136.610000000000
30
0.0
40
2.299999850994
100
AcDbArc
50
90.000000000000
51
180.000000000000
0
ARC
5
ab9
100
AcDbEntity
8
8-0
6
CONTINUOUS
62
3
100
AcDbCircle
10
1461.280000000000
20
2091.210000000000
30
0.0
40
2.299999850994
100
AcDbArc
50
180.000000000000
51
270.000000000000
0
ARC
5
aba
100
AcDbEntity
8
8-0
6
CONTINUOUS
62
7
100
AcDbCircle
10
1456.080000000000
20
2136.610000000000
30
0.0
40
0.299999971642
100
AcDbArc
50
360.000000000000
51
540.000000000000
0
ARC
5
abb
100
AcDbEntity
8
8-0
6
CONTINUOUS
62
7
100
AcDbCircle
10
1456.080000000000
20
2136.610000000000
30
0.0
40
0.899999914925
100
AcDbArc
50
360.000000000000
51
540.000000000000
0
ARC
5
abc
100
AcDbEntity
8
8-0
6
DASHED
62
7
100
AcDbCircle
10
1453.980000000000
20
2014.660000000000
30
0.0
40
3.999999895519
100
AcDbArc
50
284.035903930664
51
360.000000000000
0
ARC
5
abd
100
AcDbEntity
8
8-0
6
CONTINUOUS
62
7
100
AcDbCircle
10
1391.080000000000
20
1996.160000000000
30
0.0
40
0.749999963308
100
AcDbArc
50
271.566009521484
51
451.566009521484
0
ARC
5
abe
100
AcDbEntity
8
8-0
6
CONTINUOUS
62
7
100
AcDbCircle
10
1344.930000000000
20
1994.160000000000
30
0.0
40
0.999999973880
100
AcDbArc
50
89.637466430664
51
249.526062011719
0
ARC
5
abf
100
AcDbEntity
8
8-0
6
CONTINUOUS
62
7
100
AcDbCircle
10
1344.930000000000
20
1994.160000000000
30
0.0
40
0.499999986940
100
AcDbArc
50
89.637466430664
51
249.526062011719
0
ARC
5
ac0
100
AcDbEntity
8
8-0
6
CONTINUOUS
62
7
100
AcDbCircle
10
1360.700000000000
20
1988.830000000000
30
0.0
40
0.499999986940
100
AcDbArc
50
281.221557617188
51
429.535491943359
0
ARC
5
ac1
100
AcDbEntity
8
8-0
6
CONTINUOUS
62
7
100
AcDbCircle
10
1360.700000000000
20
1988.830000000000
30
0.0
40
0.999999973880
100
AcDbArc
50
283.204757690430
51
431.564605712891
0
ARC
5
ac2
100
AcDbEntity
8
8-0
6
CONTINUOUS
62
7
100
AcDbCircle
10
1367.180000000000
20
1995.050000000000
30
0.0
40
0.283799986581
100
AcDbArc
50
6.472320556641
51
172.799011230469
0
ARC
5
ac3
100
AcDbEntity
8
8-0
6
CONTINUOUS
62
7
100
AcDbCircle
10
1365.930000000000
20
1995.340000000000
30
0.0
40
0.999999973880
100
AcDbArc
50
269.124435424805
51
345.160217285156
0
ARC
5
ac4
100
AcDbEntity
8
8-0
6
CONTINUOUS
62
7
100
AcDbCircle
10
1367.180000000000
20
1995.050000000000
30
0.0
40
0.783799990623
100
AcDbArc
50
12.426589965820
51
166.847259521484
0
ARC
5
ac5
100
AcDbEntity
8
8-0
6
CONTINUOUS
62
7
100
AcDbCircle
10
1365.930000000000
20
1995.340000000000
30
0.0
40
0.499999986940
100
AcDbArc
50
269.124343872070
51
346.845321655273
0
ARC
5
ac6
100
AcDbEntity
8
8-0
6
CONTINUOUS
62
7
100
AcDbCircle
10
1391.080000000000
20
1996.160000000000
30
0.0
40
0.249999993470
100
AcDbArc
50
271.566009521484
51
451.566009521484
0
ARC
5
ac7
100
AcDbEntity
8
8-0
6
CONTINUOUS
62
7
100
AcDbCircle
10
1368.430000000000
20
1995.330000000000
30
0.0
40
0.999999973880
100
AcDbArc
50
194.114624023438
51
270.570083618164
0
ARC
5
ac8
100
AcDbEntity
8
8-0
6
CONTINUOUS
62
7
100
AcDbCircle
10
1368.430000000000
20
1995.330000000000
30
0.0
40
0.499999986940
100
AcDbArc
50
192.428512573242
51
269.645721435547
0
ARC
5
ac9
100
AcDbEntity
8
8-0
6
CONTINUOUS
62
3
100
AcDbCircle
10
1577.050000000000
20
1591.920000000000
30
0.0
40
2.299999850994
100
AcDbArc
50
270.000000000000
51
360.000000000000
0
ARC
5
aca
100
AcDbEntity
8
8-0
6
CONTINUOUS
62
3
100
AcDbCircle
10
1577.050000000000
20
1637.320000000000
30
0.0
40
2.299999850994
100
AcDbArc
50
360.000000000000
51
450.000000000000
0
ARC
5
acb
100
AcDbEntity
8
8-0
6
CONTINUOUS
62
3
100
AcDbCircle
10
1481.650000000000
20
1637.320000000000
30
0.0
40
2.299999850994
100
AcDbArc
50
90.000000000000
51
180.000000000000
0
ARC
5
acc
100
AcDbEntity
8
8-0
6
CONTINUOUS
62
3
100
AcDbCircle
10
1481.650000000000
20
1591.920000000000
30
0.0
40
2.299999850994
100
AcDbArc
50
180.000000000000
51
270.000000000000
0
ARC
5
acd
100
AcDbEntity
8
8-0
6
CONTINUOUS
62
7
100
AcDbCircle
10
1476.450000000000
20
1637.320000000000
30
0.0
40
0.299999971642
100
AcDbArc
50
360.000000000000
51
540.000000000000
0
ARC
5
ace
100
AcDbEntity
8
8-0
6
CONTINUOUS
62
7
100
AcDbCircle
10
1476.450000000000
20
1637.320000000000
30
0.0
40
0.899999914925
100
AcDbArc
50
360.000000000000
51
540.000000000000
0
ARC
5
acf
100
AcDbEntity
8
8-0
6
CONTINUOUS
62
7
100
AcDbCircle
10
1474.750000000000
20
1540.220000000000
30
0.0
40
1.999999947760
100
AcDbArc
50
270.000000000000
51
360.000000000000
0
ARC
5
ad0
100
AcDbEntity
8
8-0
6
CONTINUOUS
62
7
100
AcDbCircle
10
1474.750000000000
20
1540.220000000000
30
0.0
40
2.599999891043
100
AcDbArc
50
270.000000000000
51
360.000000000000
0
ARC
5
ad1
100
AcDbEntity
8
8-0
6
DASHED
62
7
100
AcDbCircle
10
1418.350000000000
20
1534.620000000000
30
0.0
40
1.999999947760
100
AcDbArc
50
90.000000000000
51
180.000000000000
0
ARC
5
ad2
100
AcDbEntity
8
8-0
6
DASHED
62
7
100
AcDbCircle
10
1476.350000000000
20
1496.620000000000
30
0.0
40
1.999999947760
100
AcDbArc
50
270.000000000000
51
360.000000000000
0
ARC
5
ad3
100
AcDbEntity
8
8-0
6
DASHED
62
7
100
AcDbCircle
10
1476.350000000000
20
1538.620000000000
30
0.0
40
1.999999947760
100
AcDbArc
50
270.000000000000
51
360.000000000000
0
ARC
5
ad4
100
AcDbEntity
8
8-0
6
CONTINUOUS
62
3
100
AcDbCircle
10
1477.050000000000
20
1466.320000000000
30
0.0
40
2.299999850994
100
AcDbArc
50
360.000000000000
51
450.000000000000
0
ARC
5
ad5
100
AcDbEntity
8
8-0
6
CONTINUOUS
62
3
100
AcDbCircle
10
1431.650000000000
20
1466.320000000000
30
0.0
40
2.299999850994
100
AcDbArc
50
90.000000000000
51
180.000000000000
0
ARC
5
ad6
100
AcDbEntity
8
8-0
6
CONTINUOUS
62
3
100
AcDbCircle
10
1431.650000000000
20
1370.920000000000
30
0.0
40
2.299999850994
100
AcDbArc
50
180.000000000000
51
270.000000000000
0
ARC
5
ad7
100
AcDbEntity
8
8-0
6
CONTINUOUS
62
3
100
AcDbCircle
10
1477.050000000000
20
1370.920000000000
30
0.0
40
2.299999850994
100
AcDbArc
50
270.000000000000
51
360.000000000000
0
ARC
5
ad8
100
AcDbEntity
8
8-0
6
CONTINUOUS
62
7
100
AcDbCircle
10
1335.150000000000
20
1495.120000000000
30
0.0
40
0.899999914925
100
AcDbArc
50
90.000000000000
51
270.000000000000
0
ARC
5
ad9
100
AcDbEntity
8
8-0
6
CONTINUOUS
62
7
100
AcDbCircle
10
1335.150000000000
20
1495.120000000000
30
0.0
40
0.299999971642
100
AcDbArc
50
90.000000000000
51
270.000000000000
0
ARC
5
ada
100
AcDbEntity
8
8-0
6
CONTINUOUS
62
7
100
AcDbCircle
10
1385.150000000000
20
1510.120000000000
30
0.0
40
1.499999926616
100
AcDbArc
50
90.000000000000
51
270.000000000000
0
ARC
5
adb
100
AcDbEntity
8
8-0
6
CONTINUOUS
62
7
100
AcDbCircle
10
1385.150000000000
20
1510.120000000000
30
0.0
40
0.899999914925
100
AcDbArc
50
90.000000000000
51
270.000000000000
0
ARC
5
adc
100
AcDbEntity
8
8-0
6
CONTINUOUS
62
7
100
AcDbCircle
10
1414.550000000000
20
1512.220000000000
30
0.0
40
0.599999943284
100
AcDbArc
50
270.000000000000
51
360.000000000000
0
ARC
5
add
100
AcDbEntity
8
8-0
6
CONTINUOUS
62
7
100
AcDbCircle
10
1414.550000000000
20
1512.220000000000
30
0.0
40
1.199999886567
100
AcDbArc
50
270.000000000000
51
360.000000000000
0
ARC
5
ade
100
AcDbEntity
8
8-0
6
CONTINUOUS
62
7
100
AcDbCircle
10
1414.550000000000
20
1509.220000000000
30
0.0
40
0.599999943284
100
AcDbArc
50
360.000000000000
51
450.000000000000
0
ARC
5
adf
100
AcDbEntity
8
8-0
6
CONTINUOUS
62
7
100
AcDbCircle
10
1414.550000000000
20
1509.220000000000
30
0.0
40
1.199999886567
100
AcDbArc
50
360.000000000000
51
450.000000000000
0
ARC
5
ae0
100
AcDbEntity
8
8-0
6
CONTINUOUS
62
7
100
AcDbCircle
10
1414.550000000000
20
1495.420000000000
30
0.0
40
0.599999943284
100
AcDbArc
50
270.000000000000
51
360.000000000000
0
ARC
5
ae1
100
AcDbEntity
8
8-0
6
CONTINUOUS
62
7
100
AcDbCircle
10
1414.550000000000
20
1495.420000000000
30
0.0
40
1.199999886567
100
AcDbArc
50
270.000000000000
51
360.000000000000
0
ARC
5
ae2
100
AcDbEntity
8
8-0
6
CONTINUOUS
62
7
100
AcDbCircle
10
1401.150000000000
20
1536.320000000000
30
0.0
40
1.900000025620
100
AcDbArc
50
90.000000000000
51
270.000000000000
0
ARC
5
ae3
100
AcDbEntity
8
8-0
6
CONTINUOUS
62
7
100
AcDbCircle
10
1401.150000000000
20
1536.320000000000
30
0.0
40
1.299999945522
100
AcDbArc
50
90.000000000000
51
270.000000000000
0
ARC
5
ae4
100
AcDbEntity
8
8-0
6
CONTINUOUS
62
7
100
AcDbCircle
10
1414.550000000000
20
1535.420000000000
30
0.0
40
0.599999943284
100
AcDbArc
50
360.000000000000
51
450.000000000000
0
ARC
5
ae5
100
AcDbEntity
8
8-0
6
CONTINUOUS
62
7
100
AcDbCircle
10
1414.550000000000
20
1535.420000000000
30
0.0
40
1.199999886567
100
AcDbArc
50
360.000000000000
51
450.000000000000
0
ARC
5
ae6
100
AcDbEntity
8
8-0
6
CONTINUOUS
62
7
100
AcDbCircle
10
1374.150000000000
20
1506.820000000000
30
0.0
40
17.506799190368
100
AcDbArc
50
325.959320068359
51
363.930480957031
0
ARC
5
ae7
100
AcDbEntity
8
8-0
6
CONTINUOUS
62
7
100
AcDbCircle
10
108.660000000000
20
2063.050000000000
30
0.0
40
1.499999926616
100
AcDbArc
50
243.325683593750
51
423.325683593750
0
ARC
5
ae8
100
AcDbEntity
8
8-0
6
CONTINUOUS
62
7
100
AcDbCircle
10
108.660000000000
20
2063.050000000000
30
0.0
40
0.499999986940
100
AcDbArc
50
243.324005126953
51
423.324005126953
0
ARC
5
ae9
100
AcDbEntity
8
8-0
6
CONTINUOUS
62
7
100
AcDbCircle
10
559.440000000000
20
2086.160000000000
30
0.0
40
1.499999926616
100
AcDbArc
50
260.757034301758
51
440.757034301758
0
ARC
5
aea
100
AcDbEntity
8
8-0
6
CONTINUOUS
62
7
100
AcDbCircle
10
468.040000000000
20
2099.540000000000
30
0.0
40
1.999999947760
100
AcDbArc
50
78.828491210938
51
238.717086791992
0
ARC
5
aeb
100
AcDbEntity
8
8-0
6
CONTINUOUS
62
7
100
AcDbCircle
10
468.040000000000
20
2099.540000000000
30
0.0
40
0.999999973880
100
AcDbArc
50
78.828491210938
51
238.717086791992
0
ARC
5
aec
100
AcDbEntity
8
8-0
6
CONTINUOUS
62
7
100
AcDbCircle
10
497.010000000000
20
2083.140000000000
30
0.0
40
0.999999973880
100
AcDbArc
50
270.412582397461
51
418.726516723633
0
ARC
5
aed
100
AcDbEntity
8
8-0
6
CONTINUOUS
62
7
100
AcDbCircle
10
497.010000000000
20
2083.140000000000
30
0.0
40
1.999999947760
100
AcDbArc
50
272.395782470703
51
420.755630493164
0
ARC
5
aee
100
AcDbEntity
8
8-0
6
CONTINUOUS
62
7
100
AcDbCircle
10
512.080000000000
20
2092.940000000000
30
0.0
40
0.567599973162
100
AcDbArc
50
355.663345336914
51
521.990036010742
0
ARC
5
aef
100
AcDbEntity
8
8-0
6
CONTINUOUS
62
7
100
AcDbCircle
10
509.740000000000
20
2093.980000000000
30
0.0
40
1.999999947760
100
AcDbArc
50
258.315460205078
51
334.351242065430
0
ARC
5
af0
100
AcDbEntity
8
8-0
6
CONTINUOUS
62
7
100
AcDbCircle
10
512.080000000000
20
2092.940000000000
30
0.0
40
1.567599981245
100
AcDbArc
50
1.617614746094
51
156.038284301758
0
ARC
5
af1
100
AcDbEntity
8
8-0
6
CONTINUOUS
62
7
100
AcDbCircle
10
509.740000000000
20
2093.980000000000
30
0.0
40
0.999999973880
100
AcDbArc
50
258.315368652344
51
336.036346435547
0
ARC
5
af2
100
AcDbEntity
8
8-0
6
CONTINUOUS
62
7
100
AcDbCircle
10
559.440000000000
20
2086.160000000000
30
0.0
40
0.499999986940
100
AcDbArc
50
260.757034301758
51
440.757034301758
0
ARC
5
af3
100
AcDbEntity
8
8-0
6
CONTINUOUS
62
7
100
AcDbCircle
10
514.640000000000
20
2093.010000000000
30
0.0
40
1.999999947760
100
AcDbArc
50
183.305648803711
51
259.761108398438
0
ARC
5
af4
100
AcDbEntity
8
8-0
6
CONTINUOUS
62
7
100
AcDbCircle
10
514.640000000000
20
2093.010000000000
30
0.0
40
0.999999973880
100
AcDbArc
50
181.619537353516
51
258.836746215820
0
ARC
5
af5
100
AcDbEntity
8
8-0
6
CONTINUOUS
62
7
100
AcDbCircle
10
88.640000000000
20
2078.140000000000
30
0.0
40
2.999999853232
100
AcDbArc
50
90.414093017578
51
241.042816162109
0
ARC
5
af6
100
AcDbEntity
8
8-0
6
CONTINUOUS
62
7
100
AcDbCircle
10
88.640000000000
20
2078.140000000000
30
0.0
40
3.999999895519
100
AcDbArc
50
90.413162231445
51
241.355895996094
0
ARC
5
af7
100
AcDbEntity
8
8-0
6
CONTINUOUS
62
7
100
AcDbCircle
10
349.120000000000
20
1942.880000000000
30
0.0
40
1.499999926616
100
AcDbArc
50
274.229064941406
51
454.229064941406
0
ARC
5
af8
100
AcDbEntity
8
8-0
6
CONTINUOUS
62
7
100
AcDbCircle
10
257.120000000000
20
1934.590000000000
30
0.0
40
1.999999947760
100
AcDbArc
50
92.300521850586
51
252.189117431641
0
ARC
5
af9
100
AcDbEntity
8
8-0
6
CONTINUOUS
62
7
100
AcDbCircle
10
257.120000000000
20
1934.590000000000
30
0.0
40
0.999999973880
100
AcDbArc
50
92.300521850586
51
252.189117431641
0
ARC
5
afa
100
AcDbEntity
8
8-0
6
CONTINUOUS
62
7
100
AcDbCircle
10
289.110000000000
20
1925.400000000000
30
0.0
40
0.999999973880
100
AcDbArc
50
283.884613037109
51
432.198547363281
0
ARC
5
afb
100
AcDbEntity
8
8-0
6
CONTINUOUS
62
7
100
AcDbCircle
10
289.110000000000
20
1925.400000000000
30
0.0
40
1.999999947760
100
AcDbArc
50
285.867813110352
51
434.227661132813
0
ARC
5
afc
100
AcDbEntity
8
8-0
6
CONTINUOUS
62
7
100
AcDbCircle
10
301.480000000000
20
1938.430000000000
30
0.0
40
0.567599973162
100
AcDbArc
50
9.135375976563
51
175.462066650391
0
ARC
5
afd
100
AcDbEntity
8
8-0
6
CONTINUOUS
62
7
100
AcDbCircle
10
298.960000000000
20
1938.900000000000
30
0.0
40
1.999999947760
100
AcDbArc
50
271.787490844727
51
347.823272705078
0
ARC
5
afe
100
AcDbEntity
8
8-0
6
CONTINUOUS
62
7
100
AcDbCircle
10
301.480000000000
20
1938.430000000000
30
0.0
40
1.567599981245
100
AcDbArc
50
15.089645385742
51
169.510314941406
0
ARC
5
aff
100
AcDbEntity
8
8-0
6
CONTINUOUS
62
7
100
AcDbCircle
10
298.960000000000
20
1938.900000000000
30
0.0
40
0.999999973880
100
AcDbArc
50
271.787399291992
51
349.508377075195
0
ARC
5
b00
100
AcDbEntity
8
8-0
6
CONTINUOUS
62
7
100
AcDbCircle
10
349.120000000000
20
1942.880000000000
30
0.0
40
0.499999986940
100
AcDbArc
50
274.229064941406
51
454.229064941406
0
ARC
5
b01
100
AcDbEntity
8
8-0
6
CONTINUOUS
62
7
100
AcDbCircle
10
303.960000000000
20
1939.100000000000
30
0.0
40
1.999999947760
100
AcDbArc
50
196.777679443359
51
273.233139038086
0
ARC
5
b02
100
AcDbEntity
8
8-0
6
CONTINUOUS
62
7
100
AcDbCircle
10
303.960000000000
20
1939.100000000000
30
0.0
40
0.999999973880
100
AcDbArc
50
195.091567993164
51
272.308776855469
0
ARC
5
b03
100
AcDbEntity
8
8-0
6
CONTINUOUS
62
7
100
AcDbCircle
10
280.100000000000
20
1924.580000000000
30
0.0
40
1.499999926616
100
AcDbArc
50
256.797714233398
51
436.797714233398
0
ARC
5
b04
100
AcDbEntity
8
8-0
6
CONTINUOUS
62
7
100
AcDbCircle
10
280.100000000000
20
1924.580000000000
30
0.0
40
0.499999986940
100
AcDbArc
50
256.796035766602
51
436.796035766602
0
ARC
5
b05
100
AcDbEntity
8
8-0
6
CONTINUOUS
62
7
100
AcDbCircle
10
257.120000000000
20
1934.590000000000
30
0.0
40
3.999999895519
100
AcDbArc
50
103.885192871094
51
252.189117431641
0
ARC
5
b06
100
AcDbEntity
8
8-0
6
CONTINUOUS
62
7
100
AcDbCircle
10
257.120000000000
20
1934.590000000000
30
0.0
40
2.999999853232
100
AcDbArc
50
103.886123657227
51
252.189117431641
0
CIRCLE
5
b07
100
AcDbEntity
8
8-0
6
DASHED
62
7
100
AcDbCircle
10
304.480000000000
20
1912.270000000000
30
0.0
40
91.497593607863
0
ARC
5
b08
100
AcDbEntity
8
8-0
6
CONTINUOUS
62
7
100
AcDbCircle
10
711.080000000000
20
1645.120000000000
30
0.0
40
1.999999947760
100
AcDbArc
50
270.000000000000
51
430.344070434570
0
ARC
5
b09
100
AcDbEntity
8
8-0
6
CONTINUOUS
62
7
100
AcDbCircle
10
711.080000000000
20
1645.120000000000
30
0.0
40
0.999999973880
100
AcDbArc
50
270.000000000000
51
425.170639038086
0
ARC
5
b0a
100
AcDbEntity
8
8-0
6
CONTINUOUS
62
7
100
AcDbCircle
10
687.080000000000
20
1651.120000000000
30
0.0
40
0.999999973880
100
AcDbArc
50
90.000000000000
51
250.351715087891
0
ARC
5
b0b
100
AcDbEntity
8
8-0
6
CONTINUOUS
62
7
100
AcDbCircle
10
687.080000000000
20
1651.120000000000
30
0.0
40
1.999999947760
100
AcDbArc
50
90.000000000000
51
254.001083374023
0
ARC
5
b0c
100
AcDbEntity
8
8-0
6
CONTINUOUS
62
7
100
AcDbCircle
10
791.580000000000
20
1648.620000000000
30
0.0
40
1.499999926616
100
AcDbArc
50
270.000000000000
51
450.000000000000
0
ARC
5
b0d
100
AcDbEntity
8
8-0
6
CONTINUOUS
62
7
100
AcDbCircle
10
791.580000000000
20
1648.620000000000
30
0.0
40
0.499999986940
100
AcDbArc
50
270.000000000000
51
450.000000000000
0
ARC
5
b0e
100
AcDbEntity
8
8-0
6
DOT
62
7
100
AcDbCircle
10
686.920000000000
20
1650.670000000000
30
0.0
40
3.453199868128
100
AcDbArc
50
87.894912719727
51
264.250640869141
0
ARC
5
b0f
100
AcDbEntity
8
8-0
6
DOT
62
7
100
AcDbCircle
10
686.920000000000
20
1650.670000000000
30
0.0
40
4.453199910415
100
AcDbArc
50
87.894912719727
51
264.479827880859
0
ARC
5
b10
100
AcDbEntity
8
8-0
6
CONTINUOUS
62
7
100
AcDbCircle
10
961.380000000000
20
1645.120000000000
30
0.0
40
1.999999947760
100
AcDbArc
50
270.000000000000
51
430.344070434570
0
ARC
5
b11
100
AcDbEntity
8
8-0
6
CONTINUOUS
62
7
100
AcDbCircle
10
961.380000000000
20
1645.120000000000
30
0.0
40
0.999999973880
100
AcDbArc
50
270.000000000000
51
425.170639038086
0
ARC
5
b12
100
AcDbEntity
8
8-0
6
CONTINUOUS
62
7
100
AcDbCircle
10
937.380000000000
20
1651.120000000000
30
0.0
40
0.999999973880
100
AcDbArc
50
90.000000000000
51
250.351715087891
0
ARC
5
b13
100
AcDbEntity
8
8-0
6
CONTINUOUS
62
7
100
AcDbCircle
10
937.380000000000
20
1651.120000000000
30
0.0
40
1.999999947760
100
AcDbArc
50
90.000000000000
51
254.001083374023
0
CIRCLE
5
b14
100
AcDbEntity
8
8-0
6
CONTINUOUS
62
3
100
AcDbCircle
10
79.720000000000
20
1227.100000000000
30
0.0
40
11.313800165013
0
CIRCLE
5
b15
100
AcDbEntity
8
8-0
6
CONTINUOUS
62
3
100
AcDbCircle
10
79.720000000000
20
1227.100000000000
30
0.0
40
12.913798919253
0
CIRCLE
5
b16
100
AcDbEntity
8
8-0
6
CONTINUOUS
62
4
100
AcDbCircle
10
79.720000000000
20
1227.100000000000
30
0.0
40
11.473799821534
0
CIRCLE
5
b17
100
AcDbEntity
8
8-0
6
CONTINUOUS
62
4
100
AcDbCircle
10
79.720000000000
20
1227.100000000000
30
0.0
40
11.793799134576
0
CIRCLE
5
b18
100
AcDbEntity
8
8-0
6
CONTINUOUS
62
4
100
AcDbCircle
10
79.720000000000
20
1227.100000000000
30
0.0
40
12.113799542133
0
CIRCLE
5
b19
100
AcDbEntity
8
8-0
6
CONTINUOUS
62
4
100
AcDbCircle
10
79.720000000000
20
1227.100000000000
30
0.0
40
12.433799949691
0
CIRCLE
5
b1a
100
AcDbEntity
8
8-0
6
CONTINUOUS
62
4
100
AcDbCircle
10
79.720000000000
20
1227.100000000000
30
0.0
40
12.753799262733
0
TEXT
5
b1b
100
AcDbEntity
8
0-000
62
7
100
AcDbText
10
531.856
20
74.854
30
0.0
40
5.850
1
変　　　　　　更　　　　　　記　　　　　　事
41
1.167
50
0.000
100
AcDbText
0
TEXT
5
b1c
100
AcDbEntity
8
0-000
62
7
100
AcDbText
10
815.591
20
74.054
30
0.0
40
5.850
1
受領　　日附
41
1.167
50
0.000
100
AcDbText
0
TEXT
5
b1d
100
AcDbEntity
8
0-000
62
7
100
AcDbText
10
1013.808
20
44.622
30
0.0
40
5.850
1
施工者
41
1.167
50
0.000
100
AcDbText
0
TEXT
5
b1e
100
AcDbEntity
8
0-000
62
7
100
AcDbText
10
1013.808
20
74.252
30
0.0
40
5.850
1
設計者
41
1.167
50
0.000
100
AcDbText
0
TEXT
5
b1f
100
AcDbEntity
8
0-000
62
7
100
AcDbText
10
1219.291
20
44.079
30
0.0
40
5.850
1
作図
41
1.167
50
0.000
100
AcDbText
0
TEXT
5
b20
100
AcDbEntity
8
0-000
62
7
100
AcDbText
10
1291.118
20
44.610
30
0.0
40
5.850
1
図面名
41
1.167
50
0.000
100
AcDbText
0
TEXT
5
b21
100
AcDbEntity
8
0-000
62
7
100
AcDbText
10
1219.291
20
73.709
30
0.0
40
5.850
1
日附
41
1.167
50
0.000
100
AcDbText
0
TEXT
5
b22
100
AcDbEntity
8
0-000
62
7
100
AcDbText
10
1291.118
20
74.239
30
0.0
40
5.850
1
工事件名
41
1.167
50
0.000
100
AcDbText
0
TEXT
5
b23
100
AcDbEntity
8
0-000
62
7
100
AcDbText
10
1241.427
20
73.457
30
0.0
40
5.850
1
年　月　日
41
1.167
50
0.000
100
AcDbText
0
TEXT
5
b24
100
AcDbEntity
8
0-000
62
7
100
AcDbText
10
1241.427
20
43.827
30
0.0
40
5.850
1
年　月　日
41
1.167
50
0.000
100
AcDbText
0
TEXT
5
b25
100
AcDbEntity
8
0-000
62
7
100
AcDbText
10
1543.461
20
74.239
30
0.0
40
5.850
1
設計番号
41
1.167
50
0.000
100
AcDbText
0
TEXT
5
b26
100
AcDbEntity
8
0-000
62
7
100
AcDbText
10
1543.461
20
44.610
30
0.0
40
5.850
1
縮　尺
41
1.167
50
0.000
100
AcDbText
0
TEXT
5
b27
100
AcDbEntity
8
0-000
62
7
100
AcDbText
10
386.778
20
67.470
30
0.0
40
5.850
1
. 　.　 
41
1.167
50
0.000
100
AcDbText
0
TEXT
5
b28
100
AcDbEntity
8
0-000
62
7
100
AcDbText
10
386.778
20
57.593
30
0.0
40
5.850
1
. 　.　 
41
1.167
50
0.000
100
AcDbText
0
TEXT
5
b29
100
AcDbEntity
8
0-000
62
7
100
AcDbText
10
386.778
20
47.717
30
0.0
40
5.850
1
. 　.　 
41
1.167
50
0.000
100
AcDbText
0
TEXT
5
b2a
100
AcDbEntity
8
0-000
62
7
100
AcDbText
10
386.778
20
37.840
30
0.0
40
5.850
1
. 　.　 
41
1.167
50
0.000
100
AcDbText
0
TEXT
5
b2b
100
AcDbEntity
8
0-000
62
7
100
AcDbText
10
386.778
20
27.963
30
0.0
40
5.850
1
. 　.　 
41
1.167
50
0.000
100
AcDbText
0
TEXT
5
b2c
100
AcDbEntity
8
0-000
62
3
100
AcDbText
10
1034.071
20
61.176
30
0.0
40
7.800
1
　　　　　　　　　　
41
1.125
50
0.000
100
AcDbText
0
TEXT
5
b2d
100
AcDbEntity
8
0-000
62
3
100
AcDbText
10
1034.071
20
31.546
30
0.0
40
7.800
1
　　　　　　　　　　
41
1.125
50
0.000
100
AcDbText
0
TEXT
5
b2e
100
AcDbEntity
8
0-000
62
3
100
AcDbText
10
1317.534
20
62.723
30
0.0
40
7.800
1
　　　　　　　　　　　　　
41
1.125
50
0.000
100
AcDbText
0
TEXT
5
b2f
100
AcDbEntity
8
0-000
62
7
100
AcDbText
10
377.806
20
74.789
30
0.0
40
5.850
1
年　月　日
41
1.167
50
0.000
100
AcDbText
0
TEXT
5
b30
100
AcDbEntity
8
0-000
62
7
100
AcDbText
10
872.762
20
73.470
30
0.0
40
5.850
1
年　　月　　日
41
1.167
50
0.000
100
AcDbText
0
TEXT
5
b31
100
AcDbEntity
8
0-000
62
7
100
AcDbText
10
885.314
20
63.047
30
0.0
40
5.850
1
.　 　.
41
1.167
50
0.000
100
AcDbText
0
TEXT
5
b32
100
AcDbEntity
8
0-000
62
7
100
AcDbText
10
815.591
20
44.425
30
0.0
40
5.850
1
受領　　日附
41
1.167
50
0.000
100
AcDbText
0
TEXT
5
b33
100
AcDbEntity
8
0-000
62
7
100
AcDbText
10
872.762
20
43.840
30
0.0
40
5.850
1
年　　月　　日
41
1.167
50
0.000
100
AcDbText
0
TEXT
5
b34
100
AcDbEntity
8
0-000
62
7
100
AcDbText
10
885.314
20
33.417
30
0.0
40
5.850
1
.　 　.
41
1.167
50
0.000
100
AcDbText
0
TEXT
5
b35
100
AcDbEntity
8
0-000
62
7
100
AcDbText
10
1248.199
20
61.334
30
0.0
40
5.850
1
.　　.　
41
1.167
50
0.000
100
AcDbText
0
TEXT
5
b36
100
AcDbEntity
8
0-000
62
2
100
AcDbText
10
552.077
20
970.441
30
0.0
40
11.700
1
5
41
1.167
50
0.000
100
AcDbText
0
TEXT
5
b37
100
AcDbEntity
8
0-000
62
2
100
AcDbText
10
505.576
20
992.941
30
0.0
40
11.700
1
47
41
1.167
50
0.000
100
AcDbText
0
TEXT
5
b38
100
AcDbEntity
8
0-000
62
2
100
AcDbText
10
481.576
20
970.441
30
0.0
40
11.700
1
22
41
1.167
50
0.000
100
AcDbText
0
TEXT
5
b39
100
AcDbEntity
8
0-000
62
2
100
AcDbText
10
78.795
20
892.870
30
0.0
40
11.700
1
16
41
1.167
50
333.326
100
AcDbText
0
TEXT
5
b3a
100
AcDbEntity
8
0-000
62
2
100
AcDbText
10
458.372
20
900.013
30
0.0
40
11.700
1
17
41
1.167
50
335.625
100
AcDbText
0
TEXT
5
b3b
100
AcDbEntity
8
0-000
62
2
100
AcDbText
10
182.077
20
992.941
30
0.0
40
11.700
1
働き巾 190（182及び220も可）
41
1.167
50
0.000
100
AcDbText
0
TEXT
5
b3c
100
AcDbEntity
8
0-000
62
2
100
AcDbText
10
334.593
20
729.620
30
0.0
40
11.700
1
14
41
1.167
50
0.000
100
AcDbText
0
TEXT
5
b3d
100
AcDbEntity
8
0-000
62
2
100
AcDbText
10
374.593
20
714.620
30
0.0
40
11.700
1
54
41
1.167
50
0.000
100
AcDbText
0
TEXT
5
b3e
100
AcDbEntity
8
0-000
62
2
100
AcDbText
10
418.593
20
729.620
30
0.0
40
11.700
1
10
41
1.167
50
0.000
100
AcDbText
0
TEXT
5
b3f
100
AcDbEntity
8
0-000
62
2
100
AcDbText
10
109.774
20
1060.031
30
0.0
40
9.750
1
※ポリフォーム裏貼はオプション対応
41
1.100
50
0.000
100
AcDbText
0
TEXT
5
b40
100
AcDbEntity
8
0-000
62
2
100
AcDbText
10
330.403
20
790.588
30
0.0
40
9.750
1
※本体ジョイント部
41
1.100
50
0.000
100
AcDbText
0
TEXT
5
b41
100
AcDbEntity
8
0-000
62
2
100
AcDbText
10
220.600
20
368.967
30
0.0
40
11.700
1
625
41
1.167
50
0.000
100
AcDbText
0
TEXT
5
b42
100
AcDbEntity
8
0-000
62
2
100
AcDbText
10
470.600
20
368.967
30
0.0
40
11.700
1
625
41
1.167
50
0.000
100
AcDbText
0
TEXT
5
b43
100
AcDbEntity
8
0-000
62
3
100
AcDbText
10
68.200
20
254.517
30
0.0
40
7.800
1
190(182/220)
41
1.125
50
90.000
100
AcDbText
0
TEXT
5
b44
100
AcDbEntity
8
0-000
62
3
100
AcDbText
10
68.200
20
321.267
30
0.0
40
7.800
1
47
41
1.125
50
90.000
100
AcDbText
0
TEXT
5
b45
100
AcDbEntity
8
0-000
62
2
100
AcDbText
10
720.600
20
368.967
30
0.0
40
11.700
1
625
41
1.167
50
0.000
100
AcDbText
0
TEXT
5
b46
100
AcDbEntity
8
0-000
62
2
100
AcDbText
10
970.600
20
368.967
30
0.0
40
11.700
1
625
41
1.167
50
0.000
100
AcDbText
0
TEXT
5
b47
100
AcDbEntity
8
0-000
62
2
100
AcDbText
10
1220.600
20
368.967
30
0.0
40
11.700
1
625
41
1.167
50
0.000
100
AcDbText
0
TEXT
5
b48
100
AcDbEntity
8
0-000
62
2
100
AcDbText
10
1471.000
20
368.967
30
0.0
40
11.700
1
627
41
1.167
50
0.000
100
AcDbText
0
TEXT
5
b49
100
AcDbEntity
8
0-000
62
2
100
AcDbText
10
1609.200
20
368.967
30
0.0
40
11.700
1
54
41
1.167
50
0.000
100
AcDbText
0
TEXT
5
b4a
100
AcDbEntity
8
0-000
62
6
100
AcDbText
10
829.800
20
390.167
30
0.0
40
15.600
1
3,752
41
1.125
50
0.000
100
AcDbText
0
TEXT
5
b4b
100
AcDbEntity
8
0-000
62
6
100
AcDbText
10
1067.217
20
940.172
30
0.0
40
15.600
1
1,877
41
1.125
50
0.000
100
AcDbText
0
TEXT
5
b4c
100
AcDbEntity
8
0-000
62
3
100
AcDbText
10
683.617
20
805.722
30
0.0
40
7.800
1
190(182/220)
41
1.125
50
90.000
100
AcDbText
0
TEXT
5
b4d
100
AcDbEntity
8
0-000
62
3
100
AcDbText
10
683.617
20
872.472
30
0.0
40
7.800
1
47
41
1.125
50
90.000
100
AcDbText
0
TEXT
5
b4e
100
AcDbEntity
8
0-000
62
2
100
AcDbText
10
1474.617
20
920.172
30
0.0
40
11.700
1
54
41
1.167
50
0.000
100
AcDbText
0
TEXT
5
b4f
100
AcDbEntity
8
0-000
62
2
100
AcDbText
10
831.817
20
921.372
30
0.0
40
11.700
1
625
41
1.167
50
0.000
100
AcDbText
0
TEXT
5
b50
100
AcDbEntity
8
0-000
62
2
100
AcDbText
10
1081.817
20
921.372
30
0.0
40
11.700
1
625
41
1.167
50
0.000
100
AcDbText
0
TEXT
5
b51
100
AcDbEntity
8
0-000
62
2
100
AcDbText
10
1332.217
20
921.372
30
0.0
40
11.700
1
627
41
1.167
50
0.000
100
AcDbText
0
TEXT
5
b52
100
AcDbEntity
8
0-000
62
2
100
AcDbText
10
230.996
20
1117.957
30
0.0
40
9.750
1
ロイヤルライン　断面図
41
1.100
50
0.000
100
AcDbText
0
TEXT
5
b53
100
AcDbEntity
8
0-000
62
2
100
AcDbText
10
756.626
20
1117.957
30
0.0
40
9.750
1
ロイヤルライン　Ｌ＝１８７７　製品図
41
1.100
50
0.000
100
AcDbText
0
TEXT
5
b54
100
AcDbEntity
8
0-000
62
2
100
AcDbText
10
230.996
20
587.583
30
0.0
40
9.750
1
ロイヤルライン　Ｌ＝３７５２　製品図
41
1.100
50
0.000
100
AcDbText
0
TEXT
5
b55
100
AcDbEntity
8
0-000
62
7
100
AcDbText
10
1550.558
20
35.847
30
0.0
40
5.850
1
Ａ１－１／１・１／５
41
1.167
50
0.000
100
AcDbText
0
TEXT
5
b56
100
AcDbEntity
8
0-000
62
7
100
AcDbText
10
1550.558
20
25.847
30
0.0
40
5.850
1
Ａ３－１／２・１／１０
41
1.167
50
0.000
100
AcDbText
0
TEXT
5
b57
100
AcDbEntity
8
0-000
62
2
100
AcDbText
10
164.294
20
729.620
30
0.0
40
11.700
1
14
41
1.167
50
0.000
100
AcDbText
0
TEXT
5
b58
100
AcDbEntity
8
0-000
62
2
100
AcDbText
10
120.103
20
790.588
30
0.0
40
9.750
1
※本体アヤメハゼ部
41
1.100
50
0.000
100
AcDbText
0
TEXT
5
b59
100
AcDbEntity
8
0-000
62
3
100
AcDbText
10
1547.545
20
60.854
30
0.0
40
7.800
1
ＫＲ－ＲＬ－０１
41
1.125
50
0.000
100
AcDbText
0
TEXT
5
b5a
100
AcDbEntity
8
0-000
62
3
100
AcDbText
10
166.356
20
27.569
30
0.0
40
7.800
1
電話（０５４）２６３－２２８０（代表）
41
1.125
50
0.000
100
AcDbText
0
TEXT
5
b5b
100
AcDbEntity
8
0-000
62
6
100
AcDbText
10
122.146
20
58.763
30
0.0
40
15.600
1
小　池　弥　太　郎　商　店
41
1.125
50
0.000
100
AcDbText
0
TEXT
5
b5c
100
AcDbEntity
8
0-000
62
3
100
AcDbText
10
166.352
20
42.403
30
0.0
40
7.800
1
静岡県静岡市葵区流通センター１６番
41
1.125
50
0.000
100
AcDbText
0
TEXT
5
b5d
100
AcDbEntity
8
0-000
62
7
100
AcDbText
10
99.901
20
67.351
30
0.0
40
5.850
1
株
41
1.167
50
0.000
100
AcDbText
0
TEXT
5
b5e
100
AcDbEntity
8
0-000
62
7
100
AcDbText
10
107.051
20
60.101
30
0.0
40
5.850
1
社
41
1.167
50
0.000
100
AcDbText
0
TEXT
5
b5f
100
AcDbEntity
8
0-000
62
7
100
AcDbText
10
99.851
20
60.101
30
0.0
40
5.850
1
会
41
1.167
50
0.000
100
AcDbText
0
TEXT
5
b60
100
AcDbEntity
8
0-000
62
7
100
AcDbText
10
106.651
20
67.151
30
0.0
40
5.850
1
式
41
1.167
50
0.000
100
AcDbText
0
TEXT
5
b61
100
AcDbEntity
8
0-000
62
3
100
AcDbText
10
1317.534
20
33.093
30
0.0
40
7.800
1
ロイヤルライン　製品図
41
1.125
50
0.000
100
AcDbText
0
TEXT
5
b62
100
AcDbEntity
8
0-000
62
6
100
AcDbText
10
1245.872
20
817.242
30
0.0
40
15.600
1
雨水横走り防止シール充填
41
1.125
50
0.000
100
AcDbText
0
TEXT
5
b63
100
AcDbEntity
8
0-000
62
6
100
AcDbText
10
1245.872
20
839.242
30
0.0
40
15.600
1
※製品継ぎ施工時
41
1.125
50
0.000
100
AcDbText
0
TEXT
5
b64
100
AcDbEntity
8
8-0
62
2
100
AcDbText
10
902.384
20
2033.643
30
0.0
40
9.750
1
野地板材
41
1.100
50
0.000
100
AcDbText
0
TEXT
5
b65
100
AcDbEntity
8
8-0
62
2
100
AcDbText
10
698.029
20
1974.530
30
0.0
40
9.750
1
軒先唐草
41
1.100
50
0.000
100
AcDbText
0
TEXT
5
b66
100
AcDbEntity
8
8-0
62
2
100
AcDbText
10
781.994
20
1897.010
30
0.0
40
9.750
1
鼻隠し
41
1.100
50
0.000
100
AcDbText
0
TEXT
5
b67
100
AcDbEntity
8
8-0
62
2
100
AcDbText
10
914.124
20
1894.760
30
0.0
40
9.750
1
軒天
41
1.100
50
0.000
100
AcDbText
0
TEXT
5
b68
100
AcDbEntity
8
8-0
62
2
100
AcDbText
10
914.217
20
1458.965
30
0.0
40
9.750
1
野地板材
41
1.100
50
0.000
100
AcDbText
0
TEXT
5
b69
100
AcDbEntity
8
8-0
62
2
100
AcDbText
10
676.434
20
1435.682
30
0.0
40
9.750
1
けらば唐草
41
1.100
50
0.000
100
AcDbText
0
TEXT
5
b6a
100
AcDbEntity
8
8-0
62
2
100
AcDbText
10
732.270
20
1353.360
30
0.0
40
9.750
1
外壁材
41
1.100
50
0.000
100
AcDbText
0
TEXT
5
b6b
100
AcDbEntity
8
8-0
62
2
100
AcDbText
10
848.720
20
2153.887
30
0.0
40
9.750
1
アスファルトルーフィング９４０
41
1.100
50
0.000
100
AcDbText
0
TEXT
5
b6c
100
AcDbEntity
8
8-0
62
2
100
AcDbText
10
849.138
20
1428.885
30
0.0
40
9.750
1
アスファルトルーフィング９４０
41
1.100
50
360.000
100
AcDbText
0
TEXT
5
b6d
100
AcDbEntity
8
8-0
62
7
100
AcDbText
10
531.856
20
1234.860
30
0.0
40
5.850
1
変　　　　　　更　　　　　　記　　　　　　事
41
1.167
50
0.000
100
AcDbText
0
TEXT
5
b6e
100
AcDbEntity
8
8-0
62
7
100
AcDbText
10
815.591
20
1234.061
30
0.0
40
5.850
1
受領　　日附
41
1.167
50
0.000
100
AcDbText
0
TEXT
5
b6f
100
AcDbEntity
8
8-0
62
7
100
AcDbText
10
1013.808
20
1204.628
30
0.0
40
5.850
1
施工者
41
1.167
50
0.000
100
AcDbText
0
TEXT
5
b70
100
AcDbEntity
8
8-0
62
7
100
AcDbText
10
1013.808
20
1234.259
30
0.0
40
5.850
1
設計者
41
1.167
50
0.000
100
AcDbText
0
TEXT
5
b71
100
AcDbEntity
8
8-0
62
7
100
AcDbText
10
1219.291
20
1204.085
30
0.0
40
5.850
1
作図
41
1.167
50
0.000
100
AcDbText
0
TEXT
5
b72
100
AcDbEntity
8
8-0
62
7
100
AcDbText
10
1291.118
20
1204.616
30
0.0
40
5.850
1
図面名
41
1.167
50
0.000
100
AcDbText
0
TEXT
5
b73
100
AcDbEntity
8
8-0
62
7
100
AcDbText
10
1219.291
20
1233.715
30
0.0
40
5.850
1
日附
41
1.167
50
0.000
100
AcDbText
0
TEXT
5
b74
100
AcDbEntity
8
8-0
62
7
100
AcDbText
10
1291.118
20
1234.246
30
0.0
40
5.850
1
工事件名
41
1.167
50
0.000
100
AcDbText
0
TEXT
5
b75
100
AcDbEntity
8
8-0
62
7
100
AcDbText
10
1241.427
20
1233.463
30
0.0
40
5.850
1
年　月　日
41
1.167
50
0.000
100
AcDbText
0
TEXT
5
b76
100
AcDbEntity
8
8-0
62
7
100
AcDbText
10
1241.427
20
1203.834
30
0.0
40
5.850
1
年　月　日
41
1.167
50
0.000
100
AcDbText
0
TEXT
5
b77
100
AcDbEntity
8
8-0
62
7
100
AcDbText
10
1543.461
20
1234.246
30
0.0
40
5.850
1
設計番号
41
1.167
50
0.000
100
AcDbText
0
TEXT
5
b78
100
AcDbEntity
8
8-0
62
7
100
AcDbText
10
1543.461
20
1204.616
30
0.0
40
5.850
1
縮　尺
41
1.167
50
0.000
100
AcDbText
0
TEXT
5
b79
100
AcDbEntity
8
8-0
62
7
100
AcDbText
10
386.778
20
1227.477
30
0.0
40
5.850
1
. 　.　 
41
1.167
50
0.000
100
AcDbText
0
TEXT
5
b7a
100
AcDbEntity
8
8-0
62
7
100
AcDbText
10
386.778
20
1217.600
30
0.0
40
5.850
1
. 　.　 
41
1.167
50
0.000
100
AcDbText
0
TEXT
5
b7b
100
AcDbEntity
8
8-0
62
7
100
AcDbText
10
386.778
20
1207.724
30
0.0
40
5.850
1
. 　.　 
41
1.167
50
0.000
100
AcDbText
0
TEXT
5
b7c
100
AcDbEntity
8
8-0
62
7
100
AcDbText
10
386.778
20
1197.846
30
0.0
40
5.850
1
. 　.　 
41
1.167
50
0.000
100
AcDbText
0
TEXT
5
b7d
100
AcDbEntity
8
8-0
62
7
100
AcDbText
10
386.778
20
1187.970
30
0.0
40
5.850
1
. 　.　 
41
1.167
50
0.000
100
AcDbText
0
TEXT
5
b7e
100
AcDbEntity
8
8-0
62
3
100
AcDbText
10
1034.071
20
1221.182
30
0.0
40
7.800
1
　　　　　　　　　　
41
1.125
50
0.000
100
AcDbText
0
TEXT
5
b7f
100
AcDbEntity
8
8-0
62
3
100
AcDbText
10
1034.071
20
1191.552
30
0.0
40
7.800
1
　　　　　　　　　　
41
1.125
50
0.000
100
AcDbText
0
TEXT
5
b80
100
AcDbEntity
8
8-0
62
3
100
AcDbText
10
1317.534
20
1222.729
30
0.0
40
7.800
1
　　　　　　　　　　　　　
41
1.125
50
0.000
100
AcDbText
0
TEXT
5
b81
100
AcDbEntity
8
8-0
62
7
100
AcDbText
10
377.806
20
1234.795
30
0.0
40
5.850
1
年　月　日
41
1.167
50
0.000
100
AcDbText
0
TEXT
5
b82
100
AcDbEntity
8
8-0
62
7
100
AcDbText
10
872.762
20
1233.476
30
0.0
40
5.850
1
年　　月　　日
41
1.167
50
0.000
100
AcDbText
0
TEXT
5
b83
100
AcDbEntity
8
8-0
62
7
100
AcDbText
10
885.314
20
1223.054
30
0.0
40
5.850
1
.　 　.
41
1.167
50
0.000
100
AcDbText
0
TEXT
5
b84
100
AcDbEntity
8
8-0
62
7
100
AcDbText
10
815.591
20
1204.431
30
0.0
40
5.850
1
受領　　日附
41
1.167
50
0.000
100
AcDbText
0
TEXT
5
b85
100
AcDbEntity
8
8-0
62
7
100
AcDbText
10
872.762
20
1203.847
30
0.0
40
5.850
1
年　　月　　日
41
1.167
50
0.000
100
AcDbText
0
TEXT
5
b86
100
AcDbEntity
8
8-0
62
7
100
AcDbText
10
885.314
20
1193.424
30
0.0
40
5.850
1
.　 　.
41
1.167
50
0.000
100
AcDbText
0
TEXT
5
b87
100
AcDbEntity
8
8-0
62
7
100
AcDbText
10
1248.199
20
1221.340
30
0.0
40
5.850
1
.　　.　
41
1.167
50
0.000
100
AcDbText
0
TEXT
5
b88
100
AcDbEntity
8
8-0
62
2
100
AcDbText
10
778.032
20
2118.008
30
0.0
40
9.750
1
ロイヤルライン
41
1.100
50
0.000
100
AcDbText
0
TEXT
5
b89
100
AcDbEntity
8
8-0
62
2
100
AcDbText
10
756.626
20
2277.963
30
0.0
40
9.750
1
ロイヤルライン　軒先部納め図
41
1.100
50
0.000
100
AcDbText
0
TEXT
5
b8a
100
AcDbEntity
8
8-0
62
2
100
AcDbText
10
820.189
20
1529.801
30
0.0
40
9.750
1
ロイヤルライン
41
1.100
50
0.000
100
AcDbText
0
TEXT
5
b8b
100
AcDbEntity
8
8-0
62
2
100
AcDbText
10
756.626
20
1747.589
30
0.0
40
9.750
1
ロイヤルライン　けらば部納め図
41
1.100
50
0.000
100
AcDbText
0
TEXT
5
b8c
100
AcDbEntity
8
8-0
62
2
100
AcDbText
10
940.142
20
1519.653
30
0.0
40
11.700
1
14
41
1.167
50
0.000
100
AcDbText
0
TEXT
5
b8d
100
AcDbEntity
8
8-0
62
2
100
AcDbText
10
333.080
20
1589.391
30
0.0
40
9.750
1
アスファルトルーフィング９４０
41
1.100
50
0.000
100
AcDbText
0
TEXT
5
b8e
100
AcDbEntity
8
8-0
62
2
100
AcDbText
10
251.313
20
1599.788
30
0.0
40
9.750
1
棟　包　み
41
1.100
50
0.000
100
AcDbText
0
TEXT
5
b8f
100
AcDbEntity
8
8-0
62
2
100
AcDbText
10
192.870
20
1624.261
30
0.0
40
9.750
1
１５０内外
41
1.100
50
14.036
100
AcDbText
0
TEXT
5
b90
100
AcDbEntity
8
8-0
62
2
100
AcDbText
10
411.174
20
1637.358
30
0.0
40
9.750
1
１５０内外
41
1.100
50
345.964
100
AcDbText
0
TEXT
5
b91
100
AcDbEntity
8
8-0
62
2
100
AcDbText
10
185.486
20
1559.829
30
0.0
40
9.750
1
通し捨水切
41
1.100
50
0.000
100
AcDbText
0
TEXT
5
b92
100
AcDbEntity
8
8-0
62
2
100
AcDbText
10
473.396
20
1427.068
30
0.0
40
9.750
1
野地板材
41
1.100
50
0.000
100
AcDbText
0
TEXT
5
b93
100
AcDbEntity
8
8-0
62
2
100
AcDbText
10
263.049
20
1437.729
30
0.0
40
9.750
1
木下地防腐処理品（別途）
41
1.100
50
0.000
100
AcDbText
0
TEXT
5
b94
100
AcDbEntity
8
8-0
62
2
100
AcDbText
10
452.681
20
1551.135
30
0.0
40
9.750
1
通し唐草
41
1.100
50
0.000
100
AcDbText
0
TEXT
5
b95
100
AcDbEntity
8
8-0
62
2
100
AcDbText
10
112.007
20
1543.675
30
0.0
40
9.750
1
ロイヤルライン
41
1.100
50
0.000
100
AcDbText
0
TEXT
5
b96
100
AcDbEntity
8
8-0
62
2
100
AcDbText
10
230.996
20
1747.589
30
0.0
40
9.750
1
ロイヤルライン　棟部納め図
41
1.100
50
0.000
100
AcDbText
0
TEXT
5
b97
100
AcDbEntity
8
8-0
62
2
100
AcDbText
10
1396.833
20
2128.909
30
0.0
40
9.750
1
外壁材
41
1.100
50
0.000
100
AcDbText
0
TEXT
5
b98
100
AcDbEntity
8
8-0
62
2
100
AcDbText
10
1296.273
20
1918.778
30
0.0
40
9.750
1
野地板材
41
1.100
50
0.000
100
AcDbText
0
TEXT
5
b99
100
AcDbEntity
8
8-0
62
2
100
AcDbText
10
1383.312
20
1927.652
30
0.0
40
9.750
1
アスファルトルーフィング９４０
41
1.100
50
0.000
100
AcDbText
0
TEXT
5
b9a
100
AcDbEntity
8
8-0
62
2
100
AcDbText
10
1335.383
20
2093.408
30
0.0
40
9.750
1
壁取合雨押（水上）
41
1.100
50
0.000
100
AcDbText
0
TEXT
5
b9b
100
AcDbEntity
8
8-0
62
2
100
AcDbText
10
1318.785
20
2137.575
30
0.0
40
9.750
1
１５０内外
41
1.100
50
14.036
100
AcDbText
0
TEXT
5
b9c
100
AcDbEntity
8
8-0
62
2
100
AcDbText
10
1506.069
20
2009.756
30
0.0
40
9.750
1
１００内外
41
1.100
50
90.000
100
AcDbText
0
TEXT
5
b9d
100
AcDbEntity
8
8-0
62
2
100
AcDbText
10
1316.251
20
2053.739
30
0.0
40
9.750
1
通し捨水切
41
1.100
50
0.000
100
AcDbText
0
TEXT
5
b9e
100
AcDbEntity
8
8-0
62
2
100
AcDbText
10
1276.143
20
2072.478
30
0.0
40
9.750
1
木下地防腐処理品（別途）
41
1.100
50
0.000
100
AcDbText
0
TEXT
5
b9f
100
AcDbEntity
8
8-0
62
2
100
AcDbText
10
1274.758
20
2037.134
30
0.0
40
9.750
1
通し唐草
41
1.100
50
0.000
100
AcDbText
0
TEXT
5
ba0
100
AcDbEntity
8
8-0
62
2
100
AcDbText
10
1215.252
20
2017.105
30
0.0
40
9.750
1
ロイヤルライン
41
1.100
50
360.000
100
AcDbText
0
TEXT
5
ba1
100
AcDbEntity
8
8-0
62
2
100
AcDbText
10
1282.255
20
2277.963
30
0.0
40
9.750
1
ロイヤルライン　壁取合部（水上）納め図
41
1.100
50
0.000
100
AcDbText
0
TEXT
5
ba2
100
AcDbEntity
8
8-0
62
2
100
AcDbText
10
1412.515
20
1669.089
30
0.0
40
9.750
1
外壁材
41
1.100
50
0.000
100
AcDbText
0
TEXT
5
ba3
100
AcDbEntity
8
8-0
62
2
100
AcDbText
10
1344.059
20
1609.177
30
0.0
40
9.750
1
壁取合雨押（流れ）
41
1.100
50
0.000
100
AcDbText
0
TEXT
5
ba4
100
AcDbEntity
8
8-0
62
2
100
AcDbText
10
1228.791
20
1426.921
30
0.0
40
9.750
1
アスファルトルーフィング９４０
41
1.100
50
0.000
100
AcDbText
0
TEXT
5
ba5
100
AcDbEntity
8
8-0
62
2
100
AcDbText
10
1363.302
20
1453.948
30
0.0
40
9.750
1
野地板材
41
1.100
50
0.000
100
AcDbText
0
TEXT
5
ba6
100
AcDbEntity
8
8-0
62
2
100
AcDbText
10
1526.439
20
1500.869
30
0.0
40
9.750
1
１２０内外
41
1.100
50
90.000
100
AcDbText
0
TEXT
5
ba7
100
AcDbEntity
8
8-0
62
2
100
AcDbText
10
1288.145
20
1588.431
30
0.0
40
9.750
1
木下地防腐処理品（別途）
41
1.100
50
0.000
100
AcDbText
0
TEXT
5
ba8
100
AcDbEntity
8
8-0
62
2
100
AcDbText
10
1299.813
20
1533.637
30
0.0
40
9.750
1
通し捨板
41
1.100
50
0.000
100
AcDbText
0
TEXT
5
ba9
100
AcDbEntity
8
8-0
62
2
100
AcDbText
10
1310.582
20
1551.356
30
0.0
40
9.750
1
シール（別途）
41
1.100
50
0.000
100
AcDbText
0
TEXT
5
baa
100
AcDbEntity
8
8-0
62
2
100
AcDbText
10
1282.255
20
1747.589
30
0.0
40
9.750
1
ロイヤルライン　壁取合部（流れ）納め図
41
1.100
50
0.000
100
AcDbText
0
TEXT
5
bab
100
AcDbEntity
8
8-0
62
2
100
AcDbText
10
552.077
20
2130.448
30
0.0
40
11.700
1
5
41
1.167
50
0.003
100
AcDbText
0
TEXT
5
bac
100
AcDbEntity
8
8-0
62
2
100
AcDbText
10
505.576
20
2152.948
30
0.0
40
11.700
1
47
41
1.167
50
0.000
100
AcDbText
0
TEXT
5
bad
100
AcDbEntity
8
8-0
62
2
100
AcDbText
10
481.576
20
2130.448
30
0.0
40
11.700
1
22
41
1.167
50
0.001
100
AcDbText
0
TEXT
5
bae
100
AcDbEntity
8
8-0
62
2
100
AcDbText
10
78.795
20
2052.877
30
0.0
40
11.700
1
16
41
1.167
50
333.326
100
AcDbText
0
TEXT
5
baf
100
AcDbEntity
8
8-0
62
2
100
AcDbText
10
458.372
20
2060.020
30
0.0
40
11.700
1
17
41
1.167
50
335.625
100
AcDbText
0
TEXT
5
bb0
100
AcDbEntity
8
8-0
62
2
100
AcDbText
10
164.077
20
2152.948
30
0.0
40
11.700
1
働き巾 190（182及び220も可）
41
1.167
50
0.000
100
AcDbText
0
TEXT
5
bb1
100
AcDbEntity
8
8-0
62
2
100
AcDbText
10
690.583
20
1620.117
30
0.0
40
11.700
1
14
41
1.167
50
0.000
100
AcDbText
0
TEXT
5
bb2
100
AcDbEntity
8
8-0
62
2
100
AcDbText
10
730.583
20
1605.117
30
0.0
40
11.700
1
54
41
1.167
50
359.999
100
AcDbText
0
TEXT
5
bb3
100
AcDbEntity
8
8-0
62
2
100
AcDbText
10
774.583
20
1620.117
30
0.0
40
11.700
1
10
41
1.167
50
359.999
100
AcDbText
0
TEXT
5
bb4
100
AcDbEntity
8
8-0
62
2
100
AcDbText
10
109.774
20
2220.038
30
0.0
40
9.750
1
※ポリフォーム裏貼はオプション対応
41
1.100
50
0.000
100
AcDbText
0
TEXT
5
bb5
100
AcDbEntity
8
8-0
62
2
100
AcDbText
10
230.996
20
2277.963
30
0.0
40
9.750
1
ロイヤルライン　嵌合断面図
41
1.100
50
0.000
100
AcDbText
0
TEXT
5
bb6
100
AcDbEntity
8
8-0
62
2
100
AcDbText
10
686.393
20
1681.085
30
0.0
40
9.750
1
※本体ジョイント部
41
1.100
50
0.000
100
AcDbText
0
TEXT
5
bb7
100
AcDbEntity
8
8-0
62
2
100
AcDbText
10
940.883
20
1620.117
30
0.0
40
11.700
1
14
41
1.167
50
0.000
100
AcDbText
0
TEXT
5
bb8
100
AcDbEntity
8
8-0
62
2
100
AcDbText
10
896.692
20
1681.085
30
0.0
40
9.750
1
※本体アヤメハゼ部
41
1.100
50
0.000
100
AcDbText
0
TEXT
5
bb9
100
AcDbEntity
8
8-0
62
7
100
AcDbText
10
1550.558
20
1185.854
30
0.0
40
5.850
1
Ａ３－１／２・１／４
41
1.167
50
0.000
100
AcDbText
0
TEXT
5
bba
100
AcDbEntity
8
8-0
62
7
100
AcDbText
10
1550.558
20
1195.854
30
0.0
40
5.850
1
Ａ１－１／１・１／２
41
1.167
50
0.000
100
AcDbText
0
TEXT
5
bbb
100
AcDbEntity
8
8-0
62
3
100
AcDbText
10
1547.545
20
1220.861
30
0.0
40
7.800
1
ＫＲ－ＲＬ－０２
41
1.125
50
0.000
100
AcDbText
0
TEXT
5
bbc
100
AcDbEntity
8
8-0
62
2
100
AcDbText
10
1194.380
20
1552.481
30
0.0
40
9.750
1
ロイヤルライン
41
1.100
50
0.000
100
AcDbText
0
TEXT
5
bbd
100
AcDbEntity
8
8-0
62
3
100
AcDbText
10
166.356
20
1187.576
30
0.0
40
7.800
1
電話（０５４）２６３－２２８０（代表）
41
1.125
50
0.000
100
AcDbText
0
TEXT
5
bbe
100
AcDbEntity
8
8-0
62
6
100
AcDbText
10
122.146
20
1218.770
30
0.0
40
15.600
1
小　池　弥　太　郎　商　店
41
1.125
50
0.000
100
AcDbText
0
TEXT
5
bbf
100
AcDbEntity
8
8-0
62
3
100
AcDbText
10
166.352
20
1202.409
30
0.0
40
7.800
1
静岡県静岡市葵区流通センター１６番
41
1.125
50
0.000
100
AcDbText
0
TEXT
5
bc0
100
AcDbEntity
8
8-0
62
7
100
AcDbText
10
99.901
20
1227.358
30
0.0
40
5.850
1
株
41
1.167
50
0.000
100
AcDbText
0
TEXT
5
bc1
100
AcDbEntity
8
8-0
62
7
100
AcDbText
10
107.051
20
1220.108
30
0.0
40
5.850
1
社
41
1.167
50
0.000
100
AcDbText
0
TEXT
5
bc2
100
AcDbEntity
8
8-0
62
7
100
AcDbText
10
99.851
20
1220.108
30
0.0
40
5.850
1
会
41
1.167
50
0.000
100
AcDbText
0
TEXT
5
bc3
100
AcDbEntity
8
8-0
62
7
100
AcDbText
10
106.651
20
1227.158
30
0.0
40
5.850
1
式
41
1.167
50
0.000
100
AcDbText
0
TEXT
5
bc4
100
AcDbEntity
8
8-0
62
3
100
AcDbText
10
1317.534
20
1193.099
30
0.0
40
7.800
1
ロイヤルライン　参考納め図
41
1.125
50
0.000
100
AcDbText
0
TEXT
5
bc5
100
AcDbEntity
8
8-0
62
7
100
AcDbText
10
1222.482
20
1190.674
30
0.0
40
5.850
1
MA 2021-05-20
41
1.167
50
0.000
100
AcDbText
0
TEXT
5
bc6
100
AcDbEntity
8
0-000
62
7
100
AcDbText
10
1222.482
20
30.667
30
0.0
40
5.850
1
MA 2021-05-20
41
1.167
50
0.000
100
AcDbText
0
TEXT
5
bc7
100
AcDbEntity
8
0-000
62
6
100
AcDbText
10
1380.454
20
266.038
30
0.0
40
15.600
1
雨水横走り防止シール充填
41
1.125
50
0.000
100
AcDbText
0
TEXT
5
bc8
100
AcDbEntity
8
0-000
62
6
100
AcDbText
10
1380.454
20
288.037
30
0.0
40
15.600
1
※製品継ぎ施工時
41
1.125
50
0.000
100
AcDbText
0
POINT
5
bc9
100
AcDbEntity
8
0-000
62
3
100
AcDbPoint
10
54.760000000000
20
1143.640000000000
30
0.0
0
POINT
5
bca
100
AcDbEntity
8
0-000
62
3
100
AcDbPoint
10
54.760000000000
20
1143.640000000000
30
0.0
0
POINT
5
bcb
100
AcDbEntity
8
0-000
62
3
100
AcDbPoint
10
54.760000000000
20
1143.640000000000
30
0.0
0
POINT
5
bcc
100
AcDbEntity
8
0-000
62
3
100
AcDbPoint
10
467.080000000000
20
968.440000000000
30
0.0
0
POINT
5
bcd
100
AcDbEntity
8
0-000
62
3
100
AcDbPoint
10
513.080000000000
20
968.440000000000
30
0.0
0
POINT
5
bce
100
AcDbEntity
8
0-000
62
3
100
AcDbPoint
10
551.080000000000
20
968.440000000000
30
0.0
0
POINT
5
bcf
100
AcDbEntity
8
0-000
62
3
100
AcDbPoint
10
561.080000000000
20
968.440000000000
30
0.0
0
POINT
5
bd0
100
AcDbEntity
8
0-000
62
3
100
AcDbPoint
10
467.080000000000
20
990.940000000000
30
0.0
0
POINT
5
bd1
100
AcDbEntity
8
0-000
62
3
100
AcDbPoint
10
561.080000000000
20
990.940000000000
30
0.0
0
POINT
5
bd2
100
AcDbEntity
8
0-000
62
3
100
AcDbPoint
10
87.080000000000
20
990.940000000000
30
0.0
0
POINT
5
bd3
100
AcDbEntity
8
0-000
62
3
100
AcDbPoint
10
72.090000000000
20
894.000000000000
30
0.0
0
POINT
5
bd4
100
AcDbEntity
8
0-000
62
3
100
AcDbPoint
10
98.900000000000
20
880.530000000000
30
0.0
0
POINT
5
bd5
100
AcDbEntity
8
0-000
62
3
100
AcDbPoint
10
448.890000000000
20
902.110000000000
30
0.0
0
POINT
5
bd6
100
AcDbEntity
8
0-000
62
3
100
AcDbPoint
10
481.680000000000
20
887.250000000000
30
0.0
0
POINT
5
bd7
100
AcDbEntity
8
0-000
62
3
100
AcDbPoint
10
329.090000000000
20
712.620000000000
30
0.0
0
POINT
5
bd8
100
AcDbEntity
8
0-000
62
3
100
AcDbPoint
10
437.090000000000
20
712.620000000000
30
0.0
0
POINT
5
bd9
100
AcDbEntity
8
0-000
62
3
100
AcDbPoint
10
329.090000000000
20
727.620000000000
30
0.0
0
POINT
5
bda
100
AcDbEntity
8
0-000
62
3
100
AcDbPoint
10
357.090000000000
20
727.620000000000
30
0.0
0
POINT
5
bdb
100
AcDbEntity
8
0-000
62
3
100
AcDbPoint
10
417.090000000000
20
727.620000000000
30
0.0
0
POINT
5
bdc
100
AcDbEntity
8
0-000
62
3
100
AcDbPoint
10
437.090000000000
20
727.620000000000
30
0.0
0
POINT
5
bdd
100
AcDbEntity
8
0-000
62
3
100
AcDbPoint
10
101.400000000000
20
367.770000000000
30
0.0
0
POINT
5
bde
100
AcDbEntity
8
0-000
62
3
100
AcDbPoint
10
351.400000000000
20
367.770000000000
30
0.0
0
POINT
5
bdf
100
AcDbEntity
8
0-000
62
3
100
AcDbPoint
10
601.400000000000
20
367.770000000000
30
0.0
0
POINT
5
be0
100
AcDbEntity
8
0-000
62
3
100
AcDbPoint
10
101.400000000000
20
387.770000000000
30
0.0
0
POINT
5
be1
100
AcDbEntity
8
0-000
62
3
100
AcDbPoint
10
69.400000000000
20
240.970000000000
30
0.0
0
POINT
5
be2
100
AcDbEntity
8
0-000
62
3
100
AcDbPoint
10
69.400000000000
20
316.970000000000
30
0.0
0
POINT
5
be3
100
AcDbEntity
8
0-000
62
3
100
AcDbPoint
10
69.400000000000
20
335.770000000000
30
0.0
0
POINT
5
be4
100
AcDbEntity
8
0-000
62
3
100
AcDbPoint
10
601.400000000000
20
367.770000000000
30
0.0
0
POINT
5
be5
100
AcDbEntity
8
0-000
62
3
100
AcDbPoint
10
851.400000000000
20
367.770000000000
30
0.0
0
POINT
5
be6
100
AcDbEntity
8
0-000
62
3
100
AcDbPoint
10
851.400000000000
20
367.770000000000
30
0.0
0
POINT
5
be7
100
AcDbEntity
8
0-000
62
3
100
AcDbPoint
10
1101.400000000000
20
367.770000000000
30
0.0
0
POINT
5
be8
100
AcDbEntity
8
0-000
62
3
100
AcDbPoint
10
1101.400000000000
20
367.770000000000
30
0.0
0
POINT
5
be9
100
AcDbEntity
8
0-000
62
3
100
AcDbPoint
10
1351.400000000000
20
367.770000000000
30
0.0
0
POINT
5
bea
100
AcDbEntity
8
0-000
62
3
100
AcDbPoint
10
1602.200000000000
20
367.770000000000
30
0.0
0
POINT
5
beb
100
AcDbEntity
8
0-000
62
3
100
AcDbPoint
10
1623.800000000000
20
367.770000000000
30
0.0
0
POINT
5
bec
100
AcDbEntity
8
0-000
62
3
100
AcDbPoint
10
1602.200000000000
20
387.770000000000
30
0.0
0
POINT
5
bed
100
AcDbEntity
8
0-000
62
3
100
AcDbPoint
10
716.820000000000
20
918.970000000000
30
0.0
0
POINT
5
bee
100
AcDbEntity
8
0-000
62
3
100
AcDbPoint
10
966.820000000000
20
918.970000000000
30
0.0
0
POINT
5
bef
100
AcDbEntity
8
0-000
62
3
100
AcDbPoint
10
1216.820000000000
20
918.970000000000
30
0.0
0
POINT
5
bf0
100
AcDbEntity
8
0-000
62
3
100
AcDbPoint
10
1467.620000000000
20
918.970000000000
30
0.0
0
POINT
5
bf1
100
AcDbEntity
8
0-000
62
3
100
AcDbPoint
10
1489.220000000000
20
918.970000000000
30
0.0
0
POINT
5
bf2
100
AcDbEntity
8
0-000
62
3
100
AcDbPoint
10
716.820000000000
20
938.970000000000
30
0.0
0
POINT
5
bf3
100
AcDbEntity
8
0-000
62
3
100
AcDbPoint
10
1467.620000000000
20
938.970000000000
30
0.0
0
POINT
5
bf4
100
AcDbEntity
8
0-000
62
3
100
AcDbPoint
10
684.820000000000
20
792.170000000000
30
0.0
0
POINT
5
bf5
100
AcDbEntity
8
0-000
62
3
100
AcDbPoint
10
684.820000000000
20
868.170000000000
30
0.0
0
POINT
5
bf6
100
AcDbEntity
8
0-000
62
3
100
AcDbPoint
10
684.820000000000
20
886.970000000000
30
0.0
0
POINT
5
bf7
100
AcDbEntity
8
0-000
62
3
100
AcDbPoint
10
158.790000000000
20
727.620000000000
30
0.0
0
POINT
5
bf8
100
AcDbEntity
8
0-000
62
3
100
AcDbPoint
10
186.790000000000
20
727.620000000000
30
0.0
0
POINT
5
bf9
100
AcDbEntity
8
8-0
62
3
100
AcDbPoint
10
54.760000000000
20
2303.650000000000
30
0.0
0
POINT
5
bfa
100
AcDbEntity
8
8-0
62
3
100
AcDbPoint
10
54.760000000000
20
2303.650000000000
30
0.0
0
POINT
5
bfb
100
AcDbEntity
8
8-0
62
3
100
AcDbPoint
10
939.640000000000
20
1518.650000000000
30
0.0
0
POINT
5
bfc
100
AcDbEntity
8
8-0
62
3
100
AcDbPoint
10
953.640000000000
20
1518.650000000000
30
0.0
0
POINT
5
bfd
100
AcDbEntity
8
8-0
62
3
100
AcDbPoint
10
306.250000000000
20
1650.410000000000
30
0.0
0
POINT
5
bfe
100
AcDbEntity
8
8-0
62
3
100
AcDbPoint
10
152.050000000000
20
1611.860000000000
30
0.0
0
POINT
5
bff
100
AcDbEntity
8
8-0
62
3
100
AcDbPoint
10
350.180000000000
20
1650.410000000000
30
0.0
0
POINT
5
c00
100
AcDbEntity
8
8-0
62
3
100
AcDbPoint
10
504.380000000000
20
1611.860000000000
30
0.0
0
POINT
5
c01
100
AcDbEntity
8
8-0
62
3
100
AcDbPoint
10
1432.160000000000
20
2163.720000000000
30
0.0
0
POINT
5
c02
100
AcDbEntity
8
8-0
62
3
100
AcDbPoint
10
1277.970000000000
20
2125.170000000000
30
0.0
0
POINT
5
c03
100
AcDbEntity
8
8-0
62
3
100
AcDbPoint
10
1507.070000000000
20
2088.910000000000
30
0.0
0
POINT
5
c04
100
AcDbEntity
8
8-0
62
3
100
AcDbPoint
10
1507.070000000000
20
1985.510000000000
30
0.0
0
POINT
5
c05
100
AcDbEntity
8
8-0
62
3
100
AcDbPoint
10
1527.440000000000
20
1589.620000000000
30
0.0
0
POINT
5
c06
100
AcDbEntity
8
8-0
62
3
100
AcDbPoint
10
1527.440000000000
20
1468.620000000000
30
0.0
0
POINT
5
c07
100
AcDbEntity
8
8-0
62
3
100
AcDbPoint
10
467.080000000000
20
2128.450000000000
30
0.0
0
POINT
5
c08
100
AcDbEntity
8
8-0
62
3
100
AcDbPoint
10
513.080000000000
20
2128.450000000000
30
0.0
0
POINT
5
c09
100
AcDbEntity
8
8-0
62
3
100
AcDbPoint
10
551.080000000000
20
2128.450000000000
30
0.0
0
POINT
5
c0a
100
AcDbEntity
8
8-0
62
3
100
AcDbPoint
10
561.080000000000
20
2128.450000000000
30
0.0
0
POINT
5
c0b
100
AcDbEntity
8
8-0
62
3
100
AcDbPoint
10
467.080000000000
20
2150.950000000000
30
0.0
0
POINT
5
c0c
100
AcDbEntity
8
8-0
62
3
100
AcDbPoint
10
561.080000000000
20
2150.950000000000
30
0.0
0
POINT
5
c0d
100
AcDbEntity
8
8-0
62
3
100
AcDbPoint
10
87.080000000000
20
2150.950000000000
30
0.0
0
POINT
5
c0e
100
AcDbEntity
8
8-0
62
3
100
AcDbPoint
10
72.090000000000
20
2054.010000000000
30
0.0
0
POINT
5
c0f
100
AcDbEntity
8
8-0
62
3
100
AcDbPoint
10
98.900000000000
20
2040.540000000000
30
0.0
0
POINT
5
c10
100
AcDbEntity
8
8-0
62
3
100
AcDbPoint
10
448.890000000000
20
2062.120000000000
30
0.0
0
POINT
5
c11
100
AcDbEntity
8
8-0
62
3
100
AcDbPoint
10
481.680000000000
20
2047.260000000000
30
0.0
0
POINT
5
c12
100
AcDbEntity
8
8-0
62
3
100
AcDbPoint
10
685.080000000000
20
1603.120000000000
30
0.0
0
POINT
5
c13
100
AcDbEntity
8
8-0
62
3
100
AcDbPoint
10
793.080000000000
20
1603.120000000000
30
0.0
0
POINT
5
c14
100
AcDbEntity
8
8-0
62
3
100
AcDbPoint
10
685.080000000000
20
1618.120000000000
30
0.0
0
POINT
5
c15
100
AcDbEntity
8
8-0
62
3
100
AcDbPoint
10
713.080000000000
20
1618.120000000000
30
0.0
0
POINT
5
c16
100
AcDbEntity
8
8-0
62
3
100
AcDbPoint
10
773.080000000000
20
1618.120000000000
30
0.0
0
POINT
5
c17
100
AcDbEntity
8
8-0
62
3
100
AcDbPoint
10
793.080000000000
20
1618.120000000000
30
0.0
0
POINT
5
c18
100
AcDbEntity
8
8-0
62
3
100
AcDbPoint
10
935.380000000000
20
1618.120000000000
30
0.0
0
POINT
5
c19
100
AcDbEntity
8
8-0
62
3
100
AcDbPoint
10
963.380000000000
20
1618.120000000000
30
0.0
0
ENDSEC
0
EOF
